  0
SECTION
  2
HEADER
  9
$ACADVER
  1
AC1009
  9
$INSBASE
 10
0.0
 20
0.0
 30
0.0
  9
$EXTMIN
 10
269.1063726438515
 20
304.4257731134615
 30
-0.0000000000112498
  9
$EXTMAX
 10
1125.393374548169
 20
1014.592588000599
 30
0.0000000000002956
  9
$LIMMIN
 10
0.0
 20
0.0
  9
$LIMMAX
 10
1422.5
 20
925.0
  9
$ORTHOMODE
 70
     0
  9
$REGENMODE
 70
     1
  9
$FILLMODE
 70
     1
  9
$QTEXTMODE
 70
     0
  9
$MIRRTEXT
 70
     1
  9
$DRAGMODE
 70
     2
  9
$LTSCALE
 40
5.0
  9
$OSMODE
 70
   551
  9
$ATTMODE
 70
     1
  9
$TEXTSIZE
 40
2.5
  9
$TRACEWID
 40
1.0
  9
$TEXTSTYLE
  7
STANDARD
  9
$CLAYER
  8
AM_0
  9
$CELTYPE
  6
BYLAYER
  9
$CECOLOR
 62
   256
  9
$DIMSCALE
 40
1.0
  9
$DIMASZ
 40
2.5
  9
$DIMEXO
 40
1.0
  9
$DIMDLI
 40
8.0
  9
$DIMRND
 40
0.0
  9
$DIMDLE
 40
0.0
  9
$DIMEXE
 40
0.6
  9
$DIMTP
 40
0.1
  9
$DIMTM
 40
0.1
  9
$DIMTXT
 40
2.5
  9
$DIMCEN
 40
0.0
  9
$DIMTSZ
 40
0.0
  9
$DIMTOL
 70
     0
  9
$DIMLIM
 70
     0
  9
$DIMTIH
 70
     0
  9
$DIMTOH
 70
     0
  9
$DIMSE1
 70
     0
  9
$DIMSE2
 70
     0
  9
$DIMTAD
 70
     1
  9
$DIMZIN
 70
     8
  9
$DIMBLK
  1

  9
$DIMASO
 70
     1
  9
$DIMSHO
 70
     1
  9
$DIMPOST
  1

  9
$DIMAPOST
  1
"
  9
$DIMALT
 70
     0
  9
$DIMALTD
 70
     2
  9
$DIMALTF
 40
0.0393701
  9
$DIMLFAC
 40
1.0
  9
$DIMTOFL
 70
     1
  9
$DIMTVP
 40
0.0
  9
$DIMTIX
 70
     0
  9
$DIMSOXD
 70
     0
  9
$DIMSAH
 70
     0
  9
$DIMBLK1
  1

  9
$DIMBLK2
  1

  9
$DIMSTYLE
  2
AM_ISO
  9
$DIMCLRD
 70
   256
  9
$DIMCLRE
 70
   256
  9
$DIMCLRT
 70
     4
  9
$DIMTFAC
 40
0.71
  9
$DIMGAP
 40
0.8
  9
$LUNITS
 70
     2
  9
$LUPREC
 70
     2
  9
$SKETCHINC
 40
1.0
  9
$FILLETRAD
 40
25.0
  9
$AUNITS
 70
     0
  9
$AUPREC
 70
     0
  9
$MENU
  1
.
  9
$ELEVATION
 40
0.0
  9
$PELEVATION
 40
0.0
  9
$THICKNESS
 40
0.0
  9
$LIMCHECK
 70
     0
  9
$BLIPMODE
 70
     0
  9
$CHAMFERA
 40
10.0
  9
$CHAMFERB
 40
5.0
  9
$SKPOLY
 70
     0
  9
$TDCREATE
 40
2452065.773328993
  9
$TDUPDATE
 40
2458541.411623437
  9
$TDINDWG
 40
0.1042470949
  9
$TDUSRTIMER
 40
0.1042468981
  9
$USRTIMER
 70
     1
  9
$ANGBASE
 50
0.0
  9
$ANGDIR
 70
     0
  9
$PDMODE
 70
     0
  9
$PDSIZE
 40
0.0
  9
$PLINEWID
 40
0.0
  9
$COORDS
 70
     1
  9
$SPLFRAME
 70
     0
  9
$SPLINETYPE
 70
     6
  9
$SPLINESEGS
 70
     8
  9
$ATTDIA
 70
     1
  9
$ATTREQ
 70
     1
  9
$HANDLING
 70
     1
  9
$HANDSEED
  5
31E5
  9
$SURFTAB1
 70
     6
  9
$SURFTAB2
 70
     6
  9
$SURFTYPE
 70
     6
  9
$SURFU
 70
     6
  9
$SURFV
 70
     6
  9
$UCSNAME
  2

  9
$UCSORG
 10
0.0
 20
0.0
 30
0.0
  9
$UCSXDIR
 10
1.0
 20
0.0
 30
0.0
  9
$UCSYDIR
 10
0.0
 20
1.0
 30
0.0
  9
$PUCSNAME
  2

  9
$PUCSORG
 10
0.0
 20
0.0
 30
0.0
  9
$PUCSXDIR
 10
1.0
 20
0.0
 30
0.0
  9
$PUCSYDIR
 10
0.0
 20
1.0
 30
0.0
  9
$USERI1
 70
     0
  9
$USERI2
 70
     0
  9
$USERI3
 70
     0
  9
$USERI4
 70
     0
  9
$USERI5
 70
     0
  9
$USERR1
 40
0.0
  9
$USERR2
 40
0.0
  9
$USERR3
 40
0.0
  9
$USERR4
 40
0.0
  9
$USERR5
 40
0.0
  9
$WORLDVIEW
 70
     1
  9
$SHADEDGE
 70
     3
  9
$SHADEDIF
 70
    70
  9
$TILEMODE
 70
     1
  9
$MAXACTVP
 70
    64
  9
$PLIMCHECK
 70
     0
  9
$PEXTMIN
 10
1.0000000000000000E+020
 20
1.0000000000000000E+020
 30
1.0000000000000000E+020
  9
$PEXTMAX
 10
-1.0000000000000000E+020
 20
-1.0000000000000000E+020
 30
-1.0000000000000000E+020
  9
$PLIMMIN
 10
0.0
 20
0.0
  9
$PLIMMAX
 10
420.0
 20
297.0
  9
$UNITMODE
 70
     0
  9
$VISRETAIN
 70
     1
  9
$PLINEGEN
 70
     0
  9
$PSLTSCALE
 70
     1
  0
ENDSEC
  0
SECTION
  2
TABLES
  0
TABLE
  2
VPORT
 70
     1
  0
VPORT
  2
*ACTIVE
 70
     0
 10
0.0
 20
0.0
 11
1.0
 21
1.0
 12
697.24987359601016
 22
659.5091805570305
 13
0.0
 23
0.0
 14
12.5
 24
12.5
 15
50.0
 25
50.0
 16
0.0
 26
0.0
 36
1.0
 17
0.0
 27
0.0
 37
0.0
 40
715.04210194585994
 41
1.7571592210767459
 42
50.0
 43
0.0
 44
0.0
 50
0.0
 51
0.0
 71
     0
 72
   100
 73
     1
 74
     3
 75
     0
 76
     0
 77
     0
 78
     0
  0
ENDTAB
  0
TABLE
  2
LTYPE
 70
    26
  0
LTYPE
  2
CONTINUOUS
 70
     0
  3
Solid line
 72
    65
 73
     0
 40
0.0
  0
LTYPE
  2
AM_ISO02W050
 70
     0
  3
__ __ __ __ __ __ __ __ __ __ __ __ __ __ __
 72
    65
 73
     2
 40
7.5
 49
6.0
 49
-1.5
  0
LTYPE
  2
AM_ISO08W050
 70
     0
  3
____ . ____ . ____ . ____ . ____ . ____ . ____
 72
    65
 73
     4
 40
18.0
 49
12.0
 49
-1.5
 49
3.0
 49
-1.5
  0
LTYPE
  2
AM_ISO09W050
 70
     0
  3
_____ . . _____ . . _____ . . ____ .. ____
 72
    65
 73
     6
 40
22.5
 49
12.0
 49
-1.5
 49
3.0
 49
-1.5
 49
3.0
 49
-1.5
  0
LTYPE
  2
AMCONSTR
 70
     0
  3
_______________________
 72
    65
 73
     2
 40
9999.0
 49
9999.0
 49
0.0
  0
LTYPE
  2
AM_ISO08W050X2
 70
     0
  3
__ . __ . __ . __ . __ . __
 72
    65
 73
     4
 40
9.0
 49
6.0
 49
-0.75
 49
1.5
 49
-0.75
  0
LTYPE
  2
AM_ISO02W050X2
 70
     0
  3
 _ _ _ _ _ _ _ _ _ _ _ _
 72
    65
 73
     2
 40
3.75
 49
3.0
 49
-0.75
  0
LTYPE
  2
AMZIGZAG
 70
     0
  3
/\/-/\/-/\/-/\/-/\/-/\/
 72
    65
 73
     2
 40
11.000099999999991
 49
0.0001
 49
-11.0
  0
LTYPE
  2
ACISOWELD
 70
     0
  3
_ _ _ _ _
 72
    65
 73
     2
 40
2.0
 49
2.0
 49
-1.0
  0
LTYPE
  2
ACISOTGB
 70
     0
  3
__ . . __ . .
 72
    65
 73
     6
 40
9.0
 49
4.0
 49
-1.0
 49
1.0
 49
-1.0
 49
1.0
 49
-1.0
  0
LTYPE
  2
ACISOTGL
 70
     0
  3
_ _ _ _ _
 72
    65
 73
     2
 40
3.0
 49
2.0
 49
-1.0
  0
LTYPE
  2
CENTER
 70
     0
  3
__ . __
 72
    65
 73
     4
 40
7.0
 49
4.0
 49
-1.0
 49
1.0
 49
-1.0
  0
LTYPE
  2
PHANTOM2
 70
     0
  3
Phantom (.5x) ___ _ _ ___ _ _ ___ _ _ ___ _ _
 72
    65
 73
     6
 40
31.75
 49
15.875
 49
-3.174999999999998
 49
3.174999999999998
 49
-3.174999999999998
 49
3.174999999999998
 49
-3.174999999999998
  0
LTYPE
  2
ACANSTGBM
 70
     0
  3
__ . . __ . .
 72
    65
 73
     6
 40
9.0
 49
4.0
 49
-1.0
 49
1.0
 49
-1.0
 49
1.0
 49
-1.0
  0
LTYPE
  2
ACANSTGLM
 70
     0
  3
_ _ _ _ _
 72
    65
 73
     2
 40
3.0
 49
2.0
 49
-1.0
  0
LTYPE
  2
GEN7
 70
     0
  3
____ . ____ . ____ . ____ . ____ . ____ . ____
 72
    65
 73
     4
 40
14.25
 49
9.75
 49
-1.5
 49
1.5
 49
-1.5
  0
LTYPE
  2
GEN3B
 70
     0
  3
 - - - - -
 72
    65
 73
     2
 40
1.0
 49
0.5
 49
-0.5
  0
LTYPE
  2
ACJISTGB
 70
     0
  3
__ . . __ . .
 72
    65
 73
     6
 40
9.0
 49
4.0
 49
-1.0
 49
1.0
 49
-1.0
 49
1.0
 49
-1.0
  0
LTYPE
  2
ACJISTGL
 70
     0
  3
_ _ _ _ _
 72
    65
 73
     2
 40
3.0
 49
2.0
 49
-1.0
  0
LTYPE
  2
HIDDEN
 70
     0
  3
Hidden __ __ __ __ __ __ __ __ __ __ __ __ __ _
 72
    65
 73
     2
 40
0.375
 49
0.25
 49
-0.125
  0
LTYPE
  2
CENTER2
 70
     0
  3
Center (.5x) ___ _ ___ _ ___ _ ___ _ ___ _ ___
 72
    65
 73
     4
 40
1.125
 49
0.75
 49
-0.125
 49
0.125
 49
-0.125
  0
LTYPE
  2
HIDDEN2
 70
     0
  3
Hidden (.5x) _ _ _ _ _ _ _ _ _ _ _ _ _ _ _ _ _
 72
    65
 73
     2
 40
0.1875
 49
0.125
 49
-0.0625
  0
LTYPE
  2
AMZIGZAG2
 70
     0
  3
/\/-/\/-/\/-/\/-/\/-/\/
 72
    65
 73
     2
 40
0.4401
 49
0.0001
 49
-0.4400000000000002
  0
LTYPE
  2
ACANSTGB
 70
     0
  3
__ . . __ . .
 72
    65
 73
     6
 40
0.35433070866
 49
0.15748031496
 49
-0.03937007874
 49
0.03937007874
 49
-0.03937007874
 49
0.03937007874
 49
-0.03937007874
  0
LTYPE
  2
ACANSTGL
 70
     0
  3
_ _ _ _ _
 72
    65
 73
     2
 40
0.11811023622
 49
0.07874015748
 49
-0.03937007874
  0
ENDTAB
  0
TABLE
  2
LAYER
 70
     6
  0
LAYER
  2
0
 70
     0
 62
     7
  6
CONTINUOUS
  0
LAYER
  2
AM_0
 70
     0
 62
     7
  6
CONTINUOUS
  0
LAYER
  2
AM_5
 70
     0
 62
     2
  6
CONTINUOUS
  0
LAYER
  2
DEFPOINTS
 70
     0
 62
     7
  6
CONTINUOUS
  0
LAYER
  2
ｶｸﾚｾﾝ2
 70
     0
 62
     3
  6
GEN3B
  0
LAYER
  2
ﾁｭｳｼﾝｾﾝ
 70
     0
 62
     1
  6
GEN7
  0
ENDTAB
  0
TABLE
  2
STYLE
 70
     9
  0
STYLE
  2
STANDARD
 70
     0
 40
0.0
 41
0.8299999999999999
 50
0.0
 71
     0
 42
2.5
  3
txt.shx
  4
bigfont.shx
  0
STYLE
  2
ANNOTATIVE
 70
     0
 40
0.0
 41
1.0
 50
0.0
 71
     0
 42
0.2
  3
txt
  4

  0
STYLE
  2

 70
     1
 40
0.0
 41
1.0
 50
0.0
 71
     0
 42
2.5
  3
ltypeshp.shx
  4

  0
STYLE
  2
ACISOTS
 70
     0
 40
1.0
 41
1.0
 50
0.0
 71
     0
 42
2.5
  3
isocp.shx
  4
extfont.shx
  0
STYLE
  2
ACISOGDT
 70
     0
 40
0.0
 41
1.0
 50
0.0
 71
     0
 42
2.5
  3
amgdt.shx
  4

  0
STYLE
  2
ACANSTS
 70
     0
 40
1.0
 41
1.0
 50
0.0
 71
     0
 42
2.5
  3
romans.shx
  4
bigfont.shx
  0
STYLE
  2
ACANSGDT
 70
     0
 40
0.0
 41
1.0
 50
0.0
 71
     0
 42
2.5
  3
amgdt.shx
  4

  0
STYLE
  2
ACJISTS
 70
     0
 40
1.0
 41
1.0
 50
0.0
 71
     0
 42
2.5
  3
isocp.shx
  4
bigfont.shx
  0
STYLE
  2
ACJISGDT
 70
     0
 40
0.0
 41
1.0
 50
0.0
 71
     0
 42
2.5
  3
amgdt.shx
  4

  0
ENDTAB
  0
TABLE
  2
VIEW
 70
     6
  0
VIEW
  2
AM_VIEW1
 70
     0
 40
462.5
 10
416.07965009208078
 20
693.75
 41
832.15930018416213
 11
0.0
 21
0.0
 31
1.0
 12
0.0
 22
0.0
 32
0.0
 42
50.0
 43
0.0
 44
0.0
 50
0.0
 71
     0
  0
VIEW
  2
AM_VIEW2
 70
     0
 40
462.5
 10
1006.420349907918
 20
693.75
 41
832.15930018416213
 11
0.0
 21
0.0
 31
1.0
 12
0.0
 22
0.0
 32
0.0
 42
50.0
 43
0.0
 44
0.0
 50
0.0
 71
     0
  0
VIEW
  2
AM_VIEW3
 70
     0
 40
462.5
 10
416.07965009208078
 20
231.25
 41
832.15930018416213
 11
0.0
 21
0.0
 31
1.0
 12
0.0
 22
0.0
 32
0.0
 42
50.0
 43
0.0
 44
0.0
 50
0.0
 71
     0
  0
VIEW
  2
AM_VIEW4
 70
     0
 40
462.5
 10
1006.420349907918
 20
231.25
 41
832.15930018416213
 11
0.0
 21
0.0
 31
1.0
 12
0.0
 22
0.0
 32
0.0
 42
50.0
 43
0.0
 44
0.0
 50
0.0
 71
     0
  0
VIEW
  2
AM_VIEW5
 70
     0
 40
462.5
 10
711.24999999999966
 20
462.5
 41
832.15930018416179
 11
0.0
 21
0.0
 31
1.0
 12
0.0
 22
0.0
 32
0.0
 42
50.0
 43
0.0
 44
0.0
 50
0.0
 71
     0
  0
VIEW
  2
AM_VIEW6
 70
     0
 40
924.99075000000005
 10
711.24999999999966
 20
462.5
 41
1664.3019571823199
 11
0.0
 21
0.0
 31
1.0
 12
0.0
 22
0.0
 32
0.0
 42
50.0
 43
0.0
 44
0.0
 50
0.0
 71
     0
  0
ENDTAB
  0
TABLE
  2
UCS
 70
     0
  0
ENDTAB
  0
TABLE
  2
APPID
 70
    95
  0
APPID
  2
ACAD
 70
     0
  0
APPID
  2
ACADANNOTATIVE
 70
     0
  0
APPID
  2
MCAD_NO_VIS
 70
     0
  0
APPID
  2
ACAD_TEMP_GRAPHIC
 70
     0
  0
APPID
  2
ACATTRIBSERVICES
 70
     0
  0
APPID
  2
GENIUS_GENREC_14
 70
     0
  0
APPID
  2
GENIUS_GENOBJ-N-REC_13
 70
     0
  0
APPID
  2
GENIUS_GENODEF_13
 70
     0
  0
APPID
  2
GENIUS_GENOLIS_13
 70
     0
  0
APPID
  2
GENIUS_GENOBJ-N-TIT_13
 70
     0
  0
APPID
  2
GENIUS_GENOENT_13
 70
     0
  0
APPID
  2
GENIUS_GENTITLE_13
 70
     0
  0
APPID
  2
GENIUS_GENOREF_13
 70
     0
  0
APPID
  2
GENIUS_GENSCREG_15
 70
     0
  0
APPID
  2
GENIUS_GENOBJ-N-SDF_13
 70
     0
  0
APPID
  2
GENIUS_GENFIL_13
 70
     0
  0
APPID
  2
GENIUS_GENOBJ-N-CHA_13
 70
     0
  0
APPID
  2
GENIUS_GENDTOL_13
 70
     0
  0
APPID
  2
GENIUS_GENOBJ-N-FIL_13
 70
     0
  0
APPID
  2
AD_DRAW
 70
     0
  0
APPID
  2
DESIGNERASSEMBLIES
 70
     0
  0
APPID
  2
ASURF_PCURVE_APPNAME
 70
     0
  0
APPID
  2
GENIUS_GE3SECT_13
 70
     0
  0
APPID
  2
GENIUS_GENCFG_13
 70
     0
  0
APPID
  2
GENIUS_GE3CFG0_13
 70
     0
  0
APPID
  2
GENIUS_GENCFG0_13
 70
     0
  0
APPID
  2
GENIUS_GENCFG1_13
 70
     0
  0
APPID
  2
GENIUS_GENCFG2_13
 70
     0
  0
APPID
  2
GENIUS_GENCFG3_13
 70
     0
  0
APPID
  2
GENIUS_GENCFG4_13
 70
     0
  0
APPID
  2
GENIUS_GEVCFG0_13
 70
     0
  0
APPID
  2
GENIUS_GENHINW_13
 70
     0
  0
APPID
  2
GENIUS_FIRSTVISTXT_14
 70
     0
  0
APPID
  2
GENIUS_GENOBJ-N-LEADER_13
 70
     0
  0
APPID
  2
GEV_VCCNULL_SWITCH_OFF
 70
     0
  0
APPID
  2
GENIUS_GEFCFG0_13
 70
     0
  0
APPID
  2
GENIUS_GENZVEED_13
 70
     0
  0
APPID
  2
GENIUS_GENSCREG_13
 70
     0
  0
APPID
  2
GENIUS_DUMCFG0_13
 70
     0
  0
APPID
  2
GEVID936201362
 70
     0
  0
APPID
  2
GEVDC
 70
     0
  0
APPID
  2
GEVCON
 70
     0
  0
APPID
  2
VCC
 70
     0
  0
APPID
  2
GEVPT
 70
     0
  0
APPID
  2
GEVIT
 70
     0
  0
APPID
  2
GENBH
 70
     0
  0
APPID
  2
GEVMK
 70
     0
  0
APPID
  2
GENIUS_GENBH_13
 70
     0
  0
APPID
  2
GENIUS_GENOBJ-NBEHI-BHF_13
 70
     0
  0
APPID
  2
GENIUS_GENOBJ-NBEHI-BHB_13
 70
     0
  0
APPID
  2
GENIUS_GENOBJ-F-DESC_13
 70
     0
  0
APPID
  2
GENIUS_GEFDESC_14
 70
     0
  0
APPID
  2
GENIUS_GENOBJ-F-PART_13
 70
     0
  0
APPID
  2
GENIUS_GEFSTDP_13
 70
     0
  0
APPID
  2
GENIUS_GEFPARTINS_13
 70
     0
  0
APPID
  2
GENIUS_GENTRA_14
 70
     0
  0
APPID
  2
GENIUS_GENINF13_13
 70
     0
  0
APPID
  2
GENIUS_GENOBJ-N-INFOPT_13
 70
     0
  0
APPID
  2
GENIUS_GENOBJ-N-RSSYM_13
 70
     0
  0
APPID
  2
GENIUS_GENSYMENT_13
 70
     0
  0
APPID
  2
GENIUS_GENSCSYM_13
 70
     0
  0
APPID
  2
GENIUS_GEFINFNAM_13
 70
     0
  0
APPID
  2
GENIUS_GENOBJ-N-CEN_13
 70
     0
  0
APPID
  2
GENIUS_GENOBJ-N-CRS_13
 70
     0
  0
APPID
  2
GENIUS_GENOBJ-N-CRC_13
 70
     0
  0
APPID
  2
GENIUS_GENCRC_14
 70
     0
  0
APPID
  2
GEVID942827039
 70
     0
  0
APPID
  2
GEVID942827040
 70
     0
  0
APPID
  2
GEVID942827041
 70
     0
  0
APPID
  2
GENIUS_GENOBJ-F-SCPASSM_13
 70
     0
  0
APPID
  2
GENIUS_GENDIMSH_14
 70
     0
  0
APPID
  2
GEVID942827042
 70
     0
  0
APPID
  2
GEVID946020473
 70
     0
  0
APPID
  2
GEVID946020474
 70
     0
  0
APPID
  2
GEVID946020475
 70
     0
  0
APPID
  2
GENIUS_GENOBJ-N-HTC_13
 70
     0
  0
APPID
  2
GENIUS_GENHATCH_13
 70
     0
  0
APPID
  2
GEVID948854295
 70
     0
  0
APPID
  2
GEVID939402019
 70
     0
  0
APPID
  2
GEVID952919491
 70
     0
  0
APPID
  2
GEVID952919492
 70
     0
  0
APPID
  2
GENIUS_GEFWELD_13
 70
     0
  0
APPID
  2
GENIUS_GENOBJ-F-WELS_13
 70
     0
  0
APPID
  2
GEVID952919493
 70
     0
  0
APPID
  2
GENIUS_GENOBJ-N-RSBK_13
 70
     0
  0
APPID
  2
GENIUS_GENOBJ-N-LIB_13
 70
     0
  0
APPID
  2
GENIUS_GENSCALE_13
 70
     0
  0
APPID
  2
GEVID986376691
 70
     0
  0
APPID
  2
DCO15
 70
     0
  0
APPID
  2
ACAD_DSTYLE_DIMBREAK
 70
     0
  0
APPID
  2
ACAD_DSTYLE_DIMJAG
 70
     0
  0
APPID
  2
ACAD_NAV_VCDISPLAY
 70
     0
  0
APPID
  2
ACADANNOPO
 70
     0
  0
APPID
  2
ACAD_EXEMPT_FROM_CAD_STANDARDS
 70
     0
  0
APPID
  2
ACAD_MLEADERVER
 70
     0
  0
ENDTAB
  0
TABLE
  2
DIMSTYLE
 70
    22
  0
DIMSTYLE
  2
STANDARD
 70
     0
  3

  4

  5

  6

  7

 40
1.0
 41
0.18
 42
0.0625
 43
0.38
 44
0.18
 45
0.0
 46
0.0
 47
0.0
 48
0.0
140
0.18
141
0.09
142
0.0
143
25.399999999999999
144
1.0
145
0.0
146
1.0
147
0.09
 71
     0
 72
     0
 73
     1
 74
     1
 75
     0
 76
     0
 77
     0
 78
     0
170
     0
171
     2
172
     0
173
     0
174
     0
175
     0
176
     0
177
     0
178
     0
  0
DIMSTYLE
  2
ANNOTATIVE
 70
     0
  3

  4

  5

  6

  7

 40
1.0
 41
0.18
 42
0.0625
 43
0.38
 44
0.18
 45
0.0
 46
0.0
 47
0.0
 48
0.0
140
0.18
141
0.09
142
0.0
143
25.399999999999999
144
1.0
145
0.0
146
1.0
147
0.09
 71
     0
 72
     0
 73
     1
 74
     1
 75
     0
 76
     0
 77
     0
 78
     0
170
     0
171
     2
172
     0
173
     0
174
     0
175
     0
176
     0
177
     0
178
     0
  0
DIMSTYLE
  2
AM_ISO
 70
     0
  3

  4
"
  5

  6

  7

 40
1.0
 41
2.5
 42
1.0
 43
8.0
 44
0.6
 45
0.0
 46
0.0
 47
0.1
 48
0.1
140
2.5
141
0.0
142
0.0
143
0.0393701
144
1.0
145
0.0
146
0.71
147
0.8
 71
     0
 72
     0
 73
     0
 74
     0
 75
     0
 76
     0
 77
     1
 78
     8
170
     0
171
     2
172
     1
173
     0
174
     0
175
     0
176
   256
177
   256
178
     4
  0
DIMSTYLE
  2
AM_ISO$3
 70
     0
  3

  4
"
  5

  6

  7

 40
1.0
 41
2.5
 42
1.0
 43
8.0
 44
0.6
 45
0.0
 46
0.0
 47
0.1
 48
0.1
140
2.5
141
0.0
142
0.0
143
0.0393701
144
1.0
145
0.0
146
0.71
147
0.8
 71
     0
 72
     0
 73
     0
 74
     1
 75
     0
 76
     0
 77
     1
 78
     8
170
     0
171
     2
172
     0
173
     0
174
     0
175
     0
176
   256
177
   256
178
     4
  0
DIMSTYLE
  2
AM_ISO$4
 70
     0
  3

  4
"
  5

  6

  7

 40
1.0
 41
2.5
 42
1.0
 43
8.0
 44
0.6
 45
0.0
 46
0.0
 47
0.1
 48
0.1
140
2.5
141
0.0
142
0.0
143
0.0393701
144
1.0
145
0.0
146
0.71
147
0.8
 71
     0
 72
     0
 73
     0
 74
     1
 75
     0
 76
     0
 77
     1
 78
     8
170
     0
171
     2
172
     0
173
     0
174
     0
175
     0
176
   256
177
   256
178
     4
  0
DIMSTYLE
  2
AM_ISO$6
 70
     0
  3

  4
"
  5

  6

  7

 40
1.0
 41
2.5
 42
1.0
 43
8.0
 44
0.6
 45
0.0
 46
0.0
 47
0.1
 48
0.1
140
2.5
141
0.0
142
0.0
143
0.0393701
144
1.0
145
0.0
146
0.71
147
0.8
 71
     0
 72
     0
 73
     0
 74
     0
 75
     0
 76
     0
 77
     0
 78
     8
170
     0
171
     2
172
     1
173
     0
174
     0
175
     0
176
   256
177
   256
178
     4
  0
DIMSTYLE
  2
AM_ISO$7
 70
     0
  3

  4
"
  5

  6

  7

 40
1.0
 41
2.5
 42
1.0
 43
8.0
 44
0.6
 45
0.0
 46
0.0
 47
0.1
 48
0.1
140
2.5
141
0.0
142
0.0
143
0.0393701
144
1.0
145
0.0
146
0.71
147
0.8
 71
     0
 72
     0
 73
     0
 74
     0
 75
     0
 76
     0
 77
     1
 78
     8
170
     0
171
     2
172
     1
173
     0
174
     0
175
     0
176
   256
177
   256
178
     4
  0
DIMSTYLE
  2
AM_ISO$SF
 70
     0
  3

  4
"
  5

  6

  7

 40
1.0
 41
2.5
 42
1.0
 43
10.0
 44
1.0
 45
0.0
 46
0.0
 47
0.1
 48
0.1
140
3.5
141
0.0
142
0.0
143
0.0393701
144
1.0
145
0.0
146
0.71
147
1.5
 71
     0
 72
     0
 73
     0
 74
     0
 75
     1
 76
     1
 77
     1
 78
     8
170
     0
171
     2
172
     1
173
     0
174
     0
175
     0
176
   256
177
   256
178
     2
  0
DIMSTYLE
  2
AM_ISO$SH
 70
     0
  3

  4
"
  5

  6

  7

 40
1.0
 41
2.5
 42
1.0
 43
10.0
 44
1.0
 45
0.0
 46
0.0
 47
0.1
 48
0.1
140
3.5
141
0.0
142
0.0
143
0.0393701
144
2.0
145
0.0
146
0.71
147
1.5
 71
     0
 72
     0
 73
     0
 74
     0
 75
     1
 76
     1
 77
     1
 78
     8
170
     0
171
     2
172
     1
173
     1
174
     0
175
     0
176
   256
177
   256
178
     2
  0
DIMSTYLE
  2
AM_JIS
 70
     0
  3

  4
"
  5

  6

  7

 40
1.0
 41
2.5
 42
1.0
 43
7.0
 44
1.0
 45
0.0
 46
0.0
 47
0.1
 48
0.1000000001
140
2.5
141
0.0
142
0.0
143
0.0393701
144
1.0
145
0.0
146
0.71
147
1.0
 71
     0
 72
     0
 73
     0
 74
     0
 75
     0
 76
     0
 77
     3
 78
     8
170
     0
171
     2
172
     1
173
     0
174
     0
175
     0
176
   256
177
   256
178
     4
  0
DIMSTYLE
  2
AM_JIS$3
 70
     0
  3

  4
"
  5

  6

  7

 40
1.0
 41
2.5
 42
1.0
 43
7.0
 44
1.0
 45
0.0
 46
0.0
 47
0.1
 48
0.1000000001
140
2.5
141
0.0
142
0.0
143
0.0393701
144
1.0
145
0.0
146
0.71
147
1.0
 71
     0
 72
     0
 73
     0
 74
     1
 75
     0
 76
     0
 77
     3
 78
     8
170
     0
171
     2
172
     0
173
     0
174
     0
175
     0
176
   256
177
   256
178
     4
  0
DIMSTYLE
  2
AM_JIS$4
 70
     0
  3

  4
"
  5

  6

  7

 40
1.0
 41
2.5
 42
1.0
 43
7.0
 44
1.0
 45
0.0
 46
0.0
 47
0.1
 48
0.1000000001
140
2.5
141
0.0
142
0.0
143
0.0393701
144
1.0
145
0.0
146
0.71
147
1.0
 71
     0
 72
     0
 73
     0
 74
     0
 75
     0
 76
     0
 77
     3
 78
     8
170
     0
171
     2
172
     0
173
     0
174
     0
175
     0
176
   256
177
   256
178
     4
  0
DIMSTYLE
  2
AM_JIS$6
 70
     0
  3

  4
"
  5

  6

  7

 40
1.0
 41
2.5
 42
1.0
 43
7.0
 44
1.0
 45
0.0
 46
0.0
 47
0.1
 48
0.1000000001
140
2.5
141
0.0
142
0.0
143
0.0393701
144
1.0
145
0.0
146
0.71
147
1.0
 71
     0
 72
     0
 73
     0
 74
     0
 75
     0
 76
     0
 77
     0
 78
     8
170
     0
171
     2
172
     1
173
     0
174
     0
175
     0
176
   256
177
   256
178
     4
  0
DIMSTYLE
  2
AM_JIS$7
 70
     0
  3

  4
"
  5

  6

  7

 40
1.0
 41
2.5
 42
1.0
 43
7.0
 44
1.0
 45
0.0
 46
0.0
 47
0.1
 48
0.1000000001
140
2.5
141
0.0
142
0.0
143
0.0393701
144
1.0
145
0.0
146
0.71
147
1.0
 71
     0
 72
     0
 73
     0
 74
     0
 75
     0
 76
     0
 77
     3
 78
     8
170
     0
171
     2
172
     1
173
     0
174
     0
175
     0
176
   256
177
   256
178
     4
  0
DIMSTYLE
  2
AM_JIS$SF
 70
     0
  3

  4
"
  5

  6

  7

 40
1.0
 41
2.5
 42
1.0
 43
10.0
 44
1.0
 45
0.0
 46
0.0
 47
0.1
 48
0.1
140
3.5
141
0.0
142
0.0
143
0.0393701
144
1.0
145
0.0
146
0.71
147
1.5
 71
     0
 72
     0
 73
     0
 74
     0
 75
     1
 76
     1
 77
     3
 78
     8
170
     0
171
     2
172
     1
173
     0
174
     0
175
     0
176
   256
177
   256
178
     4
  0
DIMSTYLE
  2
AM_JIS$SH
 70
     0
  3

  4
"
  5

  6

  7

 40
1.0
 41
2.5
 42
1.0
 43
10.0
 44
1.0
 45
0.0
 46
0.0
 47
0.1
 48
0.1
140
3.5
141
0.0
142
0.0
143
0.0393701
144
1.0
145
0.0
146
0.71
147
1.5
 71
     0
 72
     0
 73
     0
 74
     0
 75
     1
 76
     0
 77
     3
 78
     8
170
     0
171
     2
172
     1
173
     1
174
     0
175
     0
176
   256
177
   256
178
     4
  0
DIMSTYLE
  2
AM_ANSI
 70
     0
  3

  4
mm
  5

  6

  7

 40
1.0
 41
0.1
 42
0.05
 43
0.5
 44
0.1
 45
0.0
 46
0.0
 47
0.1
 48
0.1
140
0.12
141
0.0
142
0.0
143
25.399999999999999
144
1.0
145
0.0
146
0.71
147
0.06
 71
     0
 72
     0
 73
     1
 74
     1
 75
     0
 76
     0
 77
     0
 78
     7
170
     0
171
     2
172
     0
173
     0
174
     0
175
     0
176
   256
177
   256
178
     2
  0
DIMSTYLE
  2
AM_ANSI$3
 70
     0
  3

  4
mm
  5

  6

  7

 40
1.0
 41
0.1
 42
0.05
 43
0.5
 44
0.1
 45
0.0
 46
0.0
 47
0.1
 48
0.1
140
0.12
141
0.0
142
0.0
143
25.399999999999999
144
1.0
145
0.0
146
0.71
147
0.06
 71
     0
 72
     0
 73
     1
 74
     1
 75
     0
 76
     0
 77
     0
 78
     7
170
     0
171
     2
172
     0
173
     0
174
     0
175
     0
176
   256
177
   256
178
     2
  0
DIMSTYLE
  2
AM_ANSI$4
 70
     0
  3

  4
mm
  5

  6

  7

 40
1.0
 41
0.1
 42
0.05
 43
0.5
 44
0.1
 45
0.0
 46
0.0
 47
0.1
 48
0.1
140
0.12
141
0.0
142
0.0
143
25.399999999999999
144
1.0
145
0.0
146
0.71
147
0.06
 71
     0
 72
     0
 73
     1
 74
     1
 75
     0
 76
     0
 77
     0
 78
     7
170
     0
171
     2
172
     0
173
     0
174
     0
175
     0
176
   256
177
   256
178
     2
  0
DIMSTYLE
  2
AM_ANSI$7
 70
     0
  3

  4
mm
  5

  6

  7

 40
1.0
 41
0.1
 42
0.05
 43
0.5
 44
0.1
 45
0.0
 46
0.0
 47
0.1
 48
0.1
140
0.24
141
0.0
142
0.0
143
25.399999999999999
144
1.0
145
0.0
146
0.71
147
0.06
 71
     0
 72
     0
 73
     1
 74
     1
 75
     0
 76
     0
 77
     0
 78
     7
170
     0
171
     2
172
     0
173
     0
174
     0
175
     0
176
   256
177
   256
178
     2
  0
DIMSTYLE
  2
AM_ANSI$SF
 70
     0
  3

  4
mm
  5

  6

  7

 40
1.0
 41
0.1
 42
0.05
 43
0.5
 44
0.1
 45
0.0
 46
0.0
 47
0.1
 48
0.1
140
0.12
141
0.0
142
0.0
143
25.399999999999999
144
1.0
145
0.0
146
0.71
147
0.06
 71
     0
 72
     0
 73
     1
 74
     1
 75
     1
 76
     1
 77
     0
 78
     7
170
     0
171
     2
172
     0
173
     0
174
     0
175
     0
176
   256
177
   256
178
     2
  0
DIMSTYLE
  2
AM_ANSI$SH
 70
     0
  3

  4
mm
  5

  6

  7

 40
1.0
 41
0.1
 42
0.05
 43
0.5
 44
0.1
 45
0.0
 46
0.0
 47
0.1
 48
0.1
140
0.12
141
0.0
142
0.0
143
25.399999999999999
144
1.0
145
0.0
146
0.71
147
0.06
 71
     0
 72
     0
 73
     1
 74
     1
 75
     1
 76
     1
 77
     0
 78
     7
170
     0
171
     2
172
     0
173
     1
174
     0
175
     0
176
   256
177
   256
178
     2
  0
ENDTAB
  0
ENDSEC
  0
SECTION
  2
BLOCKS
  0
BLOCK
  8
0
  2
$MODEL_SPACE
 70
     0
 10
0.0
 20
0.0
 30
0.0
  3
$MODEL_SPACE
  1

  0
ENDBLK
  5
3059
  8
0
  0
BLOCK
 67
     1
  8
0
  2
$PAPER_SPACE
 70
     0
 10
0.0
 20
0.0
 30
0.0
  3
$PAPER_SPACE
  1

  0
ENDBLK
  5
3055
 67
     1
  8
0
  0
BLOCK
  8
0
  2
GENAXEH
 70
     0
 10
0.0
 20
0.0
 30
0.0
  3
GENAXEH
  1

  0
LINE
  5
2D60
  8
0
 10
-1.0
 20
0.0
 30
0.0
 11
1.0
 21
0.0
 31
0.0
  0
ENDBLK
  5
2D61
  8
0
  0
BLOCK
  8
0
  2
_OPEN30
 70
     0
 10
0.0
 20
0.0
 30
0.0
  3
_OPEN30
  1

  0
LINE
  5
2D64
  8
0
 62
     0
 10
-1.0
 20
0.26794919
 30
0.0
 11
0.0
 21
0.0
 31
0.0
  0
LINE
  5
2D65
  8
0
 62
     0
 10
0.0
 20
0.0
 30
0.0
 11
-1.0
 21
-0.26794919
 31
0.0
  0
LINE
  5
2D66
  8
0
 62
     0
 10
0.0
 20
0.0
 30
0.0
 11
-1.0
 21
0.0
 31
0.0
  0
ENDBLK
  5
2D67
  8
0
  0
BLOCK
  8
0
  2
_NONE
 70
     0
 10
0.0
 20
0.0
 30
0.0
  3
_NONE
  1

  0
ENDBLK
  5
2D6A
  8
0
  0
BLOCK
  8
0
  2
_ACMFILLEDHALF
 70
     0
 10
0.0
 20
0.0
 30
0.0
  3
_ACMFILLEDHALF
  1

  0
TRACE
  5
314F
  8
AM_0
 62
     0
 10
-0.8
 20
0.0
 30
0.0
 11
-1.0
 21
0.166666666
 31
0.0
 12
0.0
 22
0.0
 32
0.0
 13
0.0
 23
0.0
 33
0.0
  0
LINE
  5
3150
  8
AM_0
 62
     0
 10
-1.0
 20
0.0
 30
0.0
 11
-0.8
 21
0.0
 31
0.0
  0
ENDBLK
  5
314E
  8
0
  0
ENDSEC
  0
SECTION
  2
ENTITIES
  0
LINE
  5
2D6B
  8
AM_0
 10
348.149289870887
 20
468.95616699665771
 30
0.0
 11
327.54268815308859
 21
448.34956527885942
 31
0.0
  0
LINE
  5
2D6C
  8
AM_0
 10
349.61375596495401
 20
475.65925444475982
 30
0.0
 11
349.61375596495492
 21
365.1820117366903
 31
0.0
  0
ARC
  5
2D6D
  8
AM_0
 10
404.71685596495422
 20
463.42063809072511
 30
0.0
 40
3.0000000500000001
 50
315.0
 51
90.000003000000007
  0
LINE
  5
2D6E
  8
AM_0
 10
359.61375596495401
 20
363.92060309072519
 30
0.0
 11
359.61375596495401
 21
476.92063809072511
 31
0.0
  0
LINE
  5
2D6F
  8
AM_0
 10
433.6137559649539
 20
374.42063309072512
 30
0.0
 11
433.6137559649539
 21
522.42063809072511
 31
0.0
  0
LINE
  5
2D70
  8
AM_0
 10
423.61375596495418
 20
377.3081480907249
 30
0.0
 11
423.61375596495418
 21
517.9865530907249
 31
0.0
  0
LINE
  5
2D71
  8
AM_0
 10
482.11375596495418
 20
353.19483309072518
 30
0.0
 11
482.11375596495418
 21
576.03527309072524
 31
0.0
  0
LINE
  5
2D72
  8
AM_0
 10
468.113805964954
 20
336.97306309072508
 30
0.0
 11
468.113805964954
 21
576.42067309072513
 31
0.0
  0
LINE
  5
2D73
  8
AM_0
 10
613.11380596495428
 20
486.42060809072501
 30
0.0
 11
613.11380596495428
 21
452.66325309072488
 31
0.0
  0
LINE
  5
2D74
  8
AM_0
 10
585.11375596495441
 20
390.01847309072502
 30
0.0
 11
585.11375596495441
 21
562.26602309072518
 31
0.0
  0
LINE
  5
2D75
  8
AM_0
 10
607.11375596495418
 20
486.42060809072501
 30
0.0
 11
607.11375596495418
 21
340.16660809072522
 31
0.0
  0
LINE
  5
2D76
  8
AM_0
 10
565.11375596495429
 20
520.59348809072492
 30
0.0
 11
565.11375596495429
 21
344.42063309072512
 31
0.0
  0
LINE
  5
2D77
  8
AM_0
 10
515.51050596495452
 20
468.90818309072517
 30
0.0
 11
527.64910596495429
 21
454.99476309072509
 31
0.0
  0
LINE
  5
2D78
  8
AM_0
 10
495.11375596495418
 20
369.96900309072493
 30
0.0
 11
495.11375596495418
 21
578.42062309072503
 31
0.0
  0
LINE
  5
2D79
  8
AM_0
 10
482.11375596495418
 20
433.40882309072509
 30
0.0
 11
495.11375596495418
 21
433.40882309072509
 31
0.0
  0
LINE
  5
2D7A
  8
AM_0
 10
421.1137559649539
 20
311.42060309072519
 30
0.0
 11
613.11380596495428
 21
311.42060309072519
 31
0.0
  0
LINE
  5
2D7B
  8
AM_0
 10
499.06580596495451
 20
375.06846309072512
 30
0.0
 11
471.51580596495432
 21
339.52005809072512
 31
0.0
  0
LINE
  5
2D7C
  8
ｶｸﾚｾﾝ2
 10
432.61375596495418
 20
336.42060309072519
 30
0.0
 11
432.61375596495418
 21
311.42060309072519
 31
0.0
  0
LINE
  5
2D7D
  8
ｶｸﾚｾﾝ2
 10
451.61380596495451
 20
336.42060309072519
 30
0.0
 11
451.61380596495451
 21
311.42060309072519
 31
0.0
  0
LINE
  5
2D7E
  8
ﾁｭｳｼﾝｾﾝ
 10
442.1137559649539
 20
340.92850809072519
 30
0.0
 11
442.1137559649539
 21
304.44510809072523
 31
0.0
  0
LINE
  5
2D7F
  8
AM_0
 10
421.1137559649539
 20
332.42063309072512
 30
0.0
 11
421.1137559649539
 21
311.42060309072519
 31
0.0
  0
LINE
  5
2D80
  8
ﾁｭｳｼﾝｾﾝ
 10
464.31814506377373
 20
420.42063309072512
 30
0.0
 11
269.1199969095378
 21
420.42063309072512
 31
0.0
  0
LINE
  5
2D81
  8
AM_0
 10
359.61375596495401
 20
387.6148180907249
 30
0.0
 11
379.61375596495401
 21
387.6148180907249
 31
0.0
  0
LINE
  5
2D82
  8
AM_0
 10
359.61375596495401
 20
453.2264530907251
 30
0.0
 11
398.76530596495428
 21
453.22645309072522
 31
0.0
  0
ARC
  5
2D83
  8
AM_0
 10
375.61380596495428
 20
368.48182309072502
 30
0.0
 40
4.000000049999997
 50
272.0
 51
0.0
  0
LINE
  5
2D84
  8
AM_0
 10
359.61375596495401
 20
374.42063309072512
 30
0.0
 11
379.61375596495401
 21
374.42063309072512
 31
0.0
  0
LINE
  5
2D85
  8
AM_0
 10
348.149289870887
 20
371.88509918479241
 30
0.0
 11
327.54268815308859
 21
392.49170090259048
 31
0.0
  0
ARC
  5
2D86
  8
AM_0
 10
350.61375596495401
 20
365.1820117366903
 30
0.0
 40
1.0
 50
180.0
 51
268.3391527670226
1001
GENIUS_GENOBJ-N-FIL_13
1002
{
1000
OWNER
1000
GEN
1002
}
1001
GENIUS_GENODEF_13
1002
{
1000
HIER
1070
     0
1002
}
1002
{
1000
MANEDIT
1070
     0
1002
}
1002
{
1000
NOSEL
1070
     0
1002
}
1002
{
1000
BEHIND
1070
     0
1002
}
1002
{
1000
OTHER
1070
     0
1002
}
1002
{
1000
REACTOR
1002
}
  0
ARC
  5
2D87
  8
AM_0
 10
344.61375596495418
 20
368.34956527885942
 30
0.0
 40
5.0
 50
0.0
 51
45.000000000004363
1001
GENIUS_GENODEF_13
1002
{
1000
HIER
1070
     0
1002
}
1002
{
1000
MANEDIT
1070
     0
1002
}
1002
{
1000
NOSEL
1070
     0
1002
}
1002
{
1000
BEHIND
1070
     0
1002
}
1002
{
1000
OTHER
1070
     0
1002
}
1002
{
1000
REACTOR
1002
}
1001
GENIUS_GENOBJ-N-FIL_13
1002
{
1000
OWNER
1000
GEN
1002
}
  0
LINE
  5
2D88
  8
AM_0
 10
359.61375596495401
 20
363.92063309072512
 30
0.0
 11
375.75335596495438
 21
364.48423309072501
 31
0.0
  0
LINE
  5
2D89
  8
AM_0
 10
350.58477277167083
 20
364.18243183767908
 30
0.0
 11
359.61375596495401
 21
363.920633090725
 31
0.0
  0
ARC
  5
2D8A
  8
AM_0
 10
320.47162034122312
 20
455.42063309072478
 30
0.0
 40
10.0
 50
270.0
 51
314.99999999999562
1001
GENIUS_GENODEF_13
1002
{
1000
HIER
1070
     0
1002
}
1002
{
1000
MANEDIT
1070
     0
1002
}
1002
{
1000
NOSEL
1070
     0
1002
}
1002
{
1000
BEHIND
1070
     0
1002
}
1002
{
1000
OTHER
1070
     0
1002
}
1002
{
1000
REACTOR
1002
}
1001
GENIUS_GENOBJ-N-FIL_13
1002
{
1000
OWNER
1000
GEN
1002
}
  0
ARC
  5
2D8B
  8
AM_0
 10
320.47162034122312
 20
385.42063309072489
 30
0.0
 40
10.0
 50
45.000000000004363
 51
90.0
1001
GENIUS_GENOBJ-N-FIL_13
1002
{
1000
OWNER
1000
GEN
1002
}
1001
GENIUS_GENODEF_13
1002
{
1000
HIER
1070
     0
1002
}
1002
{
1000
MANEDIT
1070
     0
1002
}
1002
{
1000
NOSEL
1070
     0
1002
}
1002
{
1000
BEHIND
1070
     0
1002
}
1002
{
1000
OTHER
1070
     0
1002
}
1002
{
1000
REACTOR
1002
}
  0
LINE
  5
2D8C
  8
AM_0
 10
302.11375596495401
 20
434.59220596597879
 30
0.0
 11
302.11375596495401
 21
406.24906021547122
 31
0.0
  0
LINE
  5
2D8D
  8
AM_0
 10
300.11375596495401
 20
427.920633090725
 30
0.0
 11
300.11375596495401
 21
412.9206254613303
 31
0.0
  0
LINE
  5
2D8E
  8
AM_0
 10
275.11375596495412
 20
427.920633090725
 30
0.0
 11
275.11375596495412
 21
414.420633090725
 31
0.0
  0
LINE
  5
2D8F
  8
AM_0
 10
304.1137559649539
 20
397.420633090725
 30
0.0
 11
304.11375596495401
 21
443.420633090725
 31
0.0
  0
LINE
  5
2D90
  8
AM_0
 10
275.11375596495412
 20
414.420633090725
 30
0.0
 11
300.11375596495401
 21
414.420633090725
 31
0.0
  0
LINE
  5
2D91
  8
AM_0
 10
306.11375596495401
 20
395.420633090725
 30
0.0
 11
320.47162034122312
 21
395.420633090725
 31
0.0
  0
ARC
  5
2D92
  8
AM_0
 10
304.11375596495401
 20
406.24906021547122
 30
0.0
 40
2.0
 50
180.0
 51
225.00000000000469
1001
GENIUS_GENODEF_13
1002
{
1000
HIER
1070
     0
1002
}
1002
{
1000
MANEDIT
1070
     0
1002
}
1002
{
1000
NOSEL
1070
     0
1002
}
1002
{
1000
BEHIND
1070
     0
1002
}
1002
{
1000
OTHER
1070
     0
1002
}
1002
{
1000
REACTOR
1002
}
1001
GENIUS_GENOBJ-N-FIL_13
1002
{
1000
OWNER
1000
GEN
1002
}
  0
LINE
  5
2D93
  8
AM_0
 10
302.69954240258107
 20
404.83484665309783
 30
0.0
 11
303.52796952732712
 21
404.0064195283519
 31
0.0
  0
ARC
  5
2D94
  8
AM_0
 10
306.11375596495401
 20
397.420633090725
 30
0.0
 40
2.0
 50
180.0
 51
270.0
1001
GENIUS_GENODEF_13
1002
{
1000
HIER
1070
     0
1002
}
1002
{
1000
MANEDIT
1070
     0
1002
}
1002
{
1000
NOSEL
1070
     0
1002
}
1002
{
1000
BEHIND
1070
     0
1002
}
1002
{
1000
OTHER
1070
     0
1002
}
1002
{
1000
REACTOR
1002
}
1001
GENIUS_GENOBJ-N-FIL_13
1002
{
1000
OWNER
1000
GEN
1002
}
  0
ARC
  5
2D95
  8
AM_0
 10
302.11375596495401
 20
402.59220596597862
 30
0.0
 40
2.0
 50
0.0
 51
45.000000000004668
1001
GENIUS_GENODEF_13
1002
{
1000
HIER
1070
     0
1002
}
1002
{
1000
MANEDIT
1070
     0
1002
}
1002
{
1000
NOSEL
1070
     0
1002
}
1002
{
1000
BEHIND
1070
     0
1002
}
1002
{
1000
OTHER
1070
     0
1002
}
1002
{
1000
REACTOR
1002
}
1001
GENIUS_GENOBJ-N-FIL_13
1002
{
1000
OWNER
1000
GEN
1002
}
  0
LINE
  5
2D96
  8
AM_0
 10
300.11375596495401
 20
412.9206254613303
 30
0.0
 11
302.11375596495401
 21
412.9206254613303
 31
0.0
  0
LINE
  5
2D97
  8
AM_0
 10
275.11375596495412
 20
426.42063309072478
 30
0.0
 11
300.11375596495401
 21
426.42063309072478
 31
0.0
  0
LINE
  5
2D98
  8
AM_0
 10
275.11375596495412
 20
427.920633090725
 30
0.0
 11
293.11375596495418
 21
427.920633090725
 31
0.0
  0
LINE
  5
2D99
  8
AM_0
 10
293.11375596495418
 20
427.920633090725
 30
0.0
 11
293.11375596495418
 21
426.42063309072478
 31
0.0
  0
ARC
  5
2D9A
  8
AM_0
 10
306.11375596495401
 20
443.420633090725
 30
0.0
 40
2.0
 50
90.0
 51
180.0
1001
GENIUS_GENODEF_13
1002
{
1000
HIER
1070
     0
1002
}
1002
{
1000
MANEDIT
1070
     0
1002
}
1002
{
1000
NOSEL
1070
     0
1002
}
1002
{
1000
BEHIND
1070
     0
1002
}
1002
{
1000
OTHER
1070
     0
1002
}
1002
{
1000
REACTOR
1002
}
1001
GENIUS_GENOBJ-N-FIL_13
1002
{
1000
OWNER
1000
GEN
1002
}
  0
ARC
  5
2D9B
  8
AM_0
 10
304.11375596495401
 20
434.59220596597879
 30
0.0
 40
2.0
 50
134.99999999999531
 51
180.0
1001
GENIUS_GENODEF_13
1002
{
1000
HIER
1070
     0
1002
}
1002
{
1000
MANEDIT
1070
     0
1002
}
1002
{
1000
NOSEL
1070
     0
1002
}
1002
{
1000
BEHIND
1070
     0
1002
}
1002
{
1000
OTHER
1070
     0
1002
}
1002
{
1000
REACTOR
1002
}
1001
GENIUS_GENOBJ-N-FIL_13
1002
{
1000
OWNER
1000
GEN
1002
}
  0
LINE
  5
2D9C
  8
AM_0
 10
302.69954240258107
 20
436.0064195283519
 30
0.0
 11
303.52796952732712
 21
436.83484665309811
 31
0.0
  0
ARC
  5
2D9D
  8
AM_0
 10
302.11375596495401
 20
438.24906021547088
 30
0.0
 40
2.0
 50
314.99999999999523
 51
0.0
1001
GENIUS_GENODEF_13
1002
{
1000
HIER
1070
     0
1002
}
1002
{
1000
MANEDIT
1070
     0
1002
}
1002
{
1000
NOSEL
1070
     0
1002
}
1002
{
1000
BEHIND
1070
     0
1002
}
1002
{
1000
OTHER
1070
     0
1002
}
1002
{
1000
REACTOR
1002
}
1001
GENIUS_GENOBJ-N-FIL_13
1002
{
1000
OWNER
1000
GEN
1002
}
  0
LINE
  5
2D9E
  8
AM_0
 10
300.11375596495401
 20
427.920633090725
 30
0.0
 11
302.11375596495401
 21
427.920633090725
 31
0.0
  0
LINE
  5
2D9F
  8
AM_0
 10
306.11375596495401
 20
445.42063309072512
 30
0.0
 11
320.47162034122312
 21
445.420633090725
 31
0.0
  0
LINE
  5
2DA0
  8
AM_0
 10
324.61375596495401
 20
445.42063309072489
 30
0.0
 11
324.61375596495401
 21
395.42063309072478
 31
0.0
  0
LINE
  5
2DA1
  8
AM_0
 10
379.61375596495401
 20
398.92509309072511
 30
0.0
 11
379.61375596495401
 21
368.48182309072502
 31
0.0
  0
LINE
  5
2DA2
  8
AM_0
 10
427.4742559649543
 20
374.63505309072502
 30
0.0
 11
433.61380596495428
 21
374.42063309072512
 31
0.0
  0
LINE
  5
2DA3
  8
AM_0
 10
423.61375596495418
 20
386.84199309072511
 30
0.0
 11
468.113805964954
 21
386.84199309072511
 31
0.0
  0
LINE
  5
2DA4
  8
AM_0
 10
425.11375596495418
 20
336.42060309072519
 30
0.0
 11
465.19250596495431
 21
336.42060309072519
 31
0.0
  0
ARC
  5
2DA5
  8
AM_0
 10
425.11375596495418
 20
332.42063309072512
 30
0.0
 40
4.000000049999997
 50
90.000003000000007
 51
180.00001
  0
LINE
  5
2DA6
  8
AM_0
 10
383.7533559649541
 20
379.79841309072492
 30
0.0
 11
420.90130596495419
 21
378.5011730907251
 31
0.0
  0
ARC
  5
2DA7
  8
AM_0
 10
383.61375596495401
 20
375.80088309072488
 30
0.0
 40
4.000000049999997
 50
88.0
 51
180.00001
  0
ARC
  5
2DA8
  8
AM_0
 10
420.76165596495451
 20
374.50361309072508
 30
0.0
 40
4.000000049999997
 50
31.072340999999991
 51
88.0
  0
ARC
  5
2DA9
  8
AM_0
 10
427.61375596495429
 20
378.63260809072511
 30
0.0
 40
4.000000049999997
 50
211.07233999999991
 51
268.0
  0
ARC
  5
2DAA
  8
AM_0
 10
465.19250596495431
 20
344.42063309072512
 30
0.0
 40
8.0
 50
270.0
 51
322.22431999999992
  0
LINE
  5
2DAB
  8
AM_0
 10
441.35230596495433
 20
365.68104309072493
 30
0.0
 11
465.3751559649545
 21
363.57929309072512
 31
0.0
  0
ARC
  5
2DAC
  8
AM_0
 10
435.61380596495422
 20
371.8489780907251
 30
0.0
 40
3.0000000500000001
 50
0.0
 51
88.0
  0
LINE
  5
2DAD
  8
AM_0
 10
438.6137559649539
 20
368.66959809072512
 30
0.0
 11
438.6137559649539
 21
386.42060309072519
 31
0.0
  0
ARC
  5
2DAE
  8
AM_0
 10
441.61380596495439
 20
368.66959809072512
 30
0.0
 40
3.0000000500000001
 50
179.99998999999991
 51
265.0
  0
LINE
  5
2DAF
  8
AM_0
 10
433.6137559649539
 20
374.92063309072512
 30
0.0
 11
435.7184559649545
 21
374.84714809072511
 31
0.0
  0
ARC
  5
2DB0
  8
AM_0
 10
465.11375596495429
 20
360.59073809072493
 30
0.0
 40
3.0000000500000001
 50
0.0
 51
84.999996999999979
  0
LINE
  5
2DB1
  8
AM_0
 10
423.61375596495418
 20
408.94593309072491
 30
0.0
 11
468.113805964954
 21
408.94593309072491
 31
0.0
  0
LINE
  5
2DB2
  8
AM_0
 10
398.76525596495452
 20
453.22645309072522
 30
0.0
 11
423.61375596495418
 21
408.85361809072509
 31
0.0
  0
LINE
  5
2DB3
  8
AM_0
 10
384.61375596495401
 20
403.925093090725
 30
0.0
 11
423.61375596495418
 21
403.925093090725
 31
0.0
  0
ARC
  5
2DB4
  8
AM_0
 10
384.61375596495401
 20
398.92509309072511
 30
0.0
 40
5.0
 50
90.000003000000007
 51
180.00001
  0
LINE
  5
2DB5
  8
AM_0
 10
398.76525596495452
 20
453.22648309072508
 30
0.0
 11
406.83805596495432
 21
461.29932809072511
 31
0.0
  0
LINE
  5
2DB6
  8
ｶｸﾚｾﾝ2
 10
601.61380596495451
 20
336.42060309072519
 30
0.0
 11
601.61380596495451
 21
311.42060309072519
 31
0.0
  0
LINE
  5
2DB7
  8
ｶｸﾚｾﾝ2
 10
582.61375596495441
 20
336.42060309072519
 30
0.0
 11
582.61375596495441
 21
311.42060309072519
 31
0.0
  0
LINE
  5
2DB8
  8
ﾁｭｳｼﾝｾﾝ
 10
592.11375596495395
 20
340.92850809072519
 30
0.0
 11
592.11375596495407
 21
304.44510809072523
 31
0.0
  0
LINE
  5
2DB9
  8
AM_0
 10
613.11380596495428
 20
332.42063309072512
 30
0.0
 11
613.11380596495428
 21
311.42060309072519
 31
0.0
  0
LINE
  5
2DBA
  8
AM_0
 10
573.11380596495405
 20
336.42060309072519
 30
0.0
 11
609.11380596495428
 21
336.42060309072519
 31
0.0
  0
LINE
  5
2DBB
  8
AM_0
 10
500.11375596495418
 20
422.23252309072518
 30
0.0
 11
500.11375596495418
 21
376.42060309072519
 31
0.0
  0
ARC
  5
2DBC
  8
AM_0
 10
495.11375596495418
 20
378.13132809072511
 30
0.0
 40
5.0
 50
322.22431999999992
 51
0.0
  0
ARC
  5
2DBD
  8
AM_0
 10
573.11380596495405
 20
344.42063309072512
 30
0.0
 40
8.0
 50
180.00001
 51
270.0
  0
LINE
  5
2DBE
  8
AM_0
 10
577.11375596495418
 20
382.01850309072512
 30
0.0
 11
568.59705596495451
 21
382.01850309072512
 31
0.0
  0
ARC
  5
2DBF
  8
AM_0
 10
577.11375596495418
 20
390.01847309072502
 30
0.0
 40
8.0
 50
270.0
 51
0.0
  0
LINE
  5
2DC0
  8
AM_0
 10
510.11375596495429
 20
428.81028309072491
 30
0.0
 11
510.11375596495429
 21
422.23252309072518
 31
0.0
  0
LINE
  5
2DC1
  8
AM_0
 10
500.11375596495418
 20
422.23252309072518
 30
0.0
 11
510.11375596495429
 21
422.23252309072518
 31
0.0
  0
LINE
  5
2DC2
  8
AM_0
 10
512.87140596495385
 20
430.50571809072511
 30
0.0
 11
526.10725596495445
 21
440.41569309072509
 31
0.0
  0
LINE
  5
2DC3
  8
AM_0
 10
514.61375596495418
 20
460.90845809072511
 30
0.0
 11
514.61375596495418
 21
433.79630809072501
 31
0.0
  0
LINE
  5
2DC4
  8
AM_0
 10
495.11375596495418
 20
431.81031309072512
 30
0.0
 11
507.11375596495418
 21
431.81031309072512
 31
0.0
  0
ARC
  5
2DC5
  8
AM_0
 10
507.11375596495418
 20
428.81028309072491
 30
0.0
 40
3.0000000500000001
 50
0.0
 51
90.000003000000007
  0
ARC
  5
2DC6
  8
AM_0
 10
520.11375596495441
 20
448.42063809072488
 30
0.0
 40
10.0
 50
306.82303999999999
 51
41.102821999999989
  0
ARC
  5
2DC7
  8
AM_0
 10
609.11380596495428
 20
332.42063309072512
 30
0.0
 40
4.000000049999997
 50
0.0
 51
90.000003000000007
  0
ARC
  5
2DC8
  8
AM_0
 10
611.11375596495418
 20
340.16660809072522
 30
0.0
 40
4.000000049999997
 50
179.99998999999991
 51
255.52249
  0
ARC
  5
2DC9
  8
AM_0
 10
610.11375596495441
 20
444.17798809072519
 30
0.0
 40
3.0000000500000001
 50
135.0
 51
180.00001
  0
ARC
  5
2DCA
  8
AM_0
 10
610.11375596495441
 20
452.66325309072488
 30
0.0
 40
3.0000000500000001
 50
315.0
 51
0.0
  0
LINE
  5
2DCB
  8
AM_0
 10
607.99250596495449
 20
446.29929809072519
 30
0.0
 11
612.23510596495419
 21
450.54194309072511
 31
0.0
  0
LINE
  5
2DCC
  8
ﾁｭｳｼﾝｾﾝ
 10
454.31789199807298
 20
486.42060809072501
 30
0.0
 11
691.58520596495441
 21
486.42060809072501
 31
0.0
  0
ARC
  5
2DCD
  8
AM_0
 10
493.03075596495432
 20
578.75707309072504
 30
0.0
 40
4.000000049999997
 50
124.61365000000001
 51
187.86824999999999
  0
ARC
  5
2DCE
  8
AM_0
 10
479.11380596495439
 20
598.92067309072513
 30
0.0
 40
20.500000499999992
 50
304.61363999999992
 51
235.38634999999999
  0
CIRCLE
  5
2DCF
  8
AM_0
 10
479.11380596495439
 20
598.92067309072513
 30
0.0
 40
12.5
  0
LINE
  5
2DD0
  8
AM_0
 10
489.03665596495421
 20
578.20847309072531
 30
0.0
 11
487.40155596495418
 21
584.31067309072489
 31
0.0
  0
LINE
  5
2DD1
  8
AM_0
 10
484.04400596495441
 20
578.03407309072497
 30
0.0
 11
495.11370596495448
 21
578.42062309072503
 31
0.0
  0
LINE
  5
2DD2
  8
AM_0
 10
482.11375596495418
 20
571.00392309072504
 30
0.0
 11
495.11375596495418
 21
571.00392309072504
 31
0.0
  0
LINE
  5
2DD3
  8
AM_0
 10
482.11375596495418
 20
552.74487309072515
 30
0.0
 11
495.11375596495418
 21
552.74487309072515
 31
0.0
  0
LINE
  5
2DD4
  8
AM_0
 10
482.11375596495418
 20
463.43241809072509
 30
0.0
 11
495.11375596495418
 21
463.43241809072509
 31
0.0
  0
LINE
  5
2DD5
  8
AM_0
 10
483.36980596495442
 20
569.66422309072505
 30
0.0
 11
510.11375596495429
 21
569.66422309072505
 31
0.0
  0
ARC
  5
2DD6
  8
AM_0
 10
377.65445596495431
 20
481.5530530907252
 30
0.0
 40
4.000000049999997
 50
272.0
 51
309.62979000000001
  0
LINE
  5
2DD7
  8
AM_0
 10
359.61375596495401
 20
466.42060809072478
 30
0.0
 11
404.71685596495422
 21
466.42060809072478
 31
0.0
  0
LINE
  5
2DD8
  8
AM_0
 10
377.79400596495452
 20
477.55549309072512
 30
0.0
 11
383.42560596495417
 21
477.75214809072509
 31
0.0
  0
ARC
  5
2DD9
  8
AM_0
 10
350.61375596495401
 20
475.65925444475982
 30
0.0
 40
1.0
 50
91.660847232977403
 51
180.0
1001
GENIUS_GENOBJ-N-FIL_13
1002
{
1000
OWNER
1000
GEN
1002
}
1001
GENIUS_GENODEF_13
1002
{
1000
HIER
1070
     0
1002
}
1002
{
1000
MANEDIT
1070
     0
1002
}
1002
{
1000
NOSEL
1070
     0
1002
}
1002
{
1000
BEHIND
1070
     0
1002
}
1002
{
1000
OTHER
1070
     0
1002
}
1002
{
1000
REACTOR
1002
}
  0
ARC
  5
2DDA
  8
AM_0
 10
344.61375596495418
 20
472.49170090259042
 30
0.0
 40
5.0
 50
314.99999999999562
 51
0.0
1001
GENIUS_GENODEF_13
1002
{
1000
HIER
1070
     0
1002
}
1002
{
1000
MANEDIT
1070
     0
1002
}
1002
{
1000
NOSEL
1070
     0
1002
}
1002
{
1000
BEHIND
1070
     0
1002
}
1002
{
1000
OTHER
1070
     0
1002
}
1002
{
1000
REACTOR
1002
}
1001
GENIUS_GENOBJ-N-FIL_13
1002
{
1000
OWNER
1000
GEN
1002
}
  0
LINE
  5
2DDB
  8
AM_0
 10
359.61375596495401
 20
476.92063809072511
 30
0.0
 11
377.79400596495452
 21
477.55549309072512
 31
0.0
  0
LINE
  5
2DDC
  8
AM_0
 10
350.58477277167083
 20
476.65883434377082
 30
0.0
 11
359.61375596495401
 21
476.920633090725
 31
0.0
  0
LINE
  5
2DDD
  8
AM_0
 10
427.47410596495399
 20
522.20621809072509
 30
0.0
 11
433.6137559649539
 21
522.42063809072511
 31
0.0
  0
LINE
  5
2DDE
  8
AM_0
 10
423.61375596495418
 20
509.99924809072519
 30
0.0
 11
468.113805964954
 21
509.99924809072519
 31
0.0
  0
LINE
  5
2DDF
  8
AM_0
 10
423.61375596495418
 20
487.89530809072488
 30
0.0
 11
468.113805964954
 21
487.89530809072488
 31
0.0
  0
LINE
  5
2DE0
  8
AM_0
 10
382.61375596495429
 20
508.52354309072518
 30
0.0
 11
382.61375596495429
 21
481.87730309072509
 31
0.0
  0
LINE
  5
2DE1
  8
AM_0
 10
386.1143559649546
 20
478.92130809072512
 30
0.0
 11
421.03050596495427
 21
513.83741309072525
 31
0.0
  0
ARC
  5
2DE2
  8
AM_0
 10
379.61375596495401
 20
481.87730309072509
 30
0.0
 40
3.0000000500000001
 50
309.62979000000001
 51
0.0
  0
ARC
  5
2DE3
  8
AM_0
 10
383.28600596495409
 20
481.74970809072511
 30
0.0
 40
4.000000049999997
 50
272.0
 51
315.0
  0
LINE
  5
2DE4
  8
AM_0
 10
385.00025596495419
 20
477.8070780907251
 30
0.0
 11
391.3766559649543
 21
466.42060809072478
 31
0.0
  0
LINE
  5
2DE5
  8
AM_0
 10
381.52720596495431
 20
479.56672309072479
 30
0.0
 11
380.20575596495422
 21
478.47230309072512
 31
0.0
  0
LINE
  5
2DE6
  8
AM_0
 10
385.5091059649543
 20
511.52174309072512
 30
0.0
 11
418.34165596495421
 21
512.66828809072513
 31
0.0
  0
ARC
  5
2DE7
  8
AM_0
 10
385.61380596495422
 20
508.52354309072518
 30
0.0
 40
3.0000000500000001
 50
91.999997999999948
 51
180.00001
  0
ARC
  5
2DE8
  8
AM_0
 10
419.61480596495431
 20
518.07856309072508
 30
0.0
 40
4.000000049999997
 50
315.0
 51
0.9319899799999999
  0
ARC
  5
2DE9
  8
AM_0
 10
418.20215596495422
 20
516.66581309072512
 30
0.0
 40
4.000000049999997
 50
272.0
 51
315.0
  0
LINE
  5
2DEA
  8
AM_0
 10
421.03050596495427
 20
513.83741309072525
 30
0.0
 11
422.4432059649543
 21
515.25013309072494
 31
0.0
  0
ARC
  5
2DEB
  8
AM_0
 10
427.61375596495429
 20
518.20869309072486
 30
0.0
 40
4.000000049999997
 50
91.999997999999948
 51
180.93198000000001
  0
LINE
  5
2DEC
  8
AM_0
 10
433.61370596495448
 20
521.92063809072511
 30
0.0
 11
463.28825596495432
 21
522.95689309072509
 31
0.0
  0
ARC
  5
2DED
  8
AM_0
 10
463.11380596495428
 20
527.95387309072521
 30
0.0
 40
5.0
 50
272.0
 51
0.0
  0
LINE
  5
2DEE
  8
AM_0
 10
470.59275596495439
 20
565.49962309072498
 30
0.0
 11
479.63465596495439
 21
567.09402309072505
 31
0.0
  0
ARC
  5
2DEF
  8
AM_0
 10
471.1137559649539
 20
562.54517309072492
 30
0.0
 40
3.0000000500000001
 50
100.0
 51
180.00001
  0
ARC
  5
2DF0
  8
AM_0
 10
479.11380596495439
 20
570.04837309072514
 30
0.0
 40
3.0000000500000001
 50
280.0
 51
0.0
  0
LINE
  5
2DF1
  8
AM_0
 10
471.61040596495423
 20
585.03537309072499
 30
0.0
 11
479.11380596495439
 21
586.42067309072513
 31
0.0
  0
LINE
  5
2DF2
  8
AM_0
 10
471.29660596495432
 20
584.92067309072513
 30
0.0
 11
486.93090596495449
 21
584.92067309072513
 31
0.0
  0
LINE
  5
2DF3
  8
AM_0
 10
468.79095596495432
 20
577.92067309072513
 30
0.0
 11
483.44645596495451
 21
577.92067309072513
 31
0.0
  0
ARC
  5
2DF4
  8
AM_0
 10
471.79190596495442
 20
584.05187309072505
 30
0.0
 40
1.0
 50
100.4607199999999
 51
164.99999
  0
ARC
  5
2DF5
  8
AM_0
 10
465.19675596495398
 20
578.75707309072504
 30
0.0
 40
4.000000049999997
 50
347.92932999999999
 51
55.386358999999992
  0
ARC
  5
2DF6
  8
AM_0
 10
470.11375596495418
 20
576.42067309072513
 30
0.0
 40
2.0000000500000001
 50
131.4096199999999
 51
180.00001
  0
LINE
  5
2DF7
  8
AM_0
 10
469.11370596495448
 20
577.92067309072513
 30
0.0
 11
470.8259059649543
 21
584.31082309072485
 31
0.0
  0
ARC
  5
2DF8
  8
AM_0
 10
486.43565596495432
 20
584.05187309072505
 30
0.0
 40
1.0
 50
15.0
 51
79.539281000000003
  0
ARC
  5
2DF9
  8
AM_0
 10
484.11380596495428
 20
576.03527309072524
 30
0.0
 40
2.0000000500000001
 50
91.999997999999948
 51
180.00001
  0
LINE
  5
2DFA
  8
AM_0
 10
479.11375596495401
 20
586.42067309072513
 30
0.0
 11
486.61720596495411
 21
585.03527309072524
 31
0.0
  0
LINE
  5
2DFB
  8
AM_0
 10
593.11380596495405
 20
546.42062309072492
 30
0.0
 11
604.11380596495439
 21
546.42062309072492
 31
0.0
  0
LINE
  5
2DFC
  8
AM_0
 10
510.11375596495429
 20
466.43241809072492
 30
0.0
 11
510.11375596495429
 21
549.74487309072515
 31
0.0
  0
LINE
  5
2DFD
  8
AM_0
 10
495.11375596495418
 20
463.43241809072509
 30
0.0
 11
507.11375596495418
 21
463.43241809072509
 31
0.0
  0
ARC
  5
2DFE
  8
AM_0
 10
507.11375596495418
 20
466.43241809072492
 30
0.0
 40
3.0000000500000001
 50
270.0
 51
0.0
  0
ARC
  5
2DFF
  8
AM_0
 10
513.24985596495435
 20
466.93589309072479
 30
0.0
 40
3.0000000500000001
 50
41.102821999999989
 51
90.000003000000007
  0
ARC
  5
2E00
  8
AM_0
 10
575.11375596495441
 20
520.59348809072492
 30
0.0
 40
10.0
 50
90.000003000000007
 51
180.00001
  0
LINE
  5
2E01
  8
AM_0
 10
580.17205596495432
 20
530.59347309072496
 30
0.0
 11
575.11375596495441
 21
530.59347309072496
 31
0.0
  0
LINE
  5
2E02
  8
AM_0
 10
512.04405596495417
 20
572.54322309072518
 30
0.0
 11
577.39300596495423
 21
570.26117309072526
 31
0.0
  0
ARC
  5
2E03
  8
AM_0
 10
513.80530596495453
 20
568.00392309072504
 30
0.0
 40
3.0000000500000001
 50
59.833878000000013
 51
90.000003000000007
  0
LINE
  5
2E04
  8
AM_0
 10
515.31280596495435
 20
570.59762309072528
 30
0.0
 11
525.13885596495425
 21
564.88647309072496
 31
0.0
  0
LINE
  5
2E05
  8
AM_0
 10
511.48015596495452
 20
542.81447309072485
 30
0.0
 11
523.28155596495435
 21
546.75587309072512
 31
0.0
  0
ARC
  5
2E06
  8
AM_0
 10
507.11375596495418
 20
549.74487309072515
 30
0.0
 40
3.0000000500000001
 50
0.0
 51
90.000003000000007
  0
LINE
  5
2E07
  8
AM_0
 10
514.61375596495418
 20
547.89632309072499
 30
0.0
 11
514.61375596495418
 21
569.06947309072496
 31
0.0
  0
LINE
  5
2E08
  8
AM_0
 10
495.11375596495418
 20
552.74487309072515
 30
0.0
 11
507.11375596495418
 21
552.74487309072515
 31
0.0
  0
ARC
  5
2E09
  8
AM_0
 10
514.12610596495438
 20
546.86092309072467
 30
0.0
 40
3.0000000500000001
 50
270.0
 51
288.46821999999992
  0
ARC
  5
2E0A
  8
AM_0
 10
520.11375596495441
 20
556.2407730907247
 30
0.0
 40
10.0
 50
288.46821
 51
59.833878000000013
  0
LINE
  5
2E0B
  8
AM_0
 10
495.11380596495428
 20
578.42062309072503
 30
0.0
 11
508.18365596495431
 21
577.96417309072501
 31
0.0
  0
LINE
  5
2E0C
  8
AM_0
 10
495.11375596495418
 20
571.00392309072504
 30
0.0
 11
513.80530596495453
 21
571.00392309072504
 31
0.0
  0
LINE
  5
2E0D
  8
AM_0
 10
493.113805964954
 20
578.35077309072528
 30
0.0
 11
493.113805964954
 21
578.4206730907249
 31
0.0
  0
LINE
  5
2E0E
  8
AM_0
 10
493.113805964954
 20
578.4206730907249
 30
0.0
 11
495.11375596495418
 21
578.4206730907249
 31
0.0
  0
ARC
  5
2E0F
  8
AM_0
 10
512.11375596495395
 20
574.54202309072491
 30
0.0
 40
2.0000000500000001
 50
179.99998999999991
 51
268.00000999999992
  0
ARC
  5
2E10
  8
AM_0
 10
508.11380596495428
 20
575.96547309072503
 30
0.0
 40
2.0000000500000001
 50
0.0
 51
88.0
  0
LINE
  5
2E11
  8
AM_0
 10
510.11375596495429
 20
571.00392309072504
 30
0.0
 11
510.11375596495429
 21
575.96547309072503
 31
0.0
  0
ARC
  5
2E12
  8
AM_0
 10
577.11375596495418
 20
562.26602309072518
 30
0.0
 40
8.0
 50
0.0
 51
88.0
  0
ARC
  5
2E13
  8
AM_0
 10
593.11380596495405
 20
554.42067309072513
 30
0.0
 40
8.0
 50
180.00001
 51
270.0
  0
LINE
  5
2E14
  8
AM_0
 10
607.11375596495418
 20
486.42060809072501
 30
0.0
 11
607.11375596495418
 21
543.42062309072492
 31
0.0
  0
LINE
  5
2E15
  8
AM_0
 10
617.11375596495407
 20
507.42063809072488
 30
0.0
 11
687.11375596495407
 21
507.42063809072488
 31
0.0
  0
LINE
  5
2E16
  8
AM_0
 10
617.11375596495407
 20
465.42063809072488
 30
0.0
 11
687.11375596495407
 21
465.42063809072488
 31
0.0
  0
LINE
  5
2E17
  8
AM_0
 10
631.11375596495418
 20
510.42063809072511
 30
0.0
 11
687.11375596495407
 21
510.42063809072511
 31
0.0
  0
LINE
  5
2E18
  8
AM_0
 10
613.11380596495428
 20
486.42060809072501
 30
0.0
 11
613.11380596495428
 21
526.177973090725
 31
0.0
  0
LINE
  5
2E19
  8
AM_0
 10
617.11375596495407
 20
463.92060809072478
 30
0.0
 11
617.11375596495407
 21
508.92060809072478
 31
0.0
  0
LINE
  5
2E1A
  8
AM_0
 10
613.11380596495428
 20
463.92060809072478
 30
0.0
 11
617.11375596495407
 21
463.92060809072478
 31
0.0
  0
LINE
  5
2E1B
  8
AM_0
 10
613.11380596495428
 20
508.92060809072478
 30
0.0
 11
617.11375596495407
 21
508.92060809072478
 31
0.0
  0
ARC
  5
2E1C
  8
AM_0
 10
610.11375596495441
 20
534.66327309072494
 30
0.0
 40
3.0000000500000001
 50
179.99998999999991
 51
225.0
  0
ARC
  5
2E1D
  8
AM_0
 10
610.11375596495441
 20
526.177973090725
 30
0.0
 40
3.0000000500000001
 50
0.0
 51
45.00000099999999
  0
LINE
  5
2E1E
  8
AM_0
 10
607.9924059649544
 20
532.54197309072492
 30
0.0
 11
612.23510596495419
 21
528.2993230907249
 31
0.0
  0
LINE
  5
2E1F
  8
AM_0
 10
631.11375596495418
 20
510.42063809072511
 30
0.0
 11
631.11375596495418
 21
507.42063809072488
 31
0.0
  0
LINE
  5
2E20
  8
AM_0
 10
687.11375596495407
 20
465.42063809072488
 30
0.0
 11
687.11375596495407
 21
510.42063809072511
 31
0.0
  0
ARC
  5
2E21
  8
AM_0
 10
604.11380596495439
 20
543.42062309072492
 30
0.0
 40
3.0000000500000001
 50
0.0
 51
90.000003000000007
  0
LINE
  5
2E22
  8
ﾁｭｳｼﾝｾﾝ
 10
985.34041730457216
 20
620.96332309072488
 30
0.0
 11
985.34041730457216
 21
310.45102809072512
 31
0.0
  0
ARC
  5
2E23
  8
AM_0
 10
851.45742230457142
 20
465.75080809072512
 30
0.0
 40
5.0
 50
315.0
 51
352.62448999999998
  0
ARC
  5
2E24
  8
AM_0
 10
1119.223412304571
 20
465.75080809072512
 30
0.0
 40
5.0
 50
187.37550999999999
 51
225.0
  0
ARC
  5
2E25
  8
AM_0
 10
985.34041730457216
 20
458.42063809072511
 30
0.0
 40
88.0
 50
0.0
 51
186.52497999999991
  0
CIRCLE
  5
2E26
  8
AM_0
 10
985.34041730457216
 20
486.42060809072501
 30
0.0
 40
41.000000499999992
  0
LINE
  5
2E27
  8
AM_0
 10
1079.340417304571
 20
530.05547309072494
 30
0.0
 11
1079.340417304571
 21
410.80598309072491
 31
0.0
  0
LINE
  5
2E28
  8
AM_0
 10
1108.88534230457
 20
463.81220809072482
 30
0.0
 11
1125.3020573045719
 21
332.03876809072489
 31
0.0
  0
LINE
  5
2E29
  8
AM_0
 10
891.34038730457189
 20
530.05547309072494
 30
0.0
 11
891.34038730457189
 21
414.41077809072488
 31
0.0
  0
LINE
  5
2E2A
  8
AM_0
 10
861.79542230457184
 20
463.81220809072482
 30
0.0
 11
845.37872230457185
 21
332.03876809072489
 31
0.0
  0
LINE
  5
2E2B
  8
AM_0
 10
848.26937230457179
 20
455.49168309072502
 30
0.0
 11
861.60922230457174
 21
468.83158809072518
 31
0.0
  0
LINE
  5
2E2C
  8
AM_0
 10
1122.4114923045711
 20
455.49168309072502
 30
0.0
 11
1109.071622304572
 21
468.83155309072492
 31
0.0
  0
LINE
  5
2E2D
  8
ﾁｭｳｼﾝｾﾝ
 10
867.09301008885654
 20
420.42063309072512
 30
0.0
 11
1104.668542660386
 21
420.42063309072512
 31
0.0
  0
LINE
  5
2E2E
  8
AM_0
 10
914.98595230457181
 20
326.15128809072507
 30
0.0
 11
1055.6948823045691
 21
326.15128809072507
 31
0.0
  0
LINE
  5
2E2F
  8
AM_0
 10
918.34038730457189
 20
331.42060309072508
 30
0.0
 11
1052.3404173045719
 21
331.42060309072508
 31
0.0
  0
LINE
  5
2E30
  8
AM_0
 10
904.34038730457155
 20
316.42060309072508
 30
0.0
 11
1066.706172304572
 21
316.42060309072508
 31
0.0
  0
LINE
  5
2E31
  8
ｶｸﾚｾﾝ2
 10
879.84042230457203
 20
336.42060309072519
 30
0.0
 11
879.84042230457203
 21
311.42060309072519
 31
0.0
  0
LINE
  5
2E32
  8
ｶｸﾚｾﾝ2
 10
860.84042230457169
 20
336.42060309072519
 30
0.0
 11
860.84042230457169
 21
311.42060309072519
 31
0.0
  0
LINE
  5
2E33
  8
ﾁｭｳｼﾝｾﾝ
 10
870.34042230457169
 20
340.92850809072507
 30
0.0
 11
870.34042230457169
 21
304.44510809072511
 31
0.0
  0
ARC
  5
2E34
  8
AM_0
 10
902.36223730457141
 20
324.2564480907248
 30
0.0
 40
8.0
 50
279.48829999999998
 51
357.00554
  0
LINE
  5
2E35
  8
AM_0
 10
896.64040230457181
 20
332.42063309072512
 30
0.0
 11
896.64040230457181
 21
311.42060309072519
 31
0.0
  0
LINE
  5
2E36
  8
AM_0
 10
845.34042230457169
 20
331.42060309072508
 30
0.0
 11
845.34042230457169
 21
311.42060309072519
 31
0.0
  0
LINE
  5
2E37
  8
AM_0
 10
845.34042230457169
 20
311.42060309072519
 30
0.0
 11
900.3404173045717
 21
311.42060309072519
 31
0.0
  0
ARC
  5
2E38
  8
AM_0
 10
904.34038730457155
 20
312.42063309072512
 30
0.0
 40
4.000000049999997
 50
99.488295999999963
 51
180.00001
  0
LINE
  5
2E39
  8
AM_0
 10
900.3404173045717
 20
312.42063309072512
 30
0.0
 11
900.3404173045717
 21
311.42060309072519
 31
0.0
  0
ARC
  5
2E3A
  8
AM_0
 10
985.34041730457216
 20
414.41077809072488
 30
0.0
 40
93.999994999999984
 50
179.99998999999991
 51
200.58195999999981
  0
LINE
  5
2E3B
  8
AM_0
 10
897.34041730457204
 20
448.42063809072488
 30
0.0
 11
897.34041730457204
 21
344.42063309072512
 31
0.0
  0
LINE
  5
2E3C
  8
AM_0
 10
850.34042230457158
 20
336.42060309072519
 30
0.0
 11
892.64040230457181
 21
336.42060309072519
 31
0.0
  0
ARC
  5
2E3D
  8
AM_0
 10
850.34042230457158
 20
331.42060309072508
 30
0.0
 40
5.0
 50
90.000003000000007
 51
180.00001
  0
ARC
  5
2E3E
  8
AM_0
 10
889.34038730457178
 20
344.42063309072512
 30
0.0
 40
8.0
 50
270.0
 51
0.0
  0
ARC
  5
2E3F
  8
AM_0
 10
892.64040230457181
 20
332.42063309072512
 30
0.0
 40
4.000000049999997
 50
0.0
 51
90.000003000000007
  0
ARC
  5
2E40
  8
AM_0
 10
914.98595230457181
 20
321.15128809072507
 30
0.0
 40
5.0
 50
90.000003000000007
 51
166.18078
  0
ARC
  5
2E41
  8
AM_0
 10
918.34038730457189
 20
323.42063309072512
 30
0.0
 40
8.0
 50
90.000003000000007
 51
177.00553999999991
  0
LINE
  5
2E42
  8
AM_0
 10
848.26937230457179
 20
441.34955809072511
 30
0.0
 11
856.08027230457185
 21
433.53858809072511
 31
0.0
  0
ARC
  5
2E43
  8
AM_0
 10
855.34042230457169
 20
448.42063809072488
 30
0.0
 40
10.0
 50
135.0
 51
225.0
  0
ARC
  5
2E44
  8
AM_0
 10
851.45742230457142
 20
431.09046809072481
 30
0.0
 40
5.0
 50
7.3755080999999967
 51
45.00000099999999
  0
ARC
  5
2E45
  8
AM_0
 10
852.54477230457201
 20
430.00303309072513
 30
0.0
 40
5.0
 50
352.89852000000002
 51
45.00000099999999
  0
ARC
  5
2E46
  8
AM_0
 10
985.34041730457216
 20
448.42063809072488
 30
0.0
 40
130.0
 50
187.37550999999999
 51
189.62446
  0
LINE
  5
2E47
  8
ｶｸﾚｾﾝ2
 10
1109.8403873045711
 20
336.42060309072519
 30
0.0
 11
1109.8403873045711
 21
311.42060309072519
 31
0.0
  0
LINE
  5
2E48
  8
ｶｸﾚｾﾝ2
 10
1090.8403873045711
 20
336.42060309072519
 30
0.0
 11
1090.8403873045711
 21
311.42060309072519
 31
0.0
  0
LINE
  5
2E49
  8
ﾁｭｳｼﾝｾﾝ
 10
1100.3404173045719
 20
340.27079309072508
 30
0.0
 11
1100.3404173045719
 21
304.44510809072511
 31
0.0
  0
ARC
  5
2E4A
  8
AM_0
 10
1068.31856730457
 20
324.2564480907248
 30
0.0
 40
8.0
 50
182.99446
 51
260.51170000000002
  0
LINE
  5
2E4B
  8
AM_0
 10
1125.34040230457
 20
331.42060309072508
 30
0.0
 11
1125.34040230457
 21
311.42060309072519
 31
0.0
  0
LINE
  5
2E4C
  8
AM_0
 10
1074.040402304571
 20
332.42063309072512
 30
0.0
 11
1074.040402304571
 21
311.42060309072519
 31
0.0
  0
LINE
  5
2E4D
  8
AM_0
 10
1070.3404173045701
 20
311.42060309072519
 30
0.0
 11
1125.34040230457
 21
311.42060309072519
 31
0.0
  0
ARC
  5
2E4E
  8
AM_0
 10
1066.3403873045711
 20
312.42063309072512
 30
0.0
 40
4.000000049999997
 50
0.0
 51
80.511701999999985
  0
LINE
  5
2E4F
  8
AM_0
 10
1070.3404173045701
 20
312.42063309072512
 30
0.0
 11
1070.3404173045701
 21
311.42060309072519
 31
0.0
  0
ARC
  5
2E50
  8
AM_0
 10
985.34041730457216
 20
414.41077809072488
 30
0.0
 40
93.999994999999984
 50
339.95001999999982
 51
20.049976000000001
  0
LINE
  5
2E51
  8
AM_0
 10
1073.3403873045711
 20
458.42063809072511
 30
0.0
 11
1073.3403873045711
 21
344.42063309072512
 31
0.0
  0
LINE
  5
2E52
  8
AM_0
 10
1081.3403873045711
 20
336.42060309072519
 30
0.0
 11
1120.340417304571
 21
336.42060309072519
 31
0.0
  0
ARC
  5
2E53
  8
AM_0
 10
1081.3403873045711
 20
344.42063309072512
 30
0.0
 40
8.0
 50
180.00001
 51
270.0
  0
ARC
  5
2E54
  8
AM_0
 10
1055.6948823045691
 20
321.15128809072507
 30
0.0
 40
5.0
 50
13.819217
 51
90.000003000000007
  0
ARC
  5
2E55
  8
AM_0
 10
1052.3404173045719
 20
323.42063309072512
 30
0.0
 40
8.0
 50
2.9944643999999991
 51
90.000003000000007
  0
ARC
  5
2E56
  8
AM_0
 10
1078.040402304571
 20
332.42063309072512
 30
0.0
 40
4.000000049999997
 50
90.000003000000007
 51
180.00001
  0
ARC
  5
2E57
  8
AM_0
 10
1078.3403873045711
 20
380.46964809072512
 30
0.0
 40
5.0
 50
159.95003
 51
180.00001
  0
ARC
  5
2E58
  8
AM_0
 10
1120.340417304571
 20
331.42060309072508
 30
0.0
 40
5.0
 50
0.0
 51
90.000003000000007
  0
ARC
  5
2E59
  8
AM_0
 10
1078.3403873045711
 20
448.35187809072488
 30
0.0
 40
5.0
 50
179.99998999999991
 51
200.04997
  0
ARC
  5
2E5A
  8
AM_0
 10
1115.3404173045719
 20
448.42063809072488
 30
0.0
 40
10.0
 50
315.0
 51
45.00000099999999
  0
ARC
  5
2E5B
  8
AM_0
 10
1119.223412304571
 20
431.09046809072481
 30
0.0
 40
5.0
 50
135.0
 51
172.62448999999989
  0
ARC
  5
2E5C
  8
AM_0
 10
1118.1360423045701
 20
430.00303309072513
 30
0.0
 40
5.0
 50
135.0
 51
187.1014899999999
  0
ARC
  5
2E5D
  8
AM_0
 10
985.34041730457216
 20
448.42063809072488
 30
0.0
 40
130.0
 50
350.37554999999998
 51
352.62448999999998
  0
LINE
  5
2E5E
  8
AM_0
 10
1122.4114923045711
 20
441.34955809072511
 30
0.0
 11
1114.6005223045711
 21
433.53858809072511
 31
0.0
  0
ARC
  5
2E5F
  8
AM_0
 10
933.40728230457194
 20
573.03182309072497
 30
0.0
 40
5.0
 50
255.0
 51
292.62448999999998
  0
ARC
  5
2E60
  8
AM_0
 10
985.34041730457216
 20
448.42063809072488
 30
0.0
 40
124.5
 50
7.1014839000000007
 51
172.89851999999991
  0
LINE
  5
2E61
  8
AM_0
 10
922.92864230457189
 20
570.66322309072496
 30
0.0
 11
941.15123730457185
 21
565.78047309072485
 31
0.0
  0
ARC
  5
2E62
  8
AM_0
 10
985.34041730457216
 20
448.42063809072488
 30
0.0
 40
130.0
 50
127.3754999999999
 51
172.62448999999989
  0
ARC
  5
2E63
  8
AM_0
 10
858.07367230457169
 20
472.36710809072508
 30
0.0
 40
5.0
 50
315.0
 51
349.34381999999982
  0
ARC
  5
2E64
  8
AM_0
 10
920.34041730457204
 20
561.00392309072492
 30
0.0
 40
10.0
 50
74.999999000000003
 51
164.99999
  0
ARC
  5
2E65
  8
AM_0
 10
900.96877230457153
 20
546.66357309072509
 30
0.0
 40
5.0
 50
310.65618000000001
 51
345.0
  0
ARC
  5
2E66
  8
AM_0
 10
903.39052730457183
 20
555.70167309072508
 30
0.0
 40
5.0
 50
307.37551000000002
 51
345.0
  0
LINE
  5
2E67
  8
AM_0
 10
910.68117730457141
 20
563.59217309072505
 30
0.0
 11
905.79842230457189
 21
545.36952309072512
 31
0.0
  0
LINE
  5
2E68
  8
AM_0
 10
989.34038730457155
 20
615.42062309072503
 30
0.0
 11
989.34038730457155
 21
581.92067309072513
 31
0.0
  0
LINE
  5
2E69
  8
AM_0
 10
981.34038730457144
 20
615.42062309072503
 30
0.0
 11
981.34038730457144
 21
581.92067309072513
 31
0.0
  0
LINE
  5
2E6A
  8
AM_0
 10
1047.7522223045701
 20
570.66317309072497
 30
0.0
 11
1029.5295973045711
 21
565.78042309072498
 31
0.0
  0
LINE
  5
2E6B
  8
ﾁｭｳｼﾝｾﾝ
 10
918.34038730457189
 20
486.42060809072501
 30
0.0
 11
1052.3404173045719
 21
486.42060809072501
 31
0.0
  0
CIRCLE
  5
2E6C
  8
AM_5
 10
985.34041730457216
 20
486.42060809072501
 30
0.0
 40
5.0
  0
ARC
  5
2E6D
  8
AM_0
 10
985.34041730457216
 20
486.42060809072501
 30
0.0
 40
20.9999985
 50
106.60155
 51
73.398452000000006
  0
LINE
  5
2E6E
  8
AM_0
 10
979.34038730457155
 20
502.42063809072511
 30
0.0
 11
991.34038730457155
 21
502.42063809072511
 31
0.0
  0
LINE
  5
2E6F
  8
AM_0
 10
979.34038730457155
 20
510.42063809072511
 30
0.0
 11
991.34038730457155
 21
510.42063809072511
 31
0.0
  0
CIRCLE
  5
2E70
  8
AM_0
 10
985.34041730457216
 20
486.42060809072501
 30
0.0
 40
3.5000000500000001
  0
LINE
  5
2E71
  8
AM_0
 10
979.34038730457155
 20
510.42063809072511
 30
0.0
 11
979.34038730457155
 21
502.42063809072511
 31
0.0
  0
LINE
  5
2E72
  8
AM_0
 10
991.34038730457155
 20
510.42063809072511
 30
0.0
 11
991.34038730457155
 21
502.42063809072511
 31
0.0
  0
ARC
  5
2E73
  8
AM_0
 10
991.34038730457155
 20
581.92067309072513
 30
0.0
 40
2.0000000500000001
 50
179.99998999999991
 51
270.0
  0
ARC
  5
2E74
  8
AM_0
 10
985.34041730457216
 20
448.42063809072488
 30
0.0
 40
130.0
 50
67.375506000000001
 51
112.62448999999999
  0
ARC
  5
2E75
  8
AM_0
 10
942.445307304572
 20
570.61007309072511
 30
0.0
 40
5.0
 50
255.0
 51
289.34381999999982
  0
ARC
  5
2E76
  8
AM_0
 10
978.01854730457194
 20
584.05187309072505
 30
0.0
 40
1.0
 50
100.4607199999999
 51
164.99999
  0
ARC
  5
2E77
  8
AM_0
 10
979.34038730457155
 20
581.92067309072513
 30
0.0
 40
2.0000000500000001
 50
270.0
 51
0.0
  0
LINE
  5
2E78
  8
AM_0
 10
981.34041730457204
 20
585.682073090725
 30
0.0
 11
977.83696730457143
 21
585.03527309072524
 31
0.0
  0
LINE
  5
2E79
  8
AM_0
 10
975.37185230457169
 20
578.03787309072504
 30
0.0
 11
977.05266730457197
 21
584.31072309072511
 31
0.0
  0
ARC
  5
2E7A
  8
AM_0
 10
1028.235497304571
 20
570.61007309072511
 30
0.0
 40
5.0
 50
250.65617999999989
 51
285.0
  0
ARC
  5
2E7B
  8
AM_0
 10
1037.273552304571
 20
573.03182309072497
 30
0.0
 40
5.0
 50
247.37550999999991
 51
285.0
  0
ARC
  5
2E7C
  8
AM_0
 10
992.66225730457188
 20
584.05187309072505
 30
0.0
 40
1.0
 50
15.0
 51
79.539281000000003
  0
LINE
  5
2E7D
  8
AM_0
 10
989.34038730457155
 20
585.68212309072476
 30
0.0
 11
992.84380230457191
 21
585.03527309072524
 31
0.0
  0
LINE
  5
2E7E
  8
AM_0
 10
995.30898230457183
 20
578.03787309072504
 30
0.0
 11
993.62819730457215
 21
584.31067309072489
 31
0.0
  0
ARC
  5
2E7F
  8
AM_0
 10
985.34041730457216
 20
448.42063809072488
 30
0.0
 40
130.0
 50
7.3755071999999986
 51
52.624493999999991
  0
ARC
  5
2E80
  8
AM_0
 10
1112.607112304571
 20
472.36710809072508
 30
0.0
 40
5.0
 50
190.65618000000001
 51
225.0
  0
ARC
  5
2E81
  8
AM_0
 10
1050.3404173045719
 20
561.00392309072492
 30
0.0
 40
10.0
 50
15.0
 51
104.9999999999998
  0
ARC
  5
2E82
  8
AM_0
 10
1067.2902773045701
 20
555.70167309072508
 30
0.0
 40
5.0
 50
195.00001
 51
232.62450000000001
  0
LINE
  5
2E83
  8
AM_0
 10
1059.999687304572
 20
563.59207309072485
 30
0.0
 11
1064.882412304572
 21
545.3694730907248
 31
0.0
  0
ARC
  5
2E84
  8
AM_0
 10
1069.7120323045719
 20
546.66357309072509
 30
0.0
 40
5.0
 50
195.00001
 51
229.34381999999991
  0
ARC
  5
2E85
  8
AM_0
 10
985.34041730457216
 20
615.42062309072503
 30
0.0
 40
4.000000049999997
 50
359.99998999999991
 51
179.99998999999991
  0
LINE
  5
2E86
  8
AM_0
 10
359.61375596495401
 20
452.3580720907251
 30
0.0
 11
349.61375596495401
 21
452.3580720907251
 31
0.0
  0
LINE
  5
2E87
  8
AM_0
 10
359.61375596495401
 20
466.42063809072511
 30
0.0
 11
349.61375596495401
 21
466.42063809072511
 31
0.0
  0
LINE
  5
2E88
  8
AM_0
 10
359.61375596495401
 20
374.4206310907249
 30
0.0
 11
349.61375596495418
 21
374.4206310907249
 31
0.0
  0
LINE
  5
2E89
  8
AM_0
 10
359.61375596495401
 20
388.48319409072491
 30
0.0
 11
349.61375596495401
 21
388.48319409072491
 31
0.0
  0
ARC
  5
2E8A
  8
AM_0
 10
304.11368596495402
 20
888.74865946088505
 30
0.0
 40
2.0
 50
134.9999999999996
 51
180.0
1001
GENIUS_GENODEF_13
1002
{
1000
HIER
1070
     0
1002
}
1002
{
1000
MANEDIT
1070
     0
1002
}
1002
{
1000
NOSEL
1070
     0
1002
}
1002
{
1000
BEHIND
1070
     0
1002
}
1002
{
1000
OTHER
1070
     0
1002
}
1002
{
1000
REACTOR
1002
}
1001
GENIUS_GENOBJ-N-FIL_13
1002
{
1000
OWNER
1000
GEN
1002
}
  0
LINE
  5
2E8B
  8
AM_0
 10
349.61368596495402
 20
929.81570793966625
 30
0.0
 11
349.61368596495493
 21
819.33846523159639
 31
0.0
  0
LINE
  5
2E8C
  8
AM_0
 10
304.11368596495379
 20
851.57708658563092
 30
0.0
 11
304.11368596495402
 21
897.57708658563126
 31
0.0
  0
LINE
  5
2E8D
  8
AM_0
 10
324.61368596495402
 20
899.57708658563092
 30
0.0
 11
324.61368596495402
 21
849.57708658563092
 31
0.0
  0
LINE
  5
2E8E
  8
AM_0
 10
275.11368596495402
 20
880.57708658563126
 30
0.0
 11
300.11368596495402
 21
880.57708658563126
 31
0.0
  0
LINE
  5
2E8F
  8
AM_0
 10
275.11368596495402
 20
868.57708658563138
 30
0.0
 11
300.11368596495402
 21
868.57708658563138
 31
0.0
  0
LINE
  5
2E90
  8
AM_0
 10
275.11368596495402
 20
876.57708658563138
 30
0.0
 11
293.11368596495402
 21
876.57708658563092
 31
0.0
  0
LINE
  5
2E91
  8
AM_0
 10
275.11368596495402
 20
872.57708658563126
 30
0.0
 11
293.11368596495402
 21
872.57708658563126
 31
0.0
  0
LINE
  5
2E92
  8
AM_0
 10
275.11368596495402
 20
880.57708658563126
 30
0.0
 11
275.11368596495402
 21
868.57708658563138
 31
0.0
  0
ARC
  5
2E93
  8
AM_0
 10
293.11368596495402
 20
874.57708658563126
 30
0.0
 40
1.9999999999998861
 50
270.0
 51
90.0
  0
LINE
  5
2E94
  8
AM_0
 10
293.11368596495402
 20
876.57708658563092
 30
0.0
 11
293.11368596495402
 21
872.57708658563126
 31
0.0
  0
LINE
  5
2E95
  8
AM_0
 10
348.14921987088678
 20
826.04155267969816
 30
0.0
 11
327.54261815308848
 21
846.64815439749691
 31
0.0
  0
ARC
  5
2E96
  8
AM_0
 10
344.61368596495402
 20
822.50601877376573
 30
0.0
 40
5.0
 50
0.0
 51
45.00000000000022
1001
GENIUS_GENODEF_13
1002
{
1000
HIER
1070
     0
1002
}
1002
{
1000
MANEDIT
1070
     0
1002
}
1002
{
1000
NOSEL
1070
     0
1002
}
1002
{
1000
BEHIND
1070
     0
1002
}
1002
{
1000
OTHER
1070
     0
1002
}
1002
{
1000
REACTOR
1002
}
1001
GENIUS_GENOBJ-N-FIL_13
1002
{
1000
OWNER
1000
GEN
1002
}
  0
ARC
  5
2E97
  8
AM_0
 10
350.61368596495402
 20
819.33846523159639
 30
0.0
 40
1.0
 50
180.0
 51
268.33915276702578
1001
GENIUS_GENOBJ-N-FIL_13
1002
{
1000
OWNER
1000
GEN
1002
}
1001
GENIUS_GENODEF_13
1002
{
1000
HIER
1070
     0
1002
}
1002
{
1000
MANEDIT
1070
     0
1002
}
1002
{
1000
NOSEL
1070
     0
1002
}
1002
{
1000
BEHIND
1070
     0
1002
}
1002
{
1000
OTHER
1070
     0
1002
}
1002
{
1000
REACTOR
1002
}
  0
LINE
  5
2E98
  8
AM_0
 10
350.58470277167078
 20
818.33888533258528
 30
0.0
 11
359.61368596495402
 21
818.07708658563126
 31
0.0
  0
LINE
  5
2E99
  8
AM_0
 10
359.61368596495402
 20
842.63964758563145
 30
0.0
 11
349.61368596495402
 21
842.63964758563145
 31
0.0
  0
LINE
  5
2E9A
  8
AM_0
 10
359.61368596495402
 20
828.57708458563081
 30
0.0
 11
349.6136859649543
 21
828.57708458563081
 31
0.0
  0
LINE
  5
2E9B
  8
AM_0
 10
300.11368596495402
 20
882.07708658563138
 30
0.0
 11
300.11368596495402
 21
867.07707895623662
 31
0.0
  0
LINE
  5
2E9C
  8
AM_0
 10
302.11368596495402
 20
888.74865946088505
 30
0.0
 11
302.11368596495402
 21
860.40551371037725
 31
0.0
  0
LINE
  5
2E9D
  8
AM_0
 10
306.11368596495402
 20
849.57708658563126
 30
0.0
 11
320.47155034122312
 21
849.57708658563126
 31
0.0
  0
ARC
  5
2E9E
  8
AM_0
 10
302.11368596495402
 20
856.74865946088494
 30
0.0
 40
2.0
 50
0.0
 51
45.00000000000022
1001
GENIUS_GENODEF_13
1002
{
1000
HIER
1070
     0
1002
}
1002
{
1000
MANEDIT
1070
     0
1002
}
1002
{
1000
NOSEL
1070
     0
1002
}
1002
{
1000
BEHIND
1070
     0
1002
}
1002
{
1000
OTHER
1070
     0
1002
}
1002
{
1000
REACTOR
1002
}
1001
GENIUS_GENOBJ-N-FIL_13
1002
{
1000
OWNER
1000
GEN
1002
}
  0
ARC
  5
2E9F
  8
AM_0
 10
306.11368596495402
 20
851.57708658563138
 30
0.0
 40
2.0
 50
180.0
 51
270.0
1001
GENIUS_GENODEF_13
1002
{
1000
HIER
1070
     0
1002
}
1002
{
1000
MANEDIT
1070
     0
1002
}
1002
{
1000
NOSEL
1070
     0
1002
}
1002
{
1000
BEHIND
1070
     0
1002
}
1002
{
1000
OTHER
1070
     0
1002
}
1002
{
1000
REACTOR
1002
}
1001
GENIUS_GENOBJ-N-FIL_13
1002
{
1000
OWNER
1000
GEN
1002
}
  0
LINE
  5
2EA0
  8
AM_0
 10
300.11368596495402
 20
867.07707895623662
 30
0.0
 11
302.11368596495402
 21
867.07707895623662
 31
0.0
  0
LINE
  5
2EA1
  8
AM_0
 10
302.69947240258108
 20
858.99130014800414
 30
0.0
 11
303.52789952732712
 21
858.16287302325782
 31
0.0
  0
ARC
  5
2EA2
  8
AM_0
 10
304.11368596495402
 20
860.40551371037725
 30
0.0
 40
2.0
 50
180.0
 51
225.0000000000002
1001
GENIUS_GENODEF_13
1002
{
1000
HIER
1070
     0
1002
}
1002
{
1000
MANEDIT
1070
     0
1002
}
1002
{
1000
NOSEL
1070
     0
1002
}
1002
{
1000
BEHIND
1070
     0
1002
}
1002
{
1000
OTHER
1070
     0
1002
}
1002
{
1000
REACTOR
1002
}
1001
GENIUS_GENOBJ-N-FIL_13
1002
{
1000
OWNER
1000
GEN
1002
}
  0
ARC
  5
2EA3
  8
AM_0
 10
320.47155034122301
 20
839.57708658563126
 30
0.0
 40
10.0
 50
45.00000000000022
 51
90.0
1001
GENIUS_GENOBJ-N-FIL_13
1002
{
1000
OWNER
1000
GEN
1002
}
1001
GENIUS_GENODEF_13
1002
{
1000
HIER
1070
     0
1002
}
1002
{
1000
MANEDIT
1070
     0
1002
}
1002
{
1000
NOSEL
1070
     0
1002
}
1002
{
1000
BEHIND
1070
     0
1002
}
1002
{
1000
OTHER
1070
     0
1002
}
1002
{
1000
REACTOR
1002
}
  0
LINE
  5
2EA4
  8
AM_0
 10
300.11368596495402
 20
882.07708658563138
 30
0.0
 11
302.11368596495402
 21
882.07708658563138
 31
0.0
  0
LINE
  5
2EA5
  8
AM_0
 10
348.14921987088678
 20
923.11262049156392
 30
0.0
 11
327.54261815308848
 21
902.50601877376585
 31
0.0
  0
LINE
  5
2EA6
  8
AM_0
 10
306.11368596495402
 20
899.57708658563126
 30
0.0
 11
320.47155034122312
 21
899.57708658563126
 31
0.0
  0
ARC
  5
2EA7
  8
AM_0
 10
306.11368596495402
 20
897.57708658563126
 30
0.0
 40
2.0
 50
90.0
 51
180.0
1001
GENIUS_GENODEF_13
1002
{
1000
HIER
1070
     0
1002
}
1002
{
1000
MANEDIT
1070
     0
1002
}
1002
{
1000
NOSEL
1070
     0
1002
}
1002
{
1000
BEHIND
1070
     0
1002
}
1002
{
1000
OTHER
1070
     0
1002
}
1002
{
1000
REACTOR
1002
}
1001
GENIUS_GENOBJ-N-FIL_13
1002
{
1000
OWNER
1000
GEN
1002
}
  0
LINE
  5
2EA8
  8
AM_0
 10
302.69947240258108
 20
890.16287302325782
 30
0.0
 11
303.52789952732712
 21
890.99130014800426
 31
0.0
  0
ARC
  5
2EA9
  8
AM_0
 10
302.11368596495402
 20
892.40551371037725
 30
0.0
 40
2.0
 50
314.99999999999972
 51
0.0
1001
GENIUS_GENODEF_13
1002
{
1000
HIER
1070
     0
1002
}
1002
{
1000
MANEDIT
1070
     0
1002
}
1002
{
1000
NOSEL
1070
     0
1002
}
1002
{
1000
BEHIND
1070
     0
1002
}
1002
{
1000
OTHER
1070
     0
1002
}
1002
{
1000
REACTOR
1002
}
1001
GENIUS_GENOBJ-N-FIL_13
1002
{
1000
OWNER
1000
GEN
1002
}
  0
ARC
  5
2EAA
  8
AM_0
 10
320.47155034122312
 20
909.57708658563138
 30
0.0
 40
10.0
 50
270.0
 51
314.99999999999972
1001
GENIUS_GENODEF_13
1002
{
1000
HIER
1070
     0
1002
}
1002
{
1000
MANEDIT
1070
     0
1002
}
1002
{
1000
NOSEL
1070
     0
1002
}
1002
{
1000
BEHIND
1070
     0
1002
}
1002
{
1000
OTHER
1070
     0
1002
}
1002
{
1000
REACTOR
1002
}
1001
GENIUS_GENOBJ-N-FIL_13
1002
{
1000
OWNER
1000
GEN
1002
}
  0
LINE
  5
2EAB
  8
AM_0
 10
359.61368596495402
 20
906.51452558563153
 30
0.0
 11
349.61368596495402
 21
906.51452558563153
 31
0.0
  0
ARC
  5
2EAC
  8
AM_0
 10
350.61368596495402
 20
929.81570793966625
 30
0.0
 40
1.0
 50
91.660847232974191
 51
180.0
1001
GENIUS_GENOBJ-N-FIL_13
1002
{
1000
OWNER
1000
GEN
1002
}
1001
GENIUS_GENODEF_13
1002
{
1000
HIER
1070
     0
1002
}
1002
{
1000
MANEDIT
1070
     0
1002
}
1002
{
1000
NOSEL
1070
     0
1002
}
1002
{
1000
BEHIND
1070
     0
1002
}
1002
{
1000
OTHER
1070
     0
1002
}
1002
{
1000
REACTOR
1002
}
  0
ARC
  5
2EAD
  8
AM_0
 10
344.61368596495402
 20
926.6481543974968
 30
0.0
 40
5.0
 50
314.99999999999972
 51
0.0
1001
GENIUS_GENODEF_13
1002
{
1000
HIER
1070
     0
1002
}
1002
{
1000
MANEDIT
1070
     0
1002
}
1002
{
1000
NOSEL
1070
     0
1002
}
1002
{
1000
BEHIND
1070
     0
1002
}
1002
{
1000
OTHER
1070
     0
1002
}
1002
{
1000
REACTOR
1002
}
1001
GENIUS_GENOBJ-N-FIL_13
1002
{
1000
OWNER
1000
GEN
1002
}
  0
LINE
  5
2EAE
  8
AM_0
 10
359.61368596495402
 20
920.57709158563125
 30
0.0
 11
349.61368596495402
 21
920.57709158563125
 31
0.0
  0
LINE
  5
2EAF
  8
AM_0
 10
350.58470277167078
 20
930.81528783867714
 30
0.0
 11
359.61368596495402
 21
931.07708658563138
 31
0.0
  0
POLYLINE
  5
2EB1
  8
AM_0
 66
     1
 10
0.0
 20
0.0
 30
0.0
  0
VERTEX
  5
2EB2
  8
AM_0
 10
402.73347596495421
 20
919.99524158563145
 30
0.0
 42
-0.011693505
  0
VERTEX
  5
2EB3
  8
AM_0
 10
406.29636596495419
 20
924.4916115856314
 30
0.0
 42
-0.01121677
  0
VERTEX
  5
2EB4
  8
AM_0
 10
410.0612459649542
 20
928.82038158563125
 30
0.0
 42
-0.011000238
  0
VERTEX
  5
2EB5
  8
AM_0
 10
414.01334596495423
 20
932.97682158563146
 30
0.0
  0
SEQEND
  5
2EB6
  8
AM_0
  0
POLYLINE
  5
2EB7
  8
AM_0
 66
     1
 10
0.0
 20
0.0
 30
0.0
  0
VERTEX
  5
2EB8
  8
AM_0
 10
402.73347596495421
 20
829.15901158563145
 30
0.0
 42
0.011693477
  0
VERTEX
  5
2EB9
  8
AM_0
 10
406.29636596495419
 20
824.66265158563147
 30
0.0
 42
0.01121672
  0
VERTEX
  5
2EBA
  8
AM_0
 10
410.0612459649542
 20
820.33388158563162
 30
0.0
 42
0.011000161
  0
VERTEX
  5
2EBB
  8
AM_0
 10
414.01334596495423
 20
816.17744158563141
 30
0.0
  0
SEQEND
  5
2EBC
  8
AM_0
  0
LINE
  5
2EBD
  8
AM_0
 10
412.04502596495422
 20
816.2461715856316
 30
0.0
 11
359.61375596495401
 21
818.07710158563145
 31
0.0
  0
LINE
  5
2EBE
  8
AM_0
 10
359.61368596495402
 20
931.07710158563145
 30
0.0
 11
412.04502596495422
 21
932.90803158563142
 31
0.0
  0
LINE
  5
2EBF
  8
AM_0
 10
385.61368596495402
 20
861.57710158563145
 30
0.0
 11
416.9163659649542
 21
861.57710158563145
 31
0.0
  0
LINE
  5
2EC0
  8
AM_0
 10
385.61368596495402
 20
887.57710158563134
 30
0.0
 11
416.9163659649542
 21
887.57710158563134
 31
0.0
  0
LINE
  5
2EC1
  8
ﾁｭｳｼﾝｾﾝ
 10
269.1199969095378
 20
874.57708658563092
 30
0.0
 11
698.62772596495404
 21
874.57710158563145
 31
0.0
  0
POLYLINE
  5
2EC2
  8
AM_0
 66
     1
 10
0.0
 20
0.0
 30
0.0
  0
VERTEX
  5
2EC3
  8
AM_0
 10
386.58324596495419
 20
861.57738158563143
 30
0.0
  0
VERTEX
  5
2EC4
  8
AM_0
 10
394.01052596495418
 20
842.63798158563145
 30
0.0
 42
-1.0
  0
SEQEND
  5
2EC5
  8
AM_0
  0
LINE
  5
2EC6
  8
AM_0
 10
359.61368596495402
 20
818.07710158563145
 30
0.0
 11
359.61368596495402
 21
931.07710158563145
 31
0.0
  0
LINE
  5
2EC7
  8
AM_0
 10
359.61368596495402
 20
842.63716158563125
 30
0.0
 11
395.70603596495403
 21
842.63716158563125
 31
0.0
  0
LINE
  5
2EC8
  8
AM_0
 10
359.61368596495402
 20
828.57710158563145
 30
0.0
 11
400.95640596495417
 21
828.57710158563145
 31
0.0
  0
ARC
  5
2EC9
  8
AM_0
 10
395.70603596495403
 20
839.63716158563113
 30
0.0
 40
3.0
 50
30.468076999999081
 51
90.00000299999769
  0
POLYLINE
  5
2ECA
  8
AM_0
 66
     1
 10
0.0
 20
0.0
 30
0.0
  0
VERTEX
  5
2ECB
  8
AM_0
 10
398.2917459649542
 20
841.15835158563164
 30
0.0
 42
0.0058779346
  0
VERTEX
  5
2ECC
  8
AM_0
 10
399.50136596495429
 20
839.15677158563142
 30
0.0
 42
0.0056588677
  0
VERTEX
  5
2ECD
  8
AM_0
 10
400.75684596495421
 20
837.1836215856315
 30
0.0
 42
0.0054619133
  0
VERTEX
  5
2ECE
  8
AM_0
 10
402.0558859649542
 20
835.2388715856315
 30
0.0
 42
0.0052861212
  0
VERTEX
  5
2ECF
  8
AM_0
 10
403.39641596495397
 20
833.32247158563155
 30
0.0
  0
SEQEND
  5
2ED0
  8
AM_0
  0
ARC
  5
2ED1
  8
AM_0
 10
400.95640596495417
 20
831.57710158563145
 30
0.0
 40
3.0
 50
269.999989999999
 51
35.575751000001212
  0
LINE
  5
2ED2
  8
AM_0
 10
359.61368596495402
 20
906.51704158563143
 30
0.0
 11
395.70603596495403
 21
906.51704158563143
 31
0.0
  0
LINE
  5
2ED3
  8
AM_0
 10
359.61368596495402
 20
920.57710158563123
 30
0.0
 11
400.95640596495417
 21
920.57710158563123
 31
0.0
  0
POLYLINE
  5
2ED4
  8
AM_0
 66
     1
 10
0.0
 20
0.0
 30
0.0
  0
VERTEX
  5
2ED5
  8
AM_0
 10
386.58324596495419
 20
887.57683158563157
 30
0.0
  0
VERTEX
  5
2ED6
  8
AM_0
 10
394.01052596495418
 20
906.51626158563124
 30
0.0
 42
-1.0
  0
SEQEND
  5
2ED7
  8
AM_0
  0
LINE
  5
2ED8
  8
AM_0
 10
382.61368596495402
 20
864.57710158563145
 30
0.0
 11
382.61368596495402
 21
884.57710158563145
 31
0.0
  0
ARC
  5
2ED9
  8
AM_0
 10
385.61368596495402
 20
864.57710158563145
 30
0.0
 40
3.0
 50
180.00001000000091
 51
270.0
  0
ARC
  5
2EDA
  8
AM_0
 10
385.61368596495402
 20
884.57710158563145
 30
0.0
 40
3.0
 50
90.00000299999769
 51
180.00001000000091
  0
ARC
  5
2EDB
  8
AM_0
 10
395.70603596495403
 20
909.51704158563143
 30
0.0
 40
3.0
 50
269.999989999999
 51
329.53192000000121
  0
POLYLINE
  5
2EDC
  8
AM_0
 66
     1
 10
0.0
 20
0.0
 30
0.0
  0
VERTEX
  5
2EDD
  8
AM_0
 10
398.2917459649542
 20
907.9958915856314
 30
0.0
 42
-0.0058779314
  0
VERTEX
  5
2EDE
  8
AM_0
 10
399.50136596495429
 20
909.99748158563114
 30
0.0
 42
-0.0056588672
  0
VERTEX
  5
2EDF
  8
AM_0
 10
400.75684596495421
 20
911.97063158563162
 30
0.0
 42
-0.0054619156
  0
VERTEX
  5
2EE0
  8
AM_0
 10
402.0558859649542
 20
913.91538158563162
 30
0.0
 42
-0.0052861264
  0
VERTEX
  5
2EE1
  8
AM_0
 10
403.39641596495397
 20
915.83178158563123
 30
0.0
  0
SEQEND
  5
2EE2
  8
AM_0
  0
ARC
  5
2EE3
  8
AM_0
 10
400.95640596495417
 20
917.57710158563145
 30
0.0
 40
3.0
 50
324.42424000000028
 51
90.00000299999769
  0
ARC
  5
2EE4
  8
AM_0
 10
416.9163659649542
 20
858.57710158563145
 30
0.0
 40
3.0
 50
0.0
 51
90.00000299999769
  0
LINE
  5
2EE5
  8
AM_0
 10
423.61368596495407
 20
805.28908158563149
 30
0.0
 11
423.61368596495407
 21
943.86513158563173
 31
0.0
  0
LINE
  5
2EE6
  8
AM_0
 10
433.61368596495402
 20
801.07710158563145
 30
0.0
 11
433.61368596495402
 21
948.07716158563142
 31
0.0
  0
LINE
  5
2EE7
  8
AM_0
 10
510.11375596495418
 20
825.01259158563141
 30
0.0
 11
510.11375596495418
 21
924.14162158563136
 31
0.0
  0
LINE
  5
2EE8
  8
AM_0
 10
585.11375596495418
 20
783.57710158563145
 30
0.0
 11
585.11375596495418
 21
965.57710158563145
 31
0.0
  0
LINE
  5
2EE9
  8
AM_0
 10
613.11375596495407
 20
914.33449158563144
 30
0.0
 11
613.11375596495407
 21
840.81972158563156
 31
0.0
  0
LINE
  5
2EEA
  8
AM_0
 10
495.11375596495412
 20
734.83913158563143
 30
0.0
 11
495.11375596495412
 21
870.57710158563134
 31
0.0
  0
LINE
  5
2EEB
  8
AM_0
 10
607.11375596495418
 20
960.45772158563125
 30
0.0
 11
607.11375596495418
 21
788.69655158563137
 31
0.0
  0
LINE
  5
2EEC
  8
AM_0
 10
687.11375596495407
 20
853.57710158563145
 30
0.0
 11
687.11375596495407
 21
895.57710158563134
 31
0.0
  0
LINE
  5
2EED
  8
AM_0
 10
617.11375596495407
 20
852.07710158563145
 30
0.0
 11
617.11375596495407
 21
897.07710158563145
 31
0.0
  0
LINE
  5
2EEE
  8
AM_0
 10
482.11368596495402
 20
738.36732158563154
 30
0.0
 11
482.11368596495402
 21
865.03767158563164
 31
0.0
  0
LINE
  5
2EEF
  8
AM_0
 10
468.11375596495401
 20
760.46913158563143
 30
0.0
 11
468.11375596495401
 21
870.57710158563134
 31
0.0
  0
ARC
  5
2EF0
  8
AM_0
 10
557.11375596495418
 20
760.03328158563124
 30
0.0
 40
8.0
 50
272.00000000000369
 51
0.0
  0
LINE
  5
2EF1
  8
AM_0
 10
500.11368596495402
 20
734.57710158563145
 30
0.0
 11
609.25327596495424
 21
738.38838158563135
 31
0.0
  0
ARC
  5
2EF2
  8
AM_0
 10
485.11368596495407
 20
738.36732158563154
 30
0.0
 40
3.0
 50
180.00001000000091
 51
266.99999000000008
  0
ARC
  5
2EF3
  8
AM_0
 10
479.11375596495401
 20
752.94936158563144
 30
0.0
 40
3.0
 50
0.0
 51
79.999998000001099
  0
ARC
  5
2EF4
  8
AM_0
 10
484.1137559649539
 20
747.83217158563161
 30
0.0
 40
2.0
 50
179.9999899999988
 51
268.00000999999861
  0
LINE
  5
2EF5
  8
AM_0
 10
482.11368596495402
 20
823.01259158563141
 30
0.0
 11
508.11375596495401
 21
823.01259158563141
 31
0.0
  0
LINE
  5
2EF6
  8
AM_0
 10
482.11368596495402
 20
797.01131158563146
 30
0.0
 11
508.11375596495401
 21
797.01131158563146
 31
0.0
  0
LINE
  5
2EF7
  8
AM_0
 10
424.90439596495418
 20
738.51869158563125
 30
0.0
 11
500.1137559649539
 21
734.57710158563145
 31
0.0
  0
CIRCLE
  5
2EF8
  8
AM_0
 10
442.1137559649539
 20
759.57710158563145
 30
0.0
 40
9.5
  0
LINE
  5
2EF9
  8
AM_0
 10
424.7651759649541
 20
782.98494158563142
 30
0.0
 11
468.1138159649542
 21
786.77748158563145
 31
0.0
  0
LINE
  5
2EFA
  8
AM_0
 10
421.1137559649539
 20
742.51320158563135
 30
0.0
 11
421.1137559649539
 21
779.00014158563135
 31
0.0
  0
ARC
  5
2EFB
  8
AM_0
 10
425.1137559649539
 20
742.51320158563135
 30
0.0
 40
4.0
 50
180.00001000000091
 51
266.99999000000008
  0
ARC
  5
2EFC
  8
AM_0
 10
425.1137559649539
 20
779.00014158563135
 30
0.0
 40
4.0
 50
95.00000199999856
 51
180.00001000000091
  0
ARC
  5
2EFD
  8
AM_0
 10
474.11375596495412
 20
748.86714158563143
 30
0.0
 40
5.0
 50
180.00001000000091
 51
277.13983000000007
  0
LINE
  5
2EFE
  8
AM_0
 10
469.11375596495418
 20
737.18190158563152
 30
0.0
 11
469.11375596495418
 21
745.03065158563152
 31
0.0
  0
LINE
  5
2EFF
  8
AM_0
 10
482.11375596495418
 20
744.83015158563126
 30
0.0
 11
474.73521596495419
 21
743.90590158563145
 31
0.0
  0
LINE
  5
2F00
  8
AM_0
 10
470.59275596495422
 20
757.49812158563145
 30
0.0
 11
479.6346859649542
 21
755.9037615856314
 31
0.0
  0
ARC
  5
2F01
  8
AM_0
 10
471.1137559649539
 20
760.4525315856315
 30
0.0
 40
3.0
 50
179.9999899999988
 51
260.00000000000119
  0
LINE
  5
2F02
  8
AM_0
 10
433.6137559649539
 20
801.07710158563145
 30
0.0
 11
463.28831596495422
 21
800.04085158563134
 31
0.0
  0
LINE
  5
2F03
  8
AM_0
 10
433.6137559649539
 20
835.10243158563151
 30
0.0
 11
468.11375596495401
 21
835.10243158563151
 31
0.0
  0
LINE
  5
2F04
  8
AM_0
 10
433.6137559649539
 20
812.99843158563147
 30
0.0
 11
468.11375596495401
 21
812.99843158563147
 31
0.0
  0
ARC
  5
2F05
  8
AM_0
 10
427.61368596495407
 20
805.28908158563149
 30
0.0
 40
4.0
 50
180.00001000000091
 51
267.99999999999631
  0
LINE
  5
2F06
  8
AM_0
 10
423.61368596495407
 20
812.99843158563147
 30
0.0
 11
433.61368596495402
 21
812.99843158563147
 31
0.0
  0
LINE
  5
2F07
  8
AM_0
 10
422.18674596495418
 20
808.00404158563128
 30
0.0
 11
415.4060459649541
 21
814.78468158563146
 31
0.0
  0
ARC
  5
2F08
  8
AM_0
 10
418.6511659649542
 20
804.46852158563149
 30
0.0
 40
5.0
 50
5.2307202000000732
 51
44.999998000001611
  0
ARC
  5
2F09
  8
AM_0
 10
411.87052596495431
 20
811.24922158563152
 30
0.0
 40
5.0
 50
44.999998000001611
 51
87.999999999996248
  0
LINE
  5
2F0A
  8
AM_0
 10
427.47410596495399
 20
801.29146158563128
 30
0.0
 11
433.6137559649539
 21
801.07710158563145
 31
0.0
  0
LINE
  5
2F0B
  8
AM_0
 10
423.61368596495407
 20
835.10243158563151
 30
0.0
 11
433.61368596495402
 21
835.10243158563151
 31
0.0
  0
ARC
  5
2F0C
  8
AM_0
 10
463.1137559649539
 20
795.0438415856313
 30
0.0
 40
5.0
 50
0.0
 51
87.999999999996248
  0
POLYLINE
  5
2F0D
  8
AM_0
 66
     1
 10
0.0
 20
0.0
 30
0.0
  0
VERTEX
  5
2F0E
  8
AM_0
 10
515.04344596495423
 20
794.84561158563145
 30
0.0
 42
0.110757
  0
VERTEX
  5
2F0F
  8
AM_0
 10
527.92439596495421
 20
804.75335158563132
 30
0.0
 42
0.2037583
  0
VERTEX
  5
2F10
  8
AM_0
 10
530.18211596495416
 20
812.41882158563135
 30
0.0
  0
VERTEX
  5
2F11
  8
AM_0
 10
515.41231596495425
 20
831.33394158563146
 30
0.0
 42
-1.0
  0
SEQEND
  5
2F12
  8
AM_0
  0
LINE
  5
2F13
  8
AM_0
 10
510.11375596495418
 20
747.90193158563125
 30
0.0
 11
510.11375596495418
 21
795.01131158563135
 31
0.0
  0
ARC
  5
2F14
  8
AM_0
 10
515.67441596495428
 20
745.29506158563129
 30
0.0
 40
10.0
 50
272.00000000000369
 51
316.51703999999847
  0
LINE
  5
2F15
  8
AM_0
 10
512.04398596495423
 20
752.01765158563126
 30
0.0
 11
536.64695596495426
 21
752.87685158563124
 31
0.0
  0
LINE
  5
2F16
  8
AM_0
 10
495.1136859649539
 20
745.44673158563126
 30
0.0
 11
508.18357596495417
 21
745.90315158563135
 31
0.0
  0
LINE
  5
2F17
  8
AM_0
 10
484.04398596495417
 20
745.83333158563141
 30
0.0
 11
495.11381596495397
 21
745.44673158563126
 31
0.0
  0
ARC
  5
2F18
  8
AM_0
 10
508.11375596495401
 20
747.90193158563125
 30
0.0
 40
2.0
 50
272.00000000000369
 51
0.0
  0
LINE
  5
2F19
  8
AM_0
 10
514.61375596495418
 20
738.33998158563145
 30
0.0
 11
514.61375596495418
 21
750.37233158563151
 31
0.0
  0
ARC
  5
2F1A
  8
AM_0
 10
512.11375596495395
 20
750.01887158563125
 30
0.0
 40
2.0
 50
91.999998000000545
 51
180.00001000000091
  0
ARC
  5
2F1B
  8
AM_0
 10
514.14182596495425
 20
796.63087158563155
 30
0.0
 40
2.0
 50
270.0
 51
296.80019999999712
  0
LINE
  5
2F1C
  8
AM_0
 10
539.20408596495395
 20
751.40297158563135
 30
0.0
 11
557.3929259649542
 21
752.03816158563143
 31
0.0
  0
LINE
  5
2F1D
  8
AM_0
 10
522.93015596495422
 20
738.41371158563129
 30
0.0
 11
532.29734596495416
 21
748.29048158563126
 31
0.0
  0
ARC
  5
2F1E
  8
AM_0
 10
539.55308596495422
 20
741.40907158563152
 30
0.0
 40
10.0
 50
91.999998000000545
 51
136.5170399999985
  0
LINE
  5
2F1F
  8
AM_0
 10
514.61375596495418
 20
797.01131158563146
 30
0.0
 11
514.61375596495418
 21
823.01259158563141
 31
0.0
  0
ARC
  5
2F20
  8
AM_0
 10
508.11375596495401
 20
795.01131158563135
 30
0.0
 40
2.0
 50
0.0
 51
90.00000299999769
  0
ARC
  5
2F21
  8
AM_0
 10
508.11375596495401
 20
825.01259158563141
 30
0.0
 40
2.0
 50
270.0
 51
0.0
  0
ARC
  5
2F22
  8
AM_0
 10
513.66337596495418
 20
828.89650158563165
 30
0.0
 40
3.0
 50
54.348324000004709
 51
90.00000299999769
  0
LINE
  5
2F23
  8
AM_0
 10
617.11375596495407
 20
853.57710158563145
 30
0.0
 11
687.11375596495407
 21
853.57710158563145
 31
0.0
  0
CIRCLE
  5
2F24
  8
AM_0
 10
592.11375596495407
 20
759.57710158563145
 30
0.0
 40
9.5
  0
LINE
  5
2F25
  8
AM_0
 10
592.43876596495443
 20
788.03541158563144
 30
0.0
 11
602.28818596495421
 21
788.37935158563153
 31
0.0
  0
LINE
  5
2F26
  8
AM_0
 10
565.11375596495418
 20
765.57710158563145
 30
0.0
 11
565.11375596495418
 21
760.03328158563124
 31
0.0
  0
LINE
  5
2F27
  8
AM_0
 10
565.11375596495418
 20
742.02461158563142
 30
0.0
 11
565.11375596495418
 21
760.03328158563124
 31
0.0
  0
ARC
  5
2F28
  8
AM_0
 10
570.11375596495407
 20
742.02461158563142
 30
0.0
 40
5.0
 50
180.00001000000091
 51
271.99999000000139
  0
ARC
  5
2F29
  8
AM_0
 10
577.11375596495418
 20
783.57710158563145
 30
0.0
 40
8.0
 50
270.0
 51
0.0
  0
ARC
  5
2F2A
  8
AM_0
 10
575.11375596495407
 20
765.57710158563145
 30
0.0
 40
10.0
 50
90.00000299999769
 51
180.00001000000091
  0
LINE
  5
2F2B
  8
AM_0
 10
575.11375596495407
 20
775.57710158563145
 30
0.0
 11
577.11375596495418
 21
775.57710158563145
 31
0.0
  0
ARC
  5
2F2C
  8
AM_0
 10
592.71793596495411
 20
780.04030158563125
 30
0.0
 40
8.0
 50
91.999998000000545
 51
167.22924999999881
  0
LINE
  5
2F2D
  8
AM_0
 10
613.11375596495407
 20
742.38588158563152
 30
0.0
 11
613.11375596495407
 21
781.76833158563136
 31
0.0
  0
ARC
  5
2F2E
  8
AM_0
 10
609.11375596495407
 20
742.38588158563152
 30
0.0
 40
4.0
 50
272.00000000000369
 51
0.0
  0
ARC
  5
2F2F
  8
AM_0
 10
610.11375596495418
 20
788.69655158563137
 30
0.0
 40
3.0
 50
180.00001000000091
 51
261.78677999999701
  0
ARC
  5
2F30
  8
AM_0
 10
602.11375596495418
 20
793.37636158563146
 30
0.0
 40
5.0
 50
272.00000000000369
 51
0.0
  0
ARC
  5
2F31
  8
AM_0
 10
609.11375596495407
 20
781.76833158563136
 30
0.0
 40
4.0
 50
0.0
 51
81.786789000000198
  0
LINE
  5
2F32
  8
AM_0
 10
613.11381596495437
 20
852.07710158563145
 30
0.0
 11
617.11375596495407
 21
852.07710158563145
 31
0.0
  0
ARC
  5
2F33
  8
AM_0
 10
610.11375596495418
 20
832.33449158563133
 30
0.0
 40
3.0
 50
135.0
 51
180.00001000000091
  0
ARC
  5
2F34
  8
AM_0
 10
610.11375596495418
 20
832.33449158563133
 30
0.0
 40
3.0
 50
135.0
 51
180.00001000000091
  0
ARC
  5
2F35
  8
AM_0
 10
610.11375596495418
 20
840.81972158563156
 30
0.0
 40
3.0
 50
315.0
 51
0.0
  0
ARC
  5
2F36
  8
AM_0
 10
610.11375596495418
 20
840.81972158563156
 30
0.0
 40
3.0
 50
315.0
 51
0.0
  0
LINE
  5
2F37
  8
AM_0
 10
607.99253596495419
 20
834.45576158563131
 30
0.0
 11
612.23521596495425
 21
838.69844158563137
 31
0.0
  0
ARC
  5
2F38
  8
AM_0
 10
557.11375596495418
 20
989.12093158563152
 30
0.0
 40
8.0
 50
0.0
 51
87.999999999996248
  0
LINE
  5
2F39
  8
AM_0
 10
500.11381596495397
 20
1014.577101585631
 30
0.0
 11
609.25339596495439
 21
1010.765881585631
 31
0.0
  0
CIRCLE
  5
2F3A
  8
AM_0
 10
442.1137559649539
 20
989.57710158563145
 30
0.0
 40
9.5
  0
ARC
  5
2F3B
  8
AM_0
 10
471.1137559649539
 20
988.70167158563152
 30
0.0
 40
3.0
 50
99.999999999998593
 51
180.00001000000091
  0
LINE
  5
2F3C
  8
AM_0
 10
482.11368596495402
 20
884.11653158563149
 30
0.0
 11
482.11368596495402
 21
1010.78688158563
 31
0.0
  0
LINE
  5
2F3D
  8
AM_0
 10
495.11375596495412
 20
878.57704158563138
 30
0.0
 11
495.11375596495412
 21
1014.315081585631
 31
0.0
  0
LINE
  5
2F3E
  8
AM_0
 10
510.11375596495418
 20
1001.252271585631
 30
0.0
 11
510.11375596495418
 21
954.14290158563165
 31
0.0
  0
LINE
  5
2F3F
  8
AM_0
 10
421.1137559649539
 20
1006.641011585631
 30
0.0
 11
421.1137559649539
 21
970.15401158563145
 31
0.0
  0
ARC
  5
2F40
  8
AM_0
 10
479.11381596495397
 20
874.57710158563145
 30
0.0
 40
10.0
 50
203.5782699999985
 51
336.4217200000013
  0
ARC
  5
2F41
  8
AM_0
 10
479.11381596495397
 20
874.57710158563145
 30
0.0
 40
10.0
 50
23.57803699999776
 51
156.42196000000081
  0
LINE
  5
2F42
  8
AM_0
 10
462.61381596495397
 20
878.57704158563138
 30
0.0
 11
495.61381596495397
 21
878.57704158563138
 31
0.0
  0
LINE
  5
2F43
  8
AM_0
 10
462.61381596495397
 20
870.57710158563134
 30
0.0
 11
495.61381596495397
 21
870.57710158563134
 31
0.0
  0
LINE
  5
2F44
  8
AM_0
 10
482.11368596495402
 20
952.14290158563142
 30
0.0
 11
508.11375596495401
 21
952.14290158563142
 31
0.0
  0
LINE
  5
2F45
  8
AM_0
 10
482.11368596495402
 20
926.14162158563124
 30
0.0
 11
508.11375596495401
 21
926.14162158563124
 31
0.0
  0
LINE
  5
2F46
  8
AM_0
 10
468.11375596495401
 20
878.57704158563138
 30
0.0
 11
468.11375596495401
 21
988.71828158563153
 31
0.0
  0
LINE
  5
2F47
  8
AM_0
 10
433.6137559649539
 20
914.05177158563151
 30
0.0
 11
468.11375596495401
 21
914.05177158563151
 31
0.0
  0
LINE
  5
2F48
  8
AM_0
 10
419.91636596495403
 20
863.80861158563141
 30
0.0
 11
419.91636596495403
 21
885.80916158563161
 31
0.0
  0
ARC
  5
2F49
  8
AM_0
 10
416.9163659649542
 20
890.57710158563145
 30
0.0
 40
3.0
 50
269.999989999999
 51
0.0000006832429909
  0
LINE
  5
2F4A
  8
AM_0
 10
423.61368596495407
 20
914.05177158563151
 30
0.0
 11
433.61368596495402
 21
914.05177158563151
 31
0.0
  0
ARC
  5
2F4B
  8
AM_0
 10
462.61381596495397
 20
874.57710158563145
 30
0.0
 40
3.9999962
 50
90.00000299999769
 51
270.0
  0
LINE
  5
2F4C
  8
AM_0
 10
424.76511596495419
 20
966.16927158563146
 30
0.0
 11
468.11375596495401
 21
962.37672158563146
 31
0.0
  0
LINE
  5
2F4D
  8
AM_0
 10
433.6137559649539
 20
948.07710158563145
 30
0.0
 11
463.28818596495421
 21
949.11336158563142
 31
0.0
  0
LINE
  5
2F4E
  8
AM_0
 10
433.6137559649539
 20
936.15572158563145
 30
0.0
 11
468.11375596495401
 21
936.15572158563145
 31
0.0
  0
ARC
  5
2F4F
  8
AM_0
 10
427.61368596495407
 20
943.86513158563173
 30
0.0
 40
4.0
 50
91.999998000000545
 51
180.00001000000091
  0
LINE
  5
2F50
  8
AM_0
 10
423.61368596495407
 20
936.1557815856313
 30
0.0
 11
433.61368596495402
 21
936.1557815856313
 31
0.0
  0
LINE
  5
2F51
  8
AM_0
 10
415.40610596495418
 20
934.36946158563126
 30
0.0
 11
422.18674596495418
 21
941.15010158563143
 31
0.0
  0
ARC
  5
2F52
  8
AM_0
 10
411.87052596495431
 20
937.90498158563162
 30
0.0
 40
5.0
 50
272.00000000000369
 51
315.0
  0
ARC
  5
2F53
  8
AM_0
 10
418.6511659649542
 20
944.68568158563141
 30
0.0
 40
5.0
 50
315.0
 51
354.76905999999741
  0
LINE
  5
2F54
  8
AM_0
 10
427.47410596495399
 20
947.8626915856313
 30
0.0
 11
433.61368596495402
 21
948.07710158563145
 31
0.0
  0
ARC
  5
2F55
  8
AM_0
 10
425.1137559649539
 20
970.15401158563145
 30
0.0
 40
4.0
 50
180.00001000000091
 51
265.00001000000032
  0
ARC
  5
2F56
  8
AM_0
 10
463.1137559649539
 20
954.11037158563124
 30
0.0
 40
5.0
 50
272.00000000000369
 51
0.0
  0
POLYLINE
  5
2F57
  8
AM_0
 66
     1
 10
0.0
 20
0.0
 30
0.0
  0
VERTEX
  5
2F58
  8
AM_0
 10
515.04344596495423
 20
954.30859158563135
 30
0.0
 42
-0.110757
  0
VERTEX
  5
2F59
  8
AM_0
 10
527.92439596495421
 20
944.40085158563124
 30
0.0
 42
-0.2037583
  0
VERTEX
  5
2F5A
  8
AM_0
 10
530.18211596495416
 20
936.73538158563144
 30
0.0
  0
VERTEX
  5
2F5B
  8
AM_0
 10
515.41231596495425
 20
917.82026158563144
 30
0.0
 42
-1.0
  0
SEQEND
  5
2F5C
  8
AM_0
  0
ARC
  5
2F5D
  8
AM_0
 10
495.61381596495397
 20
874.57710158563145
 30
0.0
 40
3.9999962
 50
270.0
 51
90.00000299999769
  0
ARC
  5
2F5E
  8
AM_0
 10
513.66337596495418
 20
920.25771158563145
 30
0.0
 40
3.0
 50
270.0
 51
305.65166999999718
  0
LINE
  5
2F5F
  8
AM_0
 10
514.61375596495418
 20
952.14290158563142
 30
0.0
 11
514.61375596495418
 21
926.14162158563124
 31
0.0
  0
ARC
  5
2F60
  8
AM_0
 10
508.11375596495401
 20
924.14162158563136
 30
0.0
 40
2.0
 50
0.0
 51
90.00000299999769
  0
ARC
  5
2F61
  8
AM_0
 10
508.11375596495401
 20
954.14290158563165
 30
0.0
 40
2.0
 50
270.0
 51
0.0
  0
ARC
  5
2F62
  8
AM_0
 10
514.14182596495425
 20
952.52333158563113
 30
0.0
 40
2.0
 50
63.199809000002318
 51
90.00000299999769
  0
ARC
  5
2F63
  8
AM_0
 10
485.11368596495407
 20
1010.78688158563
 30
0.0
 40
3.0
 50
92.999999000001679
 51
180.00001000000091
  0
ARC
  5
2F64
  8
AM_0
 10
479.11375596495401
 20
996.20485158563145
 30
0.0
 40
3.0
 50
280.00001000000128
 51
0.0
  0
ARC
  5
2F65
  8
AM_0
 10
484.1137559649539
 20
1001.322101585631
 30
0.0
 40
2.0
 50
91.999998000000545
 51
180.00001000000091
  0
LINE
  5
2F66
  8
AM_0
 10
424.9043359649541
 20
1010.635511585631
 30
0.0
 11
500.11368596495402
 21
1014.577101585631
 31
0.0
  0
ARC
  5
2F67
  8
AM_0
 10
425.1137559649539
 20
1006.641011585631
 30
0.0
 40
4.0
 50
92.999999000001679
 51
180.00001000000091
  0
ARC
  5
2F68
  8
AM_0
 10
474.11375596495412
 20
1000.28706158563
 30
0.0
 40
5.0
 50
82.860167000000104
 51
180.00001000000091
  0
LINE
  5
2F69
  8
AM_0
 10
469.11375596495418
 20
1011.972301585631
 30
0.0
 11
469.11375596495418
 21
1004.123551585631
 31
0.0
  0
LINE
  5
2F6A
  8
AM_0
 10
482.11368596495402
 20
1004.324051585631
 30
0.0
 11
474.73521596495419
 21
1005.2483115856299
 31
0.0
  0
LINE
  5
2F6B
  8
AM_0
 10
470.5928159649543
 20
991.65608158563145
 30
0.0
 11
479.6346859649542
 21
993.25044158563139
 31
0.0
  0
ARC
  5
2F6C
  8
AM_0
 10
515.67441596495428
 20
1003.85908158563
 30
0.0
 40
10.0
 50
43.482964999999631
 51
87.999999999996248
  0
LINE
  5
2F6D
  8
AM_0
 10
512.04398596495423
 20
997.13655158563165
 30
0.0
 11
536.64701596495422
 21
996.2773615856313
 31
0.0
  0
LINE
  5
2F6E
  8
AM_0
 10
495.11375596495412
 20
1003.707471585631
 30
0.0
 11
508.18363596495419
 21
1003.251051585631
 31
0.0
  0
LINE
  5
2F6F
  8
AM_0
 10
484.04398596495417
 20
1003.32088158563
 30
0.0
 11
495.11375596495412
 21
1003.707471585631
 31
0.0
  0
LINE
  5
2F70
  8
AM_0
 10
514.61375596495418
 20
998.85695158563124
 30
0.0
 11
514.61375596495418
 21
1010.810441585631
 31
0.0
  0
ARC
  5
2F71
  8
AM_0
 10
512.11375596495395
 20
999.13533158563109
 30
0.0
 40
2.0
 50
180.00001000000091
 51
267.99999999999631
  0
ARC
  5
2F72
  8
AM_0
 10
508.11375596495401
 20
1001.252271585631
 30
0.0
 40
2.0
 50
0.0
 51
87.999999999996248
  0
LINE
  5
2F73
  8
AM_0
 10
539.20414596495425
 20
997.75124158563131
 30
0.0
 11
557.39298596495405
 21
997.11604158563125
 31
0.0
  0
LINE
  5
2F74
  8
AM_0
 10
522.9302159649543
 20
1010.74049158563
 30
0.0
 11
532.29728596495397
 21
1000.86378158563
 31
0.0
  0
ARC
  5
2F75
  8
AM_0
 10
539.55308596495422
 20
1007.74513158563
 30
0.0
 40
10.0
 50
223.48296000000141
 51
267.99999999999631
  0
CIRCLE
  5
2F76
  8
AM_0
 10
592.11375596495407
 20
989.57710158563145
 30
0.0
 40
9.5
  0
LINE
  5
2F77
  8
AM_0
 10
565.11375596495418
 20
983.57710158563145
 30
0.0
 11
565.11375596495418
 21
989.12093158563152
 31
0.0
  0
LINE
  5
2F78
  8
ﾁｭｳｼﾝｾﾝ
 10
592.11375596495407
 20
1007.077101585631
 30
0.0
 11
592.11375596495407
 21
972.07710158563145
 31
0.0
  0
LINE
  5
2F79
  8
AM_0
 10
613.11375596495407
 20
1006.76833158563
 30
0.0
 11
613.11375596495407
 21
967.38588158563152
 31
0.0
  0
LINE
  5
2F7A
  8
AM_0
 10
631.11375596495418
 20
880.57710158563145
 30
0.0
 11
687.11375596495407
 21
880.57710158563145
 31
0.0
  0
LINE
  5
2F7B
  8
AM_0
 10
631.11375596495418
 20
868.57710158563145
 30
0.0
 11
687.11375596495407
 21
868.57710158563145
 31
0.0
  0
LINE
  5
2F7C
  8
AM_0
 10
617.11375596495407
 20
895.57710158563134
 30
0.0
 11
687.11375596495407
 21
895.57710158563134
 31
0.0
  0
ARC
  5
2F7D
  8
AM_0
 10
631.11375596495418
 20
874.57710158563145
 30
0.0
 40
6.0000037999999991
 50
90.00000299999769
 51
270.0
  0
LINE
  5
2F7E
  8
AM_0
 10
631.11375596495418
 20
880.57710158563145
 30
0.0
 11
631.11375596495418
 21
868.57710158563145
 31
0.0
  0
LINE
  5
2F7F
  8
AM_0
 10
613.11381596495437
 20
897.07710158563145
 30
0.0
 11
617.11375596495407
 21
897.07710158563145
 31
0.0
  0
ARC
  5
2F80
  8
AM_0
 10
610.11375596495418
 20
922.81972158563156
 30
0.0
 40
3.0
 50
180.00001000000091
 51
225.0
  0
ARC
  5
2F81
  8
AM_0
 10
610.11375596495418
 20
922.81972158563156
 30
0.0
 40
3.0
 50
179.9999899999988
 51
225.0
  0
ARC
  5
2F82
  8
AM_0
 10
610.11375596495418
 20
914.33449158563144
 30
0.0
 40
3.0
 50
0.0
 51
44.999998000001611
  0
ARC
  5
2F83
  8
AM_0
 10
610.11375596495418
 20
914.33449158563144
 30
0.0
 40
3.0
 50
0.0
 51
45.000001000003799
  0
LINE
  5
2F84
  8
AM_0
 10
607.99253596495419
 20
920.69844158563126
 30
0.0
 11
612.23521596495425
 21
916.45576158563131
 31
0.0
  0
LINE
  5
2F85
  8
AM_0
 10
592.43882596495439
 20
961.11879158563124
 30
0.0
 11
602.28831596495422
 21
960.77486158563124
 31
0.0
  0
ARC
  5
2F86
  8
AM_0
 10
577.11375596495418
 20
965.57710158563145
 30
0.0
 40
8.0
 50
0.0
 51
90.00000299999769
  0
ARC
  5
2F87
  8
AM_0
 10
575.11375596495407
 20
983.57710158563145
 30
0.0
 40
10.0
 50
180.00001000000091
 51
270.0
  0
LINE
  5
2F88
  8
AM_0
 10
575.11375596495407
 20
973.57710158563145
 30
0.0
 11
577.11375596495418
 21
973.57710158563145
 31
0.0
  0
ARC
  5
2F89
  8
AM_0
 10
592.71793596495411
 20
969.1139115856314
 30
0.0
 40
8.0
 50
192.7707500000011
 51
267.99999999999631
  0
ARC
  5
2F8A
  8
AM_0
 10
602.11375596495418
 20
955.77785158563142
 30
0.0
 40
5.0
 50
0.0
 51
87.999999999996248
  0
ARC
  5
2F8B
  8
AM_0
 10
610.11375596495418
 20
960.45772158563125
 30
0.0
 40
3.0
 50
98.213209000002095
 51
180.00001000000091
  0
ARC
  5
2F8C
  8
AM_0
 10
609.11375596495407
 20
967.38588158563152
 30
0.0
 40
4.0
 50
278.2132199999964
 51
0.0
  0
LINE
  5
2F8D
  8
ﾁｭｳｼﾝｾﾝ
 10
574.61375596495407
 20
989.57710158563145
 30
0.0
 11
609.61375596495407
 21
989.57710158563145
 31
0.0
  0
LINE
  5
2F8E
  8
AM_0
 10
565.11375596495418
 20
1007.12959158563
 30
0.0
 11
565.11375596495418
 21
989.12093158563152
 31
0.0
  0
ARC
  5
2F8F
  8
AM_0
 10
570.11375596495407
 20
1007.12959158563
 30
0.0
 40
5.0
 50
87.999999999996248
 51
180.00001000000091
  0
ARC
  5
2F90
  8
AM_0
 10
609.11375596495407
 20
1006.76833158563
 30
0.0
 40
4.0
 50
0.0
 51
87.999999999996248
  0
LINE
  5
2F91
  8
ﾁｭｳｼﾝｾﾝ
 10
424.61375596495401
 20
989.57710158563145
 30
0.0
 11
459.61375596495401
 21
989.57710158563145
 31
0.0
  0
LINE
  5
2F92
  8
ﾁｭｳｼﾝｾﾝ
 10
442.1137559649539
 20
1007.077101585631
 30
0.0
 11
442.1137559649539
 21
972.07710158563145
 31
0.0
  0
LINE
  5
2F93
  8
ﾁｭｳｼﾝｾﾝ
 10
424.61375596495401
 20
759.57710158563145
 30
0.0
 11
459.61375596495401
 21
759.57710158563145
 31
0.0
  0
LINE
  5
2F94
  8
ﾁｭｳｼﾝｾﾝ
 10
442.1137559649539
 20
777.07710158563145
 30
0.0
 11
442.1137559649539
 21
742.07710158563145
 31
0.0
  0
LINE
  5
2F95
  8
ﾁｭｳｼﾝｾﾝ
 10
574.61375596495407
 20
759.57710158563145
 30
0.0
 11
609.61375596495407
 21
759.57710158563145
 31
0.0
  0
LINE
  5
2F96
  8
ﾁｭｳｼﾝｾﾝ
 10
592.11375596495407
 20
777.07710158563145
 30
0.0
 11
592.11375596495407
 21
742.07710158563145
 31
0.0
  0
TEXT
  5
3176
  8
AM_0
 10
846.39682353751414
 20
866.62647793604276
 30
0.0
 40
15.0
  1
VX02-800G~VX02-K20G
  0
ENDSEC
  0
EOF
