  0
SECTION
  2
HEADER
  9
$ACADVER
  1
AC1009
  9
$INSBASE
 10
0.0
 20
0.0
 30
0.0
  9
$EXTMIN
 10
186.72917395752049
 20
192.6866928007066
 30
-0.0000000000000058
  9
$EXTMAX
 10
653.81257041929348
 20
531.13540775856859
 30
0.0000000000000104
  9
$LIMMIN
 10
0.0
 20
0.0
  9
$LIMMAX
 10
853.5
 20
555.00000000000011
  9
$ORTHOMODE
 70
     0
  9
$REGENMODE
 70
     1
  9
$FILLMODE
 70
     1
  9
$QTEXTMODE
 70
     0
  9
$MIRRTEXT
 70
     1
  9
$DRAGMODE
 70
     2
  9
$LTSCALE
 40
3.0
  9
$OSMODE
 70
   551
  9
$ATTMODE
 70
     1
  9
$TEXTSIZE
 40
2.5
  9
$TRACEWID
 40
1.0
  9
$TEXTSTYLE
  7
STANDARD
  9
$CLAYER
  8
AM_0
  9
$CELTYPE
  6
BYLAYER
  9
$CECOLOR
 62
   256
  9
$DIMSCALE
 40
1.0
  9
$DIMASZ
 40
0.1
  9
$DIMEXO
 40
0.05
  9
$DIMDLI
 40
0.5
  9
$DIMRND
 40
0.0
  9
$DIMDLE
 40
0.0
  9
$DIMEXE
 40
0.1
  9
$DIMTP
 40
0.1
  9
$DIMTM
 40
0.1
  9
$DIMTXT
 40
0.12
  9
$DIMCEN
 40
0.0
  9
$DIMTSZ
 40
0.0
  9
$DIMTOL
 70
     0
  9
$DIMLIM
 70
     0
  9
$DIMTIH
 70
     1
  9
$DIMTOH
 70
     1
  9
$DIMSE1
 70
     0
  9
$DIMSE2
 70
     0
  9
$DIMTAD
 70
     0
  9
$DIMZIN
 70
     8
  9
$DIMBLK
  1

  9
$DIMASO
 70
     1
  9
$DIMSHO
 70
     1
  9
$DIMPOST
  1

  9
$DIMAPOST
  1
mm
  9
$DIMALT
 70
     0
  9
$DIMALTD
 70
     2
  9
$DIMALTF
 40
25.399999999999999
  9
$DIMLFAC
 40
1.0
  9
$DIMTOFL
 70
     0
  9
$DIMTVP
 40
0.0
  9
$DIMTIX
 70
     0
  9
$DIMSOXD
 70
     0
  9
$DIMSAH
 70
     0
  9
$DIMBLK1
  1

  9
$DIMBLK2
  1

  9
$DIMSTYLE
  2
AM_ANSI
  9
$DIMCLRD
 70
   256
  9
$DIMCLRE
 70
   256
  9
$DIMCLRT
 70
     2
  9
$DIMTFAC
 40
0.71
  9
$DIMGAP
 40
0.06
  9
$LUNITS
 70
     2
  9
$LUPREC
 70
     2
  9
$SKETCHINC
 40
1.0
  9
$FILLETRAD
 40
15.0
  9
$AUNITS
 70
     0
  9
$AUPREC
 70
     0
  9
$MENU
  1
.
  9
$ELEVATION
 40
0.0
  9
$PELEVATION
 40
0.0
  9
$THICKNESS
 40
0.0
  9
$LIMCHECK
 70
     0
  9
$BLIPMODE
 70
     0
  9
$CHAMFERA
 40
6.0
  9
$CHAMFERB
 40
3.0
  9
$SKPOLY
 70
     0
  9
$TDCREATE
 40
2452065.7887456599
  9
$TDUPDATE
 40
2458541.4119261568
  9
$TDINDWG
 40
0.109154294
  9
$TDUSRTIMER
 40
0.1091540856
  9
$USRTIMER
 70
     1
  9
$ANGBASE
 50
0.0
  9
$ANGDIR
 70
     0
  9
$PDMODE
 70
     0
  9
$PDSIZE
 40
0.0
  9
$PLINEWID
 40
0.0
  9
$COORDS
 70
     1
  9
$SPLFRAME
 70
     0
  9
$SPLINETYPE
 70
     6
  9
$SPLINESEGS
 70
     8
  9
$ATTDIA
 70
     1
  9
$ATTREQ
 70
     1
  9
$HANDLING
 70
     1
  9
$HANDSEED
  5
3334
  9
$SURFTAB1
 70
     6
  9
$SURFTAB2
 70
     6
  9
$SURFTYPE
 70
     6
  9
$SURFU
 70
     6
  9
$SURFV
 70
     6
  9
$UCSNAME
  2

  9
$UCSORG
 10
0.0
 20
0.0
 30
0.0
  9
$UCSXDIR
 10
1.0
 20
0.0
 30
0.0
  9
$UCSYDIR
 10
0.0
 20
1.0
 30
0.0
  9
$PUCSNAME
  2

  9
$PUCSORG
 10
0.0
 20
0.0
 30
0.0
  9
$PUCSXDIR
 10
1.0
 20
0.0
 30
0.0
  9
$PUCSYDIR
 10
0.0
 20
1.0
 30
0.0
  9
$USERI1
 70
     0
  9
$USERI2
 70
     0
  9
$USERI3
 70
     0
  9
$USERI4
 70
     0
  9
$USERI5
 70
     0
  9
$USERR1
 40
0.0
  9
$USERR2
 40
0.0
  9
$USERR3
 40
0.0
  9
$USERR4
 40
0.0
  9
$USERR5
 40
0.0
  9
$WORLDVIEW
 70
     1
  9
$SHADEDGE
 70
     3
  9
$SHADEDIF
 70
    70
  9
$TILEMODE
 70
     1
  9
$MAXACTVP
 70
    48
  9
$PLIMCHECK
 70
     0
  9
$PEXTMIN
 10
1.0000000000000000E+020
 20
1.0000000000000000E+020
 30
1.0000000000000000E+020
  9
$PEXTMAX
 10
-1.0000000000000000E+020
 20
-1.0000000000000000E+020
 30
-1.0000000000000000E+020
  9
$PLIMMIN
 10
0.0
 20
0.0
  9
$PLIMMAX
 10
420.0
 20
297.0
  9
$UNITMODE
 70
     0
  9
$VISRETAIN
 70
     1
  9
$PLINEGEN
 70
     0
  9
$PSLTSCALE
 70
     1
  0
ENDSEC
  0
SECTION
  2
TABLES
  0
TABLE
  2
VPORT
 70
     1
  0
VPORT
  2
*ACTIVE
 70
     0
 10
0.0
 20
0.0
 11
1.0
 21
1.0
 12
420.270872188407
 22
361.91105027963761
 13
0.0
 23
0.0
 14
7.5
 24
7.5
 15
30.0
 25
30.0
 16
0.0
 26
0.0
 36
1.0
 17
0.0
 27
0.0
 37
0.0
 40
340.77216151363677
 41
1.7571592210767459
 42
50.0
 43
0.0
 44
0.0
 50
0.0
 51
0.0
 71
     0
 72
   100
 73
     1
 74
     3
 75
     0
 76
     0
 77
     0
 78
     0
  0
ENDTAB
  0
TABLE
  2
LTYPE
 70
    23
  0
LTYPE
  2
CONTINUOUS
 70
     0
  3
Solid line
 72
    65
 73
     0
 40
0.0
  0
LTYPE
  2
AM_ISO02W050
 70
     0
  3
__ __ __ __ __ __ __ __ __ __ __ __ __ __ __
 72
    65
 73
     2
 40
7.5
 49
6.0
 49
-1.5
  0
LTYPE
  2
AM_ISO08W050
 70
     0
  3
____ . ____ . ____ . ____ . ____ . ____ . ____
 72
    65
 73
     4
 40
18.0
 49
12.0
 49
-1.5
 49
3.0
 49
-1.5
  0
LTYPE
  2
AM_ISO09W050
 70
     0
  3
_____ . . _____ . . _____ . . ____ .. ____
 72
    65
 73
     6
 40
22.5
 49
12.0
 49
-1.5
 49
3.0
 49
-1.5
 49
3.0
 49
-1.5
  0
LTYPE
  2
AMCONSTR
 70
     0
  3
_______________________
 72
    65
 73
     2
 40
9999.0
 49
9999.0
 49
0.0
  0
LTYPE
  2
AM_ISO08W050X2
 70
     0
  3
__ . __ . __ . __ . __ . __
 72
    65
 73
     4
 40
9.0
 49
6.0
 49
-0.75
 49
1.5
 49
-0.75
  0
LTYPE
  2
AM_ISO02W050X2
 70
     0
  3
 _ _ _ _ _ _ _ _ _ _ _ _
 72
    65
 73
     2
 40
3.75
 49
3.0
 49
-0.75
  0
LTYPE
  2
AMZIGZAG
 70
     0
  3
/\/-/\/-/\/-/\/-/\/-/\/
 72
    65
 73
     2
 40
11.000099999999991
 49
0.0001
 49
-11.0
  0
LTYPE
  2
ACISOWELD
 70
     0
  3
_ _ _ _ _
 72
    65
 73
     2
 40
2.0
 49
2.0
 49
-1.0
  0
LTYPE
  2
ACISOTGB
 70
     0
  3
__ . . __ . .
 72
    65
 73
     6
 40
9.0
 49
4.0
 49
-1.0
 49
1.0
 49
-1.0
 49
1.0
 49
-1.0
  0
LTYPE
  2
ACISOTGL
 70
     0
  3
_ _ _ _ _
 72
    65
 73
     2
 40
3.0
 49
2.0
 49
-1.0
  0
LTYPE
  2
CENTER
 70
     0
  3
__ . __
 72
    65
 73
     4
 40
7.0
 49
4.0
 49
-1.0
 49
1.0
 49
-1.0
  0
LTYPE
  2
PHANTOM2
 70
     0
  3
Phantom (.5x) ___ _ _ ___ _ _ ___ _ _ ___ _ _
 72
    65
 73
     6
 40
31.75
 49
15.875
 49
-3.174999999999998
 49
3.174999999999998
 49
-3.174999999999998
 49
3.174999999999998
 49
-3.174999999999998
  0
LTYPE
  2
GEN7
 70
     0
  3
____ . ____ . ____ . ____ . ____ . ____ . ____
 72
    65
 73
     4
 40
14.25
 49
9.75
 49
-1.5
 49
1.5
 49
-1.5
  0
LTYPE
  2
GEN3B
 70
     0
  3
 - - - - -
 72
    65
 73
     2
 40
1.0
 49
0.5
 49
-0.5
  0
LTYPE
  2
GEN7A
 70
     0
  3
__ . __ . __
 72
    65
 73
     4
 40
7.375
 49
4.75
 49
-0.875
 49
0.875
 49
-0.875
  0
LTYPE
  2
ACANSTGB
 70
     0
  3
__ . . __ . .
 72
    65
 73
     6
 40
0.35433070866
 49
0.15748031496
 49
-0.03937007874
 49
0.03937007874
 49
-0.03937007874
 49
0.03937007874
 49
-0.03937007874
  0
LTYPE
  2
ACANSTGL
 70
     0
  3
_ _ _ _ _
 72
    65
 73
     2
 40
0.11811023622
 49
0.07874015748
 49
-0.03937007874
  0
LTYPE
  2
HIDDEN
 70
     0
  3
Hidden __ __ __ __ __ __ __ __ __ __ __ __ __ _
 72
    65
 73
     2
 40
0.375
 49
0.25
 49
-0.125
  0
LTYPE
  2
CENTER2
 70
     0
  3
Center (.5x) ___ _ ___ _ ___ _ ___ _ ___ _ ___
 72
    65
 73
     4
 40
1.125
 49
0.75
 49
-0.125
 49
0.125
 49
-0.125
  0
LTYPE
  2
HIDDEN2
 70
     0
  3
Hidden (.5x) _ _ _ _ _ _ _ _ _ _ _ _ _ _ _ _ _
 72
    65
 73
     2
 40
0.1875
 49
0.125
 49
-0.0625
  0
LTYPE
  2
AMZIGZAG2
 70
     0
  3
/\/-/\/-/\/-/\/-/\/-/\/
 72
    65
 73
     2
 40
0.4401
 49
0.0001
 49
-0.4400000000000003
  0
ENDTAB
  0
TABLE
  2
LAYER
 70
     7
  0
LAYER
  2
0
 70
     0
 62
     7
  6
CONTINUOUS
  0
LAYER
  2
AM_0
 70
     0
 62
     7
  6
CONTINUOUS
  0
LAYER
  2
AM_5
 70
     0
 62
     2
  6
CONTINUOUS
  0
LAYER
  2
DEFPOINTS
 70
     0
 62
     7
  6
CONTINUOUS
  0
LAYER
  2
ｶｸﾚｾﾝ2
 70
     0
 62
     3
  6
GEN3B
  0
LAYER
  2
ﾁｭｳｼﾝｾﾝ
 70
     0
 62
     1
  6
GEN7
  0
LAYER
  2
ﾁｭｳｼﾝｾﾝ1
 70
     0
 62
     1
  6
GEN7A
  0
ENDTAB
  0
TABLE
  2
STYLE
 70
     7
  0
STYLE
  2
STANDARD
 70
     0
 40
0.0
 41
0.8299999999999999
 50
0.0
 71
     0
 42
2.5
  3
txt.shx
  4
bigfont.shx
  0
STYLE
  2
ANNOTATIVE
 70
     0
 40
0.0
 41
1.0
 50
0.0
 71
     0
 42
0.2
  3
txt
  4

  0
STYLE
  2

 70
     1
 40
0.0
 41
1.0
 50
0.0
 71
     0
 42
2.5
  3
ltypeshp.shx
  4

  0
STYLE
  2
ACISOTS
 70
     0
 40
1.0
 41
1.0
 50
0.0
 71
     0
 42
2.5
  3
isocp.shx
  4
extfont.shx
  0
STYLE
  2
ACISOGDT
 70
     0
 40
0.0
 41
1.0
 50
0.0
 71
     0
 42
2.5
  3
amgdt.shx
  4

  0
STYLE
  2
ACANSTS
 70
     0
 40
1.0
 41
1.0
 50
0.0
 71
     0
 42
2.5
  3
romans.shx
  4
bigfont.shx
  0
STYLE
  2
ACANSGDT
 70
     0
 40
0.0
 41
1.0
 50
0.0
 71
     0
 42
2.5
  3
amgdt.shx
  4

  0
ENDTAB
  0
TABLE
  2
VIEW
 70
     6
  0
VIEW
  2
AM_VIEW1
 70
     0
 40
277.49999999999989
 10
249.64779005524841
 20
416.24999999999989
 41
499.2955801104971
 11
0.0
 21
0.0
 31
1.0
 12
0.0
 22
0.0
 32
0.0
 42
50.0
 43
0.0
 44
0.0
 50
0.0
 71
     0
  0
VIEW
  2
AM_VIEW2
 70
     0
 40
277.49999999999989
 10
603.85220994475117
 20
416.24999999999989
 41
499.2955801104971
 11
0.0
 21
0.0
 31
1.0
 12
0.0
 22
0.0
 32
0.0
 42
50.0
 43
0.0
 44
0.0
 50
0.0
 71
     0
  0
VIEW
  2
AM_VIEW3
 70
     0
 40
277.49999999999989
 10
249.64779005524841
 20
138.7499999999998
 41
499.2955801104971
 11
0.0
 21
0.0
 31
1.0
 12
0.0
 22
0.0
 32
0.0
 42
50.0
 43
0.0
 44
0.0
 50
0.0
 71
     0
  0
VIEW
  2
AM_VIEW4
 70
     0
 40
277.49999999999989
 10
603.85220994475117
 20
138.7499999999998
 41
499.2955801104971
 11
0.0
 21
0.0
 31
1.0
 12
0.0
 22
0.0
 32
0.0
 42
50.0
 43
0.0
 44
0.0
 50
0.0
 71
     0
  0
VIEW
  2
AM_VIEW5
 70
     0
 40
277.49999999999989
 10
426.75
 20
277.49999999999989
 41
499.2955801104971
 11
0.0
 21
0.0
 31
1.0
 12
0.0
 22
0.0
 32
0.0
 42
50.0
 43
0.0
 44
0.0
 50
0.0
 71
     0
  0
VIEW
  2
AM_VIEW6
 70
     0
 40
554.99445000000014
 10
426.75
 20
277.49999999999989
 41
998.5811743093924
 11
0.0
 21
0.0
 31
1.0
 12
0.0
 22
0.0
 32
0.0
 42
50.0
 43
0.0
 44
0.0
 50
0.0
 71
     0
  0
ENDTAB
  0
TABLE
  2
UCS
 70
     0
  0
ENDTAB
  0
TABLE
  2
APPID
 70
    95
  0
APPID
  2
ACAD
 70
     0
  0
APPID
  2
ACADANNOTATIVE
 70
     0
  0
APPID
  2
MCAD_NO_VIS
 70
     0
  0
APPID
  2
ACAD_TEMP_GRAPHIC
 70
     0
  0
APPID
  2
ACATTRIBSERVICES
 70
     0
  0
APPID
  2
GENIUS_GENREC_14
 70
     0
  0
APPID
  2
GENIUS_GENOBJ-N-REC_13
 70
     0
  0
APPID
  2
GENIUS_GENODEF_13
 70
     0
  0
APPID
  2
GENIUS_GENOLIS_13
 70
     0
  0
APPID
  2
GENIUS_GENOBJ-N-TIT_13
 70
     0
  0
APPID
  2
GENIUS_GENOENT_13
 70
     0
  0
APPID
  2
GENIUS_GENTITLE_13
 70
     0
  0
APPID
  2
GENIUS_GENOREF_13
 70
     0
  0
APPID
  2
GENIUS_GENSCREG_15
 70
     0
  0
APPID
  2
GENIUS_GENOBJ-N-SDF_13
 70
     0
  0
APPID
  2
GENIUS_GENFIL_13
 70
     0
  0
APPID
  2
GENIUS_GENOBJ-N-CHA_13
 70
     0
  0
APPID
  2
GENIUS_GENDTOL_13
 70
     0
  0
APPID
  2
GENIUS_GENOBJ-N-FIL_13
 70
     0
  0
APPID
  2
AD_DRAW
 70
     0
  0
APPID
  2
DESIGNERASSEMBLIES
 70
     0
  0
APPID
  2
ASURF_PCURVE_APPNAME
 70
     0
  0
APPID
  2
GENIUS_GE3SECT_13
 70
     0
  0
APPID
  2
GENIUS_GENCFG_13
 70
     0
  0
APPID
  2
GENIUS_GE3CFG0_13
 70
     0
  0
APPID
  2
GENIUS_GENCFG0_13
 70
     0
  0
APPID
  2
GENIUS_GENCFG1_13
 70
     0
  0
APPID
  2
GENIUS_GENCFG2_13
 70
     0
  0
APPID
  2
GENIUS_GENCFG3_13
 70
     0
  0
APPID
  2
GENIUS_GENCFG4_13
 70
     0
  0
APPID
  2
GENIUS_GEVCFG0_13
 70
     0
  0
APPID
  2
GENIUS_GENHINW_13
 70
     0
  0
APPID
  2
GENIUS_FIRSTVISTXT_14
 70
     0
  0
APPID
  2
GENIUS_GENOBJ-N-LEADER_13
 70
     0
  0
APPID
  2
GEV_VCCNULL_SWITCH_OFF
 70
     0
  0
APPID
  2
GENIUS_GEFCFG0_13
 70
     0
  0
APPID
  2
GENIUS_GENZVEED_13
 70
     0
  0
APPID
  2
GENIUS_GENSCREG_13
 70
     0
  0
APPID
  2
GENIUS_DUMCFG0_13
 70
     0
  0
APPID
  2
GEVID936201362
 70
     0
  0
APPID
  2
GEVDC
 70
     0
  0
APPID
  2
GEVCON
 70
     0
  0
APPID
  2
VCC
 70
     0
  0
APPID
  2
GEVPT
 70
     0
  0
APPID
  2
GEVIT
 70
     0
  0
APPID
  2
GENBH
 70
     0
  0
APPID
  2
GEVMK
 70
     0
  0
APPID
  2
GENIUS_GENBH_13
 70
     0
  0
APPID
  2
GENIUS_GENOBJ-NBEHI-BHF_13
 70
     0
  0
APPID
  2
GENIUS_GENOBJ-NBEHI-BHB_13
 70
     0
  0
APPID
  2
GENIUS_GENOBJ-F-DESC_13
 70
     0
  0
APPID
  2
GENIUS_GEFDESC_14
 70
     0
  0
APPID
  2
GENIUS_GENOBJ-F-PART_13
 70
     0
  0
APPID
  2
GENIUS_GEFSTDP_13
 70
     0
  0
APPID
  2
GENIUS_GEFPARTINS_13
 70
     0
  0
APPID
  2
GENIUS_GENTRA_14
 70
     0
  0
APPID
  2
GENIUS_GENINF13_13
 70
     0
  0
APPID
  2
GENIUS_GENOBJ-N-INFOPT_13
 70
     0
  0
APPID
  2
GENIUS_GENOBJ-N-RSSYM_13
 70
     0
  0
APPID
  2
GENIUS_GENSYMENT_13
 70
     0
  0
APPID
  2
GENIUS_GENSCSYM_13
 70
     0
  0
APPID
  2
GENIUS_GEFINFNAM_13
 70
     0
  0
APPID
  2
GENIUS_GENOBJ-N-CEN_13
 70
     0
  0
APPID
  2
GENIUS_GENOBJ-N-CRS_13
 70
     0
  0
APPID
  2
GENIUS_GENOBJ-N-CRC_13
 70
     0
  0
APPID
  2
GENIUS_GENCRC_14
 70
     0
  0
APPID
  2
GEVID942827039
 70
     0
  0
APPID
  2
GEVID942827040
 70
     0
  0
APPID
  2
GEVID942827041
 70
     0
  0
APPID
  2
GENIUS_GENOBJ-F-SCPASSM_13
 70
     0
  0
APPID
  2
GENIUS_GENDIMSH_14
 70
     0
  0
APPID
  2
GEVID942827042
 70
     0
  0
APPID
  2
GEVID946020473
 70
     0
  0
APPID
  2
GEVID946020474
 70
     0
  0
APPID
  2
GEVID946020475
 70
     0
  0
APPID
  2
GENIUS_GENOBJ-N-HTC_13
 70
     0
  0
APPID
  2
GENIUS_GENHATCH_13
 70
     0
  0
APPID
  2
GEVID948854295
 70
     0
  0
APPID
  2
GEVID939402019
 70
     0
  0
APPID
  2
GEVID952919491
 70
     0
  0
APPID
  2
GEVID952919492
 70
     0
  0
APPID
  2
GENIUS_GEFWELD_13
 70
     0
  0
APPID
  2
GENIUS_GENOBJ-F-WELS_13
 70
     0
  0
APPID
  2
GEVID952919493
 70
     0
  0
APPID
  2
GENIUS_GENOBJ-N-RSBK_13
 70
     0
  0
APPID
  2
GENIUS_GENOBJ-N-LIB_13
 70
     0
  0
APPID
  2
GENIUS_GENSCALE_13
 70
     0
  0
APPID
  2
GEVID986376691
 70
     0
  0
APPID
  2
DCO15
 70
     0
  0
APPID
  2
ACAD_DSTYLE_DIMBREAK
 70
     0
  0
APPID
  2
ACAD_DSTYLE_DIMJAG
 70
     0
  0
APPID
  2
ACAD_NAV_VCDISPLAY
 70
     0
  0
APPID
  2
ACADANNOPO
 70
     0
  0
APPID
  2
ACAD_EXEMPT_FROM_CAD_STANDARDS
 70
     0
  0
APPID
  2
ACAD_MLEADERVER
 70
     0
  0
ENDTAB
  0
TABLE
  2
DIMSTYLE
 70
    15
  0
DIMSTYLE
  2
STANDARD
 70
     0
  3

  4

  5

  6

  7

 40
1.0
 41
0.18
 42
0.0625
 43
0.38
 44
0.18
 45
0.0
 46
0.0
 47
0.0
 48
0.0
140
0.18
141
0.09
142
0.0
143
25.399999999999999
144
1.0
145
0.0
146
1.0
147
0.09
 71
     0
 72
     0
 73
     1
 74
     1
 75
     0
 76
     0
 77
     0
 78
     0
170
     0
171
     2
172
     0
173
     0
174
     0
175
     0
176
     0
177
     0
178
     0
  0
DIMSTYLE
  2
ANNOTATIVE
 70
     0
  3

  4

  5

  6

  7

 40
1.0
 41
0.18
 42
0.0625
 43
0.38
 44
0.18
 45
0.0
 46
0.0
 47
0.0
 48
0.0
140
0.18
141
0.09
142
0.0
143
25.399999999999999
144
1.0
145
0.0
146
1.0
147
0.09
 71
     0
 72
     0
 73
     1
 74
     1
 75
     0
 76
     0
 77
     0
 78
     0
170
     0
171
     2
172
     0
173
     0
174
     0
175
     0
176
     0
177
     0
178
     0
  0
DIMSTYLE
  2
AM_ISO
 70
     0
  3

  4
"
  5

  6

  7

 40
1.0
 41
2.5
 42
1.0
 43
8.0
 44
0.6
 45
0.0
 46
0.0
 47
0.1
 48
0.1
140
2.5
141
0.0
142
0.0
143
0.0393701
144
1.0
145
0.0
146
0.71
147
0.8
 71
     0
 72
     0
 73
     0
 74
     0
 75
     0
 76
     0
 77
     1
 78
     8
170
     0
171
     2
172
     1
173
     0
174
     0
175
     0
176
   256
177
   256
178
     4
  0
DIMSTYLE
  2
AM_ISO$3
 70
     0
  3

  4
"
  5

  6

  7

 40
1.0
 41
2.5
 42
1.0
 43
8.0
 44
0.6
 45
0.0
 46
0.0
 47
0.1
 48
0.1
140
2.5
141
0.0
142
0.0
143
0.0393701
144
1.0
145
0.0
146
0.71
147
0.8
 71
     0
 72
     0
 73
     0
 74
     1
 75
     0
 76
     0
 77
     1
 78
     8
170
     0
171
     2
172
     0
173
     0
174
     0
175
     0
176
   256
177
   256
178
     4
  0
DIMSTYLE
  2
AM_ISO$4
 70
     0
  3

  4
"
  5

  6

  7

 40
1.0
 41
2.5
 42
1.0
 43
8.0
 44
0.6
 45
0.0
 46
0.0
 47
0.1
 48
0.1
140
2.5
141
0.0
142
0.0
143
0.0393701
144
1.0
145
0.0
146
0.71
147
0.8
 71
     0
 72
     0
 73
     0
 74
     1
 75
     0
 76
     0
 77
     1
 78
     8
170
     0
171
     2
172
     0
173
     0
174
     0
175
     0
176
   256
177
   256
178
     4
  0
DIMSTYLE
  2
AM_ISO$6
 70
     0
  3

  4
"
  5

  6

  7

 40
1.0
 41
2.5
 42
1.0
 43
8.0
 44
0.6
 45
0.0
 46
0.0
 47
0.1
 48
0.1
140
2.5
141
0.0
142
0.0
143
0.0393701
144
1.0
145
0.0
146
0.71
147
0.8
 71
     0
 72
     0
 73
     0
 74
     0
 75
     0
 76
     0
 77
     0
 78
     8
170
     0
171
     2
172
     1
173
     0
174
     0
175
     0
176
   256
177
   256
178
     4
  0
DIMSTYLE
  2
AM_ISO$7
 70
     0
  3

  4
"
  5

  6

  7

 40
1.0
 41
2.5
 42
1.0
 43
8.0
 44
0.6
 45
0.0
 46
0.0
 47
0.1
 48
0.1
140
2.5
141
0.0
142
0.0
143
0.0393701
144
1.0
145
0.0
146
0.71
147
0.8
 71
     0
 72
     0
 73
     0
 74
     0
 75
     0
 76
     0
 77
     1
 78
     8
170
     0
171
     2
172
     1
173
     0
174
     0
175
     0
176
   256
177
   256
178
     4
  0
DIMSTYLE
  2
AM_ISO$SF
 70
     0
  3

  4
"
  5

  6

  7

 40
1.0
 41
2.5
 42
1.0
 43
10.0
 44
1.0
 45
0.0
 46
0.0
 47
0.1
 48
0.1
140
3.5
141
0.0
142
0.0
143
0.0393701
144
1.0
145
0.0
146
0.71
147
1.5
 71
     0
 72
     0
 73
     0
 74
     0
 75
     1
 76
     1
 77
     1
 78
     8
170
     0
171
     2
172
     1
173
     0
174
     0
175
     0
176
   256
177
   256
178
     2
  0
DIMSTYLE
  2
AM_ISO$SH
 70
     0
  3

  4
"
  5

  6

  7

 40
1.0
 41
2.5
 42
1.0
 43
10.0
 44
1.0
 45
0.0
 46
0.0
 47
0.1
 48
0.1
140
3.5
141
0.0
142
0.0
143
0.0393701
144
2.0
145
0.0
146
0.71
147
1.5
 71
     0
 72
     0
 73
     0
 74
     0
 75
     1
 76
     1
 77
     1
 78
     8
170
     0
171
     2
172
     1
173
     1
174
     0
175
     0
176
   256
177
   256
178
     2
  0
DIMSTYLE
  2
AM_ANSI
 70
     0
  3

  4
mm
  5

  6

  7

 40
1.0
 41
0.1
 42
0.05
 43
0.5
 44
0.1
 45
0.0
 46
0.0
 47
0.1
 48
0.1
140
0.12
141
0.0
142
0.0
143
25.399999999999999
144
1.0
145
0.0
146
0.71
147
0.06
 71
     0
 72
     0
 73
     1
 74
     1
 75
     0
 76
     0
 77
     0
 78
     7
170
     0
171
     2
172
     0
173
     0
174
     0
175
     0
176
   256
177
   256
178
     2
  0
DIMSTYLE
  2
AM_ANSI$3
 70
     0
  3

  4
mm
  5

  6

  7

 40
1.0
 41
0.1
 42
0.05
 43
0.5
 44
0.1
 45
0.0
 46
0.0
 47
0.1
 48
0.1
140
0.12
141
0.0
142
0.0
143
25.399999999999999
144
1.0
145
0.0
146
0.71
147
0.06
 71
     0
 72
     0
 73
     1
 74
     1
 75
     0
 76
     0
 77
     0
 78
     7
170
     0
171
     2
172
     0
173
     0
174
     0
175
     0
176
   256
177
   256
178
     2
  0
DIMSTYLE
  2
AM_ANSI$4
 70
     0
  3

  4
mm
  5

  6

  7

 40
1.0
 41
0.1
 42
0.05
 43
0.5
 44
0.1
 45
0.0
 46
0.0
 47
0.1
 48
0.1
140
0.12
141
0.0
142
0.0
143
25.399999999999999
144
1.0
145
0.0
146
0.71
147
0.06
 71
     0
 72
     0
 73
     1
 74
     1
 75
     0
 76
     0
 77
     0
 78
     7
170
     0
171
     2
172
     0
173
     0
174
     0
175
     0
176
   256
177
   256
178
     2
  0
DIMSTYLE
  2
AM_ANSI$7
 70
     0
  3

  4
mm
  5

  6

  7

 40
1.0
 41
0.1
 42
0.05
 43
0.5
 44
0.1
 45
0.0
 46
0.0
 47
0.1
 48
0.1
140
0.24
141
0.0
142
0.0
143
25.399999999999999
144
1.0
145
0.0
146
0.71
147
0.06
 71
     0
 72
     0
 73
     1
 74
     1
 75
     0
 76
     0
 77
     0
 78
     7
170
     0
171
     2
172
     0
173
     0
174
     0
175
     0
176
   256
177
   256
178
     2
  0
DIMSTYLE
  2
AM_ANSI$SF
 70
     0
  3

  4
mm
  5

  6

  7

 40
1.0
 41
0.1
 42
0.05
 43
0.5
 44
0.1
 45
0.0
 46
0.0
 47
0.1
 48
0.1
140
0.12
141
0.0
142
0.0
143
25.399999999999999
144
1.0
145
0.0
146
0.71
147
0.06
 71
     0
 72
     0
 73
     1
 74
     1
 75
     1
 76
     1
 77
     0
 78
     7
170
     0
171
     2
172
     0
173
     0
174
     0
175
     0
176
   256
177
   256
178
     2
  0
DIMSTYLE
  2
AM_ANSI$SH
 70
     0
  3

  4
mm
  5

  6

  7

 40
1.0
 41
0.1
 42
0.05
 43
0.5
 44
0.1
 45
0.0
 46
0.0
 47
0.1
 48
0.1
140
0.12
141
0.0
142
0.0
143
25.399999999999999
144
1.0
145
0.0
146
0.71
147
0.06
 71
     0
 72
     0
 73
     1
 74
     1
 75
     1
 76
     1
 77
     0
 78
     7
170
     0
171
     2
172
     0
173
     1
174
     0
175
     0
176
   256
177
   256
178
     2
  0
ENDTAB
  0
ENDSEC
  0
SECTION
  2
BLOCKS
  0
BLOCK
  8
0
  2
$MODEL_SPACE
 70
     0
 10
0.0
 20
0.0
 30
0.0
  3
$MODEL_SPACE
  1

  0
ENDBLK
  5
31B3
  8
0
  0
BLOCK
 67
     1
  8
0
  2
$PAPER_SPACE
 70
     0
 10
0.0
 20
0.0
 30
0.0
  3
$PAPER_SPACE
  1

  0
ENDBLK
  5
31AF
 67
     1
  8
0
  0
BLOCK
  8
0
  2
GENAXEH
 70
     0
 10
0.0
 20
0.0
 30
0.0
  3
GENAXEH
  1

  0
LINE
  5
2EE7
  8
0
 10
-1.0
 20
0.0
 30
0.0
 11
1.0
 21
0.0
 31
0.0
  0
ENDBLK
  5
2EE8
  8
0
  0
BLOCK
  8
0
  2
*U3
 70
     1
 10
0.0
 20
0.0
 30
0.0
  3
*U3
  1

  0
TEXT
  5
2EEB
  8
AM_0
 62
     4
 10
715.08803594700942
 20
226.0094566422429
 30
0.0
 40
7.5
  1
85
 50
90.0
 41
0.8299999999999999
  0
TEXT
  5
2EEC
  8
AM_0
 62
     3
 10
707.98803594700962
 20
238.4594566422428
 30
0.0
 40
5.3249999999999993
  1
 0
 50
90.0
 41
0.8299999999999999
  0
TEXT
  5
2EED
  8
AM_0
 62
     3
 10
715.08803594700942
 20
238.4594566422428
 30
0.0
 40
5.3249999999999993
  1
-0.5
 50
90.0
 41
0.8299999999999999
  0
ENDBLK
  5
2EEE
  8
0
  0
BLOCK
  8
0
  2
_ACMFILLEDHALF
 70
     0
 10
0.0
 20
0.0
 30
0.0
  3
_ACMFILLEDHALF
  1

  0
TRACE
  5
329C
  8
AM_0
 62
     0
 10
-0.8
 20
0.0
 30
0.0
 11
-1.0
 21
0.166666666
 31
0.0
 12
0.0
 22
0.0
 32
0.0
 13
0.0
 23
0.0
 33
0.0
  0
LINE
  5
329D
  8
AM_0
 62
     0
 10
-1.0
 20
0.0
 30
0.0
 11
-0.8
 21
0.0
 31
0.0
  0
ENDBLK
  5
329B
  8
0
  0
ENDSEC
  0
SECTION
  2
ENTITIES
  0
LINE
  5
2EEF
  8
ﾁｭｳｼﾝｾﾝ
 10
312.65321469268679
 20
280.99577164224252
 30
0.0
 11
415.7361546926868
 21
280.99577164224252
 31
0.0
  0
LINE
  5
2EF0
  8
AM_0
 10
295.95500469268683
 20
306.6026256422428
 30
0.0
 11
335.00264469268689
 21
306.6026256422428
 31
0.0
  0
LINE
  5
2EF1
  8
AM_0
 10
322.00262469268688
 20
196.99576864224281
 30
0.0
 11
363.0026346926868
 21
196.99576864224281
 31
0.0
  0
LINE
  5
2EF2
  8
AM_0
 10
324.00260469268682
 20
323.99578564224282
 30
0.0
 11
367.13345469268683
 21
322.86634564224278
 31
0.0
  0
LINE
  5
2EF3
  8
AM_0
 10
286.50263469268668
 20
327.9957706422428
 30
0.0
 11
286.50263469268668
 21
199.9957706422428
 31
0.0
  0
LINE
  5
2EF4
  8
AM_0
 10
246.0026423220813
 20
290.9957706422428
 30
0.0
 11
246.0026423220813
 21
236.99577064224269
 31
0.0
  0
LINE
  5
2EF5
  8
AM_0
 10
276.50263469268663
 20
326.99577064224269
 30
0.0
 11
276.50263469268663
 21
200.9957706422428
 31
0.0
  0
LINE
  5
2EF6
  8
AM_0
 10
221.0026468520343
 20
238.99577064224269
 30
0.0
 11
221.0026468520343
 21
288.99577064224269
 31
0.0
  0
LINE
  5
2EF7
  8
AM_0
 10
219.0026468520341
 20
281.0815570798697
 30
0.0
 11
219.0026468520341
 21
246.9099842046158
 31
0.0
  0
LINE
  5
2EF8
  8
AM_0
 10
291.50267469268681
 20
225.99946264224269
 30
0.0
 11
291.50267469268681
 21
301.9920786422428
 31
0.0
  0
LINE
  5
2EF9
  8
AM_0
 10
324.00263469268668
 20
323.99578564224282
 30
0.0
 11
324.00263469268668
 21
213.9957846422428
 31
0.0
  0
LINE
  5
2EFA
  8
ﾁｭｳｼﾝｾﾝ
 10
186.7850546182303
 20
263.99577064224269
 30
0.0
 11
317.12417571086758
 21
263.99577064224269
 31
0.0
  0
LINE
  5
2EFB
  8
AM_0
 10
275.03816859861962
 20
207.9602443657046
 30
0.0
 11
248.93157451021551
 21
234.06683845410811
 31
0.0
  0
ARC
  5
2EFC
  8
AM_0
 10
241.86050669835001
 20
226.99577064224269
 30
0.0
 40
10.0
 50
45.0
 51
90.0
1001
GENIUS_GENODEF_13
1002
{
1000
HIER
1070
     0
1002
}
1002
{
1000
MANEDIT
1070
     0
1002
}
1002
{
1000
NOSEL
1070
     0
1002
}
1002
{
1000
BEHIND
1070
     0
1002
}
1002
{
1000
OTHER
1070
     0
1002
}
1002
{
1000
REACTOR
1002
}
1001
GENIUS_GENOBJ-N-FIL_13
1002
{
1000
OWNER
1000
GEN
1002
}
  0
LINE
  5
2EFD
  8
AM_0
 10
189.0026468520343
 20
255.99577064224269
 30
0.0
 11
217.0026468520341
 21
255.99577064224269
 31
0.0
  0
LINE
  5
2EFE
  8
AM_0
 10
189.0026468520343
 20
271.9957706422428
 30
0.0
 11
217.0026468520341
 21
271.9957706422428
 31
0.0
  0
LINE
  5
2EFF
  8
AM_0
 10
189.0026468520343
 20
273.9957706422428
 30
0.0
 11
211.0026468520341
 21
273.9957706422428
 31
0.0
  0
LINE
  5
2F00
  8
AM_0
 10
189.0026468520343
 20
273.9957706422428
 30
0.0
 11
189.0026468520343
 21
255.99577064224269
 31
0.0
  0
LINE
  5
2F01
  8
AM_0
 10
211.0026468520341
 20
271.9957706422428
 30
0.0
 11
211.0026468520341
 21
273.9957706422428
 31
0.0
  0
LINE
  5
2F02
  8
AM_0
 10
217.0026468520341
 20
272.49577064224269
 30
0.0
 11
217.0026468520341
 21
255.4957706422428
 31
0.0
  0
LINE
  5
2F03
  8
AM_0
 10
223.0026468520343
 20
236.99577064224269
 30
0.0
 11
241.86050669835001
 21
236.99577064224269
 31
0.0
  0
LINE
  5
2F04
  8
AM_0
 10
219.29554007084769
 20
246.20287742342941
 30
0.0
 11
220.7097536332208
 21
244.78866386105631
 31
0.0
  0
ARC
  5
2F05
  8
AM_0
 10
223.0026468520343
 20
238.99577064224269
 30
0.0
 40
2.0
 50
180.0
 51
270.0
1001
GENIUS_GENOBJ-N-FIL_13
1002
{
1000
OWNER
1000
GEN
1002
}
1001
GENIUS_GENODEF_13
1002
{
1000
HIER
1070
     0
1002
}
1002
{
1000
MANEDIT
1070
     0
1002
}
1002
{
1000
NOSEL
1070
     0
1002
}
1002
{
1000
BEHIND
1070
     0
1002
}
1002
{
1000
OTHER
1070
     0
1002
}
1002
{
1000
REACTOR
1002
}
  0
ARC
  5
2F06
  8
AM_0
 10
220.0026468520343
 20
244.08155707986961
 30
0.0
 40
1.0
 50
0.0
 51
45.0
1001
GENIUS_GENODEF_13
1002
{
1000
HIER
1070
     0
1002
}
1002
{
1000
MANEDIT
1070
     0
1002
}
1002
{
1000
NOSEL
1070
     0
1002
}
1002
{
1000
BEHIND
1070
     0
1002
}
1002
{
1000
OTHER
1070
     0
1002
}
1002
{
1000
REACTOR
1002
}
1001
GENIUS_GENOBJ-N-FIL_13
1002
{
1000
OWNER
1000
GEN
1002
}
  0
LINE
  5
2F07
  8
AM_0
 10
217.0026468520341
 20
255.49577597529279
 30
0.0
 11
219.0026468520341
 21
255.49577490868279
 31
0.0
  0
ARC
  5
2F08
  8
AM_0
 10
220.0026468520343
 20
246.9099842046158
 30
0.0
 40
1.0
 50
180.0
 51
225.0
1001
GENIUS_GENODEF_13
1002
{
1000
HIER
1070
     0
1002
}
1002
{
1000
MANEDIT
1070
     0
1002
}
1002
{
1000
NOSEL
1070
     0
1002
}
1002
{
1000
BEHIND
1070
     0
1002
}
1002
{
1000
OTHER
1070
     0
1002
}
1002
{
1000
REACTOR
1002
}
1001
GENIUS_GENOBJ-N-FIL_13
1002
{
1000
OWNER
1000
GEN
1002
}
  0
LINE
  5
2F09
  8
AM_0
 10
217.0026468520341
 20
272.49577064224269
 30
0.0
 11
219.0026468520341
 21
272.49577064224269
 31
0.0
  0
LINE
  5
2F0A
  8
AM_0
 10
326.98205469268669
 20
239.8211166422428
 30
0.0
 11
323.31431469268682
 21
208.64524264224281
 31
0.0
  0
ARC
  5
2F0B
  8
AM_0
 10
292.5026346926868
 20
214.49576764224281
 30
0.0
 40
2.00000007
 50
270.0
 51
0.0
  0
ARC
  5
2F0C
  8
AM_0
 10
292.5026346926868
 20
223.9994766422428
 30
0.0
 40
2.00000007
 50
0.0
 51
90.000003000000007
  0
LINE
  5
2F0D
  8
AM_0
 10
292.47644469268681
 20
203.1702366422428
 30
0.0
 11
296.45024469268691
 21
203.27430064224279
 31
0.0
  0
LINE
  5
2F0E
  8
AM_0
 10
291.50267469268681
 20
201.6008706422428
 30
0.0
 11
291.50267469268681
 21
212.4957846422428
 31
0.0
  0
LINE
  5
2F0F
  8
AM_0
 10
286.50263469268668
 20
199.9957706422428
 30
0.0
 11
277.5026346926868
 21
199.9957706422428
 31
0.0
  0
ARC
  5
2F10
  8
AM_0
 10
277.5026346926868
 20
200.9957706422428
 30
0.0
 40
1.0
 50
180.0
 51
270.0
1001
GENIUS_GENODEF_13
1002
{
1000
HIER
1070
     0
1002
}
1002
{
1000
MANEDIT
1070
     0
1002
}
1002
{
1000
NOSEL
1070
     0
1002
}
1002
{
1000
BEHIND
1070
     0
1002
}
1002
{
1000
OTHER
1070
     0
1002
}
1002
{
1000
REACTOR
1002
}
1001
GENIUS_GENOBJ-N-FIL_13
1002
{
1000
OWNER
1000
GEN
1002
}
  0
ARC
  5
2F11
  8
AM_0
 10
290.50262469268688
 20
201.6008706422428
 30
0.0
 40
1.0000000199999981
 50
271.49999999999972
 51
0.0
  0
LINE
  5
2F12
  8
AM_0
 10
286.50263469268668
 20
200.49579964224279
 30
0.0
 11
290.52881469268681
 21
200.60122264224279
 31
0.0
  0
ARC
  5
2F13
  8
AM_0
 10
271.5026346926868
 20
204.42471045977169
 30
0.0
 40
5.0
 50
0.0
 51
45.0
1001
GENIUS_GENODEF_13
1002
{
1000
HIER
1070
     0
1002
}
1002
{
1000
MANEDIT
1070
     0
1002
}
1002
{
1000
NOSEL
1070
     0
1002
}
1002
{
1000
BEHIND
1070
     0
1002
}
1002
{
1000
OTHER
1070
     0
1002
}
1002
{
1000
REACTOR
1002
}
1001
GENIUS_GENOBJ-N-FIL_13
1002
{
1000
OWNER
1000
GEN
1002
}
  0
ARC
  5
2F14
  8
AM_0
 10
292.5026346926868
 20
202.17055864224281
 30
0.0
 40
1.0000000199999981
 50
91.500000999999969
 51
180.00001
  0
LINE
  5
2F15
  8
AM_0
 10
286.50263469268668
 20
212.4957846422428
 30
0.0
 11
292.5026346926868
 21
212.4957846422428
 31
0.0
  0
LINE
  5
2F16
  8
AM_0
 10
286.50263469268668
 20
225.99946264224269
 30
0.0
 11
292.5026346926868
 21
225.99946264224269
 31
0.0
  0
LINE
  5
2F17
  8
AM_0
 10
320.33489469268687
 20
205.99576864224281
 30
0.0
 11
302.50262469268682
 21
205.99576864224281
 31
0.0
  0
LINE
  5
2F18
  8
AM_0
 10
301.00262469268688
 20
195.9957666422425
 30
0.0
 11
321.0026346926868
 21
195.9957666422425
 31
0.0
  0
LINE
  5
2F19
  8
ﾁｭｳｼﾝｾﾝ1
 10
311.00261469268662
 20
193.81771056314159
 30
0.0
 11
311.00261469268662
 21
207.6968562437666
 31
0.0
  0
LINE
  5
2F1A
  8
ｶｸﾚｾﾝ2
 10
306.0026346926868
 20
195.9957666422425
 30
0.0
 11
306.0026346926868
 21
205.99576864224281
 31
0.0
  0
LINE
  5
2F1B
  8
AM_0
 10
301.00262469268688
 20
195.9957666422425
 30
0.0
 11
301.00262469268688
 21
204.49576864224269
 31
0.0
  0
ARC
  5
2F1C
  8
AM_0
 10
302.50262469268682
 20
204.49576864224269
 30
0.0
 40
1.5000000299999969
 50
90.000003000000007
 51
180.00001
  0
LINE
  5
2F1D
  8
AM_0
 10
296.45024469268691
 20
203.27430064224279
 30
0.0
 11
301.00262469268688
 21
203.39350264224271
 31
0.0
  0
LINE
  5
2F1E
  8
ｶｸﾚｾﾝ2
 10
316.00262469268682
 20
195.9957666422425
 30
0.0
 11
316.00262469268682
 21
205.99576864224281
 31
0.0
  0
ARC
  5
2F1F
  8
AM_0
 10
322.00262469268688
 20
195.9957666422425
 30
0.0
 40
1.0000000199999981
 50
90.000003000000007
 51
180.00001
  0
LINE
  5
2F20
  8
AM_0
 10
321.0026346926868
 20
195.9957666422425
 30
0.0
 11
321.0026346926868
 21
195.9957666422425
 31
0.0
  0
ARC
  5
2F21
  8
AM_0
 10
320.33489469268687
 20
208.9957686422425
 30
0.0
 40
3.0
 50
270.0
 51
353.29016000000001
  0
LINE
  5
2F22
  8
AM_0
 10
294.50267469268681
 20
214.49576764224281
 30
0.0
 11
294.50267469268681
 21
223.9994766422428
 31
0.0
  0
LINE
  5
2F23
  8
AM_0
 10
327.0026346926868
 20
268.74659464224283
 30
0.0
 11
327.0026346926868
 21
240.17162764224281
 31
0.0
  0
ARC
  5
2F24
  8
AM_0
 10
324.00263469268668
 20
240.17162764224281
 30
0.0
 40
3.0
 50
353.29016000000001
 51
0.0
  0
LINE
  5
2F25
  8
AM_0
 10
275.03816859861962
 20
320.03129691878092
 30
0.0
 11
248.93157451021551
 21
293.92470283037733
 31
0.0
  0
LINE
  5
2F26
  8
AM_0
 10
223.0026468520343
 20
290.9957706422428
 30
0.0
 11
241.86050669835001
 21
290.9957706422428
 31
0.0
  0
LINE
  5
2F27
  8
AM_0
 10
219.29554007084769
 20
281.78866386105608
 30
0.0
 11
220.7097536332208
 21
283.20287742342919
 31
0.0
  0
ARC
  5
2F28
  8
AM_0
 10
220.0026468520343
 20
283.90998420461591
 30
0.0
 40
1.0
 50
315.0
 51
0.0
1001
GENIUS_GENODEF_13
1002
{
1000
HIER
1070
     0
1002
}
1002
{
1000
MANEDIT
1070
     0
1002
}
1002
{
1000
NOSEL
1070
     0
1002
}
1002
{
1000
BEHIND
1070
     0
1002
}
1002
{
1000
OTHER
1070
     0
1002
}
1002
{
1000
REACTOR
1002
}
1001
GENIUS_GENOBJ-N-FIL_13
1002
{
1000
OWNER
1000
GEN
1002
}
  0
ARC
  5
2F29
  8
AM_0
 10
220.0026468520343
 20
281.0815570798697
 30
0.0
 40
1.0
 50
135.0
 51
180.0
1001
GENIUS_GENODEF_13
1002
{
1000
HIER
1070
     0
1002
}
1002
{
1000
MANEDIT
1070
     0
1002
}
1002
{
1000
NOSEL
1070
     0
1002
}
1002
{
1000
BEHIND
1070
     0
1002
}
1002
{
1000
OTHER
1070
     0
1002
}
1002
{
1000
REACTOR
1002
}
1001
GENIUS_GENOBJ-N-FIL_13
1002
{
1000
OWNER
1000
GEN
1002
}
  0
ARC
  5
2F2A
  8
AM_0
 10
223.0026468520343
 20
288.99577064224269
 30
0.0
 40
2.0
 50
90.0
 51
180.0
1001
GENIUS_GENOBJ-N-FIL_13
1002
{
1000
OWNER
1000
GEN
1002
}
1001
GENIUS_GENODEF_13
1002
{
1000
HIER
1070
     0
1002
}
1002
{
1000
MANEDIT
1070
     0
1002
}
1002
{
1000
NOSEL
1070
     0
1002
}
1002
{
1000
BEHIND
1070
     0
1002
}
1002
{
1000
OTHER
1070
     0
1002
}
1002
{
1000
REACTOR
1002
}
  0
ARC
  5
2F2B
  8
AM_0
 10
241.86050669835001
 20
300.9957706422428
 30
0.0
 40
10.0
 50
270.0
 51
315.0
1001
GENIUS_GENODEF_13
1002
{
1000
HIER
1070
     0
1002
}
1002
{
1000
MANEDIT
1070
     0
1002
}
1002
{
1000
NOSEL
1070
     0
1002
}
1002
{
1000
BEHIND
1070
     0
1002
}
1002
{
1000
OTHER
1070
     0
1002
}
1002
{
1000
REACTOR
1002
}
1001
GENIUS_GENOBJ-N-FIL_13
1002
{
1000
OWNER
1000
GEN
1002
}
  0
ARC
  5
2F2C
  8
AM_0
 10
271.5026346926868
 20
323.5668308247138
 30
0.0
 40
5.0
 50
315.0
 51
0.0
1001
GENIUS_GENODEF_13
1002
{
1000
HIER
1070
     0
1002
}
1002
{
1000
MANEDIT
1070
     0
1002
}
1002
{
1000
NOSEL
1070
     0
1002
}
1002
{
1000
BEHIND
1070
     0
1002
}
1002
{
1000
OTHER
1070
     0
1002
}
1002
{
1000
REACTOR
1002
}
1001
GENIUS_GENOBJ-N-FIL_13
1002
{
1000
OWNER
1000
GEN
1002
}
  0
LINE
  5
2F2D
  8
AM_0
 10
291.50267469268681
 20
315.49576564224282
 30
0.0
 11
291.50267469268681
 21
326.39065564224262
 31
0.0
  0
ARC
  5
2F2E
  8
AM_0
 10
292.5026346926868
 20
313.49578564224271
 30
0.0
 40
2.00000007
 50
0.0
 51
90.000003000000007
  0
ARC
  5
2F2F
  8
AM_0
 10
292.5026346926868
 20
303.99207964224269
 30
0.0
 40
2.00000007
 50
270.0
 51
0.0
  0
LINE
  5
2F30
  8
AM_0
 10
286.50263469268668
 20
301.9920786422428
 30
0.0
 11
292.5026346926868
 21
301.9920786422428
 31
0.0
  0
LINE
  5
2F31
  8
AM_0
 10
286.50263469268668
 20
315.49576564224282
 30
0.0
 11
292.5026346926868
 21
315.49576564224282
 31
0.0
  0
LINE
  5
2F32
  8
AM_0
 10
294.50267469268681
 20
303.99207964224269
 30
0.0
 11
294.50267469268681
 21
313.49578564224271
 31
0.0
  0
LINE
  5
2F33
  8
AM_0
 10
292.47644469268681
 20
324.8213256422427
 30
0.0
 11
324.00260469268682
 21
323.9958156422428
 31
0.0
  0
LINE
  5
2F34
  8
AM_0
 10
286.50263469268668
 20
327.9957706422428
 30
0.0
 11
277.5026346926868
 21
327.9957706422428
 31
0.0
  0
ARC
  5
2F35
  8
AM_0
 10
277.5026346926868
 20
326.99577064224269
 30
0.0
 40
1.0
 50
90.0
 51
180.0
1001
GENIUS_GENODEF_13
1002
{
1000
HIER
1070
     0
1002
}
1002
{
1000
MANEDIT
1070
     0
1002
}
1002
{
1000
NOSEL
1070
     0
1002
}
1002
{
1000
BEHIND
1070
     0
1002
}
1002
{
1000
OTHER
1070
     0
1002
}
1002
{
1000
REACTOR
1002
}
1001
GENIUS_GENOBJ-N-FIL_13
1002
{
1000
OWNER
1000
GEN
1002
}
  0
ARC
  5
2F36
  8
AM_0
 10
290.50262469268688
 20
326.39065564224262
 30
0.0
 40
1.0000000199999981
 50
0.0
 51
88.499996999999965
  0
ARC
  5
2F37
  8
AM_0
 10
292.5026346926868
 20
325.8209856422427
 30
0.0
 40
1.0000000199999981
 50
179.99998999999991
 51
268.50000999999992
  0
LINE
  5
2F38
  8
AM_0
 10
286.50257469268678
 20
327.49576564224282
 30
0.0
 11
290.5287546926869
 21
327.3903756422427
 31
0.0
  0
LINE
  5
2F39
  8
ﾁｭｳｼﾝｾﾝ
 10
560.49203230823855
 20
192.7282656422428
 30
0.0
 11
560.49203230823855
 21
328.81630216564912
 31
0.0
  0
ARC
  5
2F3A
  8
AM_0
 10
560.49203230823855
 20
280.99577164224252
 30
0.0
 40
20.000000700000001
 50
90.000003000000007
 51
270.0
  0
ARC
  5
2F3B
  8
AM_0
 10
560.49203230823855
 20
263.99577064224269
 30
0.0
 40
60.000002999999992
 50
153.33084999999991
 51
170.94545999999991
  0
ARC
  5
2F3C
  8
AM_0
 10
560.49203230823855
 20
268.49577064224269
 30
0.0
 40
42.500000999999997
 50
0.0
 51
180.00001
  0
ARC
  5
2F3D
  8
AM_0
 10
560.49203230823855
 20
280.99577164224252
 30
0.0
 40
20.000000700000001
 50
270.0
 51
90.000003000000007
  0
ARC
  5
2F3E
  8
AM_0
 10
560.49203230823855
 20
263.99577064224269
 30
0.0
 40
60.000002999999992
 50
9.0545419000000003
 51
26.669156999999998
  0
ARC
  5
2F3F
  8
AM_0
 10
560.49203230823855
 20
280.99577164224252
 30
0.0
 40
9.5000003999999993
 50
108.40848
 51
71.591511999999994
  0
LINE
  5
2F40
  8
AM_0
 10
348.78833469268682
 20
288.33509464224278
 30
0.0
 11
337.00262469268682
 21
205.99576864224281
 31
0.0
  0
LINE
  5
2F41
  8
AM_0
 10
337.00262469268682
 20
292.62663064224262
 30
0.0
 11
337.00262469268682
 21
205.99576864224281
 31
0.0
  0
LINE
  5
2F42
  8
AM_0
 10
630.49203430823854
 20
205.99576864224281
 30
0.0
 11
620.36729530823845
 21
296.22599464224282
 31
0.0
  0
LINE
  5
2F43
  8
AM_0
 10
490.49204530823852
 20
205.99576864224281
 30
0.0
 11
500.61677230823852
 21
296.22599464224282
 31
0.0
  0
LINE
  5
2F44
  8
AM_0
 10
508.49204830823851
 20
288.23118364224263
 30
0.0
 11
508.49204830823851
 21
245.9957706422428
 31
0.0
  0
LINE
  5
2F45
  8
AM_0
 10
612.49204930823851
 20
288.23118364224263
 30
0.0
 11
612.49204930823851
 21
245.9957706422428
 31
0.0
  0
LINE
  5
2F46
  8
AM_0
 10
384.00263469268691
 20
300.0216186422428
 30
0.0
 11
384.00263469268691
 21
261.96992164224253
 31
0.0
  0
LINE
  5
2F47
  8
AM_0
 10
359.00264469268677
 20
210.99575164224279
 30
0.0
 11
359.00264469268677
 21
288.9131886422428
 31
0.0
  0
LINE
  5
2F48
  8
AM_0
 10
372.0026346926868
 20
317.86807564224262
 30
0.0
 11
372.0026346926868
 21
232.76319364224261
 31
0.0
  0
LINE
  5
2F49
  8
AM_0
 10
382.00262469268682
 20
308.99578564224271
 30
0.0
 11
382.00262469268682
 21
209.1861666422428
 31
0.0
  0
LINE
  5
2F4A
  8
AM_0
 10
414.0026346926868
 20
271.4957706422428
 30
0.0
 11
414.0026346926868
 21
292.9957706422428
 31
0.0
  0
LINE
  5
2F4B
  8
AM_0
 10
386.00258469268692
 20
270.99576964224269
 30
0.0
 11
386.00258469268692
 21
280.99577164224252
 31
0.0
  0
LINE
  5
2F4C
  8
ﾁｭｳｼﾝｾﾝ
 10
622.22686630823853
 20
263.99577064224269
 30
0.0
 11
499.7349373082385
 21
263.99577064224269
 31
0.0
  0
LINE
  5
2F4D
  8
AM_0
 10
630.49204930823828
 20
195.9957666422425
 30
0.0
 11
600.49204930823839
 21
195.9957666422425
 31
0.0
  0
LINE
  5
2F4E
  8
AM_0
 10
617.99203630823854
 20
205.99576864224281
 30
0.0
 11
602.49203530823866
 21
205.99576864224281
 31
0.0
  0
LINE
  5
2F4F
  8
AM_0
 10
364.00262469268682
 20
195.9957666422425
 30
0.0
 11
384.00263469268691
 21
195.9957666422425
 31
0.0
  0
LINE
  5
2F50
  8
AM_0
 10
382.50263469268691
 20
205.99576864224281
 30
0.0
 11
364.00262469268682
 21
205.99576864224281
 31
0.0
  0
LINE
  5
2F51
  8
ｶｸﾚｾﾝ2
 10
369.00263469268691
 20
195.9957666422425
 30
0.0
 11
369.00263469268691
 21
205.99576864224281
 31
0.0
  0
ARC
  5
2F52
  8
AM_0
 10
363.0026346926868
 20
195.9957666422425
 30
0.0
 40
1.0000000199999981
 50
0.0
 51
90.000003000000007
  0
LINE
  5
2F53
  8
AM_0
 10
364.00262469268682
 20
195.9957666422425
 30
0.0
 11
364.00262469268682
 21
195.9957666422425
 31
0.0
  0
ARC
  5
2F54
  8
AM_0
 10
364.00262469268682
 20
210.99575164224279
 30
0.0
 40
5.0000001000000003
 50
180.00001
 51
270.0
  0
LINE
  5
2F55
  8
AM_0
 10
367.00262469268682
 20
227.76317764224279
 30
0.0
 11
359.00264469268677
 21
227.76317764224279
 31
0.0
  0
ARC
  5
2F56
  8
AM_0
 10
367.00262469268682
 20
232.76319364224261
 30
0.0
 40
5.0000001000000003
 50
270.0
 51
0.0
  0
LINE
  5
2F57
  8
ﾁｭｳｼﾝｾﾝ1
 10
374.00258469268692
 20
193.81771056314159
 30
0.0
 11
374.00258469268692
 21
207.6968562437666
 31
0.0
  0
LINE
  5
2F58
  8
ｶｸﾚｾﾝ2
 10
379.00262469268682
 20
195.9957666422425
 30
0.0
 11
379.00262469268682
 21
205.99576864224281
 31
0.0
  0
LINE
  5
2F59
  8
AM_0
 10
384.00263469268691
 20
195.9957666422425
 30
0.0
 11
384.00263469268691
 21
204.49576864224269
 31
0.0
  0
ARC
  5
2F5A
  8
AM_0
 10
382.50263469268691
 20
204.49576864224269
 30
0.0
 40
1.5000000299999969
 50
0.0
 51
90.000003000000007
  0
ARC
  5
2F5B
  8
AM_0
 10
387.00263469268691
 20
209.1861666422428
 30
0.0
 40
5.0000001000000003
 50
179.99998999999991
 51
226.1869299999999
  0
LINE
  5
2F5C
  8
AM_0
 10
386.00258469268692
 20
271.4957706422428
 30
0.0
 11
414.0026346926868
 21
271.4957706422428
 31
0.0
  0
ARC
  5
2F5D
  8
AM_0
 10
383.00264469268677
 20
261.96992164224253
 30
0.0
 40
1.0000000199999981
 50
271.49999999999972
 51
0.0
  0
ARC
  5
2F5E
  8
AM_0
 10
383.00264469268677
 20
259.96923364224273
 30
0.0
 40
1.0000000199999981
 50
91.500000999999969
 51
180.00001
  0
LINE
  5
2F5F
  8
AM_0
 10
382.9764546926869
 20
260.96889964224277
 30
0.0
 11
383.02877469268691
 21
260.97027364224272
 31
0.0
  0
LINE
  5
2F60
  8
AM_0
 10
384.00263469268691
 20
270.99576964224269
 30
0.0
 11
386.00258469268692
 21
270.99576964224269
 31
0.0
  0
CIRCLE
  5
2F61
  8
AM_0
 10
536.38297930823865
 20
205.79137564224271
 30
0.0
 40
4.9999998000000003
  0
LINE
  5
2F62
  8
AM_0
 10
521.49204730823851
 20
196.99576864224281
 30
0.0
 11
560.49203230823855
 21
196.99576864224281
 31
0.0
  0
LINE
  5
2F63
  8
AM_0
 10
590.49203530823866
 20
215.49575164224271
 30
0.0
 11
530.49203230823855
 21
215.49575164224271
 31
0.0
  0
LINE
  5
2F64
  8
AM_0
 10
531.38297830823853
 20
202.90461064224249
 30
0.0
 11
536.38297930823865
 21
200.01786364224279
 31
0.0
  0
LINE
  5
2F65
  8
AM_0
 10
536.38299430823849
 20
211.56486064224279
 30
0.0
 11
531.38299330823827
 21
208.6781106422427
 31
0.0
  0
ARC
  5
2F66
  8
AM_0
 10
540.49204630823851
 20
245.9957706422428
 30
0.0
 40
32.000000999999997
 50
179.99998999999991
 51
225.32174000000001
  0
LINE
  5
2F67
  8
AM_0
 10
517.9920463082384
 20
268.49577064224269
 30
0.0
 11
517.9920463082384
 21
208.9957686422425
 31
0.0
  0
LINE
  5
2F68
  8
AM_0
 10
490.49204530823852
 20
205.99575364224279
 30
0.0
 11
501.23972830823851
 21
273.43827364224279
 31
0.0
  0
LINE
  5
2F69
  8
AM_0
 10
490.49204530823852
 20
195.9957666422425
 30
0.0
 11
520.49204830823851
 21
195.9957666422425
 31
0.0
  0
LINE
  5
2F6A
  8
AM_0
 10
491.99204530823852
 20
205.99576864224281
 30
0.0
 11
502.99204630823851
 21
205.99576864224281
 31
0.0
  0
LINE
  5
2F6B
  8
AM_0
 10
490.49204530823852
 20
205.99576864224281
 30
0.0
 11
490.49204530823852
 21
195.9957666422425
 31
0.0
  0
ARC
  5
2F6C
  8
AM_0
 10
491.99204530823852
 20
204.49576864224269
 30
0.0
 40
1.5000000299999969
 50
90.000003000000007
 51
180.00001
  0
ARC
  5
2F6D
  8
AM_0
 10
530.49203230823855
 20
210.49576864224269
 30
0.0
 40
5.0000001000000003
 50
90.000003000000007
 51
180.00001
  0
ARC
  5
2F6E
  8
AM_0
 10
514.99204630823851
 20
208.9957686422425
 30
0.0
 40
3.0
 50
270.0
 51
0.0
  0
LINE
  5
2F6F
  8
AM_0
 10
502.99204630823851
 20
205.99576864224281
 30
0.0
 11
518.49204730823828
 21
205.99576864224281
 31
0.0
  0
LINE
  5
2F70
  8
ﾁｭｳｼﾝｾﾝ1
 10
502.99201630823848
 20
207.6968562437666
 30
0.0
 11
502.99201630823848
 21
193.81771056314159
 31
0.0
  0
LINE
  5
2F71
  8
ｶｸﾚｾﾝ2
 10
497.99204530823829
 20
205.99576864224281
 30
0.0
 11
497.99204530823829
 21
195.9957666422425
 31
0.0
  0
LINE
  5
2F72
  8
ｶｸﾚｾﾝ2
 10
507.99204730823851
 20
205.99576864224281
 30
0.0
 11
507.99204730823851
 21
195.9957666422425
 31
0.0
  0
LINE
  5
2F73
  8
AM_0
 10
525.49204630823851
 20
210.49576864224269
 30
0.0
 11
525.49204630823851
 21
201.4957686422425
 31
0.0
  0
LINE
  5
2F74
  8
AM_0
 10
520.49204830823851
 20
203.99576764224281
 30
0.0
 11
520.49204830823851
 21
195.9957666422425
 31
0.0
  0
ARC
  5
2F75
  8
AM_0
 10
522.4920463082384
 20
201.4957686422425
 30
0.0
 40
3.0
 50
270.0
 51
0.0
  0
ARC
  5
2F76
  8
AM_0
 10
521.49204730823851
 20
197.49576664224281
 30
0.0
 40
1.0000000199999981
 50
90.000003000000007
 51
180.00001
  0
ARC
  5
2F77
  8
AM_0
 10
521.49204730823851
 20
195.9957666422425
 30
0.0
 40
1.0000000199999981
 50
90.000003000000007
 51
180.00001
  0
LINE
  5
2F78
  8
AM_0
 10
521.49204730823851
 20
198.4957686422425
 30
0.0
 11
522.4920463082384
 21
198.4957686422425
 31
0.0
  0
ARC
  5
2F79
  8
AM_0
 10
518.49204730823828
 20
203.99576764224281
 30
0.0
 40
2.00000007
 50
0.0
 51
90.000003000000007
  0
LINE
  5
2F7A
  8
AM_0
 10
531.38297830823853
 20
208.67812564224269
 30
0.0
 11
531.38297830823853
 21
202.90459564224281
 31
0.0
  0
ARC
  5
2F7B
  8
AM_0
 10
560.49203230823855
 20
263.99577064224269
 30
0.0
 40
60.000002999999992
 50
171.12478999999999
 51
172.44926000000001
  0
ARC
  5
2F7C
  8
AM_0
 10
580.49203330823855
 20
245.9957706422428
 30
0.0
 40
32.000000999999997
 50
314.67826000000002
 51
0.0
  0
LINE
  5
2F7D
  8
AM_0
 10
602.99203330823855
 20
268.49577064224269
 30
0.0
 11
602.99203330823855
 21
208.9957686422425
 31
0.0
  0
LINE
  5
2F7E
  8
AM_0
 10
599.49203530823866
 20
196.99576864224281
 30
0.0
 11
560.49203230823855
 21
196.99576864224281
 31
0.0
  0
ARC
  5
2F7F
  8
AM_0
 10
569.47814830823825
 20
212.49575164224279
 30
0.0
 40
3.0
 50
90.000003000000007
 51
183.18473999999989
  0
ARC
  5
2F80
  8
AM_0
 10
560.49203230823855
 20
211.9957686422425
 30
0.0
 40
6.0000002999999991
 50
176.81526999999991
 51
3.184736
  0
ARC
  5
2F81
  8
AM_0
 10
551.50593430823847
 20
212.49575164224279
 30
0.0
 40
3.0
 50
356.81526000000002
 51
90.000003000000007
  0
LINE
  5
2F82
  8
AM_0
 10
536.38297930823865
 20
200.01786364224279
 30
0.0
 11
541.38297730823865
 21
202.90461064224249
 31
0.0
  0
LINE
  5
2F83
  8
AM_0
 10
541.38297730823865
 20
208.6781106422427
 30
0.0
 11
536.38297930823865
 21
211.56486064224279
 31
0.0
  0
LINE
  5
2F84
  8
AM_0
 10
541.38296230823846
 20
202.90459564224281
 30
0.0
 11
541.38296230823846
 21
208.67812564224269
 31
0.0
  0
ARC
  5
2F85
  8
AM_0
 10
590.49203530823866
 20
210.49576864224269
 30
0.0
 40
5.0000001000000003
 50
0.0
 51
90.000003000000007
  0
ARC
  5
2F86
  8
AM_0
 10
598.49203330823855
 20
201.4957686422425
 30
0.0
 40
3.0
 50
179.99998999999991
 51
270.0
  0
CIRCLE
  5
2F87
  8
AM_0
 10
584.60110330823852
 20
205.79137564224271
 30
0.0
 40
4.9999998000000003
  0
LINE
  5
2F88
  8
AM_0
 10
595.49203330823855
 20
210.49576864224269
 30
0.0
 11
595.49203330823855
 21
201.4957686422425
 31
0.0
  0
LINE
  5
2F89
  8
AM_0
 10
584.60110330823852
 20
200.01786364224279
 30
0.0
 11
589.60110430823852
 21
202.90461064224249
 31
0.0
  0
LINE
  5
2F8A
  8
AM_0
 10
579.60108730823845
 20
202.90461064224249
 30
0.0
 11
584.60108830823845
 21
200.01786364224279
 31
0.0
  0
LINE
  5
2F8B
  8
AM_0
 10
589.60108930823856
 20
208.6781106422427
 30
0.0
 11
584.60108830823845
 21
211.56486064224279
 31
0.0
  0
LINE
  5
2F8C
  8
AM_0
 10
584.60110330823852
 20
211.56487564224281
 30
0.0
 11
579.60110230823841
 21
208.67812564224269
 31
0.0
  0
LINE
  5
2F8D
  8
AM_0
 10
579.60108730823845
 20
208.67812564224269
 30
0.0
 11
579.60108730823845
 21
202.90459564224281
 31
0.0
  0
LINE
  5
2F8E
  8
AM_0
 10
589.60108930823856
 20
202.90459564224281
 30
0.0
 11
589.60108930823856
 21
208.67812564224269
 31
0.0
  0
LINE
  5
2F8F
  8
ｶｸﾚｾﾝ2
 10
612.99203530823866
 20
205.99576864224281
 30
0.0
 11
612.99203530823866
 21
195.9957666422425
 31
0.0
  0
LINE
  5
2F90
  8
AM_0
 10
600.49204930823839
 20
195.9957666422425
 30
0.0
 11
600.49204930823839
 21
203.99576764224281
 31
0.0
  0
ARC
  5
2F91
  8
AM_0
 10
599.49203530823866
 20
197.49576664224281
 30
0.0
 40
1.0000000199999981
 50
0.0
 51
90.000003000000007
  0
ARC
  5
2F92
  8
AM_0
 10
599.49203530823866
 20
195.9957666422425
 30
0.0
 40
1.0000000199999981
 50
0.0
 51
90.000003000000007
  0
LINE
  5
2F93
  8
AM_0
 10
599.49203530823866
 20
198.4957686422425
 30
0.0
 11
598.49203330823855
 21
198.4957686422425
 31
0.0
  0
ARC
  5
2F94
  8
AM_0
 10
605.99203330823855
 20
208.9957686422425
 30
0.0
 40
3.0
 50
179.99998999999991
 51
270.0
  0
ARC
  5
2F95
  8
AM_0
 10
602.49203530823866
 20
203.99576764224281
 30
0.0
 40
2.00000007
 50
90.000003000000007
 51
180.00001
  0
LINE
  5
2F96
  8
AM_0
 10
630.49203430823854
 20
205.99575364224279
 30
0.0
 11
619.74438430823852
 21
273.43824364224281
 31
0.0
  0
LINE
  5
2F97
  8
ﾁｭｳｼﾝｾﾝ1
 10
617.99203630823854
 20
207.6968562437666
 30
0.0
 11
617.99203630823854
 21
193.81771056314159
 31
0.0
  0
LINE
  5
2F98
  8
ｶｸﾚｾﾝ2
 10
622.99204930823851
 20
205.99576864224281
 30
0.0
 11
622.99204930823851
 21
195.9957666422425
 31
0.0
  0
LINE
  5
2F99
  8
AM_0
 10
630.49204930823828
 20
205.99576864224281
 30
0.0
 11
630.49204930823828
 21
195.9957666422425
 31
0.0
  0
LINE
  5
2F9A
  8
AM_0
 10
628.99204930823851
 20
205.99576864224281
 30
0.0
 11
617.99203630823854
 21
205.99576864224281
 31
0.0
  0
ARC
  5
2F9B
  8
AM_0
 10
628.99204930823851
 20
204.49576864224269
 30
0.0
 40
1.5000000299999969
 50
0.0
 51
90.000003000000007
  0
ARC
  5
2F9C
  8
AM_0
 10
616.24522330823845
 20
288.1223256422428
 30
0.0
 40
5.0000001000000003
 50
6.4023798000000003
 51
105.1636399999997
  0
ARC
  5
2F9D
  8
AM_0
 10
600.49204930823839
 20
293.9957706422428
 30
0.0
 40
20.000000700000001
 50
6.4023798000000003
 51
61.927514999999993
  0
ARC
  5
2F9E
  8
AM_0
 10
367.00262469268682
 20
317.86807564224262
 30
0.0
 40
5.0000001000000003
 50
0.0
 51
88.499996999999965
  0
LINE
  5
2F9F
  8
AM_0
 10
348.71225469268683
 20
308.41570564224281
 30
0.0
 11
337.00262469268682
 21
323.65537564224269
 31
0.0
  0
LINE
  5
2FA0
  8
AM_0
 10
337.00262469268682
 20
323.55061564224269
 30
0.0
 11
337.00262469268682
 21
308.12122564224279
 31
0.0
  0
ARC
  5
2FA1
  8
AM_0
 10
377.00264469268677
 20
315.99574564224253
 30
0.0
 40
5.0000001000000003
 50
180.00001
 51
270.0
  0
ARC
  5
2FA2
  8
AM_0
 10
339.00263469268663
 20
298.46097964224282
 30
0.0
 40
1.0000000199999981
 50
0.0
 51
90.000003000000007
  0
LINE
  5
2FA3
  8
AM_0
 10
335.00264469268689
 20
312.21772564224273
 30
0.0
 11
335.00264469268689
 21
292.83399664224271
 31
0.0
  0
LINE
  5
2FA4
  8
AM_0
 10
340.00262469268682
 20
297.57423064224253
 30
0.0
 11
340.00262469268682
 21
307.1212656422428
 31
0.0
  0
LINE
  5
2FA5
  8
AM_0
 10
336.0026346926868
 20
308.62123564224271
 30
0.0
 11
336.0026346926868
 21
296.0742306422427
 31
0.0
  0
ARC
  5
2FA6
  8
AM_0
 10
353.73791469268679
 20
287.62662964224279
 30
0.0
 40
5.0000001000000003
 50
90.000003000000007
 51
171.85424
  0
LINE
  5
2FA7
  8
AM_0
 10
337.00262469268682
 20
292.62663064224262
 30
0.0
 11
360.65444469268692
 21
292.62663064224262
 31
0.0
  0
ARC
  5
2FA8
  8
AM_0
 10
336.0026346926868
 20
290.83399564224271
 30
0.0
 40
1.0000000199999981
 50
0.0
 51
90.000003000000007
  0
ARC
  5
2FA9
  8
AM_0
 10
336.0026346926868
 20
292.83399664224271
 30
0.0
 40
1.0000000199999981
 50
179.99998999999991
 51
270.0
  0
ARC
  5
2FAA
  8
AM_0
 10
339.00263469268663
 20
297.57423064224253
 30
0.0
 40
1.0000000199999981
 50
270.0
 51
0.0
  0
LINE
  5
2FAB
  8
AM_0
 10
335.00264469268689
 20
296.0742306422427
 30
0.0
 11
336.0026346926868
 21
296.0742306422427
 31
0.0
  0
LINE
  5
2FAC
  8
AM_0
 10
336.0026346926868
 20
296.57420164224283
 30
0.0
 11
339.00263469268663
 21
296.57420164224283
 31
0.0
  0
ARC
  5
2FAD
  8
AM_0
 10
364.00262469268682
 20
288.9131886422428
 30
0.0
 40
5.0000001000000003
 50
90.000003000000007
 51
180.00001
  0
LINE
  5
2FAE
  8
AM_0
 10
372.0026346926868
 20
293.91318964224268
 30
0.0
 11
364.00262469268682
 21
293.91318964224268
 31
0.0
  0
LINE
  5
2FAF
  8
AM_0
 10
340.00262469268682
 20
307.51717564224282
 30
0.0
 11
367.00262469268682
 21
307.51717564224282
 31
0.0
  0
ARC
  5
2FB0
  8
AM_0
 10
339.00263469268663
 20
307.1212656422428
 30
0.0
 40
1.0000000199999981
 50
0.0
 51
90.000003000000007
  0
ARC
  5
2FB1
  8
AM_0
 10
339.00263469268663
 20
304.23447964224272
 30
0.0
 40
1.0000000199999981
 50
0.0
 51
90.000003000000007
  0
ARC
  5
2FB2
  8
AM_0
 10
339.00263469268663
 20
300.46098064224259
 30
0.0
 40
1.0000000199999981
 50
270.0
 51
0.0
  0
ARC
  5
2FB3
  8
AM_0
 10
339.00263469268663
 20
306.23446564224281
 30
0.0
 40
1.0000000199999981
 50
270.0
 51
0.0
  0
LINE
  5
2FB4
  8
AM_0
 10
335.00264469268689
 20
308.62123564224271
 30
0.0
 11
336.0026346926868
 21
308.62123564224271
 31
0.0
  0
LINE
  5
2FB5
  8
AM_0
 10
336.0026346926868
 20
305.23447864224272
 30
0.0
 11
339.00263469268663
 21
305.23447864224272
 31
0.0
  0
LINE
  5
2FB6
  8
AM_0
 10
336.0026346926868
 20
299.46095164224278
 30
0.0
 11
339.00263469268663
 21
299.46095164224278
 31
0.0
  0
LINE
  5
2FB7
  8
AM_0
 10
336.0026346926868
 20
308.12122564224279
 30
0.0
 11
339.00263469268663
 21
308.12122564224279
 31
0.0
  0
ARC
  5
2FB8
  8
AM_0
 10
336.0026346926868
 20
314.2177656422428
 30
0.0
 40
1.0000000199999981
 50
270.0
 51
0.0
  0
ARC
  5
2FB9
  8
AM_0
 10
336.0026346926868
 20
312.21772564224273
 30
0.0
 40
1.0000000199999981
 50
90.000003000000007
 51
180.00001
  0
ARC
  5
2FBA
  8
AM_0
 10
367.00262469268682
 20
302.51716264224268
 30
0.0
 40
5.0000001000000003
 50
0.0
 51
90.000003000000007
  0
LINE
  5
2FBB
  8
AM_0
 10
386.00258469268692
 20
290.49576964224281
 30
0.0
 11
414.0026346926868
 21
290.49576964224281
 31
0.0
  0
LINE
  5
2FBC
  8
AM_0
 10
392.00258469268692
 20
292.9957706422428
 30
0.0
 11
414.0026346926868
 21
292.9957706422428
 31
0.0
  0
LINE
  5
2FBD
  8
AM_0
 10
386.00258469268692
 20
290.9957706422428
 30
0.0
 11
386.00258469268692
 21
280.99577164224252
 31
0.0
  0
LINE
  5
2FBE
  8
AM_0
 10
384.00263469268691
 20
290.9957706422428
 30
0.0
 11
386.00258469268692
 21
290.9957706422428
 31
0.0
  0
LINE
  5
2FBF
  8
AM_0
 10
392.00258469268692
 20
290.49576964224281
 30
0.0
 11
392.00258469268692
 21
292.9957706422428
 31
0.0
  0
ARC
  5
2FC0
  8
AM_0
 10
380.00264469268677
 20
308.99578564224271
 30
0.0
 40
2.00000007
 50
0.0
 51
90.000003000000007
  0
ARC
  5
2FC1
  8
AM_0
 10
383.00264469268677
 20
300.0216186422428
 30
0.0
 40
1.0000000199999981
 50
0.0
 51
88.499996999999965
  0
ARC
  5
2FC2
  8
AM_0
 10
383.00264469268677
 20
302.02229164224281
 30
0.0
 40
1.0000000199999981
 50
179.99998999999991
 51
268.50000999999992
  0
LINE
  5
2FC3
  8
AM_0
 10
382.97642469268692
 20
301.0226256422427
 30
0.0
 11
383.02874469268693
 21
301.02128464224262
 31
0.0
  0
LINE
  5
2FC4
  8
AM_0
 10
377.00264469268677
 20
310.99576564224282
 30
0.0
 11
380.00264469268677
 21
310.99576564224282
 31
0.0
  0
LINE
  5
2FC5
  8
ﾁｭｳｼﾝｾﾝ
 10
525.49203220823847
 20
280.99577164224252
 30
0.0
 11
595.49203540823851
 21
280.99577164224252
 31
0.0
  0
ARC
  5
2FC6
  8
AM_0
 10
560.49203230823855
 20
218.99576764224281
 30
0.0
 40
105.00000299999969
 50
61.927514999999993
 51
118.0724799999997
  0
ARC
  5
2FC7
  8
AM_0
 10
560.49203230823855
 20
263.99577064224269
 30
0.0
 40
60.000002999999992
 50
48.330844999999989
 51
131.66915
  0
ARC
  5
2FC8
  8
AM_0
 10
520.49204830823851
 20
293.9957706422428
 30
0.0
 40
20.000000700000001
 50
118.0724799999997
 51
173.59762000000001
  0
ARC
  5
2FC9
  8
AM_0
 10
508.9240843082386
 20
303.56526064224272
 30
0.0
 40
11.000000399999999
 50
254.83636000000001
 51
30.157795000000011
  0
CIRCLE
  5
2FCA
  8
AM_0
 10
510.5107843082385
 20
302.34772864224271
 30
0.0
 40
4.9999998000000003
  0
LINE
  5
2FCB
  8
AM_0
 10
510.5107843082385
 20
296.57426164224262
 30
0.0
 11
515.5107853082385
 21
299.46101164224268
 31
0.0
  0
LINE
  5
2FCC
  8
AM_0
 10
505.51078330823827
 20
299.4609816422427
 30
0.0
 11
510.5107843082385
 21
296.57423164224252
 31
0.0
  0
ARC
  5
2FCD
  8
AM_0
 10
513.49204630823851
 20
288.23118364224263
 30
0.0
 40
5.0000001000000003
 50
106.58861
 51
180.00001
  0
ARC
  5
2FCE
  8
AM_0
 10
504.73884130823848
 20
288.1223256422428
 30
0.0
 40
5.0000001000000003
 50
74.836354
 51
173.59762000000001
  0
ARC
  5
2FCF
  8
AM_0
 10
509.55607330823852
 20
289.57950964224278
 30
0.0
 40
3.0
 50
92.587449000000007
 51
153.33084999999991
  0
LINE
  5
2FD0
  8
AM_0
 10
510.5107843082385
 20
308.12125564224277
 30
0.0
 11
505.51078330823827
 21
305.23450864224282
 31
0.0
  0
LINE
  5
2FD1
  8
AM_0
 10
505.51078330823827
 20
305.23447864224272
 30
0.0
 11
505.51078330823827
 21
299.4609816422427
 31
0.0
  0
LINE
  5
2FD2
  8
AM_0
 10
515.5107853082385
 20
299.4609816422427
 30
0.0
 11
515.5107853082385
 21
305.23447864224272
 31
0.0
  0
LINE
  5
2FD3
  8
AM_0
 10
515.5107853082385
 20
305.23447864224272
 30
0.0
 11
510.5107843082385
 21
308.12122564224279
 31
0.0
  0
ARC
  5
2FD4
  8
AM_0
 10
522.75840430823848
 20
311.60341564224262
 30
0.0
 40
5.0000001000000003
 50
112.16879999999991
 51
210.15778999999969
  0
ARC
  5
2FD5
  8
AM_0
 10
522.59684530823836
 20
306.5745456422427
 30
0.0
 40
3.0
 50
131.66915
 51
192.41255000000001
  0
LINE
  5
2FD6
  8
AM_0
 10
557.49203230823855
 20
292.99577164224269
 30
0.0
 11
557.49203230823855
 21
286.9957716422428
 31
0.0
  0
LINE
  5
2FD7
  8
AM_0
 10
563.49203230823855
 20
286.9957716422428
 30
0.0
 11
563.49203230823855
 21
292.99577164224269
 31
0.0
  0
CIRCLE
  5
2FD8
  8
AM_5
 10
560.49203230823855
 20
280.99577164224252
 30
0.0
 40
3.0
  0
CIRCLE
  5
2FD9
  8
AM_0
 10
560.49203230823855
 20
280.99577164224252
 30
0.0
 40
2.4999998400000001
  0
LINE
  5
2FDA
  8
AM_0
 10
557.49203230823855
 20
286.9957716422428
 30
0.0
 11
563.49203230823855
 21
286.9957716422428
 31
0.0
  0
LINE
  5
2FDB
  8
AM_0
 10
563.49203230823855
 20
292.99577164224269
 30
0.0
 11
557.49203230823855
 21
292.99577164224269
 31
0.0
  0
ARC
  5
2FDC
  8
AM_0
 10
612.06001330823847
 20
303.56526064224272
 30
0.0
 40
11.000000399999999
 50
149.84220999999991
 51
285.16365000000002
  0
CIRCLE
  5
2FDD
  8
AM_0
 10
610.47328030823826
 20
302.34772864224271
 30
0.0
 40
4.9999998000000003
  0
LINE
  5
2FDE
  8
AM_0
 10
605.47329730823833
 20
299.4609816422427
 30
0.0
 11
610.47328030823826
 21
296.57423164224252
 31
0.0
  0
LINE
  5
2FDF
  8
AM_0
 10
610.47331330823852
 20
296.57423164224252
 30
0.0
 11
615.47331130823852
 21
299.46101164224268
 31
0.0
  0
ARC
  5
2FE0
  8
AM_0
 10
607.49203330823855
 20
288.23118364224263
 30
0.0
 40
5.0000001000000003
 50
0.0
 51
73.411384999999981
  0
ARC
  5
2FE1
  8
AM_0
 10
611.42799430823857
 20
289.57950964224278
 30
0.0
 40
3.0
 50
26.669156999999998
 51
87.412548999999984
  0
ARC
  5
2FE2
  8
AM_0
 10
598.22567830823857
 20
311.60341564224262
 30
0.0
 40
5.0000001000000003
 50
329.84219999999982
 51
67.831203000000002
  0
LINE
  5
2FE3
  8
AM_0
 10
610.47331330823852
 20
308.12125564224277
 30
0.0
 11
605.47331230823852
 21
305.23450864224282
 31
0.0
  0
ARC
  5
2FE4
  8
AM_0
 10
598.38725230823866
 20
306.5745456422427
 30
0.0
 40
3.0
 50
347.58744999999982
 51
48.330844999999989
  0
LINE
  5
2FE5
  8
AM_0
 10
605.47329730823833
 20
305.23447864224272
 30
0.0
 11
605.47329730823833
 21
299.4609816422427
 31
0.0
  0
LINE
  5
2FE6
  8
AM_0
 10
615.47329630823845
 20
305.23450864224282
 30
0.0
 11
610.47329530823845
 21
308.12125564224277
 31
0.0
  0
LINE
  5
2FE7
  8
AM_0
 10
615.47329630823845
 20
299.4609816422427
 30
0.0
 11
615.47329630823845
 21
305.23447864224272
 31
0.0
  0
LINE
  5
2FE8
  8
AM_0
 10
286.50263469268668
 20
301.99208064224263
 30
0.0
 11
276.50263469268702
 21
301.99208064224263
 31
0.0
  0
LINE
  5
2FE9
  8
AM_0
 10
286.50263469268668
 20
315.4957706422428
 30
0.0
 11
276.50263469268702
 21
315.4957706422428
 31
0.0
  0
LINE
  5
2FEA
  8
AM_0
 10
286.50263469268668
 20
212.4957706422426
 30
0.0
 11
276.50263469268702
 21
212.4957706422426
 31
0.0
  0
LINE
  5
2FEB
  8
AM_0
 10
286.50263469268668
 20
225.9994656422428
 30
0.0
 11
276.50263469268702
 21
225.9994656422428
 31
0.0
  0
LINE
  5
2FEC
  8
ﾁｭｳｼﾝｾﾝ
 10
186.7850546182303
 20
461.1292688826976
 30
0.0
 11
419.36643469268682
 21
461.1292688826976
 31
0.0
  0
ARC
  5
2FED
  8
AM_0
 10
417.0026346926868
 20
461.1292688826976
 30
0.0
 40
80.0
 50
148.90067999999891
 51
211.0993000000004
  0
LINE
  5
2FEE
  8
AM_0
 10
291.50266469268678
 20
423.07439888269772
 30
0.0
 11
291.50266469268678
 21
499.18413888269748
 31
0.0
  0
LINE
  5
2FEF
  8
AM_0
 10
286.50266469268678
 20
397.12926888269749
 30
0.0
 11
286.50266469268678
 21
525.12926888269772
 31
0.0
  0
LINE
  5
2FF0
  8
AM_0
 10
337.00260469268682
 20
418.3956188826977
 30
0.0
 11
337.00260469268682
 21
503.86290888269781
 31
0.0
  0
LINE
  5
2FF1
  8
AM_0
 10
324.00266469268678
 20
401.12926888269749
 30
0.0
 11
324.00266469268678
 21
521.12926888269772
 31
0.0
  0
LINE
  5
2FF2
  8
AM_0
 10
382.00266469268678
 20
500.36638888269749
 30
0.0
 11
382.00266469268678
 21
418.68730888269761
 31
0.0
  0
LINE
  5
2FF3
  8
AM_0
 10
369.00266469268678
 20
412.31358888269762
 30
0.0
 11
369.00266469268678
 21
509.94493888269739
 31
0.0
  0
LINE
  5
2FF4
  8
AM_0
 10
384.00266469268678
 20
480.1551088826975
 30
0.0
 11
384.00266469268678
 21
442.1034188826975
 31
0.0
  0
LINE
  5
2FF5
  8
AM_0
 10
336.00266469268678
 20
408.26121888269762
 30
0.0
 11
339.00266469268689
 21
408.26121888269762
 31
0.0
  0
LINE
  5
2FF6
  8
AM_0
 10
336.00266469268678
 20
414.03477888269759
 30
0.0
 11
339.00266469268689
 21
414.03477888269759
 31
0.0
  0
LINE
  5
2FF7
  8
AM_0
 10
336.00266469268678
 20
405.37450888269768
 30
0.0
 11
339.00266469268689
 21
405.37450888269768
 31
0.0
  0
LINE
  5
2FF8
  8
AM_0
 10
336.00266469268678
 20
416.92149888269762
 30
0.0
 11
339.00266469268689
 21
416.92149888269762
 31
0.0
  0
LINE
  5
2FF9
  8
AM_0
 10
348.50074469268679
 20
419.80739888269738
 30
0.0
 11
337.00263469268663
 21
418.39558888269761
 31
0.0
  0
LINE
  5
2FFA
  8
AM_0
 10
343.96568469268692
 20
406.5920988826976
 30
0.0
 11
337.20209469268679
 21
402.68712888269761
 31
0.0
  0
LINE
  5
2FFB
  8
AM_0
 10
379.13355469268691
 20
392.5728988826977
 30
0.0
 11
324.00266469268678
 21
391.12923888269762
 31
0.0
  0
LINE
  5
2FFC
  8
AM_0
 10
286.50266469268678
 20
423.07439888269772
 30
0.0
 11
291.50266469268678
 21
423.07439888269772
 31
0.0
  0
LINE
  5
2FFD
  8
AM_0
 10
286.50266469268678
 20
409.6289588826977
 30
0.0
 11
298.62778469268687
 21
409.6289588826977
 31
0.0
  0
LINE
  5
2FFE
  8
AM_0
 10
290.52885469268682
 20
397.23466888269769
 30
0.0
 11
286.50266469268678
 21
397.12926888269749
 31
0.0
  0
LINE
  5
2FFF
  8
AM_0
 10
336.00266469268678
 20
417.42149888269751
 30
0.0
 11
336.00266469268678
 21
404.87450888269768
 31
0.0
  0
LINE
  5
3000
  8
AM_0
 10
335.00266469268689
 20
418.3956188826977
 30
0.0
 11
335.00266469268689
 21
401.74754888269769
 31
0.0
  0
ARC
  5
3001
  8
AM_0
 10
311.00260469268687
 20
403.6292688826976
 30
0.0
 40
5.0
 50
216.102969999999
 51
326.8970199999992
  0
ARC
  5
3002
  8
ｶｸﾚｾﾝ2
 10
311.00260469268687
 20
403.6292688826976
 30
0.0
 40
5.0
 50
326.89703000000083
 51
216.1029599999998
  0
LINE
  5
3003
  8
AM_0
 10
291.50266469268678
 20
405.60289888269767
 30
0.0
 11
335.00266469268689
 21
405.60289888269767
 31
0.0
  0
LINE
  5
3004
  8
AM_0
 10
291.50266469268678
 20
400.27821888269767
 30
0.0
 11
332.46384469268691
 21
401.35081888269769
 31
0.0
  0
LINE
  5
3005
  8
ﾁｭｳｼﾝｾﾝ1
 10
303.56690469268688
 20
403.6292688826976
 30
0.0
 11
317.82609469268681
 21
403.6292688826976
 31
0.0
  0
LINE
  5
3006
  8
AM_0
 10
324.00263469268668
 20
391.12926888269749
 30
0.0
 11
305.87177469268693
 21
391.60402888269761
 31
0.0
  0
ARC
  5
3007
  8
AM_0
 10
306.00266469268678
 20
396.6023188826976
 30
0.0
 40
5.0
 50
180.00001000000091
 51
268.5000000000004
  0
LINE
  5
3008
  8
AM_0
 10
309.50263469268668
 20
411.39220888269762
 30
0.0
 11
300.36427469268682
 21
409.78084888269751
 31
0.0
  0
LINE
  5
3009
  8
AM_0
 10
291.50266469268678
 20
398.23433888269761
 30
0.0
 11
291.50266469268678
 21
409.6289588826977
 31
0.0
  0
ARC
  5
300A
  8
AM_0
 10
290.50266469268678
 20
398.23433888269761
 30
0.0
 40
1.0
 50
271.4999999999992
 51
0.0
  0
ARC
  5
300B
  8
AM_0
 10
298.62778469268687
 20
419.62895888269748
 30
0.0
 40
10.0
 50
270.0
 51
280.00001000000128
  0
LINE
  5
300C
  8
ﾁｭｳｼﾝｾﾝ1
 10
311.00260469268687
 20
396.20222888269763
 30
0.0
 11
311.00260469268687
 21
410.67036888269769
 31
0.0
  0
LINE
  5
300D
  8
AM_0
 10
301.00266469268678
 20
396.6023188826976
 30
0.0
 11
301.00266469268678
 21
400.52696888269759
 31
0.0
  0
LINE
  5
300E
  8
AM_0
 10
323.00266469268678
 20
392.12959888269762
 30
0.0
 11
323.00266469268678
 21
394.13029888269762
 31
0.0
  0
LINE
  5
300F
  8
AM_0
 10
327.00266469268678
 20
393.15611888269768
 30
0.0
 11
327.00266469268678
 21
399.15477888269749
 31
0.0
  0
ARC
  5
3010
  8
AM_0
 10
325.00266469268678
 20
393.15611888269768
 30
0.0
 40
2.0
 50
271.4999999999992
 51
0.0
  0
ARC
  5
3011
  8
AM_0
 10
324.00266469268678
 20
392.12959888269762
 30
0.0
 40
1.0
 50
180.00001000000091
 51
268.5000000000004
  0
ARC
  5
3012
  8
AM_0
 10
325.00266469268678
 20
399.15477888269749
 30
0.0
 40
2.0
 50
0.0
 51
91.500001000001546
  0
LINE
  5
3013
  8
AM_0
 10
325.97648469268682
 20
395.07893888269763
 30
0.0
 11
324.0288246926869
 21
395.1299688826976
 31
0.0
  0
ARC
  5
3014
  8
AM_0
 10
324.00266469268678
 20
394.13029888269762
 30
0.0
 40
1.0
 50
88.499997000000747
 51
180.00001000000091
  0
ARC
  5
3015
  8
AM_0
 10
332.2020646926868
 20
411.34740888269761
 30
0.0
 40
10.0
 50
271.4999999999992
 51
300.00001000000083
  0
ARC
  5
3016
  8
AM_0
 10
326.00266469268678
 20
396.07860888269761
 30
0.0
 40
1.0
 50
268.5000000000004
 51
0.0000006832462478
  0
LINE
  5
3017
  8
AM_0
 10
335.00266469268689
 20
404.87450888269768
 30
0.0
 11
336.00266469268678
 21
404.87450888269768
 31
0.0
  0
LINE
  5
3018
  8
AM_0
 10
291.50266469268678
 20
423.9492688826976
 30
0.0
 11
309.50266469268678
 21
423.9492688826976
 31
0.0
  0
LINE
  5
3019
  8
AM_0
 10
299.50266469268678
 20
411.84093888269763
 30
0.0
 11
299.50266469268678
 21
421.75416888269763
 31
0.0
  0
LINE
  5
301A
  8
AM_0
 10
309.50266469268678
 20
412.80946888269739
 30
0.0
 11
309.50266469268678
 21
422.77965888269767
 31
0.0
  0
LINE
  5
301B
  8
AM_0
 10
335.00266469268689
 20
417.42149888269751
 30
0.0
 11
336.00266469268678
 21
417.42149888269751
 31
0.0
  0
LINE
  5
301C
  8
AM_0
 10
335.00266469268689
 20
418.3956188826977
 30
0.0
 11
337.00260469268682
 21
418.3956188826977
 31
0.0
  0
ARC
  5
301D
  8
AM_0
 10
366.00266469268678
 20
412.31358888269762
 30
0.0
 40
3.0
 50
271.4999999999992
 51
0.0
  0
LINE
  5
301E
  8
AM_0
 10
340.00260469268682
 20
406.37450888269751
 30
0.0
 11
340.00260469268682
 21
415.9215288826976
 31
0.0
  0
LINE
  5
301F
  8
AM_0
 10
384.00266469268678
 20
397.57118888269758
 30
0.0
 11
384.00266469268678
 21
414.68730888269772
 31
0.0
  0
ARC
  5
3020
  8
AM_0
 10
364.00266469268678
 20
404.25847888269749
 30
0.0
 40
5.0
 50
91.500001000001546
 51
180.00001000000091
  0
ARC
  5
3021
  8
AM_0
 10
362.00266469268678
 20
395.12535888269753
 30
0.0
 40
3.0
 50
180.00001000000091
 51
271.4999999999992
  0
LINE
  5
3022
  8
AM_0
 10
360.9916246926868
 20
408.25020888269739
 30
0.0
 11
348.70393469268691
 21
407.92842888269757
 31
0.0
  0
ARC
  5
3023
  8
AM_0
 10
348.96568469268692
 20
397.93184888269758
 30
0.0
 40
10.0
 50
91.500001000001546
 51
120.0000000000005
  0
ARC
  5
3024
  8
AM_0
 10
339.00266469268689
 20
407.26124888269749
 30
0.0
 40
1.0
 50
0.0
 51
90.000003000000945
  0
ARC
  5
3025
  8
AM_0
 10
339.00266469268689
 20
406.37450888269751
 30
0.0
 40
1.0
 50
269.999989999999
 51
0.0000006832462478
  0
ARC
  5
3026
  8
AM_0
 10
339.00266469268689
 20
409.26124888269771
 30
0.0
 40
1.0
 50
269.999989999999
 51
0.0000006832462478
  0
LINE
  5
3027
  8
AM_0
 10
359.00266469268678
 20
395.12535888269753
 30
0.0
 11
359.00266469268678
 21
404.25847888269749
 31
0.0
  0
ARC
  5
3028
  8
AM_0
 10
379.00266469268689
 20
397.57118888269758
 30
0.0
 40
5.0
 50
271.4999999999992
 51
0.0
  0
CIRCLE
  5
3029
  8
AM_0
 10
374.00260469268682
 20
403.6292688826976
 30
0.0
 40
5.0
  0
LINE
  5
302A
  8
ﾁｭｳｼﾝｾﾝ1
 10
366.88401469268678
 20
403.6292688826976
 30
0.0
 11
381.20103469268679
 21
403.6292688826976
 31
0.0
  0
LINE
  5
302B
  8
ﾁｭｳｼﾝｾﾝ1
 10
374.00260469268682
 20
396.33214888269748
 30
0.0
 11
374.00260469268682
 21
410.7103488826977
 31
0.0
  0
LINE
  5
302C
  8
AM_0
 10
363.87174469268689
 20
409.25673888269762
 30
0.0
 11
366.08118469268692
 21
409.31459888269762
 31
0.0
  0
LINE
  5
302D
  8
AM_0
 10
369.00263469268691
 20
420.52333888269749
 30
0.0
 11
348.50074469268679
 21
419.80739888269738
 31
0.0
  0
ARC
  5
302E
  8
AM_0
 10
339.00266469268689
 20
415.9215288826976
 30
0.0
 40
1.0
 50
0.0
 51
90.000003000000945
  0
ARC
  5
302F
  8
AM_0
 10
339.00266469268689
 20
413.03474888269739
 30
0.0
 40
1.0
 50
0.0
 51
90.000003000000945
  0
ARC
  5
3030
  8
AM_0
 10
339.00266469268689
 20
415.03474888269773
 30
0.0
 40
1.0
 50
269.999989999999
 51
0.0000006832462478
  0
LINE
  5
3031
  8
AM_0
 10
373.87177469268693
 20
418.7567688826976
 30
0.0
 11
379.08118469268692
 21
418.89317888269761
 31
0.0
  0
ARC
  5
3032
  8
AM_0
 10
374.00266469268678
 20
413.75847888269749
 30
0.0
 40
5.0
 50
91.500001000001546
 51
180.00001000000091
  0
ARC
  5
3033
  8
AM_0
 10
379.00266469268689
 20
421.8921388826974
 30
0.0
 40
3.0
 50
271.4999999999992
 51
0.0
  0
ARC
  5
3034
  8
AM_0
 10
379.00266469268689
 20
414.68730888269772
 30
0.0
 40
5.0
 50
0.0
 51
70.485339000000806
  0
ARC
  5
3035
  8
AM_0
 10
383.00266469268678
 20
440.10271888269767
 30
0.0
 40
1.0
 50
91.500001000001546
 51
180.00001000000091
  0
ARC
  5
3036
  8
AM_0
 10
383.00266469268678
 20
442.1034188826975
 30
0.0
 40
1.0
 50
271.4999999999992
 51
0.0
  0
LINE
  5
3037
  8
AM_0
 10
382.97648469268682
 20
441.10237888269768
 30
0.0
 11
383.0288246926869
 21
441.10374888269752
 31
0.0
  0
LINE
  5
3038
  8
AM_0
 10
336.00266469268678
 20
505.33699888269763
 30
0.0
 11
339.00266469268689
 21
505.33699888269763
 31
0.0
  0
LINE
  5
3039
  8
AM_0
 10
336.00266469268678
 20
516.88402888269775
 30
0.0
 11
339.00266469268689
 21
516.88402888269775
 31
0.0
  0
LINE
  5
303A
  8
AM_0
 10
336.00266469268678
 20
508.22374888269769
 30
0.0
 11
339.00266469268689
 21
508.22374888269769
 31
0.0
  0
LINE
  5
303B
  8
AM_0
 10
336.00266469268678
 20
513.99727888269774
 30
0.0
 11
339.00266469268689
 21
513.99727888269774
 31
0.0
  0
LINE
  5
303C
  8
AM_0
 10
348.50074469268679
 20
502.45109888269758
 30
0.0
 11
337.00263469268663
 21
503.86290888269781
 31
0.0
  0
LINE
  5
303D
  8
AM_0
 10
343.96568469268692
 20
515.66640888269774
 30
0.0
 11
337.20209469268679
 21
519.5713688826977
 31
0.0
  0
LINE
  5
303E
  8
AM_0
 10
379.13352469268682
 20
529.68559888269772
 30
0.0
 11
324.00266469268678
 21
531.12926888269772
 31
0.0
  0
ARC
  5
303F
  8
ｶｸﾚｾﾝ2
 10
311.00260469268687
 20
518.62926888269772
 30
0.0
 40
5.0
 50
143.89688000000041
 51
33.103123000000132
  0
LINE
  5
3040
  8
AM_0
 10
291.50266469268678
 20
512.62926888269772
 30
0.0
 11
291.50266469268678
 21
524.02415888269775
 31
0.0
  0
LINE
  5
3041
  8
AM_0
 10
335.00266469268689
 20
503.86290888269781
 30
0.0
 11
335.00266469268689
 21
520.51094888269779
 31
0.0
  0
LINE
  5
3042
  8
ﾁｭｳｼﾝｾﾝ1
 10
311.00260469268687
 20
525.94194888269772
 30
0.0
 11
311.00260469268687
 21
511.1758688826975
 31
0.0
  0
LINE
  5
3043
  8
AM_0
 10
286.50266469268678
 20
512.62953888269772
 30
0.0
 11
298.62778469268687
 21
512.62953888269772
 31
0.0
  0
LINE
  5
3044
  8
AM_0
 10
286.50266469268678
 20
499.18413888269748
 30
0.0
 11
291.50266469268678
 21
499.18413888269748
 31
0.0
  0
LINE
  5
3045
  8
AM_0
 10
291.50266469268678
 20
516.65559888269775
 30
0.0
 11
335.00266469268689
 21
516.65559888269775
 31
0.0
  0
LINE
  5
3046
  8
AM_0
 10
309.50266469268678
 20
509.44902888269758
 30
0.0
 11
309.50266469268678
 21
499.47880888269771
 31
0.0
  0
LINE
  5
3047
  8
AM_0
 10
291.50266469268678
 20
498.30922888269748
 30
0.0
 11
309.50266469268678
 21
498.30922888269748
 31
0.0
  0
LINE
  5
3048
  8
AM_0
 10
309.50263469268668
 20
510.86626888269763
 30
0.0
 11
300.36423469268681
 21
512.47761888269758
 31
0.0
  0
LINE
  5
3049
  8
AM_0
 10
299.50266469268678
 20
510.41756888269759
 30
0.0
 11
299.50266469268678
 21
500.50432888269768
 31
0.0
  0
ARC
  5
304A
  8
AM_0
 10
298.62778469268687
 20
502.62953888269772
 30
0.0
 40
10.0
 50
79.999998000001099
 51
90.000003000000945
  0
LINE
  5
304B
  8
AM_0
 10
336.00266469268678
 20
504.8370288826975
 30
0.0
 11
336.00266469268678
 21
517.38402888269775
 31
0.0
  0
LINE
  5
304C
  8
AM_0
 10
335.00266469268689
 20
504.8370288826975
 30
0.0
 11
336.00266469268678
 21
504.8370288826975
 31
0.0
  0
LINE
  5
304D
  8
AM_0
 10
335.00266469268689
 20
503.86290888269781
 30
0.0
 11
337.00260469268682
 21
503.86290888269781
 31
0.0
  0
LINE
  5
304E
  8
AM_0
 10
335.00266469268689
 20
517.38402888269775
 30
0.0
 11
336.00266469268678
 21
517.38402888269775
 31
0.0
  0
LINE
  5
304F
  8
AM_0
 10
290.52885469268682
 20
525.02382888269756
 30
0.0
 11
286.50266469268678
 21
525.12926888269772
 31
0.0
  0
ARC
  5
3050
  8
AM_0
 10
311.00260469268687
 20
518.62926888269772
 30
0.0
 40
5.0
 50
33.103113000001329
 51
143.89688000000041
  0
LINE
  5
3051
  8
AM_0
 10
291.50266469268678
 20
521.98030888269773
 30
0.0
 11
332.46387469268689
 21
520.90770888269765
 31
0.0
  0
LINE
  5
3052
  8
ﾁｭｳｼﾝｾﾝ1
 10
303.7364946926869
 20
518.62926888269772
 30
0.0
 11
318.35990469268683
 21
518.62926888269772
 31
0.0
  0
LINE
  5
3053
  8
AM_0
 10
324.00266469268678
 20
531.12923888269745
 30
0.0
 11
305.87177469268693
 21
530.65446888269776
 31
0.0
  0
ARC
  5
3054
  8
AM_0
 10
290.50266469268678
 20
524.02415888269775
 30
0.0
 40
1.0
 50
0.0
 51
88.499997000000747
  0
ARC
  5
3055
  8
AM_0
 10
306.00266469268678
 20
525.65617888269765
 30
0.0
 40
5.0
 50
91.500001000001546
 51
180.00001000000091
  0
LINE
  5
3056
  8
AM_0
 10
301.00266469268678
 20
525.65617888269765
 30
0.0
 11
301.00266469268678
 21
521.73152888269772
 31
0.0
  0
ARC
  5
3057
  8
AM_0
 10
325.00266469268678
 20
523.10374888269746
 30
0.0
 40
2.0
 50
268.5000000000004
 51
0.0000006832462478
  0
ARC
  5
3058
  8
AM_0
 10
325.00266469268678
 20
529.10237888269774
 30
0.0
 40
2.0
 50
0.0
 51
88.499997000000747
  0
LINE
  5
3059
  8
AM_0
 10
325.97648469268682
 20
527.17955888269773
 30
0.0
 11
324.02885469268682
 21
527.12855888269769
 31
0.0
  0
ARC
  5
305A
  8
AM_0
 10
324.00266469268678
 20
528.12822888269773
 30
0.0
 40
1.0
 50
180.00001000000091
 51
271.4999999999992
  0
ARC
  5
305B
  8
AM_0
 10
324.00266469268678
 20
530.12889888269774
 30
0.0
 40
1.0
 50
91.500001000001546
 51
180.00001000000091
  0
LINE
  5
305C
  8
AM_0
 10
323.00266469268678
 20
530.12889888269774
 30
0.0
 11
323.00266469268678
 21
528.12822888269773
 31
0.0
  0
ARC
  5
305D
  8
AM_0
 10
326.00266469268678
 20
526.17991888269762
 30
0.0
 40
1.0
 50
0.0
 51
91.500001000001546
  0
LINE
  5
305E
  8
AM_0
 10
327.00266469268678
 20
529.10237888269774
 30
0.0
 11
327.00266469268678
 21
523.10374888269746
 31
0.0
  0
ARC
  5
305F
  8
AM_0
 10
332.2020646926868
 20
510.9111288826976
 30
0.0
 40
10.0
 50
60.000002000001302
 51
88.499997000000747
  0
CIRCLE
  5
3060
  8
AM_0
 10
374.00260469268682
 20
518.62926888269772
 30
0.0
 40
5.0
  0
ARC
  5
3061
  8
AM_0
 10
364.00266469268678
 20
518.00004888269746
 30
0.0
 40
5.0
 50
180.00001000000091
 51
268.5000000000004
  0
LINE
  5
3062
  8
AM_0
 10
384.00266469268678
 20
524.68730888269772
 30
0.0
 11
384.00266469268678
 21
507.5711888826977
 31
0.0
  0
LINE
  5
3063
  8
ﾁｭｳｼﾝｾﾝ1
 10
374.00260469268682
 20
525.76756888269745
 30
0.0
 11
374.00260469268682
 21
511.50084888269748
 31
0.0
  0
LINE
  5
3064
  8
AM_0
 10
386.00260469268682
 20
470.6292688826976
 30
0.0
 11
414.0026346926868
 21
470.6292688826976
 31
0.0
  0
LINE
  5
3065
  8
AM_0
 10
386.00260469268682
 20
451.62926888269749
 30
0.0
 11
414.0026346926868
 21
451.62926888269749
 31
0.0
  0
ARC
  5
3066
  8
AM_0
 10
383.00266469268678
 20
482.15578888269749
 30
0.0
 40
1.0
 50
179.9999899999988
 51
268.50000999999872
  0
LINE
  5
3067
  8
AM_0
 10
386.00260469268682
 20
451.12926888269749
 30
0.0
 11
386.00260469268682
 21
471.12926888269772
 31
0.0
  0
LINE
  5
3068
  8
AM_0
 10
384.00266469268678
 20
451.12926888269749
 30
0.0
 11
386.00260469268682
 21
451.12926888269749
 31
0.0
  0
LINE
  5
3069
  8
AM_0
 10
384.00266469268678
 20
471.12926888269772
 30
0.0
 11
386.00260469268682
 21
471.12926888269772
 31
0.0
  0
ARC
  5
306A
  8
AM_0
 10
383.00266469268678
 20
480.1551088826975
 30
0.0
 40
1.0
 50
0.0
 51
88.499997000000747
  0
LINE
  5
306B
  8
AM_0
 10
382.97648469268682
 20
481.15611888269768
 30
0.0
 11
383.0288246926869
 21
481.15474888269767
 31
0.0
  0
LINE
  5
306C
  8
AM_0
 10
369.00263469268691
 20
501.7351588826977
 30
0.0
 11
348.50077469268678
 21
502.45109888269758
 31
0.0
  0
LINE
  5
306D
  8
AM_0
 10
360.9916246926868
 20
514.00831888269761
 30
0.0
 11
348.70390469268682
 21
514.33009888269771
 31
0.0
  0
ARC
  5
306E
  8
AM_0
 10
339.00266469268689
 20
509.22374888269769
 30
0.0
 40
1.0
 50
269.999989999999
 51
0.0000006832462478
  0
LINE
  5
306F
  8
AM_0
 10
340.00260469268682
 20
515.88402888269775
 30
0.0
 11
340.00260469268682
 21
506.33699888269763
 31
0.0
  0
ARC
  5
3070
  8
AM_0
 10
339.00266469268689
 20
507.22377888269762
 30
0.0
 40
1.0
 50
0.0
 51
90.000003000000945
  0
ARC
  5
3071
  8
AM_0
 10
339.00266469268689
 20
506.33699888269763
 30
0.0
 40
1.0
 50
269.999989999999
 51
0.0000006832462478
  0
ARC
  5
3072
  8
AM_0
 10
348.96568469268692
 20
524.32667888269771
 30
0.0
 40
10.0
 50
239.99999999999949
 51
268.5000000000004
  0
ARC
  5
3073
  8
AM_0
 10
339.00266469268689
 20
512.99727888269774
 30
0.0
 40
1.0
 50
0.0
 51
90.000003000000945
  0
ARC
  5
3074
  8
AM_0
 10
339.00266469268689
 20
515.88402888269775
 30
0.0
 40
1.0
 50
0.0
 51
90.000003000000945
  0
ARC
  5
3075
  8
AM_0
 10
339.00266469268689
 20
514.9972488826977
 30
0.0
 40
1.0
 50
269.999989999999
 51
0.0000006832462478
  0
LINE
  5
3076
  8
AM_0
 10
373.87177469268693
 20
503.50175888269769
 30
0.0
 11
379.08118469268692
 21
503.36534888269767
 31
0.0
  0
ARC
  5
3077
  8
AM_0
 10
374.00266469268678
 20
508.50004888269768
 30
0.0
 40
5.0
 50
180.00001000000091
 51
268.5000000000004
  0
ARC
  5
3078
  8
AM_0
 10
366.00266469268678
 20
509.94493888269739
 30
0.0
 40
3.0
 50
0.0
 51
88.499997000000747
  0
LINE
  5
3079
  8
AM_0
 10
363.87177469268693
 20
513.00175888269769
 30
0.0
 11
366.08118469268692
 21
512.94389888269779
 31
0.0
  0
ARC
  5
307A
  8
AM_0
 10
379.00266469268689
 20
507.5711888826977
 30
0.0
 40
5.0
 50
289.51466999999951
 51
0.0
  0
ARC
  5
307B
  8
AM_0
 10
379.00266469268689
 20
500.36638888269749
 30
0.0
 40
3.0
 50
0.0
 51
88.499997000000747
  0
LINE
  5
307C
  8
AM_0
 10
392.00260469268682
 20
464.12926888269749
 30
0.0
 11
414.0026346926868
 21
464.12926888269749
 31
0.0
  0
LINE
  5
307D
  8
AM_0
 10
392.00260469268682
 20
458.1292688826976
 30
0.0
 11
414.0026346926868
 21
458.1292688826976
 31
0.0
  0
ARC
  5
307E
  8
AM_0
 10
392.00260469268682
 20
461.1292688826976
 30
0.0
 40
3.0
 50
89.986013999999244
 51
270.01398999999992
  0
LINE
  5
307F
  8
AM_0
 10
392.00260469268682
 20
458.1292688826976
 30
0.0
 11
392.00260469268682
 21
464.12926888269749
 31
0.0
  0
LINE
  5
3080
  8
AM_0
 10
414.0026346926868
 20
451.62926888269749
 30
0.0
 11
414.0026346926868
 21
470.6292688826976
 31
0.0
  0
LINE
  5
3081
  8
AM_0
 10
359.00266469268678
 20
527.13316888269765
 30
0.0
 11
359.00266469268678
 21
518.00004888269746
 31
0.0
  0
ARC
  5
3082
  8
AM_0
 10
362.00266469268678
 20
527.13316888269765
 30
0.0
 40
3.0
 50
88.499997000000747
 51
180.00001000000091
  0
LINE
  5
3083
  8
ﾁｭｳｼﾝｾﾝ1
 10
367.1783846926869
 20
518.62926888269772
 30
0.0
 11
381.3950646926869
 21
518.62926888269772
 31
0.0
  0
ARC
  5
3084
  8
AM_0
 10
379.00266469268689
 20
524.68730888269772
 30
0.0
 40
5.0
 50
0.0
 51
88.499997000000747
  0
LINE
  5
3085
  8
AM_0
 10
219.00267685203431
 20
478.21505532032432
 30
0.0
 11
219.00267685203431
 21
444.04348244507082
 31
0.0
  0
LINE
  5
3086
  8
AM_0
 10
221.0026768520342
 20
436.1292688826976
 30
0.0
 11
221.0026768520342
 21
486.1292688826976
 31
0.0
  0
LINE
  5
3087
  8
AM_0
 10
276.50266469268672
 20
524.12926888269772
 30
0.0
 11
276.50266469268672
 21
398.1292688826976
 31
0.0
  0
LINE
  5
3088
  8
AM_0
 10
246.00267232208131
 20
488.1292688826976
 30
0.0
 11
246.00267232208131
 21
434.1292688826976
 31
0.0
  0
LINE
  5
3089
  8
AM_0
 10
223.0026768520342
 20
434.1292688826976
 30
0.0
 11
241.8605366983501
 21
434.1292688826976
 31
0.0
  0
LINE
  5
308A
  8
AM_0
 10
189.00267685203431
 20
469.12926888269749
 30
0.0
 11
217.00267685203431
 21
469.12926888269749
 31
0.0
  0
LINE
  5
308B
  8
AM_0
 10
189.00267685203431
 20
453.1292688826976
 30
0.0
 11
217.00267685203431
 21
453.1292688826976
 31
0.0
  0
LINE
  5
308C
  8
AM_0
 10
189.00267685203431
 20
469.12926888269749
 30
0.0
 11
189.00267685203431
 21
453.1292688826976
 31
0.0
  0
LINE
  5
308D
  8
AM_0
 10
217.00267685203431
 20
469.6292688826976
 30
0.0
 11
217.00267685203431
 21
452.6292688826976
 31
0.0
  0
LINE
  5
308E
  8
AM_0
 10
219.2955700708477
 20
443.33637566388433
 30
0.0
 11
220.70978363322081
 21
441.92216210151111
 31
0.0
  0
ARC
  5
308F
  8
AM_0
 10
220.0026768520344
 20
441.21505532032461
 30
0.0
 40
1.0
 50
0.0
 51
45.0
1001
GENIUS_GENODEF_13
1002
{
1000
HIER
1070
     0
1002
}
1002
{
1000
MANEDIT
1070
     0
1002
}
1002
{
1000
NOSEL
1070
     0
1002
}
1002
{
1000
BEHIND
1070
     0
1002
}
1002
{
1000
OTHER
1070
     0
1002
}
1002
{
1000
REACTOR
1002
}
1001
GENIUS_GENOBJ-N-FIL_13
1002
{
1000
OWNER
1000
GEN
1002
}
  0
ARC
  5
3090
  8
AM_0
 10
223.0026768520342
 20
436.1292688826976
 30
0.0
 40
2.0
 50
180.0
 51
270.0
1001
GENIUS_GENOBJ-N-FIL_13
1002
{
1000
OWNER
1000
GEN
1002
}
1001
GENIUS_GENODEF_13
1002
{
1000
HIER
1070
     0
1002
}
1002
{
1000
MANEDIT
1070
     0
1002
}
1002
{
1000
NOSEL
1070
     0
1002
}
1002
{
1000
BEHIND
1070
     0
1002
}
1002
{
1000
OTHER
1070
     0
1002
}
1002
{
1000
REACTOR
1002
}
  0
LINE
  5
3091
  8
AM_0
 10
217.00267685203431
 20
452.62927421574761
 30
0.0
 11
219.00267685203431
 21
452.62927314913759
 31
0.0
  0
ARC
  5
3092
  8
AM_0
 10
220.00267685203431
 20
444.04348244507082
 30
0.0
 40
1.0
 50
180.0
 51
225.0
1001
GENIUS_GENODEF_13
1002
{
1000
HIER
1070
     0
1002
}
1002
{
1000
MANEDIT
1070
     0
1002
}
1002
{
1000
NOSEL
1070
     0
1002
}
1002
{
1000
BEHIND
1070
     0
1002
}
1002
{
1000
OTHER
1070
     0
1002
}
1002
{
1000
REACTOR
1002
}
1001
GENIUS_GENOBJ-N-FIL_13
1002
{
1000
OWNER
1000
GEN
1002
}
  0
LINE
  5
3093
  8
AM_0
 10
217.00267685203431
 20
469.6292688826976
 30
0.0
 11
219.00267685203431
 21
469.6292688826976
 31
0.0
  0
ARC
  5
3094
  8
AM_0
 10
241.8605366983501
 20
424.1292688826976
 30
0.0
 40
10.0
 50
45.0
 51
90.0
1001
GENIUS_GENODEF_13
1002
{
1000
HIER
1070
     0
1002
}
1002
{
1000
MANEDIT
1070
     0
1002
}
1002
{
1000
NOSEL
1070
     0
1002
}
1002
{
1000
BEHIND
1070
     0
1002
}
1002
{
1000
OTHER
1070
     0
1002
}
1002
{
1000
REACTOR
1002
}
1001
GENIUS_GENOBJ-N-FIL_13
1002
{
1000
OWNER
1000
GEN
1002
}
  0
LINE
  5
3095
  8
AM_0
 10
275.0381985986196
 20
405.09374260615931
 30
0.0
 11
248.93160451021581
 21
431.20033669456308
 31
0.0
  0
ARC
  5
3096
  8
AM_0
 10
271.50266469268678
 20
401.5582087002266
 30
0.0
 40
5.0
 50
0.0
 51
45.0
1001
GENIUS_GENODEF_13
1002
{
1000
HIER
1070
     0
1002
}
1002
{
1000
MANEDIT
1070
     0
1002
}
1002
{
1000
NOSEL
1070
     0
1002
}
1002
{
1000
BEHIND
1070
     0
1002
}
1002
{
1000
OTHER
1070
     0
1002
}
1002
{
1000
REACTOR
1002
}
1001
GENIUS_GENOBJ-N-FIL_13
1002
{
1000
OWNER
1000
GEN
1002
}
  0
ARC
  5
3097
  8
AM_0
 10
277.50266469268672
 20
398.1292688826976
 30
0.0
 40
1.0
 50
180.0
 51
270.0
1001
GENIUS_GENODEF_13
1002
{
1000
HIER
1070
     0
1002
}
1002
{
1000
MANEDIT
1070
     0
1002
}
1002
{
1000
NOSEL
1070
     0
1002
}
1002
{
1000
BEHIND
1070
     0
1002
}
1002
{
1000
OTHER
1070
     0
1002
}
1002
{
1000
REACTOR
1002
}
1001
GENIUS_GENOBJ-N-FIL_13
1002
{
1000
OWNER
1000
GEN
1002
}
  0
LINE
  5
3098
  8
AM_0
 10
286.50266469268678
 20
397.12926888269749
 30
0.0
 11
277.50266469268672
 21
397.12926888269749
 31
0.0
  0
LINE
  5
3099
  8
AM_0
 10
286.50266469268678
 20
423.13296388269748
 30
0.0
 11
276.50266469268701
 21
423.13296388269748
 31
0.0
  0
LINE
  5
309A
  8
AM_0
 10
286.50266469268678
 20
409.62926888269749
 30
0.0
 11
276.50266469268701
 21
409.62926888269749
 31
0.0
  0
LINE
  5
309B
  8
AM_0
 10
223.0026768520342
 20
488.1292688826976
 30
0.0
 11
241.8605366983501
 21
488.1292688826976
 31
0.0
  0
ARC
  5
309C
  8
AM_0
 10
220.00267685203431
 20
478.21505532032432
 30
0.0
 40
1.0
 50
135.0
 51
180.0
1001
GENIUS_GENODEF_13
1002
{
1000
HIER
1070
     0
1002
}
1002
{
1000
MANEDIT
1070
     0
1002
}
1002
{
1000
NOSEL
1070
     0
1002
}
1002
{
1000
BEHIND
1070
     0
1002
}
1002
{
1000
OTHER
1070
     0
1002
}
1002
{
1000
REACTOR
1002
}
1001
GENIUS_GENOBJ-N-FIL_13
1002
{
1000
OWNER
1000
GEN
1002
}
  0
ARC
  5
309D
  8
AM_0
 10
220.0026768520344
 20
481.04348244507082
 30
0.0
 40
1.0
 50
315.0
 51
0.0
1001
GENIUS_GENODEF_13
1002
{
1000
HIER
1070
     0
1002
}
1002
{
1000
MANEDIT
1070
     0
1002
}
1002
{
1000
NOSEL
1070
     0
1002
}
1002
{
1000
BEHIND
1070
     0
1002
}
1002
{
1000
OTHER
1070
     0
1002
}
1002
{
1000
REACTOR
1002
}
1001
GENIUS_GENOBJ-N-FIL_13
1002
{
1000
OWNER
1000
GEN
1002
}
  0
LINE
  5
309E
  8
AM_0
 10
219.2955700708477
 20
478.92216210151082
 30
0.0
 11
220.70978363322081
 21
480.33637566388433
 31
0.0
  0
ARC
  5
309F
  8
AM_0
 10
223.0026768520342
 20
486.1292688826976
 30
0.0
 40
2.0
 50
90.0
 51
180.0
1001
GENIUS_GENOBJ-N-FIL_13
1002
{
1000
OWNER
1000
GEN
1002
}
1001
GENIUS_GENODEF_13
1002
{
1000
HIER
1070
     0
1002
}
1002
{
1000
MANEDIT
1070
     0
1002
}
1002
{
1000
NOSEL
1070
     0
1002
}
1002
{
1000
BEHIND
1070
     0
1002
}
1002
{
1000
OTHER
1070
     0
1002
}
1002
{
1000
REACTOR
1002
}
  0
ARC
  5
30A0
  8
AM_0
 10
271.50266469268678
 20
520.7003290651686
 30
0.0
 40
5.0
 50
315.0
 51
0.0
1001
GENIUS_GENODEF_13
1002
{
1000
HIER
1070
     0
1002
}
1002
{
1000
MANEDIT
1070
     0
1002
}
1002
{
1000
NOSEL
1070
     0
1002
}
1002
{
1000
BEHIND
1070
     0
1002
}
1002
{
1000
OTHER
1070
     0
1002
}
1002
{
1000
REACTOR
1002
}
1001
GENIUS_GENOBJ-N-FIL_13
1002
{
1000
OWNER
1000
GEN
1002
}
  0
LINE
  5
30A1
  8
AM_0
 10
275.0381985986196
 20
517.16479515923595
 30
0.0
 11
248.93160451021561
 21
491.05820107083218
 31
0.0
  0
ARC
  5
30A2
  8
AM_0
 10
241.8605366983501
 20
498.12926888269749
 30
0.0
 40
10.0
 50
270.0
 51
315.0
1001
GENIUS_GENODEF_13
1002
{
1000
HIER
1070
     0
1002
}
1002
{
1000
MANEDIT
1070
     0
1002
}
1002
{
1000
NOSEL
1070
     0
1002
}
1002
{
1000
BEHIND
1070
     0
1002
}
1002
{
1000
OTHER
1070
     0
1002
}
1002
{
1000
REACTOR
1002
}
1001
GENIUS_GENOBJ-N-FIL_13
1002
{
1000
OWNER
1000
GEN
1002
}
  0
LINE
  5
30A3
  8
AM_0
 10
286.50266469268678
 20
512.62926888269772
 30
0.0
 11
276.50266469268701
 21
512.62926888269772
 31
0.0
  0
LINE
  5
30A4
  8
AM_0
 10
286.50266469268678
 20
499.12557888269748
 30
0.0
 11
276.50266469268701
 21
499.12557888269748
 31
0.0
  0
ARC
  5
30A5
  8
AM_0
 10
277.50266469268672
 20
524.12926888269772
 30
0.0
 40
1.0
 50
90.0
 51
180.0
1001
GENIUS_GENODEF_13
1002
{
1000
HIER
1070
     0
1002
}
1002
{
1000
MANEDIT
1070
     0
1002
}
1002
{
1000
NOSEL
1070
     0
1002
}
1002
{
1000
BEHIND
1070
     0
1002
}
1002
{
1000
OTHER
1070
     0
1002
}
1002
{
1000
REACTOR
1002
}
1001
GENIUS_GENOBJ-N-FIL_13
1002
{
1000
OWNER
1000
GEN
1002
}
  0
LINE
  5
30A6
  8
AM_0
 10
286.50266469268678
 20
525.12926888269772
 30
0.0
 11
277.50266469268672
 21
525.12926888269772
 31
0.0
  0
LINE
  5
30A7
  8
AM_0
 10
189.00267685203431
 20
458.62926888269772
 30
0.0
 11
211.00267685203431
 21
458.62926888269772
 31
0.0
  0
LINE
  5
30A8
  8
AM_0
 10
189.00267685203431
 20
463.62926888269749
 30
0.0
 11
211.00267685203431
 21
463.62926888269749
 31
0.0
  0
LINE
  5
30A9
  8
AM_0
 10
211.00267685203431
 20
463.62926888269749
 30
0.0
 11
211.00267685203431
 21
458.62926888269772
 31
0.0
  0
ARC
  5
30AA
  8
AM_0
 10
211.00267685203431
 20
461.1292688826976
 30
0.0
 40
2.5
 50
270.0
 51
90.0
  0
TEXT
  5
32C3
  8
AM_0
 10
473.78599021569579
 20
447.2577722747921
 30
0.0
 40
10.0
  1
VX04-003G~VX04-010G
  0
ENDSEC
  0
EOF
