  0
SECTION
  2
HEADER
  9
$ACADVER
  1
AC1009
  9
$INSBASE
 10
0.0
 20
0.0
 30
0.0
  9
$EXTMIN
 10
154.6265509343084
 20
181.14542593391539
 30
-0.0000000000112498
  9
$EXTMAX
 10
644.24038870648974
 20
572.89273433110043
 30
0.0000000000002956
  9
$LIMMIN
 10
0.0
 20
0.0
  9
$LIMMAX
 10
853.5
 20
555.00000000000011
  9
$ORTHOMODE
 70
     0
  9
$REGENMODE
 70
     1
  9
$FILLMODE
 70
     1
  9
$QTEXTMODE
 70
     0
  9
$MIRRTEXT
 70
     1
  9
$DRAGMODE
 70
     2
  9
$LTSCALE
 40
3.0
  9
$OSMODE
 70
   551
  9
$ATTMODE
 70
     1
  9
$TEXTSIZE
 40
2.5
  9
$TRACEWID
 40
1.0
  9
$TEXTSTYLE
  7
STANDARD
  9
$CLAYER
  8
AM_0
  9
$CELTYPE
  6
BYLAYER
  9
$CECOLOR
 62
   256
  9
$DIMSCALE
 40
1.0
  9
$DIMASZ
 40
2.5
  9
$DIMEXO
 40
1.0
  9
$DIMDLI
 40
8.0
  9
$DIMRND
 40
0.0
  9
$DIMDLE
 40
0.0
  9
$DIMEXE
 40
0.6
  9
$DIMTP
 40
0.1
  9
$DIMTM
 40
0.1
  9
$DIMTXT
 40
2.5
  9
$DIMCEN
 40
0.0
  9
$DIMTSZ
 40
0.0
  9
$DIMTOL
 70
     0
  9
$DIMLIM
 70
     0
  9
$DIMTIH
 70
     0
  9
$DIMTOH
 70
     0
  9
$DIMSE1
 70
     0
  9
$DIMSE2
 70
     0
  9
$DIMTAD
 70
     1
  9
$DIMZIN
 70
     8
  9
$DIMBLK
  1

  9
$DIMASO
 70
     1
  9
$DIMSHO
 70
     1
  9
$DIMPOST
  1

  9
$DIMAPOST
  1
"
  9
$DIMALT
 70
     0
  9
$DIMALTD
 70
     2
  9
$DIMALTF
 40
0.0393701
  9
$DIMLFAC
 40
1.0
  9
$DIMTOFL
 70
     1
  9
$DIMTVP
 40
0.0
  9
$DIMTIX
 70
     0
  9
$DIMSOXD
 70
     0
  9
$DIMSAH
 70
     0
  9
$DIMBLK1
  1

  9
$DIMBLK2
  1

  9
$DIMSTYLE
  2
AM_ISO
  9
$DIMCLRD
 70
   256
  9
$DIMCLRE
 70
   256
  9
$DIMCLRT
 70
     4
  9
$DIMTFAC
 40
0.71
  9
$DIMGAP
 40
0.8
  9
$LUNITS
 70
     2
  9
$LUPREC
 70
     2
  9
$SKETCHINC
 40
1.0
  9
$FILLETRAD
 40
15.0
  9
$AUNITS
 70
     0
  9
$AUPREC
 70
     0
  9
$MENU
  1
.
  9
$ELEVATION
 40
0.0
  9
$PELEVATION
 40
0.0
  9
$THICKNESS
 40
0.0
  9
$LIMCHECK
 70
     0
  9
$BLIPMODE
 70
     0
  9
$CHAMFERA
 40
6.0
  9
$CHAMFERB
 40
3.0
  9
$SKPOLY
 70
     0
  9
$TDCREATE
 40
2452066.3658458102
  9
$TDUPDATE
 40
2458541.4123125002
  9
$TDINDWG
 40
0.1162319097
  9
$TDUSRTIMER
 40
0.116231713
  9
$USRTIMER
 70
     1
  9
$ANGBASE
 50
0.0
  9
$ANGDIR
 70
     0
  9
$PDMODE
 70
     0
  9
$PDSIZE
 40
0.0
  9
$PLINEWID
 40
0.0
  9
$COORDS
 70
     1
  9
$SPLFRAME
 70
     0
  9
$SPLINETYPE
 70
     6
  9
$SPLINESEGS
 70
     8
  9
$ATTDIA
 70
     1
  9
$ATTREQ
 70
     1
  9
$HANDLING
 70
     1
  9
$HANDSEED
  5
2E9C
  9
$SURFTAB1
 70
     6
  9
$SURFTAB2
 70
     6
  9
$SURFTYPE
 70
     6
  9
$SURFU
 70
     6
  9
$SURFV
 70
     6
  9
$UCSNAME
  2

  9
$UCSORG
 10
0.0
 20
0.0
 30
0.0
  9
$UCSXDIR
 10
1.0
 20
0.0
 30
0.0
  9
$UCSYDIR
 10
0.0
 20
1.0
 30
0.0
  9
$PUCSNAME
  2

  9
$PUCSORG
 10
0.0
 20
0.0
 30
0.0
  9
$PUCSXDIR
 10
1.0
 20
0.0
 30
0.0
  9
$PUCSYDIR
 10
0.0
 20
1.0
 30
0.0
  9
$USERI1
 70
     0
  9
$USERI2
 70
     0
  9
$USERI3
 70
     0
  9
$USERI4
 70
     0
  9
$USERI5
 70
     0
  9
$USERR1
 40
0.0
  9
$USERR2
 40
0.0
  9
$USERR3
 40
0.0
  9
$USERR4
 40
0.0
  9
$USERR5
 40
0.0
  9
$WORLDVIEW
 70
     1
  9
$SHADEDGE
 70
     3
  9
$SHADEDIF
 70
    70
  9
$TILEMODE
 70
     1
  9
$MAXACTVP
 70
    64
  9
$PLIMCHECK
 70
     0
  9
$PEXTMIN
 10
1.0000000000000000E+020
 20
1.0000000000000000E+020
 30
1.0000000000000000E+020
  9
$PEXTMAX
 10
-1.0000000000000000E+020
 20
-1.0000000000000000E+020
 30
-1.0000000000000000E+020
  9
$PLIMMIN
 10
0.0
 20
0.0
  9
$PLIMMAX
 10
420.0
 20
297.0
  9
$UNITMODE
 70
     0
  9
$VISRETAIN
 70
     1
  9
$PLINEGEN
 70
     0
  9
$PSLTSCALE
 70
     1
  0
ENDSEC
  0
SECTION
  2
TABLES
  0
TABLE
  2
VPORT
 70
     1
  0
VPORT
  2
*ACTIVE
 70
     0
 10
0.0
 20
0.0
 11
1.0
 21
1.0
 12
399.43346982039901
 22
377.0190801325079
 13
0.0
 23
0.0
 14
7.5
 24
7.5
 15
30.0
 25
30.0
 16
0.0
 26
0.0
 36
1.0
 17
0.0
 27
0.0
 37
0.0
 40
394.43664918709692
 41
1.7571592210767459
 42
50.0
 43
0.0
 44
0.0
 50
0.0
 51
0.0
 71
     0
 72
   100
 73
     1
 74
     3
 75
     0
 76
     0
 77
     0
 78
     0
  0
ENDTAB
  0
TABLE
  2
LTYPE
 70
    27
  0
LTYPE
  2
CONTINUOUS
 70
     0
  3
Solid line
 72
    65
 73
     0
 40
0.0
  0
LTYPE
  2
AM_ISO02W050
 70
     0
  3
__ __ __ __ __ __ __ __ __ __ __ __ __ __ __
 72
    65
 73
     2
 40
7.5
 49
6.0
 49
-1.5
  0
LTYPE
  2
AM_ISO08W050
 70
     0
  3
____ . ____ . ____ . ____ . ____ . ____ . ____
 72
    65
 73
     4
 40
18.0
 49
12.0
 49
-1.5
 49
3.0
 49
-1.5
  0
LTYPE
  2
AM_ISO09W050
 70
     0
  3
_____ . . _____ . . _____ . . ____ .. ____
 72
    65
 73
     6
 40
22.5
 49
12.0
 49
-1.5
 49
3.0
 49
-1.5
 49
3.0
 49
-1.5
  0
LTYPE
  2
AMCONSTR
 70
     0
  3
_______________________
 72
    65
 73
     2
 40
9999.0
 49
9999.0
 49
0.0
  0
LTYPE
  2
AM_ISO08W050X2
 70
     0
  3
__ . __ . __ . __ . __ . __
 72
    65
 73
     4
 40
9.0
 49
6.0
 49
-0.75
 49
1.5
 49
-0.75
  0
LTYPE
  2
AM_ISO02W050X2
 70
     0
  3
 _ _ _ _ _ _ _ _ _ _ _ _
 72
    65
 73
     2
 40
3.75
 49
3.0
 49
-0.75
  0
LTYPE
  2
AMZIGZAG
 70
     0
  3
/\/-/\/-/\/-/\/-/\/-/\/
 72
    65
 73
     2
 40
11.000099999999991
 49
0.0001
 49
-11.0
  0
LTYPE
  2
ACISOWELD
 70
     0
  3
_ _ _ _ _
 72
    65
 73
     2
 40
2.0
 49
2.0
 49
-1.0
  0
LTYPE
  2
ACISOTGB
 70
     0
  3
__ . . __ . .
 72
    65
 73
     6
 40
9.0
 49
4.0
 49
-1.0
 49
1.0
 49
-1.0
 49
1.0
 49
-1.0
  0
LTYPE
  2
ACISOTGL
 70
     0
  3
_ _ _ _ _
 72
    65
 73
     2
 40
3.0
 49
2.0
 49
-1.0
  0
LTYPE
  2
CENTER
 70
     0
  3
__ . __
 72
    65
 73
     4
 40
7.0
 49
4.0
 49
-1.0
 49
1.0
 49
-1.0
  0
LTYPE
  2
PHANTOM2
 70
     0
  3
Phantom (.5x) ___ _ _ ___ _ _ ___ _ _ ___ _ _
 72
    65
 73
     6
 40
31.75
 49
15.875
 49
-3.174999999999998
 49
3.174999999999998
 49
-3.174999999999998
 49
3.174999999999998
 49
-3.174999999999998
  0
LTYPE
  2
ACANSTGBM
 70
     0
  3
__ . . __ . .
 72
    65
 73
     6
 40
9.0
 49
4.0
 49
-1.0
 49
1.0
 49
-1.0
 49
1.0
 49
-1.0
  0
LTYPE
  2
ACANSTGLM
 70
     0
  3
_ _ _ _ _
 72
    65
 73
     2
 40
3.0
 49
2.0
 49
-1.0
  0
LTYPE
  2
GEN7
 70
     0
  3
____ . ____ . ____ . ____ . ____ . ____ . ____
 72
    65
 73
     4
 40
14.25
 49
9.75
 49
-1.5
 49
1.5
 49
-1.5
  0
LTYPE
  2
GEN3B
 70
     0
  3
 - - - - -
 72
    65
 73
     2
 40
1.0
 49
0.5
 49
-0.5
  0
LTYPE
  2
GEN7A
 70
     0
  3
__ . __ . __
 72
    65
 73
     4
 40
7.375
 49
4.75
 49
-0.875
 49
0.875
 49
-0.875
  0
LTYPE
  2
ACJISTGB
 70
     0
  3
__ . . __ . .
 72
    65
 73
     6
 40
9.0
 49
4.0
 49
-1.0
 49
1.0
 49
-1.0
 49
1.0
 49
-1.0
  0
LTYPE
  2
ACJISTGL
 70
     0
  3
_ _ _ _ _
 72
    65
 73
     2
 40
3.0
 49
2.0
 49
-1.0
  0
LTYPE
  2
HIDDEN
 70
     0
  3
Hidden __ __ __ __ __ __ __ __ __ __ __ __ __ _
 72
    65
 73
     2
 40
0.375
 49
0.25
 49
-0.125
  0
LTYPE
  2
CENTER2
 70
     0
  3
Center (.5x) ___ _ ___ _ ___ _ ___ _ ___ _ ___
 72
    65
 73
     4
 40
1.125
 49
0.75
 49
-0.125
 49
0.125
 49
-0.125
  0
LTYPE
  2
HIDDEN2
 70
     0
  3
Hidden (.5x) _ _ _ _ _ _ _ _ _ _ _ _ _ _ _ _ _
 72
    65
 73
     2
 40
0.1875
 49
0.125
 49
-0.0625
  0
LTYPE
  2
AMZIGZAG2
 70
     0
  3
/\/-/\/-/\/-/\/-/\/-/\/
 72
    65
 73
     2
 40
0.4401
 49
0.0001
 49
-0.4400000000000002
  0
LTYPE
  2
ACANSTGB
 70
     0
  3
__ . . __ . .
 72
    65
 73
     6
 40
0.35433070866
 49
0.15748031496
 49
-0.03937007874
 49
0.03937007874
 49
-0.03937007874
 49
0.03937007874
 49
-0.03937007874
  0
LTYPE
  2
ACANSTGL
 70
     0
  3
_ _ _ _ _
 72
    65
 73
     2
 40
0.11811023622
 49
0.07874015748
 49
-0.03937007874
  0
ENDTAB
  0
TABLE
  2
LAYER
 70
     7
  0
LAYER
  2
0
 70
     0
 62
     7
  6
CONTINUOUS
  0
LAYER
  2
AM_0
 70
     0
 62
     7
  6
CONTINUOUS
  0
LAYER
  2
AM_5
 70
     0
 62
     2
  6
CONTINUOUS
  0
LAYER
  2
DEFPOINTS
 70
     0
 62
     7
  6
CONTINUOUS
  0
LAYER
  2
ｶｸﾚｾﾝ2
 70
     0
 62
     3
  6
GEN3B
  0
LAYER
  2
ﾁｭｳｼﾝｾﾝ
 70
     0
 62
     1
  6
GEN7
  0
LAYER
  2
ﾁｭｳｼﾝｾﾝ1
 70
     0
 62
     1
  6
GEN7A
  0
ENDTAB
  0
TABLE
  2
STYLE
 70
     9
  0
STYLE
  2
STANDARD
 70
     0
 40
0.0
 41
0.8299999999999999
 50
0.0
 71
     0
 42
2.5
  3
txt.shx
  4
bigfont.shx
  0
STYLE
  2
ANNOTATIVE
 70
     0
 40
0.0
 41
1.0
 50
0.0
 71
     0
 42
0.2
  3
txt
  4

  0
STYLE
  2

 70
     1
 40
0.0
 41
1.0
 50
0.0
 71
     0
 42
2.5
  3
ltypeshp.shx
  4

  0
STYLE
  2
ACISOTS
 70
     0
 40
1.0
 41
1.0
 50
0.0
 71
     0
 42
2.5
  3
isocp.shx
  4
extfont.shx
  0
STYLE
  2
ACISOGDT
 70
     0
 40
0.0
 41
1.0
 50
0.0
 71
     0
 42
2.5
  3
amgdt.shx
  4

  0
STYLE
  2
ACANSTS
 70
     0
 40
1.0
 41
1.0
 50
0.0
 71
     0
 42
2.5
  3
romans.shx
  4
bigfont.shx
  0
STYLE
  2
ACANSGDT
 70
     0
 40
0.0
 41
1.0
 50
0.0
 71
     0
 42
2.5
  3
amgdt.shx
  4

  0
STYLE
  2
ACJISTS
 70
     0
 40
1.0
 41
1.0
 50
0.0
 71
     0
 42
2.5
  3
isocp.shx
  4
bigfont.shx
  0
STYLE
  2
ACJISGDT
 70
     0
 40
0.0
 41
1.0
 50
0.0
 71
     0
 42
2.5
  3
amgdt.shx
  4

  0
ENDTAB
  0
TABLE
  2
VIEW
 70
     6
  0
VIEW
  2
AM_VIEW1
 70
     0
 40
277.49999999999989
 10
249.64779005524849
 20
416.24999999999989
 41
499.2955801104971
 11
0.0
 21
0.0
 31
1.0
 12
0.0
 22
0.0
 32
0.0
 42
50.0
 43
0.0
 44
0.0
 50
0.0
 71
     0
  0
VIEW
  2
AM_VIEW2
 70
     0
 40
277.49999999999989
 10
603.85220994475117
 20
416.24999999999989
 41
499.2955801104971
 11
0.0
 21
0.0
 31
1.0
 12
0.0
 22
0.0
 32
0.0
 42
50.0
 43
0.0
 44
0.0
 50
0.0
 71
     0
  0
VIEW
  2
AM_VIEW3
 70
     0
 40
277.49999999999989
 10
249.64779005524849
 20
138.7499999999998
 41
499.2955801104971
 11
0.0
 21
0.0
 31
1.0
 12
0.0
 22
0.0
 32
0.0
 42
50.0
 43
0.0
 44
0.0
 50
0.0
 71
     0
  0
VIEW
  2
AM_VIEW4
 70
     0
 40
277.49999999999989
 10
603.85220994475117
 20
138.7499999999998
 41
499.2955801104971
 11
0.0
 21
0.0
 31
1.0
 12
0.0
 22
0.0
 32
0.0
 42
50.0
 43
0.0
 44
0.0
 50
0.0
 71
     0
  0
VIEW
  2
AM_VIEW5
 70
     0
 40
277.5
 10
426.75
 20
277.49999999999989
 41
499.2955801104971
 11
0.0
 21
0.0
 31
1.0
 12
0.0
 22
0.0
 32
0.0
 42
50.0
 43
0.0
 44
0.0
 50
0.0
 71
     0
  0
VIEW
  2
AM_VIEW6
 70
     0
 40
554.99445000000014
 10
426.75
 20
277.49999999999989
 41
998.5811743093924
 11
0.0
 21
0.0
 31
1.0
 12
0.0
 22
0.0
 32
0.0
 42
50.0
 43
0.0
 44
0.0
 50
0.0
 71
     0
  0
ENDTAB
  0
TABLE
  2
UCS
 70
     0
  0
ENDTAB
  0
TABLE
  2
APPID
 70
    95
  0
APPID
  2
ACAD
 70
     0
  0
APPID
  2
ACADANNOTATIVE
 70
     0
  0
APPID
  2
MCAD_NO_VIS
 70
     0
  0
APPID
  2
ACAD_TEMP_GRAPHIC
 70
     0
  0
APPID
  2
ACATTRIBSERVICES
 70
     0
  0
APPID
  2
GENIUS_GENREC_14
 70
     0
  0
APPID
  2
GENIUS_GENOBJ-N-REC_13
 70
     0
  0
APPID
  2
GENIUS_GENODEF_13
 70
     0
  0
APPID
  2
GENIUS_GENOLIS_13
 70
     0
  0
APPID
  2
GENIUS_GENOBJ-N-TIT_13
 70
     0
  0
APPID
  2
GENIUS_GENOENT_13
 70
     0
  0
APPID
  2
GENIUS_GENTITLE_13
 70
     0
  0
APPID
  2
GENIUS_GENOREF_13
 70
     0
  0
APPID
  2
GENIUS_GENSCREG_15
 70
     0
  0
APPID
  2
GENIUS_GENOBJ-N-SDF_13
 70
     0
  0
APPID
  2
GENIUS_GENFIL_13
 70
     0
  0
APPID
  2
GENIUS_GENOBJ-N-CHA_13
 70
     0
  0
APPID
  2
GENIUS_GENDTOL_13
 70
     0
  0
APPID
  2
GENIUS_GENOBJ-N-FIL_13
 70
     0
  0
APPID
  2
AD_DRAW
 70
     0
  0
APPID
  2
DESIGNERASSEMBLIES
 70
     0
  0
APPID
  2
ASURF_PCURVE_APPNAME
 70
     0
  0
APPID
  2
GENIUS_GE3SECT_13
 70
     0
  0
APPID
  2
GENIUS_GENCFG_13
 70
     0
  0
APPID
  2
GENIUS_GE3CFG0_13
 70
     0
  0
APPID
  2
GENIUS_GENCFG0_13
 70
     0
  0
APPID
  2
GENIUS_GENCFG1_13
 70
     0
  0
APPID
  2
GENIUS_GENCFG2_13
 70
     0
  0
APPID
  2
GENIUS_GENCFG3_13
 70
     0
  0
APPID
  2
GENIUS_GENCFG4_13
 70
     0
  0
APPID
  2
GENIUS_GEVCFG0_13
 70
     0
  0
APPID
  2
GENIUS_GENHINW_13
 70
     0
  0
APPID
  2
GENIUS_FIRSTVISTXT_14
 70
     0
  0
APPID
  2
GENIUS_GENOBJ-N-LEADER_13
 70
     0
  0
APPID
  2
GEV_VCCNULL_SWITCH_OFF
 70
     0
  0
APPID
  2
GENIUS_GEFCFG0_13
 70
     0
  0
APPID
  2
GENIUS_GENZVEED_13
 70
     0
  0
APPID
  2
GENIUS_GENSCREG_13
 70
     0
  0
APPID
  2
GENIUS_DUMCFG0_13
 70
     0
  0
APPID
  2
GEVID936201362
 70
     0
  0
APPID
  2
GEVDC
 70
     0
  0
APPID
  2
GEVCON
 70
     0
  0
APPID
  2
VCC
 70
     0
  0
APPID
  2
GEVPT
 70
     0
  0
APPID
  2
GEVIT
 70
     0
  0
APPID
  2
GENBH
 70
     0
  0
APPID
  2
GEVMK
 70
     0
  0
APPID
  2
GENIUS_GENBH_13
 70
     0
  0
APPID
  2
GENIUS_GENOBJ-NBEHI-BHF_13
 70
     0
  0
APPID
  2
GENIUS_GENOBJ-NBEHI-BHB_13
 70
     0
  0
APPID
  2
GENIUS_GENOBJ-F-DESC_13
 70
     0
  0
APPID
  2
GENIUS_GEFDESC_14
 70
     0
  0
APPID
  2
GENIUS_GENOBJ-F-PART_13
 70
     0
  0
APPID
  2
GENIUS_GEFSTDP_13
 70
     0
  0
APPID
  2
GENIUS_GEFPARTINS_13
 70
     0
  0
APPID
  2
GENIUS_GENTRA_14
 70
     0
  0
APPID
  2
GENIUS_GENINF13_13
 70
     0
  0
APPID
  2
GENIUS_GENOBJ-N-INFOPT_13
 70
     0
  0
APPID
  2
GENIUS_GENOBJ-N-RSSYM_13
 70
     0
  0
APPID
  2
GENIUS_GENSYMENT_13
 70
     0
  0
APPID
  2
GENIUS_GENSCSYM_13
 70
     0
  0
APPID
  2
GENIUS_GEFINFNAM_13
 70
     0
  0
APPID
  2
GENIUS_GENOBJ-N-CEN_13
 70
     0
  0
APPID
  2
GENIUS_GENOBJ-N-CRS_13
 70
     0
  0
APPID
  2
GENIUS_GENOBJ-N-CRC_13
 70
     0
  0
APPID
  2
GENIUS_GENCRC_14
 70
     0
  0
APPID
  2
GEVID942827039
 70
     0
  0
APPID
  2
GEVID942827040
 70
     0
  0
APPID
  2
GEVID942827041
 70
     0
  0
APPID
  2
GENIUS_GENOBJ-F-SCPASSM_13
 70
     0
  0
APPID
  2
GENIUS_GENDIMSH_14
 70
     0
  0
APPID
  2
GEVID942827042
 70
     0
  0
APPID
  2
GEVID946020473
 70
     0
  0
APPID
  2
GEVID946020474
 70
     0
  0
APPID
  2
GEVID946020475
 70
     0
  0
APPID
  2
GENIUS_GENOBJ-N-HTC_13
 70
     0
  0
APPID
  2
GENIUS_GENHATCH_13
 70
     0
  0
APPID
  2
GEVID948854295
 70
     0
  0
APPID
  2
GEVID939402019
 70
     0
  0
APPID
  2
GEVID952919491
 70
     0
  0
APPID
  2
GEVID952919492
 70
     0
  0
APPID
  2
GENIUS_GEFWELD_13
 70
     0
  0
APPID
  2
GENIUS_GENOBJ-F-WELS_13
 70
     0
  0
APPID
  2
GEVID952919493
 70
     0
  0
APPID
  2
GENIUS_GENOBJ-N-RSBK_13
 70
     0
  0
APPID
  2
GENIUS_GENOBJ-N-LIB_13
 70
     0
  0
APPID
  2
GENIUS_GENSCALE_13
 70
     0
  0
APPID
  2
GEVID986376691
 70
     0
  0
APPID
  2
DCO15
 70
     0
  0
APPID
  2
ACAD_DSTYLE_DIMBREAK
 70
     0
  0
APPID
  2
ACAD_DSTYLE_DIMJAG
 70
     0
  0
APPID
  2
ACAD_NAV_VCDISPLAY
 70
     0
  0
APPID
  2
ACADANNOPO
 70
     0
  0
APPID
  2
ACAD_EXEMPT_FROM_CAD_STANDARDS
 70
     0
  0
APPID
  2
ACAD_MLEADERVER
 70
     0
  0
ENDTAB
  0
TABLE
  2
DIMSTYLE
 70
    22
  0
DIMSTYLE
  2
STANDARD
 70
     0
  3

  4

  5

  6

  7

 40
1.0
 41
0.18
 42
0.0625
 43
0.38
 44
0.18
 45
0.0
 46
0.0
 47
0.0
 48
0.0
140
0.18
141
0.09
142
0.0
143
25.399999999999999
144
1.0
145
0.0
146
1.0
147
0.09
 71
     0
 72
     0
 73
     1
 74
     1
 75
     0
 76
     0
 77
     0
 78
     0
170
     0
171
     2
172
     0
173
     0
174
     0
175
     0
176
     0
177
     0
178
     0
  0
DIMSTYLE
  2
ANNOTATIVE
 70
     0
  3

  4

  5

  6

  7

 40
1.0
 41
0.18
 42
0.0625
 43
0.38
 44
0.18
 45
0.0
 46
0.0
 47
0.0
 48
0.0
140
0.18
141
0.09
142
0.0
143
25.399999999999999
144
1.0
145
0.0
146
1.0
147
0.09
 71
     0
 72
     0
 73
     1
 74
     1
 75
     0
 76
     0
 77
     0
 78
     0
170
     0
171
     2
172
     0
173
     0
174
     0
175
     0
176
     0
177
     0
178
     0
  0
DIMSTYLE
  2
AM_ISO
 70
     0
  3

  4
"
  5

  6

  7

 40
1.0
 41
2.5
 42
1.0
 43
8.0
 44
0.6
 45
0.0
 46
0.0
 47
0.1
 48
0.1
140
2.5
141
0.0
142
0.0
143
0.0393701
144
1.0
145
0.0
146
0.71
147
0.8
 71
     0
 72
     0
 73
     0
 74
     0
 75
     0
 76
     0
 77
     1
 78
     8
170
     0
171
     2
172
     1
173
     0
174
     0
175
     0
176
   256
177
   256
178
     4
  0
DIMSTYLE
  2
AM_ISO$3
 70
     0
  3

  4
"
  5

  6

  7

 40
1.0
 41
2.5
 42
1.0
 43
8.0
 44
0.6
 45
0.0
 46
0.0
 47
0.1
 48
0.1
140
2.5
141
0.0
142
0.0
143
0.0393701
144
1.0
145
0.0
146
0.71
147
0.8
 71
     0
 72
     0
 73
     0
 74
     1
 75
     0
 76
     0
 77
     1
 78
     8
170
     0
171
     2
172
     0
173
     0
174
     0
175
     0
176
   256
177
   256
178
     4
  0
DIMSTYLE
  2
AM_ISO$4
 70
     0
  3

  4
"
  5

  6

  7

 40
1.0
 41
2.5
 42
1.0
 43
8.0
 44
0.6
 45
0.0
 46
0.0
 47
0.1
 48
0.1
140
2.5
141
0.0
142
0.0
143
0.0393701
144
1.0
145
0.0
146
0.71
147
0.8
 71
     0
 72
     0
 73
     0
 74
     1
 75
     0
 76
     0
 77
     1
 78
     8
170
     0
171
     2
172
     0
173
     0
174
     0
175
     0
176
   256
177
   256
178
     4
  0
DIMSTYLE
  2
AM_ISO$6
 70
     0
  3

  4
"
  5

  6

  7

 40
1.0
 41
2.5
 42
1.0
 43
8.0
 44
0.6
 45
0.0
 46
0.0
 47
0.1
 48
0.1
140
2.5
141
0.0
142
0.0
143
0.0393701
144
1.0
145
0.0
146
0.71
147
0.8
 71
     0
 72
     0
 73
     0
 74
     0
 75
     0
 76
     0
 77
     0
 78
     8
170
     0
171
     2
172
     1
173
     0
174
     0
175
     0
176
   256
177
   256
178
     4
  0
DIMSTYLE
  2
AM_ISO$7
 70
     0
  3

  4
"
  5

  6

  7

 40
1.0
 41
2.5
 42
1.0
 43
8.0
 44
0.6
 45
0.0
 46
0.0
 47
0.1
 48
0.1
140
2.5
141
0.0
142
0.0
143
0.0393701
144
1.0
145
0.0
146
0.71
147
0.8
 71
     0
 72
     0
 73
     0
 74
     0
 75
     0
 76
     0
 77
     1
 78
     8
170
     0
171
     2
172
     1
173
     0
174
     0
175
     0
176
   256
177
   256
178
     4
  0
DIMSTYLE
  2
AM_ISO$SF
 70
     0
  3

  4
"
  5

  6

  7

 40
1.0
 41
2.5
 42
1.0
 43
10.0
 44
1.0
 45
0.0
 46
0.0
 47
0.1
 48
0.1
140
3.5
141
0.0
142
0.0
143
0.0393701
144
1.0
145
0.0
146
0.71
147
1.5
 71
     0
 72
     0
 73
     0
 74
     0
 75
     1
 76
     1
 77
     1
 78
     8
170
     0
171
     2
172
     1
173
     0
174
     0
175
     0
176
   256
177
   256
178
     2
  0
DIMSTYLE
  2
AM_ISO$SH
 70
     0
  3

  4
"
  5

  6

  7

 40
1.0
 41
2.5
 42
1.0
 43
10.0
 44
1.0
 45
0.0
 46
0.0
 47
0.1
 48
0.1
140
3.5
141
0.0
142
0.0
143
0.0393701
144
2.0
145
0.0
146
0.71
147
1.5
 71
     0
 72
     0
 73
     0
 74
     0
 75
     1
 76
     1
 77
     1
 78
     8
170
     0
171
     2
172
     1
173
     1
174
     0
175
     0
176
   256
177
   256
178
     2
  0
DIMSTYLE
  2
AM_JIS
 70
     0
  3

  4
"
  5

  6

  7

 40
1.0
 41
2.5
 42
1.0
 43
7.0
 44
1.0
 45
0.0
 46
0.0
 47
0.1
 48
0.1000000001
140
2.5
141
0.0
142
0.0
143
0.0393701
144
1.0
145
0.0
146
0.71
147
1.0
 71
     0
 72
     0
 73
     0
 74
     0
 75
     0
 76
     0
 77
     3
 78
     8
170
     0
171
     2
172
     1
173
     0
174
     0
175
     0
176
   256
177
   256
178
     4
  0
DIMSTYLE
  2
AM_JIS$3
 70
     0
  3

  4
"
  5

  6

  7

 40
1.0
 41
2.5
 42
1.0
 43
7.0
 44
1.0
 45
0.0
 46
0.0
 47
0.1
 48
0.1000000001
140
2.5
141
0.0
142
0.0
143
0.0393701
144
1.0
145
0.0
146
0.71
147
1.0
 71
     0
 72
     0
 73
     0
 74
     1
 75
     0
 76
     0
 77
     3
 78
     8
170
     0
171
     2
172
     0
173
     0
174
     0
175
     0
176
   256
177
   256
178
     4
  0
DIMSTYLE
  2
AM_JIS$4
 70
     0
  3

  4
"
  5

  6

  7

 40
1.0
 41
2.5
 42
1.0
 43
7.0
 44
1.0
 45
0.0
 46
0.0
 47
0.1
 48
0.1000000001
140
2.5
141
0.0
142
0.0
143
0.0393701
144
1.0
145
0.0
146
0.71
147
1.0
 71
     0
 72
     0
 73
     0
 74
     0
 75
     0
 76
     0
 77
     3
 78
     8
170
     0
171
     2
172
     0
173
     0
174
     0
175
     0
176
   256
177
   256
178
     4
  0
DIMSTYLE
  2
AM_JIS$6
 70
     0
  3

  4
"
  5

  6

  7

 40
1.0
 41
2.5
 42
1.0
 43
7.0
 44
1.0
 45
0.0
 46
0.0
 47
0.1
 48
0.1000000001
140
2.5
141
0.0
142
0.0
143
0.0393701
144
1.0
145
0.0
146
0.71
147
1.0
 71
     0
 72
     0
 73
     0
 74
     0
 75
     0
 76
     0
 77
     0
 78
     8
170
     0
171
     2
172
     1
173
     0
174
     0
175
     0
176
   256
177
   256
178
     4
  0
DIMSTYLE
  2
AM_JIS$7
 70
     0
  3

  4
"
  5

  6

  7

 40
1.0
 41
2.5
 42
1.0
 43
7.0
 44
1.0
 45
0.0
 46
0.0
 47
0.1
 48
0.1000000001
140
2.5
141
0.0
142
0.0
143
0.0393701
144
1.0
145
0.0
146
0.71
147
1.0
 71
     0
 72
     0
 73
     0
 74
     0
 75
     0
 76
     0
 77
     3
 78
     8
170
     0
171
     2
172
     1
173
     0
174
     0
175
     0
176
   256
177
   256
178
     4
  0
DIMSTYLE
  2
AM_JIS$SF
 70
     0
  3

  4
"
  5

  6

  7

 40
1.0
 41
2.5
 42
1.0
 43
10.0
 44
1.0
 45
0.0
 46
0.0
 47
0.1
 48
0.1
140
3.5
141
0.0
142
0.0
143
0.0393701
144
1.0
145
0.0
146
0.71
147
1.5
 71
     0
 72
     0
 73
     0
 74
     0
 75
     1
 76
     1
 77
     3
 78
     8
170
     0
171
     2
172
     1
173
     0
174
     0
175
     0
176
   256
177
   256
178
     4
  0
DIMSTYLE
  2
AM_JIS$SH
 70
     0
  3

  4
"
  5

  6

  7

 40
1.0
 41
2.5
 42
1.0
 43
10.0
 44
1.0
 45
0.0
 46
0.0
 47
0.1
 48
0.1
140
3.5
141
0.0
142
0.0
143
0.0393701
144
1.0
145
0.0
146
0.71
147
1.5
 71
     0
 72
     0
 73
     0
 74
     0
 75
     1
 76
     0
 77
     3
 78
     8
170
     0
171
     2
172
     1
173
     1
174
     0
175
     0
176
   256
177
   256
178
     4
  0
DIMSTYLE
  2
AM_ANSI
 70
     0
  3

  4
mm
  5

  6

  7

 40
1.0
 41
0.1
 42
0.05
 43
0.5
 44
0.1
 45
0.0
 46
0.0
 47
0.1
 48
0.1
140
0.12
141
0.0
142
0.0
143
25.399999999999999
144
1.0
145
0.0
146
0.71
147
0.06
 71
     0
 72
     0
 73
     1
 74
     1
 75
     0
 76
     0
 77
     0
 78
     7
170
     0
171
     2
172
     0
173
     0
174
     0
175
     0
176
   256
177
   256
178
     2
  0
DIMSTYLE
  2
AM_ANSI$3
 70
     0
  3

  4
mm
  5

  6

  7

 40
1.0
 41
0.1
 42
0.05
 43
0.5
 44
0.1
 45
0.0
 46
0.0
 47
0.1
 48
0.1
140
0.12
141
0.0
142
0.0
143
25.399999999999999
144
1.0
145
0.0
146
0.71
147
0.06
 71
     0
 72
     0
 73
     1
 74
     1
 75
     0
 76
     0
 77
     0
 78
     7
170
     0
171
     2
172
     0
173
     0
174
     0
175
     0
176
   256
177
   256
178
     2
  0
DIMSTYLE
  2
AM_ANSI$4
 70
     0
  3

  4
mm
  5

  6

  7

 40
1.0
 41
0.1
 42
0.05
 43
0.5
 44
0.1
 45
0.0
 46
0.0
 47
0.1
 48
0.1
140
0.12
141
0.0
142
0.0
143
25.399999999999999
144
1.0
145
0.0
146
0.71
147
0.06
 71
     0
 72
     0
 73
     1
 74
     1
 75
     0
 76
     0
 77
     0
 78
     7
170
     0
171
     2
172
     0
173
     0
174
     0
175
     0
176
   256
177
   256
178
     2
  0
DIMSTYLE
  2
AM_ANSI$7
 70
     0
  3

  4
mm
  5

  6

  7

 40
1.0
 41
0.1
 42
0.05
 43
0.5
 44
0.1
 45
0.0
 46
0.0
 47
0.1
 48
0.1
140
0.24
141
0.0
142
0.0
143
25.399999999999999
144
1.0
145
0.0
146
0.71
147
0.06
 71
     0
 72
     0
 73
     1
 74
     1
 75
     0
 76
     0
 77
     0
 78
     7
170
     0
171
     2
172
     0
173
     0
174
     0
175
     0
176
   256
177
   256
178
     2
  0
DIMSTYLE
  2
AM_ANSI$SF
 70
     0
  3

  4
mm
  5

  6

  7

 40
1.0
 41
0.1
 42
0.05
 43
0.5
 44
0.1
 45
0.0
 46
0.0
 47
0.1
 48
0.1
140
0.12
141
0.0
142
0.0
143
25.399999999999999
144
1.0
145
0.0
146
0.71
147
0.06
 71
     0
 72
     0
 73
     1
 74
     1
 75
     1
 76
     1
 77
     0
 78
     7
170
     0
171
     2
172
     0
173
     0
174
     0
175
     0
176
   256
177
   256
178
     2
  0
DIMSTYLE
  2
AM_ANSI$SH
 70
     0
  3

  4
mm
  5

  6

  7

 40
1.0
 41
0.1
 42
0.05
 43
0.5
 44
0.1
 45
0.0
 46
0.0
 47
0.1
 48
0.1
140
0.12
141
0.0
142
0.0
143
25.399999999999999
144
1.0
145
0.0
146
0.71
147
0.06
 71
     0
 72
     0
 73
     1
 74
     1
 75
     1
 76
     1
 77
     0
 78
     7
170
     0
171
     2
172
     0
173
     1
174
     0
175
     0
176
   256
177
   256
178
     2
  0
ENDTAB
  0
ENDSEC
  0
SECTION
  2
BLOCKS
  0
BLOCK
  8
0
  2
$MODEL_SPACE
 70
     0
 10
0.0
 20
0.0
 30
0.0
  3
$MODEL_SPACE
  1

  0
ENDBLK
  5
2D0A
  8
0
  0
BLOCK
 67
     1
  8
0
  2
$PAPER_SPACE
 70
     0
 10
0.0
 20
0.0
 30
0.0
  3
$PAPER_SPACE
  1

  0
ENDBLK
  5
2D06
 67
     1
  8
0
  0
BLOCK
  8
0
  2
GENAXEH
 70
     0
 10
0.0
 20
0.0
 30
0.0
  3
GENAXEH
  1

  0
LINE
  5
2A86
  8
0
 10
-1.0
 20
0.0
 30
0.0
 11
1.0
 21
0.0
 31
0.0
  0
ENDBLK
  5
2A87
  8
0
  0
BLOCK
  8
0
  2
_OPEN30
 70
     0
 10
0.0
 20
0.0
 30
0.0
  3
_OPEN30
  1

  0
LINE
  5
2A8A
  8
0
 62
     0
 10
-1.0
 20
0.26794919
 30
0.0
 11
0.0
 21
0.0
 31
0.0
  0
LINE
  5
2A8B
  8
0
 62
     0
 10
0.0
 20
0.0
 30
0.0
 11
-1.0
 21
-0.26794919
 31
0.0
  0
LINE
  5
2A8C
  8
0
 62
     0
 10
0.0
 20
0.0
 30
0.0
 11
-1.0
 21
0.0
 31
0.0
  0
ENDBLK
  5
2A8D
  8
0
  0
BLOCK
  8
0
  2
_NONE
 70
     0
 10
0.0
 20
0.0
 30
0.0
  3
_NONE
  1

  0
ENDBLK
  5
2A90
  8
0
  0
BLOCK
  8
0
  2
*U5
 70
     1
 10
0.0
 20
0.0
 30
0.0
  3
*U5
  1

  0
TEXT
  5
2A93
  8
AM_0
 62
     4
 10
707.07154410361386
 20
220.43633950000009
 30
0.0
 40
7.5
  1
95
 50
90.0
 41
0.8299999999999999
  0
TEXT
  5
2A94
  8
AM_0
 62
     3
 10
699.97154410361361
 20
232.88633949999999
 30
0.0
 40
5.3249999999999993
  1
 0
 50
90.0
 41
0.8299999999999999
  0
TEXT
  5
2A95
  8
AM_0
 62
     3
 10
707.07154410361386
 20
232.88633949999999
 30
0.0
 40
5.3249999999999993
  1
-0.5
 50
90.0
 41
0.8299999999999999
  0
ENDBLK
  5
2A96
  8
0
  0
BLOCK
  8
0
  2
_ACMFILLEDHALF
 70
     0
 10
0.0
 20
0.0
 30
0.0
  3
_ACMFILLEDHALF
  1

  0
TRACE
  5
2E04
  8
AM_0
 62
     0
 10
-0.8
 20
0.0
 30
0.0
 11
-1.0
 21
0.166666666
 31
0.0
 12
0.0
 22
0.0
 32
0.0
 13
0.0
 23
0.0
 33
0.0
  0
LINE
  5
2E05
  8
AM_0
 62
     0
 10
-1.0
 20
0.0
 30
0.0
 11
-0.8
 21
0.0
 31
0.0
  0
ENDBLK
  5
2E03
  8
0
  0
ENDSEC
  0
SECTION
  2
ENTITIES
  0
LINE
  5
2A97
  8
AM_0
 10
257.9299652015369
 20
323.92266000000001
 30
0.0
 11
257.9299652015369
 21
196.92261300000001
 31
0.0
  0
LINE
  5
2A98
  8
AM_0
 10
361.9299152015368
 20
292.92264599999987
 30
0.0
 11
361.9299152015368
 21
267.92267700000002
 31
0.0
  0
LINE
  5
2A99
  8
AM_0
 10
287.92996520153662
 20
302.81067000000002
 30
0.0
 11
287.92996520153662
 21
199.825614
 31
0.0
  0
LINE
  5
2A9A
  8
AM_0
 10
321.75958520153682
 20
293.77136999999988
 30
0.0
 11
308.92996520153662
 21
267.63892499999992
 31
0.0
  0
LINE
  5
2A9B
  8
AM_0
 10
308.92996520153662
 20
293.77136999999988
 30
0.0
 11
308.92996520153662
 21
267.63892499999992
 31
0.0
  0
LINE
  5
2A9C
  8
AM_0
 10
343.92997520153659
 20
325.26875999999987
 30
0.0
 11
343.92997520153659
 21
216.46346099999991
 31
0.0
  0
LINE
  5
2A9D
  8
AM_0
 10
330.92995520153681
 20
290.21347800000001
 30
0.0
 11
330.92995520153681
 21
202.42265999999989
 31
0.0
  0
LINE
  5
2A9E
  8
AM_0
 10
356.92996520153667
 20
310.67367000000002
 30
0.0
 11
356.92996520153667
 21
201.167226
 31
0.0
  0
LINE
  5
2A9F
  8
AM_0
 10
294.92995520153681
 20
331.42266000000001
 30
0.0
 11
294.92995520153681
 21
216.27980700000001
 31
0.0
  0
LINE
  5
2AA0
  8
AM_0
 10
359.92996520153679
 20
255.07737
 30
0.0
 11
359.92996520153679
 21
305.7679500000001
 31
0.0
  0
LINE
  5
2AA1
  8
AM_0
 10
401.92996520153679
 20
295.42264799999992
 30
0.0
 11
401.92996520153679
 21
268.42264499999999
 31
0.0
  0
LINE
  5
2AA2
  8
AM_0
 10
190.42997736088421
 20
277.5084634376268
 30
0.0
 11
190.42997736088421
 21
243.3368905623729
 31
0.0
  0
LINE
  5
2AA3
  8
AM_0
 10
192.42997736088429
 20
235.42267699999991
 30
0.0
 11
192.42997736088429
 21
285.42267700000002
 31
0.0
  0
LINE
  5
2AA4
  8
AM_0
 10
247.92996520153679
 20
323.42267700000002
 30
0.0
 11
247.92996520153679
 21
197.42267699999991
 31
0.0
  0
LINE
  5
2AA5
  8
AM_0
 10
217.42997283093121
 20
287.42267700000002
 30
0.0
 11
217.42997283093121
 21
233.42267699999991
 31
0.0
  0
LINE
  5
2AA6
  8
ﾁｭｳｼﾝｾﾝ
 10
154.63600112520581
 20
260.42267700000002
 30
0.0
 11
281.54385239733551
 21
260.42267700000002
 31
0.0
  0
LINE
  5
2AA7
  8
AM_0
 10
291.92995520153681
 20
186.42264299999999
 30
0.0
 11
333.92995520153681
 21
186.42264299999999
 31
0.0
  0
LINE
  5
2AA8
  8
AM_0
 10
291.77047520153673
 20
201.38513699999999
 30
0.0
 11
297.82114520153681
 21
229.909614
 31
0.0
  0
LINE
  5
2AA9
  8
AM_0
 10
265.9300052015368
 20
195.42265800000001
 30
0.0
 11
265.9300052015368
 21
185.42265900000001
 31
0.0
  0
LINE
  5
2AAA
  8
ﾁｭｳｼﾝｾﾝ1
 10
277.9300052015368
 20
199.2776855605604
 30
0.0
 11
277.9300052015368
 21
183.6905272934261
 31
0.0
  0
LINE
  5
2AAB
  8
ｶｸﾚｾﾝ2
 10
283.9300052015368
 20
197.42267399999989
 30
0.0
 11
283.9300052015368
 21
185.42265900000001
 31
0.0
  0
LINE
  5
2AAC
  8
ｶｸﾚｾﾝ2
 10
271.9300052015368
 20
197.42267399999989
 30
0.0
 11
271.9300052015368
 21
185.42265900000001
 31
0.0
  0
LINE
  5
2AAD
  8
AM_0
 10
265.9300052015368
 20
185.42265900000001
 30
0.0
 11
290.92996520153662
 21
185.42265900000001
 31
0.0
  0
ARC
  5
2AAE
  8
AM_0
 10
291.92995520153681
 20
185.42265900000001
 30
0.0
 40
1.0000000199999981
 50
90.000003000000007
 51
180.00001
  0
LINE
  5
2AAF
  8
AM_0
 10
290.92996520153662
 20
185.42265900000001
 30
0.0
 11
290.92996520153662
 21
185.42265900000001
 31
0.0
  0
LINE
  5
2AB0
  8
AM_0
 10
246.46549910746941
 20
204.3871507234617
 30
0.0
 11
220.35890501906559
 21
230.4937448118655
 31
0.0
  0
ARC
  5
2AB1
  8
AM_0
 10
194.42997736088421
 20
235.42267699999991
 30
0.0
 40
2.0
 50
180.0
 51
270.0
1001
GENIUS_GENOBJ-N-FIL_13
1002
{
1000
OWNER
1000
GEN
1002
}
1001
GENIUS_GENODEF_13
1002
{
1000
HIER
1070
     0
1002
}
1002
{
1000
MANEDIT
1070
     0
1002
}
1002
{
1000
NOSEL
1070
     0
1002
}
1002
{
1000
BEHIND
1070
     0
1002
}
1002
{
1000
OTHER
1070
     0
1002
}
1002
{
1000
REACTOR
1002
}
  0
LINE
  5
2AB2
  8
AM_0
 10
194.42997736088421
 20
233.42267699999991
 30
0.0
 11
213.28783720720011
 21
233.42267699999991
 31
0.0
  0
ARC
  5
2AB3
  8
AM_0
 10
213.28783720720011
 20
223.42267699999991
 30
0.0
 40
10.0
 50
45.0
 51
90.0
1001
GENIUS_GENODEF_13
1002
{
1000
HIER
1070
     0
1002
}
1002
{
1000
MANEDIT
1070
     0
1002
}
1002
{
1000
NOSEL
1070
     0
1002
}
1002
{
1000
BEHIND
1070
     0
1002
}
1002
{
1000
OTHER
1070
     0
1002
}
1002
{
1000
REACTOR
1002
}
1001
GENIUS_GENOBJ-N-FIL_13
1002
{
1000
OWNER
1000
GEN
1002
}
  0
LINE
  5
2AB4
  8
AM_0
 10
188.42997736088421
 20
268.92267700000002
 30
0.0
 11
188.42997736088421
 21
251.92267699999991
 31
0.0
  0
LINE
  5
2AB5
  8
AM_0
 10
160.42997736088421
 20
270.42267700000002
 30
0.0
 11
160.42997736088421
 21
252.42267699999991
 31
0.0
  0
LINE
  5
2AB6
  8
AM_0
 10
160.42997736088421
 20
252.42267699999991
 30
0.0
 11
188.42997736088421
 21
252.42267699999991
 31
0.0
  0
LINE
  5
2AB7
  8
AM_0
 10
190.7228705796978
 20
242.6297837811866
 30
0.0
 11
192.13708414207071
 21
241.2155702188135
 31
0.0
  0
ARC
  5
2AB8
  8
AM_0
 10
191.42997736088421
 20
240.5084634376268
 30
0.0
 40
1.0
 50
0.0
 51
45.0
1001
GENIUS_GENODEF_13
1002
{
1000
HIER
1070
     0
1002
}
1002
{
1000
MANEDIT
1070
     0
1002
}
1002
{
1000
NOSEL
1070
     0
1002
}
1002
{
1000
BEHIND
1070
     0
1002
}
1002
{
1000
OTHER
1070
     0
1002
}
1002
{
1000
REACTOR
1002
}
1001
GENIUS_GENOBJ-N-FIL_13
1002
{
1000
OWNER
1000
GEN
1002
}
  0
ARC
  5
2AB9
  8
AM_0
 10
191.42997736088421
 20
243.3368905623729
 30
0.0
 40
1.0
 50
180.0
 51
225.0
1001
GENIUS_GENODEF_13
1002
{
1000
HIER
1070
     0
1002
}
1002
{
1000
MANEDIT
1070
     0
1002
}
1002
{
1000
NOSEL
1070
     0
1002
}
1002
{
1000
BEHIND
1070
     0
1002
}
1002
{
1000
OTHER
1070
     0
1002
}
1002
{
1000
REACTOR
1002
}
1001
GENIUS_GENOBJ-N-FIL_13
1002
{
1000
OWNER
1000
GEN
1002
}
  0
LINE
  5
2ABA
  8
AM_0
 10
188.42997736088421
 20
251.92268233304989
 30
0.0
 11
190.42997736088421
 21
251.92268126643989
 31
0.0
  0
LINE
  5
2ABB
  8
AM_0
 10
160.42997736088421
 20
270.42267700000002
 30
0.0
 11
182.4299773608841
 21
270.42267700000002
 31
0.0
  0
LINE
  5
2ABC
  8
AM_0
 10
160.42997736088421
 20
268.42267700000002
 30
0.0
 11
188.42997736088421
 21
268.42267700000002
 31
0.0
  0
LINE
  5
2ABD
  8
AM_0
 10
182.4299773608841
 20
268.42267700000002
 30
0.0
 11
182.4299773608841
 21
270.42267700000002
 31
0.0
  0
LINE
  5
2ABE
  8
AM_0
 10
188.42997736088421
 20
268.92267700000002
 30
0.0
 11
190.42997736088421
 21
268.92267700000002
 31
0.0
  0
LINE
  5
2ABF
  8
AM_0
 10
257.9299652015369
 20
208.92265800000001
 30
0.0
 11
287.92996520153662
 21
208.92265800000001
 31
0.0
  0
LINE
  5
2AC0
  8
AM_0
 10
257.9299652015369
 20
223.27474199999989
 30
0.0
 11
287.92996520153662
 21
223.27474199999989
 31
0.0
  0
LINE
  5
2AC1
  8
AM_0
 10
257.9299652015369
 20
196.92265800000001
 30
0.0
 11
266.39188520153658
 21
196.70107200000001
 31
0.0
  0
ARC
  5
2AC2
  8
AM_0
 10
242.92996520153659
 20
200.85161681752891
 30
0.0
 40
5.0
 50
0.0
 51
45.0
1001
GENIUS_GENODEF_13
1002
{
1000
HIER
1070
     0
1002
}
1002
{
1000
MANEDIT
1070
     0
1002
}
1002
{
1000
NOSEL
1070
     0
1002
}
1002
{
1000
BEHIND
1070
     0
1002
}
1002
{
1000
OTHER
1070
     0
1002
}
1002
{
1000
REACTOR
1002
}
1001
GENIUS_GENOBJ-N-FIL_13
1002
{
1000
OWNER
1000
GEN
1002
}
  0
LINE
  5
2AC3
  8
AM_0
 10
257.9299652015369
 20
196.42267699999991
 30
0.0
 11
248.92996520153659
 21
196.42267699999991
 31
0.0
  0
ARC
  5
2AC4
  8
AM_0
 10
248.92996520153659
 20
197.42267699999991
 30
0.0
 40
1.0
 50
180.0
 51
270.0
1001
GENIUS_GENODEF_13
1002
{
1000
HIER
1070
     0
1002
}
1002
{
1000
MANEDIT
1070
     0
1002
}
1002
{
1000
NOSEL
1070
     0
1002
}
1002
{
1000
BEHIND
1070
     0
1002
}
1002
{
1000
OTHER
1070
     0
1002
}
1002
{
1000
REACTOR
1002
}
1001
GENIUS_GENOBJ-N-FIL_13
1002
{
1000
OWNER
1000
GEN
1002
}
  0
LINE
  5
2AC5
  8
AM_0
 10
267.92995520153681
 20
197.42267399999989
 30
0.0
 11
286.87930520153662
 21
197.42267399999989
 31
0.0
  0
ARC
  5
2AC6
  8
AM_0
 10
267.92995520153681
 20
195.42265800000001
 30
0.0
 40
2.00000007
 50
90.000003000000007
 51
180.00001
  0
LINE
  5
2AC7
  8
AM_0
 10
282.92995520153681
 20
202.792653
 30
0.0
 11
282.92995520153681
 21
197.42267399999989
 31
0.0
  0
LINE
  5
2AC8
  8
AM_0
 10
284.92996520153662
 20
197.82559800000001
 30
0.0
 11
285.92995520153681
 21
197.82559800000001
 31
0.0
  0
ARC
  5
2AC9
  8
AM_0
 10
284.92996520153662
 20
195.8255969999999
 30
0.0
 40
2.00000007
 50
90.000003000000007
 51
127.01007
  0
ARC
  5
2ACA
  8
AM_0
 10
285.92995520153681
 20
199.825614
 30
0.0
 40
2.00000007
 50
270.0
 51
0.0
  0
ARC
  5
2ACB
  8
AM_0
 10
286.87930520153662
 20
202.42265999999989
 30
0.0
 40
5.0000001000000003
 50
270.0
 51
348.02386999999999
  0
LINE
  5
2ACC
  8
AM_0
 10
282.92995520153681
 20
204.7926689999999
 30
0.0
 11
287.4099452015368
 21
204.7926689999999
 31
0.0
  0
ARC
  5
2ACD
  8
AM_0
 10
280.9300052015368
 20
202.792653
 30
0.0
 40
2.00000007
 50
0.0
 51
90.000003000000007
  0
LINE
  5
2ACE
  8
AM_0
 10
359.92996520153679
 20
195.42265800000001
 30
0.0
 11
359.92996520153679
 21
185.42265900000001
 31
0.0
  0
LINE
  5
2ACF
  8
ﾁｭｳｼﾝｾﾝ1
 10
347.92996520153679
 20
199.2776855605604
 30
0.0
 11
347.92996520153679
 21
183.6905272934261
 31
0.0
  0
LINE
  5
2AD0
  8
ｶｸﾚｾﾝ2
 10
353.92996520153679
 20
197.42267399999989
 30
0.0
 11
353.92996520153679
 21
185.42265900000001
 31
0.0
  0
LINE
  5
2AD1
  8
ｶｸﾚｾﾝ2
 10
341.92996520153679
 20
197.42267399999989
 30
0.0
 11
341.92996520153679
 21
185.42265900000001
 31
0.0
  0
LINE
  5
2AD2
  8
AM_0
 10
334.92997520153682
 20
185.42265900000001
 30
0.0
 11
359.92996520153679
 21
185.42265900000001
 31
0.0
  0
ARC
  5
2AD3
  8
AM_0
 10
333.92995520153681
 20
185.42265900000001
 30
0.0
 40
1.0000000199999981
 50
0.0
 51
90.000003000000007
  0
LINE
  5
2AD4
  8
AM_0
 10
334.92997520153682
 20
185.42265900000001
 30
0.0
 11
334.92997520153682
 21
185.42265900000001
 31
0.0
  0
LINE
  5
2AD5
  8
AM_0
 10
359.92996520153679
 20
267.92267700000002
 30
0.0
 11
361.9299152015368
 21
267.92267700000002
 31
0.0
  0
ARC
  5
2AD6
  8
AM_0
 10
357.92995520153681
 20
255.07737
 30
0.0
 40
2.00000007
 50
300.0
 51
0.0
  0
ARC
  5
2AD7
  8
AM_0
 10
357.92995520153681
 20
195.42265800000001
 30
0.0
 40
2.00000007
 50
0.0
 51
90.000003000000007
  0
LINE
  5
2AD8
  8
AM_0
 10
297.92995520153681
 20
267.63892499999992
 30
0.0
 11
297.92995520153681
 21
230.94713399999989
 31
0.0
  0
ARC
  5
2AD9
  8
AM_0
 10
292.9300052015368
 20
230.94713399999989
 30
0.0
 40
5.0000001000000003
 50
348.02386999999999
 51
0.0
  0
ARC
  5
2ADA
  8
AM_0
 10
339.92995520153681
 20
216.46346099999991
 30
0.0
 40
4.000000199999997
 50
270.0
 51
0.0
  0
LINE
  5
2ADB
  8
AM_0
 10
335.92996520153662
 20
197.42267399999989
 30
0.0
 11
357.92995520153681
 21
197.42267399999989
 31
0.0
  0
ARC
  5
2ADC
  8
AM_0
 10
335.92996520153662
 20
202.42265999999989
 30
0.0
 40
5.0000001000000003
 50
180.00001
 51
270.0
  0
ARC
  5
2ADD
  8
AM_0
 10
361.92997520153671
 20
201.167226
 30
0.0
 40
5.0000001000000003
 50
179.99998999999991
 51
235.15011000000001
  0
LINE
  5
2ADE
  8
AM_0
 10
330.92995520153681
 20
212.46347700000001
 30
0.0
 11
339.92995520153681
 21
212.46347700000001
 31
0.0
  0
LINE
  5
2ADF
  8
AM_0
 10
297.92995520153681
 20
267.63892499999992
 30
0.0
 11
308.92996520153662
 21
267.63892499999992
 31
0.0
  0
LINE
  5
2AE0
  8
AM_0
 10
357.92998520153679
 20
252.767922
 30
0.0
 11
358.92997520153671
 21
253.34528399999991
 31
0.0
  0
ARC
  5
2AE1
  8
AM_0
 10
358.92997520153671
 20
251.035911
 30
0.0
 40
2.00000007
 50
119.9999999999999
 51
180.00001
  0
LINE
  5
2AE2
  8
AM_0
 10
361.9299152015368
 20
268.42264499999999
 30
0.0
 11
401.92996520153679
 21
268.42264499999999
 31
0.0
  0
LINE
  5
2AE3
  8
AM_0
 10
289.9300052015368
 20
331.42266000000001
 30
0.0
 11
294.92995520153681
 21
331.42266000000001
 31
0.0
  0
LINE
  5
2AE4
  8
ﾁｭｳｼﾝｾﾝ
 10
404.39089520153669
 20
280.42264499999987
 30
0.0
 11
274.89304520153672
 21
280.42264499999987
 31
0.0
  0
LINE
  5
2AE5
  8
AM_0
 10
246.46549910746941
 20
316.45820327653831
 30
0.0
 11
220.35890501906559
 21
290.3516091881346
 31
0.0
  0
ARC
  5
2AE6
  8
AM_0
 10
194.42997736088421
 20
285.42267700000002
 30
0.0
 40
2.0
 50
90.0
 51
180.0
1001
GENIUS_GENOBJ-N-FIL_13
1002
{
1000
OWNER
1000
GEN
1002
}
1001
GENIUS_GENODEF_13
1002
{
1000
HIER
1070
     0
1002
}
1002
{
1000
MANEDIT
1070
     0
1002
}
1002
{
1000
NOSEL
1070
     0
1002
}
1002
{
1000
BEHIND
1070
     0
1002
}
1002
{
1000
OTHER
1070
     0
1002
}
1002
{
1000
REACTOR
1002
}
  0
ARC
  5
2AE7
  8
AM_0
 10
191.42997736088421
 20
277.5084634376268
 30
0.0
 40
1.0
 50
135.0
 51
180.0
1001
GENIUS_GENODEF_13
1002
{
1000
HIER
1070
     0
1002
}
1002
{
1000
MANEDIT
1070
     0
1002
}
1002
{
1000
NOSEL
1070
     0
1002
}
1002
{
1000
BEHIND
1070
     0
1002
}
1002
{
1000
OTHER
1070
     0
1002
}
1002
{
1000
REACTOR
1002
}
1001
GENIUS_GENOBJ-N-FIL_13
1002
{
1000
OWNER
1000
GEN
1002
}
  0
ARC
  5
2AE8
  8
AM_0
 10
191.42997736088421
 20
280.33689056237318
 30
0.0
 40
1.0
 50
315.0
 51
0.0
1001
GENIUS_GENODEF_13
1002
{
1000
HIER
1070
     0
1002
}
1002
{
1000
MANEDIT
1070
     0
1002
}
1002
{
1000
NOSEL
1070
     0
1002
}
1002
{
1000
BEHIND
1070
     0
1002
}
1002
{
1000
OTHER
1070
     0
1002
}
1002
{
1000
REACTOR
1002
}
1001
GENIUS_GENOBJ-N-FIL_13
1002
{
1000
OWNER
1000
GEN
1002
}
  0
LINE
  5
2AE9
  8
AM_0
 10
190.7228705796978
 20
278.21557021881341
 30
0.0
 11
192.13708414207071
 21
279.62978378118652
 31
0.0
  0
LINE
  5
2AEA
  8
AM_0
 10
194.42997736088421
 20
287.42267700000002
 30
0.0
 11
213.28783720720011
 21
287.42267700000002
 31
0.0
  0
ARC
  5
2AEB
  8
AM_0
 10
213.28783720720011
 20
297.42267700000002
 30
0.0
 40
10.0
 50
270.0
 51
315.0
1001
GENIUS_GENODEF_13
1002
{
1000
HIER
1070
     0
1002
}
1002
{
1000
MANEDIT
1070
     0
1002
}
1002
{
1000
NOSEL
1070
     0
1002
}
1002
{
1000
BEHIND
1070
     0
1002
}
1002
{
1000
OTHER
1070
     0
1002
}
1002
{
1000
REACTOR
1002
}
1001
GENIUS_GENOBJ-N-FIL_13
1002
{
1000
OWNER
1000
GEN
1002
}
  0
LINE
  5
2AEC
  8
AM_0
 10
287.92996520153662
 20
329.42268000000001
 30
0.0
 11
287.92996520153662
 21
313.92264
 31
0.0
  0
LINE
  5
2AED
  8
AM_0
 10
257.9299652015369
 20
297.57059700000002
 30
0.0
 11
282.92995520153681
 21
297.57059700000002
 31
0.0
  0
LINE
  5
2AEE
  8
AM_0
 10
257.9299652015369
 20
311.92266000000001
 30
0.0
 11
283.9300052015368
 21
311.92266000000001
 31
0.0
  0
ARC
  5
2AEF
  8
AM_0
 10
242.92996520153659
 20
319.99373718247102
 30
0.0
 40
5.0
 50
315.0
 51
0.0
1001
GENIUS_GENODEF_13
1002
{
1000
HIER
1070
     0
1002
}
1002
{
1000
MANEDIT
1070
     0
1002
}
1002
{
1000
NOSEL
1070
     0
1002
}
1002
{
1000
BEHIND
1070
     0
1002
}
1002
{
1000
OTHER
1070
     0
1002
}
1002
{
1000
REACTOR
1002
}
1001
GENIUS_GENOBJ-N-FIL_13
1002
{
1000
OWNER
1000
GEN
1002
}
  0
LINE
  5
2AF0
  8
AM_0
 10
282.92995520153681
 20
309.92268000000001
 30
0.0
 11
282.92995520153681
 21
295.28998799999999
 31
0.0
  0
LINE
  5
2AF1
  8
AM_0
 10
282.92995520153681
 20
293.28998699999988
 30
0.0
 11
287.37064520153677
 21
293.28998699999988
 31
0.0
  0
ARC
  5
2AF2
  8
AM_0
 10
280.9300052015368
 20
295.28998799999999
 30
0.0
 40
2.00000007
 50
270.0
 51
0.0
  0
ARC
  5
2AF3
  8
AM_0
 10
284.92996520153662
 20
309.92268000000001
 30
0.0
 40
2.00000007
 50
90.000003000000007
 51
180.00001
  0
LINE
  5
2AF4
  8
AM_0
 10
284.92996520153662
 20
302.81067000000002
 30
0.0
 11
287.92996520153662
 21
302.81067000000002
 31
0.0
  0
ARC
  5
2AF5
  8
AM_0
 10
284.92996520153662
 20
304.81067999999988
 30
0.0
 40
2.00000007
 50
179.99998999999991
 51
270.0
  0
LINE
  5
2AF6
  8
AM_0
 10
284.92996520153662
 20
311.92266000000001
 30
0.0
 11
285.92995520153681
 21
311.92266000000001
 31
0.0
  0
ARC
  5
2AF7
  8
AM_0
 10
285.92995520153681
 20
313.92264
 30
0.0
 40
2.00000007
 50
270.0
 51
0.0
  0
LINE
  5
2AF8
  8
AM_0
 10
257.9299652015369
 20
323.92266000000001
 30
0.0
 11
285.98233520153678
 21
324.65724
 31
0.0
  0
LINE
  5
2AF9
  8
AM_0
 10
257.9299652015369
 20
324.42267700000002
 30
0.0
 11
248.92996520153659
 21
324.42267700000002
 31
0.0
  0
ARC
  5
2AFA
  8
AM_0
 10
248.92996520153659
 20
323.42267700000002
 30
0.0
 40
1.0
 50
90.0
 51
180.0
1001
GENIUS_GENODEF_13
1002
{
1000
HIER
1070
     0
1002
}
1002
{
1000
MANEDIT
1070
     0
1002
}
1002
{
1000
NOSEL
1070
     0
1002
}
1002
{
1000
BEHIND
1070
     0
1002
}
1002
{
1000
OTHER
1070
     0
1002
}
1002
{
1000
REACTOR
1002
}
1001
GENIUS_GENOBJ-N-FIL_13
1002
{
1000
OWNER
1000
GEN
1002
}
  0
ARC
  5
2AFB
  8
AM_0
 10
289.9300052015368
 20
329.42268000000001
 30
0.0
 40
2.00000007
 50
90.000003000000007
 51
180.00001
  0
ARC
  5
2AFC
  8
AM_0
 10
285.92995520153681
 20
326.65656000000001
 30
0.0
 40
2.00000007
 50
271.49999999999972
 51
0.0
  0
ARC
  5
2AFD
  8
AM_0
 10
357.92995520153681
 20
305.7679500000001
 30
0.0
 40
2.00000007
 50
0.0
 51
60.000002000000002
  0
LINE
  5
2AFE
  8
AM_0
 10
359.92996520153679
 20
292.92264599999987
 30
0.0
 11
361.9299152015368
 21
292.92264599999987
 31
0.0
  0
LINE
  5
2AFF
  8
AM_0
 10
308.92996520153662
 20
330.9774900000001
 30
0.0
 11
322.51195520153669
 21
311.95010999999988
 31
0.0
  0
LINE
  5
2B00
  8
AM_0
 10
308.92996520153662
 20
330.97752000000008
 30
0.0
 11
308.92996520153662
 21
311.95010999999988
 31
0.0
  0
LINE
  5
2B01
  8
AM_0
 10
308.92996520153662
 20
311.95010999999988
 30
0.0
 11
343.92997520153659
 21
311.95010999999988
 31
0.0
  0
LINE
  5
2B02
  8
AM_0
 10
308.92996520153662
 20
293.77136999999988
 30
0.0
 11
331.76467520153648
 21
293.77136999999988
 31
0.0
  0
LINE
  5
2B03
  8
AM_0
 10
305.9299652015369
 20
316.94943000000001
 30
0.0
 11
305.9299652015369
 21
294.04740299999992
 31
0.0
  0
LINE
  5
2B04
  8
AM_0
 10
306.92995520153681
 20
311.94015000000002
 30
0.0
 11
306.92995520153681
 21
298.39313700000002
 31
0.0
  0
ARC
  5
2B05
  8
AM_0
 10
306.92995520153681
 20
291.04740299999992
 30
0.0
 40
2.00000007
 50
0.0
 51
90.000003000000007
  0
ARC
  5
2B06
  8
AM_0
 10
306.92995520153681
 20
294.04740299999992
 30
0.0
 40
1.0000000199999981
 50
179.99998999999991
 51
270.0
  0
LINE
  5
2B07
  8
AM_0
 10
305.9299652015369
 20
298.39313700000002
 30
0.0
 11
306.92995520153681
 21
298.39313700000002
 31
0.0
  0
ARC
  5
2B08
  8
AM_0
 10
309.92995520153681
 20
300.39314999999999
 30
0.0
 40
1.0000000199999981
 50
270.0
 51
0.0
  0
ARC
  5
2B09
  8
AM_0
 10
309.92995520153681
 20
301.27989000000002
 30
0.0
 40
1.0000000199999981
 50
0.0
 51
90.000003000000007
  0
ARC
  5
2B0A
  8
AM_0
 10
309.92995520153681
 20
309.05336999999992
 30
0.0
 40
1.0000000199999981
 50
270.0
 51
0.0
  0
ARC
  5
2B0B
  8
AM_0
 10
309.92995520153681
 20
307.05342000000002
 30
0.0
 40
1.0000000199999981
 50
0.0
 51
90.000003000000007
  0
ARC
  5
2B0C
  8
AM_0
 10
309.92995520153681
 20
303.2799
 30
0.0
 40
1.0000000199999981
 50
270.0
 51
0.0
  0
ARC
  5
2B0D
  8
AM_0
 10
309.92995520153681
 20
309.94017000000002
 30
0.0
 40
1.0000000199999981
 50
0.0
 51
90.000003000000007
  0
LINE
  5
2B0E
  8
AM_0
 10
306.92995520153681
 20
308.05337999999989
 30
0.0
 11
309.92995520153681
 21
308.05337999999989
 31
0.0
  0
LINE
  5
2B0F
  8
AM_0
 10
306.92995520153681
 20
302.27987999999988
 30
0.0
 11
309.92995520153681
 21
302.27987999999988
 31
0.0
  0
LINE
  5
2B10
  8
AM_0
 10
306.92995520153681
 20
299.39313600000008
 30
0.0
 11
309.92995520153681
 21
299.39313600000008
 31
0.0
  0
ARC
  5
2B11
  8
AM_0
 10
306.92995520153681
 20
319.94943000000001
 30
0.0
 40
2.00000007
 50
270.0
 51
0.0
  0
LINE
  5
2B12
  8
AM_0
 10
306.92995520153681
 20
310.94015999999988
 30
0.0
 11
309.92995520153681
 21
310.94015999999988
 31
0.0
  0
ARC
  5
2B13
  8
AM_0
 10
306.92995520153681
 20
316.94943000000001
 30
0.0
 40
1.0000000199999981
 50
90.000003000000007
 51
180.00001
  0
LINE
  5
2B14
  8
AM_0
 10
305.9299652015369
 20
311.94015000000002
 30
0.0
 11
306.92995520153681
 21
311.94015000000002
 31
0.0
  0
LINE
  5
2B15
  8
AM_0
 10
310.9299152015368
 20
300.39314999999999
 30
0.0
 11
310.9299152015368
 21
309.94017000000002
 31
0.0
  0
ARC
  5
2B16
  8
AM_0
 10
338.92996520153662
 20
290.21347800000001
 30
0.0
 40
8.0000000999999976
 50
90.000003000000007
 51
180.00001
  0
LINE
  5
2B17
  8
AM_0
 10
338.92996520153662
 20
298.21344900000008
 30
0.0
 11
343.92997520153659
 21
298.21344900000008
 31
0.0
  0
ARC
  5
2B18
  8
AM_0
 10
348.92995520153681
 20
319.14168000000001
 30
0.0
 40
5.0000001000000003
 50
179.99998999999991
 51
265.0
  0
LINE
  5
2B19
  8
AM_0
 10
357.92998520153679
 20
308.07735000000002
 30
0.0
 11
358.92997520153671
 21
307.5
 31
0.0
  0
ARC
  5
2B1A
  8
AM_0
 10
358.92997520153671
 20
309.80943000000002
 30
0.0
 40
2.00000007
 50
179.99998999999991
 51
240.00001
  0
LINE
  5
2B1B
  8
AM_0
 10
348.49420520153672
 20
314.16068999999987
 30
0.0
 11
354.19147520153672
 21
313.66224
 31
0.0
  0
ARC
  5
2B1C
  8
AM_0
 10
353.92996520153679
 20
310.67367000000002
 30
0.0
 40
3.0
 50
0.0
 51
84.999996999999979
  0
LINE
  5
2B1D
  8
AM_0
 10
294.92995520153681
 20
331.42266000000001
 30
0.0
 11
339.06085520153681
 21
330.26702999999992
 31
0.0
  0
ARC
  5
2B1E
  8
AM_0
 10
338.92996520153662
 20
325.26875999999987
 30
0.0
 40
5.0000001000000003
 50
0.0
 51
88.499996999999965
  0
LINE
  5
2B1F
  8
AM_0
 10
369.92995520153681
 20
295.42264799999992
 30
0.0
 11
401.92996520153679
 21
295.42264799999992
 31
0.0
  0
LINE
  5
2B20
  8
AM_0
 10
361.9299152015368
 20
292.42264799999992
 30
0.0
 11
401.92996520153679
 21
292.42264799999992
 31
0.0
  0
LINE
  5
2B21
  8
AM_0
 10
369.92995520153681
 20
295.42264799999992
 30
0.0
 11
369.92995520153681
 21
292.42264799999992
 31
0.0
  0
CIRCLE
  5
2B22
  8
AM_5
 10
556.89277664113638
 20
280.42264499999987
 30
0.0
 40
4.000000199999997
  0
CIRCLE
  5
2B23
  8
AM_0
 10
556.89277664113638
 20
280.42264499999987
 30
0.0
 40
3.0
  0
ARC
  5
2B24
  8
AM_0
 10
556.89277664113638
 20
280.42264499999987
 30
0.0
 40
12.00000029999998
 50
109.47122
 51
70.528789000000003
  0
ARC
  5
2B25
  8
AM_0
 10
556.89277664113638
 20
260.42267700000002
 30
0.0
 40
71.000000999999983
 50
152.9994199999999
 51
174.01018999999991
  0
ARC
  5
2B26
  8
AM_0
 10
556.89277664113638
 20
280.42264499999987
 30
0.0
 40
26.500002599999998
 50
270.0
 51
90.000003000000007
  0
ARC
  5
2B27
  8
AM_0
 10
556.89277664113638
 20
265.42264499999987
 30
0.0
 40
48.0
 50
0.0
 51
180.00001
  0
ARC
  5
2B28
  8
AM_0
 10
556.89277664113638
 20
260.42267700000002
 30
0.0
 40
71.000000999999983
 50
5.989814199999997
 51
27.000572999999999
  0
ARC
  5
2B29
  8
AM_0
 10
556.89277664113638
 20
280.42264499999987
 30
0.0
 40
26.500002599999998
 50
90.000003000000007
 51
270.0
  0
LINE
  5
2B2A
  8
AM_0
 10
503.8927906411368
 20
295.675209
 30
0.0
 11
503.8927906411368
 21
234.42266100000001
 31
0.0
  0
LINE
  5
2B2B
  8
AM_0
 10
609.89279264113645
 20
295.675209
 30
0.0
 11
609.89279264113645
 21
234.42266100000001
 31
0.0
  0
LINE
  5
2B2C
  8
AM_0
 10
478.89278264113671
 20
197.42265900000001
 30
0.0
 11
489.66122264113642
 21
300.05282999999991
 31
0.0
  0
LINE
  5
2B2D
  8
AM_0
 10
634.89279464113667
 20
197.42265900000001
 30
0.0
 11
624.12436064113683
 21
300.05282999999991
 31
0.0
  0
LINE
  5
2B2E
  8
ﾁｭｳｼﾝｾﾝ
 10
556.89277664113638
 20
336.07428005403341
 30
0.0
 11
556.89277664113638
 21
181.1883599999999
 31
0.0
  0
LINE
  5
2B2F
  8
AM_0
 10
533.34596264113668
 20
196.032186
 30
0.0
 11
528.01193264113681
 21
198.24161399999991
 31
0.0
  0
LINE
  5
2B30
  8
AM_0
 10
529.51910264113656
 20
186.79341600000001
 30
0.0
 11
534.09953264113665
 21
190.30809600000001
 31
0.0
  0
CIRCLE
  5
2B31
  8
AM_0
 10
528.76548764113625
 20
192.51752400000001
 30
0.0
 40
4.9999998000000003
  0
LINE
  5
2B32
  8
ﾁｭｳｼﾝｾﾝ
 10
488.63882264113681
 20
260.42267700000002
 30
0.0
 11
624.68133764113691
 21
260.42267700000002
 31
0.0
  0
LINE
  5
2B33
  8
AM_0
 10
603.89279264113645
 20
186.42265800000001
 30
0.0
 11
509.89279064113668
 21
186.42265800000001
 31
0.0
  0
LINE
  5
2B34
  8
AM_0
 10
522.89279264113645
 20
202.42265999999989
 30
0.0
 11
590.89280864113675
 21
202.42265999999989
 31
0.0
  0
LINE
  5
2B35
  8
AM_0
 10
478.89278264113671
 20
185.42265900000001
 30
0.0
 11
478.89278264113671
 21
197.42267399999989
 31
0.0
  0
ARC
  5
2B36
  8
AM_0
 10
514.89279164113645
 20
191.42265900000001
 30
0.0
 40
3.0
 50
270.0
 51
0.0
  0
LINE
  5
2B37
  8
AM_0
 10
508.8927916411368
 20
185.42265900000001
 30
0.0
 11
508.8927916411368
 21
195.422673
 31
0.0
  0
LINE
  5
2B38
  8
AM_0
 10
523.43148764113675
 20
194.726934
 30
0.0
 11
524.18508764113665
 21
189.00282899999999
 31
0.0
  0
LINE
  5
2B39
  8
ﾁｭｳｼﾝｾﾝ1
 10
491.89276064113642
 20
199.2776855605604
 30
0.0
 11
491.89276064113642
 21
183.6905272934261
 31
0.0
  0
LINE
  5
2B3A
  8
ｶｸﾚｾﾝ2
 10
497.89279064113668
 20
197.42267399999989
 30
0.0
 11
497.89279064113668
 21
185.42265900000001
 31
0.0
  0
LINE
  5
2B3B
  8
ｶｸﾚｾﾝ2
 10
485.89279064113668
 20
197.42267399999989
 30
0.0
 11
485.89279064113668
 21
185.42265900000001
 31
0.0
  0
LINE
  5
2B3C
  8
AM_0
 10
478.89278264113671
 20
185.42265900000001
 30
0.0
 11
508.8927916411368
 21
185.42265900000001
 31
0.0
  0
LINE
  5
2B3D
  8
AM_0
 10
514.89279164113645
 20
188.42265900000001
 30
0.0
 11
510.89278964113669
 21
188.42265900000001
 31
0.0
  0
ARC
  5
2B3E
  8
AM_0
 10
509.89279064113668
 20
185.42265900000001
 30
0.0
 40
1.0000000199999981
 50
90.000003000000007
 51
180.00001
  0
ARC
  5
2B3F
  8
AM_0
 10
510.89278964113669
 20
186.42265800000001
 30
0.0
 40
2.00000007
 50
90.000003000000007
 51
180.00001
  0
LINE
  5
2B40
  8
AM_0
 10
524.18512064113668
 20
189.002814
 30
0.0
 11
529.51912064113685
 21
186.7934009999999
 31
0.0
  0
ARC
  5
2B41
  8
AM_0
 10
537.89277764113683
 20
234.42266100000001
 30
0.0
 40
34.000001999999988
 50
179.99998999999991
 51
211.46697
  0
LINE
  5
2B42
  8
AM_0
 10
508.8927916411368
 20
265.42264499999987
 30
0.0
 11
508.8927916411368
 21
202.42265999999989
 31
0.0
  0
LINE
  5
2B43
  8
AM_0
 10
506.89279064113668
 20
197.42267399999989
 30
0.0
 11
480.89278964113669
 21
197.42267399999989
 31
0.0
  0
ARC
  5
2B44
  8
AM_0
 10
480.89278964113669
 20
195.422673
 30
0.0
 40
2.00000007
 50
90.000003000000007
 51
180.00001
  0
ARC
  5
2B45
  8
AM_0
 10
503.8927906411368
 20
202.42265999999989
 30
0.0
 40
5.0000001000000003
 50
270.0
 51
0.0
  0
ARC
  5
2B46
  8
AM_0
 10
506.89279064113668
 20
195.422673
 30
0.0
 40
2.00000007
 50
0.0
 51
90.000003000000007
  0
ARC
  5
2B47
  8
AM_0
 10
522.89279264113645
 20
197.42267399999989
 30
0.0
 40
5.0000001000000003
 50
90.000003000000007
 51
180.00001
  0
LINE
  5
2B48
  8
AM_0
 10
528.01193264113681
 20
198.2416289999999
 30
0.0
 11
523.43148764113675
 21
194.726934
 31
0.0
  0
LINE
  5
2B49
  8
AM_0
 10
517.89279164113668
 20
197.42267399999989
 30
0.0
 11
517.89279164113668
 21
191.42265900000001
 31
0.0
  0
ARC
  5
2B4A
  8
AM_0
 10
598.89279464113679
 20
191.42265900000001
 30
0.0
 40
3.0
 50
179.99998999999991
 51
270.0
  0
CIRCLE
  5
2B4B
  8
AM_0
 10
585.02002064113685
 20
192.51752400000001
 30
0.0
 40
4.9999998000000003
  0
LINE
  5
2B4C
  8
AM_0
 10
634.89279464113667
 20
185.42265900000001
 30
0.0
 11
634.89279464113667
 21
197.42267399999989
 31
0.0
  0
LINE
  5
2B4D
  8
AM_0
 10
604.89279464113667
 20
185.42265900000001
 30
0.0
 11
604.89279464113667
 21
195.422673
 31
0.0
  0
LINE
  5
2B4E
  8
AM_0
 10
589.60048064113676
 20
189.00282899999999
 30
0.0
 11
590.35408064113665
 21
194.726934
 31
0.0
  0
LINE
  5
2B4F
  8
AM_0
 10
580.43962364113645
 20
196.0322009999999
 30
0.0
 11
579.68602064113668
 21
190.30809600000001
 31
0.0
  0
LINE
  5
2B50
  8
ﾁｭｳｼﾝｾﾝ1
 10
621.89279564113644
 20
199.2776855605604
 30
0.0
 11
621.89279564113644
 21
183.6905272934261
 31
0.0
  0
LINE
  5
2B51
  8
ｶｸﾚｾﾝ2
 10
615.89279564113679
 20
197.42267399999989
 30
0.0
 11
615.89279564113679
 21
185.42265900000001
 31
0.0
  0
LINE
  5
2B52
  8
ｶｸﾚｾﾝ2
 10
627.89279564113644
 20
197.42267399999989
 30
0.0
 11
627.89279564113644
 21
185.42265900000001
 31
0.0
  0
LINE
  5
2B53
  8
AM_0
 10
534.09953264113665
 20
190.30809600000001
 30
0.0
 11
533.34594764113683
 21
196.0322009999999
 31
0.0
  0
LINE
  5
2B54
  8
AM_0
 10
579.68603564113664
 20
190.3080809999999
 30
0.0
 11
584.26646564113662
 21
186.7934009999999
 31
0.0
  0
LINE
  5
2B55
  8
AM_0
 10
584.26646564113662
 20
186.793431
 30
0.0
 11
589.6004956411366
 21
189.002859
 31
0.0
  0
LINE
  5
2B56
  8
AM_0
 10
634.89279464113667
 20
185.42265900000001
 30
0.0
 11
604.89279464113667
 21
185.42265900000001
 31
0.0
  0
ARC
  5
2B57
  8
AM_0
 10
602.89280864113675
 20
186.42265800000001
 30
0.0
 40
2.00000007
 50
0.0
 51
90.000003000000007
  0
ARC
  5
2B58
  8
AM_0
 10
603.89279264113645
 20
185.42265900000001
 30
0.0
 40
1.0000000199999981
 50
0.0
 51
90.000003000000007
  0
LINE
  5
2B59
  8
AM_0
 10
602.89280864113675
 20
188.42265900000001
 30
0.0
 11
598.89279464113679
 21
188.42265900000001
 31
0.0
  0
LINE
  5
2B5A
  8
AM_0
 10
585.77366864113674
 20
198.24164400000001
 30
0.0
 11
580.43963864113675
 21
196.03221600000001
 31
0.0
  0
ARC
  5
2B5B
  8
AM_0
 10
590.89280864113675
 20
197.42267399999989
 30
0.0
 40
5.0000001000000003
 50
0.0
 51
90.000003000000007
  0
LINE
  5
2B5C
  8
AM_0
 10
590.35408064113665
 20
194.726934
 30
0.0
 11
585.77365364113643
 21
198.24161399999991
 31
0.0
  0
LINE
  5
2B5D
  8
AM_0
 10
595.89279464113679
 20
197.42267399999989
 30
0.0
 11
595.89279464113679
 21
191.42265900000001
 31
0.0
  0
ARC
  5
2B5E
  8
AM_0
 10
575.89279364113668
 20
234.42266100000001
 30
0.0
 40
34.000001999999988
 50
328.53302000000002
 51
0.0
  0
LINE
  5
2B5F
  8
AM_0
 10
604.89279464113667
 20
265.42264499999987
 30
0.0
 11
604.89279464113667
 21
202.42265999999989
 31
0.0
  0
LINE
  5
2B60
  8
AM_0
 10
606.89279264113645
 20
197.42267399999989
 30
0.0
 11
632.89280864113675
 21
197.42267399999989
 31
0.0
  0
ARC
  5
2B61
  8
AM_0
 10
609.89279264113645
 20
202.42265999999989
 30
0.0
 40
5.0000001000000003
 50
179.99998999999991
 51
270.0
  0
ARC
  5
2B62
  8
AM_0
 10
606.89279264113645
 20
195.422673
 30
0.0
 40
2.00000007
 50
90.000003000000007
 51
180.00001
  0
ARC
  5
2B63
  8
AM_0
 10
632.89280864113675
 20
195.422673
 30
0.0
 40
2.00000007
 50
0.0
 51
90.000003000000007
  0
ARC
  5
2B64
  8
AM_0
 10
556.89277664113638
 20
221.422674
 30
0.0
 40
110.000004
 50
58.263835999999991
 51
121.73617
  0
ARC
  5
2B65
  8
AM_0
 10
556.89277664113638
 20
260.42267700000002
 30
0.0
 40
71.000000999999983
 50
47.999358999999998
 51
132.00065000000001
  0
LINE
  5
2B66
  8
ﾁｭｳｼﾝｾﾝ
 10
517.89279164113668
 20
280.42264499999987
 30
0.0
 11
595.89280874113683
 21
280.4226450000001
 31
0.0
  0
ARC
  5
2B67
  8
AM_0
 10
511.82553164113671
 20
316.25906999999989
 30
0.0
 40
5.0000001000000003
 50
115.41755999999999
 51
205.06296999999989
  0
LINE
  5
2B68
  8
AM_0
 10
494.0009146411366
 20
301.65195
 30
0.0
 11
499.33492964113651
 21
299.442543
 31
0.0
  0
ARC
  5
2B69
  8
AM_0
 10
509.55200264113671
 20
297.965799
 30
0.0
 40
20.000000700000001
 50
121.73617
 51
174.01018999999991
  0
ARC
  5
2B6A
  8
AM_0
 10
494.61453164113652
 20
308.21039999999999
 30
0.0
 40
13.9999986
 50
266.80063999999987
 51
25.06296900000001
  0
CIRCLE
  5
2B6B
  8
AM_0
 10
498.58132964113639
 20
305.16662999999988
 30
0.0
 40
4.9999998000000003
  0
LINE
  5
2B6C
  8
AM_0
 10
503.1617716411368
 20
308.68131
 30
0.0
 11
497.8277566411366
 21
310.89075000000008
 31
0.0
  0
ARC
  5
2B6D
  8
AM_0
 10
493.55413664113638
 20
289.23999900000001
 30
0.0
 40
5.0000001000000003
 50
86.800639000000004
 51
174.01018999999991
  0
ARC
  5
2B6E
  8
AM_0
 10
496.3046566411366
 20
291.294624
 30
0.0
 40
3.0
 50
95.705737999999982
 51
152.9994199999999
  0
LINE
  5
2B6F
  8
AM_0
 10
497.8277566411366
 20
310.89075000000008
 30
0.0
 11
493.24734464113681
 21
307.37607000000008
 31
0.0
  0
LINE
  5
2B70
  8
AM_0
 10
493.24734464113681
 20
307.37607000000008
 30
0.0
 11
494.0009146411366
 21
301.65195
 31
0.0
  0
ARC
  5
2B71
  8
AM_0
 10
508.8927916411368
 20
295.675209
 30
0.0
 40
5.0000001000000003
 50
138.71941000000001
 51
180.00001
  0
LINE
  5
2B72
  8
AM_0
 10
503.91537464113662
 20
302.95722000000001
 30
0.0
 11
503.1617716411368
 21
308.68131
 31
0.0
  0
LINE
  5
2B73
  8
AM_0
 10
499.33492964113651
 20
299.442543
 30
0.0
 11
503.91537464113662
 21
302.95724999999999
 31
0.0
  0
ARC
  5
2B74
  8
AM_0
 10
511.39132664113669
 20
310.95600000000002
 30
0.0
 40
3.0
 50
132.00065000000001
 51
189.29434000000001
  0
LINE
  5
2B75
  8
AM_0
 10
552.89277764113683
 20
288.42264599999987
 30
0.0
 11
560.89276064113665
 21
288.42264599999987
 31
0.0
  0
LINE
  5
2B76
  8
AM_0
 10
552.89277764113683
 20
295.42264799999992
 30
0.0
 11
560.89276064113665
 21
295.42264799999992
 31
0.0
  0
LINE
  5
2B77
  8
AM_0
 10
552.89277764113683
 20
295.42264799999992
 30
0.0
 11
552.89277764113683
 21
288.42264599999987
 31
0.0
  0
LINE
  5
2B78
  8
AM_0
 10
560.89276064113665
 20
295.42264799999992
 30
0.0
 11
560.89276064113665
 21
288.42264599999987
 31
0.0
  0
ARC
  5
2B79
  8
AM_0
 10
601.96003964113675
 20
316.25906999999989
 30
0.0
 40
5.0000001000000003
 50
334.93702999999988
 51
64.582443999999995
  0
ARC
  5
2B7A
  8
AM_0
 10
619.17106964113691
 20
308.21039999999999
 30
0.0
 40
13.9999986
 50
154.93703999999991
 51
273.19936999999987
  0
ARC
  5
2B7B
  8
AM_0
 10
604.89279464113667
 20
295.675209
 30
0.0
 40
5.0000001000000003
 50
0.0
 51
41.280590999999973
  0
ARC
  5
2B7C
  8
AM_0
 10
620.23146464113688
 20
289.23999900000001
 30
0.0
 40
5.0000001000000003
 50
5.9898154999999971
 51
93.199358999999944
  0
ARC
  5
2B7D
  8
AM_0
 10
617.48092964113675
 20
291.294624
 30
0.0
 40
3.0
 50
27.000572999999999
 51
84.294260999999977
  0
LINE
  5
2B7E
  8
AM_0
 10
615.95787164113665
 20
310.89071999999987
 30
0.0
 11
610.62384164113666
 21
308.68128000000002
 31
0.0
  0
ARC
  5
2B7F
  8
AM_0
 10
604.23356864113634
 20
297.965799
 30
0.0
 40
20.000000700000001
 50
5.9898154999999971
 51
58.263835999999991
  0
CIRCLE
  5
2B80
  8
AM_0
 10
615.20427164113676
 20
305.16656999999998
 30
0.0
 40
4.9999998000000003
  0
LINE
  5
2B81
  8
AM_0
 10
614.4506866411366
 20
299.44248299999992
 30
0.0
 11
619.78471664113647
 21
301.65192000000002
 31
0.0
  0
LINE
  5
2B82
  8
AM_0
 10
609.87025664113662
 20
302.95713000000001
 30
0.0
 11
614.4506866411366
 21
299.44245299999989
 31
0.0
  0
LINE
  5
2B83
  8
AM_0
 10
610.62384164113666
 20
308.68124999999992
 30
0.0
 11
609.87024164113666
 21
302.95713000000001
 31
0.0
  0
ARC
  5
2B84
  8
AM_0
 10
602.39425964113661
 20
310.95600000000002
 30
0.0
 40
3.0
 50
350.70567
 51
47.999358999999998
  0
LINE
  5
2B85
  8
AM_0
 10
620.53828664113689
 20
307.37598000000008
 30
0.0
 11
615.95787164113665
 21
310.89066000000008
 31
0.0
  0
LINE
  5
2B86
  8
AM_0
 10
620.53825664113674
 20
307.37603999999988
 30
0.0
 11
619.78467164113681
 21
301.65195
 31
0.0
  0
LINE
  5
2B87
  8
AM_0
 10
257.9299652015369
 20
298.41894649999989
 30
0.0
 11
247.9299652015369
 21
298.41894649999989
 31
0.0
  0
LINE
  5
2B88
  8
AM_0
 10
257.9299652015369
 20
311.92263649999973
 30
0.0
 11
247.9299652015369
 21
311.92263649999973
 31
0.0
  0
LINE
  5
2B89
  8
AM_0
 10
257.9299652015369
 20
208.92263650000001
 30
0.0
 11
247.9299652015369
 21
208.92263650000001
 31
0.0
  0
LINE
  5
2B8A
  8
AM_0
 10
257.9299652015369
 20
222.42633149999989
 30
0.0
 11
247.9299652015369
 21
222.42633149999989
 31
0.0
  0
LINE
  5
2B8B
  8
ﾁｭｳｼﾝｾﾝ
 10
154.63600112520581
 20
494.88756913427682
 30
0.0
 11
408.1496552015368
 21
494.88756913427682
 31
0.0
  0
ARC
  5
2B8C
  8
AM_0
 10
369.92996520153667
 20
494.88753913427678
 30
0.0
 40
3.9999962
 50
90.000003000000945
 51
270.0
  0
ARC
  5
2B8D
  8
AM_0
 10
410.41870520153668
 20
494.88756913427682
 30
0.0
 40
101.4887199999999
 50
151.893330000003
 51
208.1066699999968
  0
LINE
  5
2B8E
  8
AM_0
 10
401.92996520153679
 20
506.88756913427687
 30
0.0
 11
401.92996520153679
 21
482.88756913427659
 31
0.0
  0
LINE
  5
2B8F
  8
AM_0
 10
361.92993520153658
 20
507.38753913427678
 30
0.0
 11
361.92993520153658
 21
482.3875991342768
 31
0.0
  0
LINE
  5
2B90
  8
AM_0
 10
369.92996520153667
 20
498.88753913427678
 30
0.0
 11
369.92996520153667
 21
490.88756913427682
 31
0.0
  0
LINE
  5
2B91
  8
AM_0
 10
257.92999520153683
 20
431.38756913427687
 30
0.0
 11
257.92999520153683
 21
558.38756913427665
 31
0.0
  0
LINE
  5
2B92
  8
AM_0
 10
287.92999520153683
 20
426.01918913427681
 30
0.0
 11
287.92999520153683
 21
563.75593913427679
 31
0.0
  0
LINE
  5
2B93
  8
AM_0
 10
308.92999520153683
 20
444.82033913427682
 30
0.0
 11
308.92999520153683
 21
544.95479913427675
 31
0.0
  0
LINE
  5
2B94
  8
AM_0
 10
343.92999520153671
 20
444.63655913427669
 30
0.0
 11
343.92999520153671
 21
545.13856913427685
 31
0.0
  0
LINE
  5
2B95
  8
AM_0
 10
359.92996520153679
 20
469.35322913427677
 30
0.0
 11
359.92996520153679
 21
520.42186913427668
 31
0.0
  0
LINE
  5
2B96
  8
AM_0
 10
356.92996520153667
 20
544.43251913427684
 30
0.0
 11
356.92996520153667
 21
445.34260913427681
 31
0.0
  0
LINE
  5
2B97
  8
AM_0
 10
294.92996520153662
 20
565.88756913427676
 30
0.0
 11
294.92996520153662
 21
423.88756913427682
 31
0.0
  0
LINE
  5
2B98
  8
AM_0
 10
307.66583520153682
 20
424.22105913427669
 30
0.0
 11
294.92999520153683
 21
423.88756913427682
 31
0.0
  0
LINE
  5
2B99
  8
AM_0
 10
297.92999520153683
 20
416.88759913427668
 30
0.0
 11
357.98232520153681
 21
418.46010913427682
 31
0.0
  0
ARC
  5
2B9A
  8
AM_0
 10
277.92996520153662
 20
429.88756913427682
 30
0.0
 40
6.0
 50
169.13878999999559
 51
0.5425729200004517
  0
ARC
  5
2B9B
  8
ｶｸﾚｾﾝ2
 10
277.92996520153662
 20
429.88756913427682
 30
0.0
 40
6.0
 50
0.5425604000007392
 51
169.13878999999559
  0
LINE
  5
2B9C
  8
AM_0
 10
257.92999520153683
 20
442.84752913427678
 30
0.0
 11
287.92999520153683
 21
442.84752913427678
 31
0.0
  0
LINE
  5
2B9D
  8
AM_0
 10
283.16979520153677
 20
430.72664913427673
 30
0.0
 11
257.93002520153681
 21
431.38756913427687
 31
0.0
  0
LINE
  5
2B9E
  8
AM_0
 10
267.87762520153677
 20
417.67448913427683
 30
0.0
 11
297.92996520153679
 21
416.88756913427659
 31
0.0
  0
LINE
  5
2B9F
  8
ﾁｭｳｼﾝｾﾝ1
 10
269.75750520153679
 20
429.88756913427682
 30
0.0
 11
286.30285520153677
 21
429.88756913427682
 31
0.0
  0
LINE
  5
2BA0
  8
AM_0
 10
265.92996520153662
 20
419.67384913427679
 30
0.0
 11
265.92996520153662
 21
431.12569913427677
 31
0.0
  0
ARC
  5
2BA1
  8
AM_0
 10
267.92996520153662
 20
419.67384913427679
 30
0.0
 40
2.0
 50
180.00001000000091
 51
268.50000000000063
  0
LINE
  5
2BA2
  8
AM_0
 10
282.92996520153679
 20
431.67628913427677
 30
0.0
 11
282.92996520153679
 21
440.84752913427661
 31
0.0
  0
LINE
  5
2BA3
  8
ﾁｭｳｼﾝｾﾝ1
 10
277.92996520153662
 20
421.17909913427673
 30
0.0
 11
277.92996520153662
 21
438.25572913427669
 31
0.0
  0
ARC
  5
2BA4
  8
AM_0
 10
285.92999520153683
 20
427.67628913427677
 30
0.0
 40
2.0
 50
0.0
 51
90.000003000000945
  0
ARC
  5
2BA5
  8
AM_0
 10
284.92996520153662
 20
431.67628913427677
 30
0.0
 40
2.0
 50
180.00001000000091
 51
270.0
  0
LINE
  5
2BA6
  8
AM_0
 10
284.92996520153662
 20
429.67628913427677
 30
0.0
 11
285.92999520153683
 21
429.67628913427677
 31
0.0
  0
ARC
  5
2BA7
  8
AM_0
 10
289.92999520153683
 20
426.01918913427681
 30
0.0
 40
2.0
 50
180.00001000000091
 51
268.50000000000063
  0
LINE
  5
2BA8
  8
AM_0
 10
294.92999520153683
 20
423.88756913427682
 30
0.0
 11
289.87765520153681
 21
424.01985913427671
 31
0.0
  0
LINE
  5
2BA9
  8
AM_0
 10
297.92996520153679
 20
420.7435491342768
 30
0.0
 11
290.92996520153662
 21
417.07088913427668
 31
0.0
  0
LINE
  5
2BAA
  8
AM_0
 10
295.33297520153678
 20
423.89812913427681
 30
0.0
 11
290.92996520153662
 21
421.58800913427677
 31
0.0
  0
LINE
  5
2BAB
  8
AM_0
 10
290.92996520153662
 20
417.07088913427668
 30
0.0
 11
290.92996520153662
 21
421.58797913427679
 31
0.0
  0
LINE
  5
2BAC
  8
AM_0
 10
297.92996520153679
 20
423.96611913427682
 30
0.0
 11
297.92996520153679
 21
420.7435491342768
 31
0.0
  0
ARC
  5
2BAD
  8
AM_0
 10
280.9299652015369
 20
440.84752913427661
 30
0.0
 40
2.0
 50
0.0
 51
90.000003000000945
  0
LINE
  5
2BAE
  8
AM_0
 10
257.92999520153683
 20
457.73753913427669
 30
0.0
 11
287.92999520153683
 21
457.73753913427669
 31
0.0
  0
ARC
  5
2BAF
  8
AM_0
 10
351.92996520153679
 20
451.46919913427678
 30
0.0
 40
5.0
 50
275.0
 51
0.0
  0
CIRCLE
  5
2BB0
  8
AM_0
 10
347.92996520153679
 20
429.88756913427682
 30
0.0
 40
6.0
  0
LINE
  5
2BB1
  8
ﾁｭｳｼﾝｾﾝ1
 10
339.51739520153677
 20
429.88756913427682
 30
0.0
 11
356.2830552015368
 21
429.88756913427682
 31
0.0
  0
LINE
  5
2BB2
  8
AM_0
 10
328.00851520153668
 20
431.79127913427669
 30
0.0
 11
323.02377520153681
 21
431.66075913427659
 31
0.0
  0
LINE
  5
2BB3
  8
AM_0
 10
341.00854520153678
 20
447.8630591342768
 30
0.0
 11
322.51196520153673
 21
447.37871913427682
 31
0.0
  0
LINE
  5
2BB4
  8
AM_0
 10
310.92993520153669
 20
431.80257913427681
 30
0.0
 11
310.92993520153669
 21
441.34959913427679
 31
0.0
  0
LINE
  5
2BB5
  8
AM_0
 10
306.92996520153667
 20
443.34962913427688
 30
0.0
 11
306.92996520153667
 21
429.80257913427693
 31
0.0
  0
LINE
  5
2BB6
  8
AM_0
 10
305.9299652015369
 20
444.82033913427682
 30
0.0
 11
305.9299652015369
 21
424.17561913427659
 31
0.0
  0
LINE
  5
2BB7
  8
AM_0
 10
310.02639520153679
 20
424.88429913427677
 30
0.0
 11
320.66317520153677
 21
430.99751913427667
 31
0.0
  0
ARC
  5
2BB8
  8
AM_0
 10
307.53494520153669
 20
429.2193491342768
 30
0.0
 40
5.0
 50
271.4999999999992
 51
299.88701999999739
  0
LINE
  5
2BB9
  8
AM_0
 10
305.9299652015369
 20
429.80257913427693
 30
0.0
 11
306.92996520153667
 21
429.80257913427693
 31
0.0
  0
ARC
  5
2BBA
  8
AM_0
 10
309.9299652015369
 20
434.68931913427667
 30
0.0
 40
1.0
 50
269.999989999999
 51
0.0000006832495047
  0
ARC
  5
2BBB
  8
AM_0
 10
309.9299652015369
 20
431.80257913427681
 30
0.0
 40
1.0
 50
269.999989999999
 51
0.0000006832495047
  0
ARC
  5
2BBC
  8
AM_0
 10
309.9299652015369
 20
432.68934913427682
 30
0.0
 40
1.0
 50
0.0
 51
90.000003000000945
  0
LINE
  5
2BBD
  8
AM_0
 10
306.92996520153667
 20
430.80257913427658
 30
0.0
 11
309.9299652015369
 21
430.80257913427658
 31
0.0
  0
LINE
  5
2BBE
  8
AM_0
 10
306.92996520153667
 20
433.68934913427682
 30
0.0
 11
309.9299652015369
 21
433.68934913427682
 31
0.0
  0
ARC
  5
2BBF
  8
AM_0
 10
323.15463520153662
 20
426.66246913427682
 30
0.0
 40
5.0
 50
91.500001000001546
 51
119.88701999999751
  0
LINE
  5
2BC0
  8
AM_0
 10
308.92999520153683
 20
444.82033913427682
 30
0.0
 11
322.51196520153673
 21
447.37871913427682
 31
0.0
  0
LINE
  5
2BC1
  8
AM_0
 10
305.9299652015369
 20
443.34962913427688
 30
0.0
 11
306.92996520153667
 21
443.34962913427688
 31
0.0
  0
ARC
  5
2BC2
  8
AM_0
 10
309.9299652015369
 20
440.46284913427678
 30
0.0
 40
1.0
 50
269.999989999999
 51
0.0000006832495047
  0
ARC
  5
2BC3
  8
AM_0
 10
309.9299652015369
 20
438.46284913427678
 30
0.0
 40
1.0
 50
0.0
 51
90.000003000000945
  0
ARC
  5
2BC4
  8
AM_0
 10
309.9299652015369
 20
441.34959913427679
 30
0.0
 40
1.0
 50
0.0
 51
90.000003000000945
  0
LINE
  5
2BC5
  8
AM_0
 10
306.92996520153667
 20
442.34962913427682
 30
0.0
 11
309.9299652015369
 21
442.34962913427682
 31
0.0
  0
LINE
  5
2BC6
  8
AM_0
 10
306.92996520153667
 20
439.46284913427678
 30
0.0
 11
309.9299652015369
 21
439.46284913427678
 31
0.0
  0
LINE
  5
2BC7
  8
AM_0
 10
305.9299652015369
 20
444.82033913427682
 30
0.0
 11
308.92996520153662
 21
444.82033913427682
 31
0.0
  0
LINE
  5
2BC8
  8
AM_0
 10
330.9299652015369
 20
422.88435913427668
 30
0.0
 11
330.9299652015369
 21
436.16853913427673
 31
0.0
  0
LINE
  5
2BC9
  8
ﾁｭｳｼﾝｾﾝ1
 10
347.92996520153679
 20
421.46132913427681
 30
0.0
 11
347.92996520153679
 21
438.09996913427682
 31
0.0
  0
ARC
  5
2BCA
  8
AM_0
 10
335.92996520153662
 20
422.88435913427668
 30
0.0
 40
5.0
 50
180.00001000000091
 51
271.4999999999992
  0
ARC
  5
2BCB
  8
AM_0
 10
327.92996520153662
 20
434.79024913427668
 30
0.0
 40
3.0
 50
271.4999999999992
 51
0.0
  0
LINE
  5
2BCC
  8
AM_0
 10
341.1914652015368
 20
441.64799913427669
 30
0.0
 11
335.49417520153668
 21
441.14955913427679
 31
0.0
  0
ARC
  5
2BCD
  8
AM_0
 10
335.92996520153662
 20
436.16853913427673
 30
0.0
 40
5.0
 50
95.00000199999856
 51
180.00001000000091
  0
ARC
  5
2BCE
  8
AM_0
 10
348.10400520153672
 20
441.09627913427659
 30
0.0
 40
5.0
 50
95.00000199999856
 51
153.73432999999969
  0
ARC
  5
2BCF
  8
AM_0
 10
340.92999520153683
 20
444.63655913427669
 30
0.0
 40
3.0
 50
275.0
 51
0.0
  0
ARC
  5
2BD0
  8
AM_0
 10
340.92999520153683
 20
450.86201913427669
 30
0.0
 40
3.0
 50
271.4999999999992
 51
0.0
  0
LINE
  5
2BD1
  8
AM_0
 10
352.36575520153679
 20
446.4882391342768
 30
0.0
 11
347.66824520153671
 21
446.0772591342768
 31
0.0
  0
LINE
  5
2BD2
  8
AM_0
 10
359.92996520153679
 20
420.45939913427668
 30
0.0
 11
359.92996520153679
 21
443.31572913427692
 31
0.0
  0
ARC
  5
2BD3
  8
AM_0
 10
357.92996520153679
 20
420.45939913427668
 30
0.0
 40
2.0
 50
271.4999999999992
 51
0.0
  0
ARC
  5
2BD4
  8
AM_0
 10
357.92996520153679
 20
443.31572913427692
 30
0.0
 40
2.0
 50
0.0
 51
88.499997000000647
  0
LINE
  5
2BD5
  8
AM_0
 10
357.98232520153681
 20
445.31502913427681
 30
0.0
 11
356.92996520153667
 21
445.34257913427678
 31
0.0
  0
LINE
  5
2BD6
  8
AM_0
 10
369.92996520153667
 20
490.88756913427682
 30
0.0
 11
401.92996520153679
 21
490.88756913427682
 31
0.0
  0
LINE
  5
2BD7
  8
AM_0
 10
361.92993520153658
 20
482.88756913427659
 30
0.0
 11
401.92996520153679
 21
482.88756913427659
 31
0.0
  0
ARC
  5
2BD8
  8
AM_0
 10
358.92996520153667
 20
469.35322913427677
 30
0.0
 40
1.0
 50
272.0000000000004
 51
0.0
  0
ARC
  5
2BD9
  8
AM_0
 10
357.92996520153679
 20
467.31709913427682
 30
0.0
 40
1.0
 50
91.999998000000545
 51
180.00001000000091
  0
LINE
  5
2BDA
  8
AM_0
 10
357.89508520153669
 20
468.3165191342768
 30
0.0
 11
358.96487520153681
 21
468.35387913427678
 31
0.0
  0
LINE
  5
2BDB
  8
AM_0
 10
359.92996520153679
 20
482.3875991342768
 30
0.0
 11
361.92993520153658
 21
482.3875991342768
 31
0.0
  0
LINE
  5
2BDC
  8
AM_0
 10
307.66583520153682
 20
565.55406913427669
 30
0.0
 11
294.92999520153683
 21
565.88756913427676
 31
0.0
  0
LINE
  5
2BDD
  8
AM_0
 10
297.92999520153683
 20
572.88756913427687
 30
0.0
 11
357.98232520153681
 21
571.31505913427691
 31
0.0
  0
LINE
  5
2BDE
  8
AM_0
 10
297.92996520153679
 20
565.80900913427672
 30
0.0
 11
297.92996520153679
 21
569.03157913427685
 31
0.0
  0
LINE
  5
2BDF
  8
AM_0
 10
295.33300520153682
 20
565.87700913427636
 30
0.0
 11
290.92999520153683
 21
568.18712913427646
 31
0.0
  0
LINE
  5
2BE0
  8
ﾁｭｳｼﾝｾﾝ1
 10
277.92996520153662
 20
568.20421913427685
 30
0.0
 11
277.92996520153662
 21
551.50874913427685
 31
0.0
  0
LINE
  5
2BE1
  8
AM_0
 10
265.92996520153662
 20
570.10130913427668
 30
0.0
 11
265.92996520153662
 21
558.6494391342768
 31
0.0
  0
ARC
  5
2BE2
  8
ｶｸﾚｾﾝ2
 10
277.92996520153662
 20
559.88756913427665
 30
0.0
 40
6.0
 50
190.86121000000409
 51
359.45752000000078
  0
ARC
  5
2BE3
  8
AM_0
 10
277.92996520153662
 20
559.88756913427665
 30
0.0
 40
6.0
 50
359.45751000000092
 51
190.86121000000409
  0
LINE
  5
2BE4
  8
AM_0
 10
257.92999520153683
 20
546.92760913427685
 30
0.0
 11
287.92999520153683
 21
546.92760913427685
 31
0.0
  0
LINE
  5
2BE5
  8
AM_0
 10
257.92999520153683
 20
532.03758913427669
 30
0.0
 11
287.92999520153683
 21
532.03758913427669
 31
0.0
  0
LINE
  5
2BE6
  8
AM_0
 10
283.16979520153677
 20
559.04848913427645
 30
0.0
 11
257.93002520153681
 21
558.38756913427665
 31
0.0
  0
LINE
  5
2BE7
  8
ﾁｭｳｼﾝｾﾝ1
 10
269.38311520153673
 20
559.88756913427665
 30
0.0
 11
286.38772520153691
 21
559.88756913427665
 31
0.0
  0
LINE
  5
2BE8
  8
AM_0
 10
282.92996520153679
 20
558.09886913427681
 30
0.0
 11
282.92996520153679
 21
548.92760913427685
 31
0.0
  0
ARC
  5
2BE9
  8
AM_0
 10
280.9299652015369
 20
548.92760913427685
 30
0.0
 40
2.0
 50
270.0
 51
0.0
  0
ARC
  5
2BEA
  8
AM_0
 10
285.92999520153683
 20
562.09886913427681
 30
0.0
 40
2.0
 50
270.0
 51
0.0
  0
ARC
  5
2BEB
  8
AM_0
 10
284.92996520153662
 20
558.09886913427681
 30
0.0
 40
2.0
 50
90.000003000000945
 51
180.00001000000091
  0
LINE
  5
2BEC
  8
AM_0
 10
284.92996520153662
 20
560.0988691342767
 30
0.0
 11
285.92999520153683
 21
560.0988691342767
 31
0.0
  0
LINE
  5
2BED
  8
AM_0
 10
294.92996520153662
 20
565.88756913427676
 30
0.0
 11
289.87765520153681
 21
565.75526913427666
 31
0.0
  0
ARC
  5
2BEE
  8
AM_0
 10
289.92999520153683
 20
563.75593913427679
 30
0.0
 40
2.0
 50
91.500001000001546
 51
180.00001000000091
  0
LINE
  5
2BEF
  8
AM_0
 10
267.87762520153677
 20
572.10060913427685
 30
0.0
 11
297.92996520153679
 21
572.88756913427687
 31
0.0
  0
ARC
  5
2BF0
  8
AM_0
 10
267.92996520153662
 20
570.10130913427668
 30
0.0
 40
2.0
 50
91.500001000001546
 51
180.00001000000091
  0
LINE
  5
2BF1
  8
AM_0
 10
297.92996520153679
 20
569.03157913427685
 30
0.0
 11
290.92996520153662
 21
572.70427913427693
 31
0.0
  0
LINE
  5
2BF2
  8
AM_0
 10
290.92996520153662
 20
572.70424913427689
 30
0.0
 11
290.92996520153662
 21
568.18715913427673
 31
0.0
  0
ARC
  5
2BF3
  8
AM_0
 10
335.92996520153662
 20
566.89076913427675
 30
0.0
 40
5.0
 50
88.499997000000647
 51
180.00001000000091
  0
LINE
  5
2BF4
  8
ﾁｭｳｼﾝｾﾝ1
 10
347.92996520153679
 20
568.44655913427675
 30
0.0
 11
347.92996520153679
 21
551.22966913427672
 31
0.0
  0
LINE
  5
2BF5
  8
AM_0
 10
359.92996520153679
 20
569.31572913427669
 30
0.0
 11
359.92996520153679
 21
546.45939913427685
 31
0.0
  0
ARC
  5
2BF6
  8
AM_0
 10
351.92996520153679
 20
538.30589913427684
 30
0.0
 40
5.0
 50
0.0
 51
85.000004000000885
  0
CIRCLE
  5
2BF7
  8
AM_0
 10
347.92996520153679
 20
559.88756913427665
 30
0.0
 40
6.0
  0
LINE
  5
2BF8
  8
ﾁｭｳｼﾝｾﾝ1
 10
339.43551520153682
 20
559.88756913427665
 30
0.0
 11
356.5671352015367
 21
559.88756913427665
 31
0.0
  0
LINE
  5
2BF9
  8
AM_0
 10
328.00851520153668
 20
557.98384913427685
 30
0.0
 11
323.02377520153681
 21
558.11436913427667
 31
0.0
  0
LINE
  5
2BFA
  8
AM_0
 10
341.00854520153678
 20
541.91206913427675
 30
0.0
 11
322.5119352015368
 21
542.39641913427681
 31
0.0
  0
LINE
  5
2BFB
  8
AM_0
 10
305.9299652015369
 20
544.95479913427675
 30
0.0
 11
305.9299652015369
 21
565.59950913427667
 31
0.0
  0
LINE
  5
2BFC
  8
AM_0
 10
306.92996520153667
 20
546.42549913427683
 30
0.0
 11
306.92996520153667
 21
559.97255913427671
 31
0.0
  0
LINE
  5
2BFD
  8
AM_0
 10
310.92993520153669
 20
557.97255913427682
 30
0.0
 11
310.92993520153669
 21
548.42552913427664
 31
0.0
  0
LINE
  5
2BFE
  8
AM_0
 10
308.92999520153683
 20
544.95482913427691
 30
0.0
 11
322.51196520153673
 21
542.39644913427685
 31
0.0
  0
LINE
  5
2BFF
  8
AM_0
 10
305.9299652015369
 20
544.95479913427675
 30
0.0
 11
308.92996520153662
 21
544.95479913427675
 31
0.0
  0
LINE
  5
2C00
  8
AM_0
 10
305.9299652015369
 20
546.42549913427683
 30
0.0
 11
306.92996520153667
 21
546.42549913427683
 31
0.0
  0
ARC
  5
2C01
  8
AM_0
 10
309.9299652015369
 20
548.42552913427664
 30
0.0
 40
1.0
 50
269.999989999999
 51
0.0000006832495047
  0
LINE
  5
2C02
  8
AM_0
 10
306.92996520153667
 20
547.42552913427676
 30
0.0
 11
309.9299652015369
 21
547.42552913427676
 31
0.0
  0
LINE
  5
2C03
  8
AM_0
 10
310.02642520153682
 20
564.8907991342769
 30
0.0
 11
320.66317520153677
 21
558.77760913427664
 31
0.0
  0
ARC
  5
2C04
  8
AM_0
 10
309.9299652015369
 20
557.97255913427682
 30
0.0
 40
1.0
 50
0.0
 51
90.000003000000945
  0
ARC
  5
2C05
  8
AM_0
 10
309.9299652015369
 20
551.31227913427688
 30
0.0
 40
1.0
 50
269.999989999999
 51
0.0000006832495047
  0
ARC
  5
2C06
  8
AM_0
 10
309.9299652015369
 20
557.08577913427689
 30
0.0
 40
1.0
 50
269.999989999999
 51
0.0000006832495047
  0
ARC
  5
2C07
  8
AM_0
 10
309.9299652015369
 20
555.08580913427659
 30
0.0
 40
1.0
 50
0.0
 51
90.000003000000945
  0
ARC
  5
2C08
  8
AM_0
 10
309.9299652015369
 20
549.31227913427665
 30
0.0
 40
1.0
 50
0.0
 51
90.000003000000945
  0
LINE
  5
2C09
  8
AM_0
 10
306.92996520153667
 20
550.31227913427665
 30
0.0
 11
309.9299652015369
 21
550.31227913427665
 31
0.0
  0
LINE
  5
2C0A
  8
AM_0
 10
306.92996520153667
 20
556.08577913427666
 30
0.0
 11
309.9299652015369
 21
556.08577913427666
 31
0.0
  0
LINE
  5
2C0B
  8
AM_0
 10
305.9299652015369
 20
559.97255913427671
 30
0.0
 11
306.92996520153667
 21
559.97255913427671
 31
0.0
  0
ARC
  5
2C0C
  8
AM_0
 10
307.53494520153669
 20
560.55577913427692
 30
0.0
 40
5.0
 50
60.11298000000248
 51
88.499997000000647
  0
LINE
  5
2C0D
  8
AM_0
 10
306.92996520153667
 20
558.97252913427678
 30
0.0
 11
309.9299652015369
 21
558.97252913427678
 31
0.0
  0
ARC
  5
2C0E
  8
AM_0
 10
323.15463520153662
 20
563.11265913427667
 30
0.0
 40
5.0
 50
240.11298000000241
 51
268.50000000000063
  0
ARC
  5
2C0F
  8
AM_0
 10
335.92996520153662
 20
553.60655913427684
 30
0.0
 40
5.0
 50
180.00001000000091
 51
265.00001000000032
  0
LINE
  5
2C10
  8
AM_0
 10
341.1914652015368
 20
548.12715913427678
 30
0.0
 11
335.49420520153677
 21
548.62559913427685
 31
0.0
  0
ARC
  5
2C11
  8
AM_0
 10
340.92999520153683
 20
538.91310913427685
 30
0.0
 40
3.0
 50
0.0
 51
88.499997000000647
  0
ARC
  5
2C12
  8
AM_0
 10
348.10400520153672
 20
548.67882913427684
 30
0.0
 40
5.0
 50
206.2656700000002
 51
265.00001000000032
  0
ARC
  5
2C13
  8
AM_0
 10
340.92999520153683
 20
545.13856913427685
 30
0.0
 40
3.0
 50
0.0
 51
85.000004000000885
  0
LINE
  5
2C14
  8
AM_0
 10
352.36575520153679
 20
543.28685913427682
 30
0.0
 11
347.66824520153671
 21
543.69783913427682
 31
0.0
  0
LINE
  5
2C15
  8
AM_0
 10
330.9299652015369
 20
553.60655913427684
 30
0.0
 11
330.9299652015369
 21
566.89076913427675
 31
0.0
  0
ARC
  5
2C16
  8
AM_0
 10
327.92996520153662
 20
554.98488913427684
 30
0.0
 40
3.0
 50
0.0
 51
88.499997000000647
  0
LINE
  5
2C17
  8
AM_0
 10
361.92993520153658
 20
506.88756913427687
 30
0.0
 11
401.92996520153679
 21
506.88756913427687
 31
0.0
  0
LINE
  5
2C18
  8
AM_0
 10
369.92996520153667
 20
498.88753913427678
 30
0.0
 11
401.92996520153679
 21
498.88753913427678
 31
0.0
  0
LINE
  5
2C19
  8
AM_0
 10
359.92996520153679
 20
507.38753913427678
 30
0.0
 11
361.92993520153658
 21
507.38753913427678
 31
0.0
  0
ARC
  5
2C1A
  8
AM_0
 10
358.92996520153667
 20
520.42186913427668
 30
0.0
 40
1.0
 50
0.0
 51
87.999999999999503
  0
ARC
  5
2C1B
  8
AM_0
 10
357.92996520153679
 20
522.45802913427679
 30
0.0
 40
1.0
 50
180.00001000000091
 51
267.99999999999932
  0
LINE
  5
2C1C
  8
AM_0
 10
357.89504520153679
 20
521.45860913427691
 30
0.0
 11
358.96487520153681
 21
521.42125913427685
 31
0.0
  0
ARC
  5
2C1D
  8
AM_0
 10
357.92996520153679
 20
546.45939913427685
 30
0.0
 40
2.0
 50
271.4999999999992
 51
0.0
  0
LINE
  5
2C1E
  8
AM_0
 10
356.9299952015366
 20
544.43254913427688
 30
0.0
 11
357.98232520153681
 21
544.46010913427665
 31
0.0
  0
ARC
  5
2C1F
  8
AM_0
 10
357.92996520153679
 20
569.31572913427669
 30
0.0
 40
2.0
 50
0.0
 51
88.499997000000647
  0
LINE
  5
2C20
  8
AM_0
 10
217.4300028309313
 20
521.88756913427665
 30
0.0
 11
217.4300028309313
 21
467.88756913427682
 31
0.0
  0
LINE
  5
2C21
  8
AM_0
 10
247.9299952015368
 20
557.88756913427665
 30
0.0
 11
247.9299952015368
 21
431.88756913427687
 31
0.0
  0
LINE
  5
2C22
  8
AM_0
 10
192.4300073608843
 20
469.88756913427682
 30
0.0
 11
192.4300073608843
 21
519.88756913427676
 31
0.0
  0
LINE
  5
2C23
  8
AM_0
 10
190.4300073608843
 20
511.97335557190371
 30
0.0
 11
190.4300073608843
 21
477.80178269664992
 31
0.0
  0
LINE
  5
2C24
  8
AM_0
 10
194.4300073608843
 20
467.88756913427682
 30
0.0
 11
213.28786720720021
 21
467.88756913427682
 31
0.0
  0
ARC
  5
2C25
  8
AM_0
 10
194.4300073608843
 20
469.88756913427682
 30
0.0
 40
2.0
 50
180.0
 51
270.0
1001
GENIUS_GENOBJ-N-FIL_13
1002
{
1000
OWNER
1000
GEN
1002
}
1001
GENIUS_GENODEF_13
1002
{
1000
HIER
1070
     0
1002
}
1002
{
1000
MANEDIT
1070
     0
1002
}
1002
{
1000
NOSEL
1070
     0
1002
}
1002
{
1000
BEHIND
1070
     0
1002
}
1002
{
1000
OTHER
1070
     0
1002
}
1002
{
1000
REACTOR
1002
}
  0
ARC
  5
2C26
  8
AM_0
 10
191.4300073608843
 20
477.80178269664992
 30
0.0
 40
1.0
 50
180.0
 51
225.0
1001
GENIUS_GENODEF_13
1002
{
1000
HIER
1070
     0
1002
}
1002
{
1000
MANEDIT
1070
     0
1002
}
1002
{
1000
NOSEL
1070
     0
1002
}
1002
{
1000
BEHIND
1070
     0
1002
}
1002
{
1000
OTHER
1070
     0
1002
}
1002
{
1000
REACTOR
1002
}
1001
GENIUS_GENOBJ-N-FIL_13
1002
{
1000
OWNER
1000
GEN
1002
}
  0
ARC
  5
2C27
  8
AM_0
 10
191.4300073608843
 20
474.97335557190382
 30
0.0
 40
1.0
 50
0.0
 51
45.0
1001
GENIUS_GENODEF_13
1002
{
1000
HIER
1070
     0
1002
}
1002
{
1000
MANEDIT
1070
     0
1002
}
1002
{
1000
NOSEL
1070
     0
1002
}
1002
{
1000
BEHIND
1070
     0
1002
}
1002
{
1000
OTHER
1070
     0
1002
}
1002
{
1000
REACTOR
1002
}
1001
GENIUS_GENOBJ-N-FIL_13
1002
{
1000
OWNER
1000
GEN
1002
}
  0
LINE
  5
2C28
  8
AM_0
 10
190.72290057969781
 20
477.09467591546343
 30
0.0
 11
192.13711414207069
 21
475.68046235309038
 31
0.0
  0
LINE
  5
2C29
  8
AM_0
 10
246.46552910746951
 20
438.85204285773841
 30
0.0
 11
220.3589350190658
 21
464.95863694614229
 31
0.0
  0
ARC
  5
2C2A
  8
AM_0
 10
248.9299952015368
 20
431.88756913427687
 30
0.0
 40
1.0
 50
180.0
 51
270.0
1001
GENIUS_GENODEF_13
1002
{
1000
HIER
1070
     0
1002
}
1002
{
1000
MANEDIT
1070
     0
1002
}
1002
{
1000
NOSEL
1070
     0
1002
}
1002
{
1000
BEHIND
1070
     0
1002
}
1002
{
1000
OTHER
1070
     0
1002
}
1002
{
1000
REACTOR
1002
}
1001
GENIUS_GENOBJ-N-FIL_13
1002
{
1000
OWNER
1000
GEN
1002
}
  0
ARC
  5
2C2B
  8
AM_0
 10
242.9299952015368
 20
435.31650895180559
 30
0.0
 40
5.0
 50
0.0
 51
45.0
1001
GENIUS_GENODEF_13
1002
{
1000
HIER
1070
     0
1002
}
1002
{
1000
MANEDIT
1070
     0
1002
}
1002
{
1000
NOSEL
1070
     0
1002
}
1002
{
1000
BEHIND
1070
     0
1002
}
1002
{
1000
OTHER
1070
     0
1002
}
1002
{
1000
REACTOR
1002
}
1001
GENIUS_GENOBJ-N-FIL_13
1002
{
1000
OWNER
1000
GEN
1002
}
  0
LINE
  5
2C2C
  8
AM_0
 10
257.92999520153683
 20
430.88756913427687
 30
0.0
 11
248.9299952015368
 21
430.88756913427687
 31
0.0
  0
ARC
  5
2C2D
  8
AM_0
 10
213.28786720720021
 20
457.88756913427659
 30
0.0
 40
10.0
 50
45.0
 51
90.0
1001
GENIUS_GENODEF_13
1002
{
1000
HIER
1070
     0
1002
}
1002
{
1000
MANEDIT
1070
     0
1002
}
1002
{
1000
NOSEL
1070
     0
1002
}
1002
{
1000
BEHIND
1070
     0
1002
}
1002
{
1000
OTHER
1070
     0
1002
}
1002
{
1000
REACTOR
1002
}
1001
GENIUS_GENOBJ-N-FIL_13
1002
{
1000
OWNER
1000
GEN
1002
}
  0
LINE
  5
2C2E
  8
AM_0
 10
257.92999520153683
 20
443.38756913427687
 30
0.0
 11
247.929995201537
 21
443.38756913427687
 31
0.0
  0
LINE
  5
2C2F
  8
AM_0
 10
257.92999520153683
 20
456.89126413427692
 30
0.0
 11
247.929995201537
 21
456.89126413427692
 31
0.0
  0
LINE
  5
2C30
  8
AM_0
 10
194.4300073608843
 20
521.88756913427665
 30
0.0
 11
213.28786720720021
 21
521.88756913427665
 31
0.0
  0
LINE
  5
2C31
  8
AM_0
 10
160.4300073608843
 20
497.38756913427682
 30
0.0
 11
182.4300073608843
 21
497.38756913427682
 31
0.0
  0
LINE
  5
2C32
  8
AM_0
 10
160.4300073608843
 20
492.38756913427682
 30
0.0
 11
182.4300073608843
 21
492.38756913427682
 31
0.0
  0
LINE
  5
2C33
  8
AM_0
 10
160.4300073608843
 20
486.88756913427659
 30
0.0
 11
188.4300073608843
 21
486.88756913427659
 31
0.0
  0
LINE
  5
2C34
  8
AM_0
 10
160.4300073608843
 20
502.88756913427687
 30
0.0
 11
188.4300073608843
 21
502.88756913427687
 31
0.0
  0
LINE
  5
2C35
  8
AM_0
 10
160.4300073608843
 20
502.88756913427687
 30
0.0
 11
160.4300073608843
 21
486.88756913427659
 31
0.0
  0
ARC
  5
2C36
  8
AM_0
 10
182.4300073608843
 20
494.88756913427682
 30
0.0
 40
2.5
 50
270.0
 51
90.0
  0
LINE
  5
2C37
  8
AM_0
 10
182.4300073608843
 20
497.38756913427682
 30
0.0
 11
182.4300073608843
 21
492.38756913427682
 31
0.0
  0
LINE
  5
2C38
  8
AM_0
 10
188.4300073608843
 20
503.38756913427682
 30
0.0
 11
188.4300073608843
 21
486.38756913427682
 31
0.0
  0
LINE
  5
2C39
  8
AM_0
 10
188.4300073608843
 20
486.38757446732677
 30
0.0
 11
190.4300073608843
 21
486.3875734007168
 31
0.0
  0
LINE
  5
2C3A
  8
AM_0
 10
188.4300073608843
 20
503.38756913427682
 30
0.0
 11
190.4300073608843
 21
503.38756913427682
 31
0.0
  0
LINE
  5
2C3B
  8
AM_0
 10
190.72290057969781
 20
512.68046235309032
 30
0.0
 11
192.13711414207069
 21
514.09467591546354
 31
0.0
  0
ARC
  5
2C3C
  8
AM_0
 10
191.4300073608843
 20
514.80178269664998
 30
0.0
 40
1.0
 50
315.0
 51
0.0
1001
GENIUS_GENODEF_13
1002
{
1000
HIER
1070
     0
1002
}
1002
{
1000
MANEDIT
1070
     0
1002
}
1002
{
1000
NOSEL
1070
     0
1002
}
1002
{
1000
BEHIND
1070
     0
1002
}
1002
{
1000
OTHER
1070
     0
1002
}
1002
{
1000
REACTOR
1002
}
1001
GENIUS_GENOBJ-N-FIL_13
1002
{
1000
OWNER
1000
GEN
1002
}
  0
ARC
  5
2C3D
  8
AM_0
 10
191.4300073608843
 20
511.97335557190371
 30
0.0
 40
1.0
 50
135.0
 51
180.0
1001
GENIUS_GENODEF_13
1002
{
1000
HIER
1070
     0
1002
}
1002
{
1000
MANEDIT
1070
     0
1002
}
1002
{
1000
NOSEL
1070
     0
1002
}
1002
{
1000
BEHIND
1070
     0
1002
}
1002
{
1000
OTHER
1070
     0
1002
}
1002
{
1000
REACTOR
1002
}
1001
GENIUS_GENOBJ-N-FIL_13
1002
{
1000
OWNER
1000
GEN
1002
}
  0
ARC
  5
2C3E
  8
AM_0
 10
194.4300073608843
 20
519.88756913427676
 30
0.0
 40
2.0
 50
90.0
 51
180.0
1001
GENIUS_GENOBJ-N-FIL_13
1002
{
1000
OWNER
1000
GEN
1002
}
1001
GENIUS_GENODEF_13
1002
{
1000
HIER
1070
     0
1002
}
1002
{
1000
MANEDIT
1070
     0
1002
}
1002
{
1000
NOSEL
1070
     0
1002
}
1002
{
1000
BEHIND
1070
     0
1002
}
1002
{
1000
OTHER
1070
     0
1002
}
1002
{
1000
REACTOR
1002
}
  0
LINE
  5
2C3F
  8
AM_0
 10
246.46552910746951
 20
550.92309541081522
 30
0.0
 11
220.35893501906571
 21
524.81650132241145
 31
0.0
  0
ARC
  5
2C40
  8
AM_0
 10
213.28786720720021
 20
531.88756913427687
 30
0.0
 40
10.0
 50
270.0
 51
315.0
1001
GENIUS_GENODEF_13
1002
{
1000
HIER
1070
     0
1002
}
1002
{
1000
MANEDIT
1070
     0
1002
}
1002
{
1000
NOSEL
1070
     0
1002
}
1002
{
1000
BEHIND
1070
     0
1002
}
1002
{
1000
OTHER
1070
     0
1002
}
1002
{
1000
REACTOR
1002
}
1001
GENIUS_GENOBJ-N-FIL_13
1002
{
1000
OWNER
1000
GEN
1002
}
  0
LINE
  5
2C41
  8
AM_0
 10
257.92999520153683
 20
532.88387913427675
 30
0.0
 11
247.929995201537
 21
532.88387913427675
 31
0.0
  0
LINE
  5
2C42
  8
AM_0
 10
257.92999520153683
 20
546.38756913427665
 30
0.0
 11
247.929995201537
 21
546.38756913427665
 31
0.0
  0
ARC
  5
2C43
  8
AM_0
 10
248.9299952015368
 20
557.88756913427665
 30
0.0
 40
1.0
 50
90.0
 51
180.0
1001
GENIUS_GENODEF_13
1002
{
1000
HIER
1070
     0
1002
}
1002
{
1000
MANEDIT
1070
     0
1002
}
1002
{
1000
NOSEL
1070
     0
1002
}
1002
{
1000
BEHIND
1070
     0
1002
}
1002
{
1000
OTHER
1070
     0
1002
}
1002
{
1000
REACTOR
1002
}
1001
GENIUS_GENOBJ-N-FIL_13
1002
{
1000
OWNER
1000
GEN
1002
}
  0
ARC
  5
2C44
  8
AM_0
 10
242.9299952015368
 20
554.45862931674765
 30
0.0
 40
5.0
 50
315.0
 51
0.0
1001
GENIUS_GENODEF_13
1002
{
1000
HIER
1070
     0
1002
}
1002
{
1000
MANEDIT
1070
     0
1002
}
1002
{
1000
NOSEL
1070
     0
1002
}
1002
{
1000
BEHIND
1070
     0
1002
}
1002
{
1000
OTHER
1070
     0
1002
}
1002
{
1000
REACTOR
1002
}
1001
GENIUS_GENOBJ-N-FIL_13
1002
{
1000
OWNER
1000
GEN
1002
}
  0
LINE
  5
2C45
  8
AM_0
 10
257.92999520153683
 20
558.88756913427665
 30
0.0
 11
248.9299952015368
 21
558.88756913427665
 31
0.0
  0
TEXT
  5
2E2B
  8
AM_0
 10
472.53217687284331
 20
487.67736940895912
 30
0.0
 40
10.0
  1
VX04-015G~VX0-030G
  0
ENDSEC
  0
EOF
