  0
SECTION
  2
HEADER
  9
$ACADVER
  1
AC1009
  9
$INSBASE
 10
0.0
 20
0.0
 30
0.0
  9
$EXTMIN
 10
154.6265509343084
 20
181.1693588029236
 30
-0.0000000000112498
  9
$EXTMAX
 10
644.82644064809028
 20
548.53843817433619
 30
0.0000000000002956
  9
$LIMMIN
 10
0.0
 20
0.0
  9
$LIMMAX
 10
853.5
 20
555.00000000000011
  9
$ORTHOMODE
 70
     0
  9
$REGENMODE
 70
     1
  9
$FILLMODE
 70
     1
  9
$QTEXTMODE
 70
     0
  9
$MIRRTEXT
 70
     1
  9
$DRAGMODE
 70
     2
  9
$LTSCALE
 40
3.0
  9
$OSMODE
 70
   551
  9
$ATTMODE
 70
     1
  9
$TEXTSIZE
 40
2.5
  9
$TRACEWID
 40
1.0
  9
$TEXTSTYLE
  7
STANDARD
  9
$CLAYER
  8
AM_0
  9
$CELTYPE
  6
BYLAYER
  9
$CECOLOR
 62
   256
  9
$DIMSCALE
 40
1.0
  9
$DIMASZ
 40
2.5
  9
$DIMEXO
 40
1.0
  9
$DIMDLI
 40
8.0
  9
$DIMRND
 40
0.0
  9
$DIMDLE
 40
0.0
  9
$DIMEXE
 40
0.6
  9
$DIMTP
 40
0.1
  9
$DIMTM
 40
0.1
  9
$DIMTXT
 40
2.5
  9
$DIMCEN
 40
0.0
  9
$DIMTSZ
 40
0.0
  9
$DIMTOL
 70
     0
  9
$DIMLIM
 70
     0
  9
$DIMTIH
 70
     0
  9
$DIMTOH
 70
     0
  9
$DIMSE1
 70
     0
  9
$DIMSE2
 70
     0
  9
$DIMTAD
 70
     1
  9
$DIMZIN
 70
     8
  9
$DIMBLK
  1

  9
$DIMASO
 70
     1
  9
$DIMSHO
 70
     1
  9
$DIMPOST
  1

  9
$DIMAPOST
  1
"
  9
$DIMALT
 70
     0
  9
$DIMALTD
 70
     2
  9
$DIMALTF
 40
0.0393701
  9
$DIMLFAC
 40
1.0
  9
$DIMTOFL
 70
     1
  9
$DIMTVP
 40
0.0
  9
$DIMTIX
 70
     0
  9
$DIMSOXD
 70
     0
  9
$DIMSAH
 70
     0
  9
$DIMBLK1
  1

  9
$DIMBLK2
  1

  9
$DIMSTYLE
  2
AM_ISO
  9
$DIMCLRD
 70
   256
  9
$DIMCLRE
 70
   256
  9
$DIMCLRT
 70
     4
  9
$DIMTFAC
 40
0.71
  9
$DIMGAP
 40
0.8
  9
$LUNITS
 70
     2
  9
$LUPREC
 70
     2
  9
$SKETCHINC
 40
1.0
  9
$FILLETRAD
 40
15.0
  9
$AUNITS
 70
     0
  9
$AUPREC
 70
     0
  9
$MENU
  1
.
  9
$ELEVATION
 40
0.0
  9
$PELEVATION
 40
0.0
  9
$THICKNESS
 40
0.0
  9
$LIMCHECK
 70
     0
  9
$BLIPMODE
 70
     0
  9
$CHAMFERA
 40
6.0
  9
$CHAMFERB
 40
3.0
  9
$SKPOLY
 70
     0
  9
$TDCREATE
 40
2452066.3775750468
  9
$TDUPDATE
 40
2458541.412689005
  9
$TDINDWG
 40
0.1256993287
  9
$TDUSRTIMER
 40
0.1256993056
  9
$USRTIMER
 70
     1
  9
$ANGBASE
 50
0.0
  9
$ANGDIR
 70
     0
  9
$PDMODE
 70
     0
  9
$PDSIZE
 40
0.0
  9
$PLINEWID
 40
0.0
  9
$COORDS
 70
     1
  9
$SPLFRAME
 70
     0
  9
$SPLINETYPE
 70
     6
  9
$SPLINESEGS
 70
     8
  9
$ATTDIA
 70
     1
  9
$ATTREQ
 70
     1
  9
$HANDLING
 70
     1
  9
$HANDSEED
  5
36CA
  9
$SURFTAB1
 70
     6
  9
$SURFTAB2
 70
     6
  9
$SURFTYPE
 70
     6
  9
$SURFU
 70
     6
  9
$SURFV
 70
     6
  9
$UCSNAME
  2

  9
$UCSORG
 10
0.0
 20
0.0
 30
0.0
  9
$UCSXDIR
 10
1.0
 20
0.0
 30
0.0
  9
$UCSYDIR
 10
0.0
 20
1.0
 30
0.0
  9
$PUCSNAME
  2

  9
$PUCSORG
 10
0.0
 20
0.0
 30
0.0
  9
$PUCSXDIR
 10
1.0
 20
0.0
 30
0.0
  9
$PUCSYDIR
 10
0.0
 20
1.0
 30
0.0
  9
$USERI1
 70
     0
  9
$USERI2
 70
     0
  9
$USERI3
 70
     0
  9
$USERI4
 70
     0
  9
$USERI5
 70
     0
  9
$USERR1
 40
0.0
  9
$USERR2
 40
0.0
  9
$USERR3
 40
0.0
  9
$USERR4
 40
0.0
  9
$USERR5
 40
0.0
  9
$WORLDVIEW
 70
     1
  9
$SHADEDGE
 70
     3
  9
$SHADEDIF
 70
    70
  9
$TILEMODE
 70
     1
  9
$MAXACTVP
 70
    64
  9
$PLIMCHECK
 70
     0
  9
$PEXTMIN
 10
1.0000000000000000E+020
 20
1.0000000000000000E+020
 30
1.0000000000000000E+020
  9
$PEXTMAX
 10
-1.0000000000000000E+020
 20
-1.0000000000000000E+020
 30
-1.0000000000000000E+020
  9
$PLIMMIN
 10
0.0
 20
0.0
  9
$PLIMMAX
 10
420.0
 20
297.0
  9
$UNITMODE
 70
     0
  9
$VISRETAIN
 70
     1
  9
$PLINEGEN
 70
     0
  9
$PSLTSCALE
 70
     1
  0
ENDSEC
  0
SECTION
  2
TABLES
  0
TABLE
  2
VPORT
 70
     1
  0
VPORT
  2
*ACTIVE
 70
     0
 10
0.0
 20
0.0
 11
1.0
 21
1.0
 12
399.72649579119928
 22
364.85389848863002
 13
0.0
 23
0.0
 14
7.5
 24
7.5
 15
30.0
 25
30.0
 16
0.0
 26
0.0
 36
1.0
 17
0.0
 27
0.0
 37
0.0
 40
369.8910638979898
 41
1.7571592210767459
 42
50.0
 43
0.0
 44
0.0
 50
0.0
 51
0.0
 71
     0
 72
   100
 73
     1
 74
     3
 75
     0
 76
     0
 77
     0
 78
     0
  0
ENDTAB
  0
TABLE
  2
LTYPE
 70
    27
  0
LTYPE
  2
CONTINUOUS
 70
     0
  3
Solid line
 72
    65
 73
     0
 40
0.0
  0
LTYPE
  2
AM_ISO02W050
 70
     0
  3
__ __ __ __ __ __ __ __ __ __ __ __ __ __ __
 72
    65
 73
     2
 40
7.5
 49
6.0
 49
-1.5
  0
LTYPE
  2
AM_ISO08W050
 70
     0
  3
____ . ____ . ____ . ____ . ____ . ____ . ____
 72
    65
 73
     4
 40
18.0
 49
12.0
 49
-1.5
 49
3.0
 49
-1.5
  0
LTYPE
  2
AM_ISO09W050
 70
     0
  3
_____ . . _____ . . _____ . . ____ .. ____
 72
    65
 73
     6
 40
22.5
 49
12.0
 49
-1.5
 49
3.0
 49
-1.5
 49
3.0
 49
-1.5
  0
LTYPE
  2
AMCONSTR
 70
     0
  3
_______________________
 72
    65
 73
     2
 40
9999.0
 49
9999.0
 49
0.0
  0
LTYPE
  2
AM_ISO08W050X2
 70
     0
  3
__ . __ . __ . __ . __ . __
 72
    65
 73
     4
 40
9.0
 49
6.0
 49
-0.75
 49
1.5
 49
-0.75
  0
LTYPE
  2
AM_ISO02W050X2
 70
     0
  3
 _ _ _ _ _ _ _ _ _ _ _ _
 72
    65
 73
     2
 40
3.75
 49
3.0
 49
-0.75
  0
LTYPE
  2
AMZIGZAG
 70
     0
  3
/\/-/\/-/\/-/\/-/\/-/\/
 72
    65
 73
     2
 40
11.000099999999991
 49
0.0001
 49
-11.0
  0
LTYPE
  2
ACISOWELD
 70
     0
  3
_ _ _ _ _
 72
    65
 73
     2
 40
2.0
 49
2.0
 49
-1.0
  0
LTYPE
  2
ACISOTGB
 70
     0
  3
__ . . __ . .
 72
    65
 73
     6
 40
9.0
 49
4.0
 49
-1.0
 49
1.0
 49
-1.0
 49
1.0
 49
-1.0
  0
LTYPE
  2
ACISOTGL
 70
     0
  3
_ _ _ _ _
 72
    65
 73
     2
 40
3.0
 49
2.0
 49
-1.0
  0
LTYPE
  2
CENTER
 70
     0
  3
__ . __
 72
    65
 73
     4
 40
7.0
 49
4.0
 49
-1.0
 49
1.0
 49
-1.0
  0
LTYPE
  2
PHANTOM2
 70
     0
  3
Phantom (.5x) ___ _ _ ___ _ _ ___ _ _ ___ _ _
 72
    65
 73
     6
 40
31.75
 49
15.875
 49
-3.174999999999998
 49
3.174999999999998
 49
-3.174999999999998
 49
3.174999999999998
 49
-3.174999999999998
  0
LTYPE
  2
ACANSTGBM
 70
     0
  3
__ . . __ . .
 72
    65
 73
     6
 40
9.0
 49
4.0
 49
-1.0
 49
1.0
 49
-1.0
 49
1.0
 49
-1.0
  0
LTYPE
  2
ACANSTGLM
 70
     0
  3
_ _ _ _ _
 72
    65
 73
     2
 40
3.0
 49
2.0
 49
-1.0
  0
LTYPE
  2
GEN7
 70
     0
  3
____ . ____ . ____ . ____ . ____ . ____ . ____
 72
    65
 73
     4
 40
14.25
 49
9.75
 49
-1.5
 49
1.5
 49
-1.5
  0
LTYPE
  2
GEN3B
 70
     0
  3
 - - - - -
 72
    65
 73
     2
 40
1.0
 49
0.5
 49
-0.5
  0
LTYPE
  2
GEN7A
 70
     0
  3
__ . __ . __
 72
    65
 73
     4
 40
7.375
 49
4.75
 49
-0.875
 49
0.875
 49
-0.875
  0
LTYPE
  2
ACJISTGB
 70
     0
  3
__ . . __ . .
 72
    65
 73
     6
 40
9.0
 49
4.0
 49
-1.0
 49
1.0
 49
-1.0
 49
1.0
 49
-1.0
  0
LTYPE
  2
ACJISTGL
 70
     0
  3
_ _ _ _ _
 72
    65
 73
     2
 40
3.0
 49
2.0
 49
-1.0
  0
LTYPE
  2
HIDDEN
 70
     0
  3
Hidden __ __ __ __ __ __ __ __ __ __ __ __ __ _
 72
    65
 73
     2
 40
0.375
 49
0.25
 49
-0.125
  0
LTYPE
  2
CENTER2
 70
     0
  3
Center (.5x) ___ _ ___ _ ___ _ ___ _ ___ _ ___
 72
    65
 73
     4
 40
1.125
 49
0.75
 49
-0.125
 49
0.125
 49
-0.125
  0
LTYPE
  2
HIDDEN2
 70
     0
  3
Hidden (.5x) _ _ _ _ _ _ _ _ _ _ _ _ _ _ _ _ _
 72
    65
 73
     2
 40
0.1875
 49
0.125
 49
-0.0625
  0
LTYPE
  2
AMZIGZAG2
 70
     0
  3
/\/-/\/-/\/-/\/-/\/-/\/
 72
    65
 73
     2
 40
0.4401
 49
0.0001
 49
-0.4400000000000002
  0
LTYPE
  2
ACANSTGB
 70
     0
  3
__ . . __ . .
 72
    65
 73
     6
 40
0.35433070866
 49
0.15748031496
 49
-0.03937007874
 49
0.03937007874
 49
-0.03937007874
 49
0.03937007874
 49
-0.03937007874
  0
LTYPE
  2
ACANSTGL
 70
     0
  3
_ _ _ _ _
 72
    65
 73
     2
 40
0.11811023622
 49
0.07874015748
 49
-0.03937007874
  0
ENDTAB
  0
TABLE
  2
LAYER
 70
     7
  0
LAYER
  2
0
 70
     0
 62
     7
  6
CONTINUOUS
  0
LAYER
  2
AM_0
 70
     0
 62
     7
  6
CONTINUOUS
  0
LAYER
  2
AM_5
 70
     0
 62
     2
  6
CONTINUOUS
  0
LAYER
  2
DEFPOINTS
 70
     0
 62
     7
  6
CONTINUOUS
  0
LAYER
  2
ｶｸﾚｾﾝ2
 70
     0
 62
     3
  6
GEN3B
  0
LAYER
  2
ﾁｭｳｼﾝｾﾝ
 70
     0
 62
     1
  6
GEN7
  0
LAYER
  2
ﾁｭｳｼﾝｾﾝ1
 70
     0
 62
     1
  6
GEN7A
  0
ENDTAB
  0
TABLE
  2
STYLE
 70
     9
  0
STYLE
  2
STANDARD
 70
     0
 40
0.0
 41
0.8299999999999999
 50
0.0
 71
     0
 42
2.5
  3
txt.shx
  4
bigfont.shx
  0
STYLE
  2
ANNOTATIVE
 70
     0
 40
0.0
 41
1.0
 50
0.0
 71
     0
 42
0.2
  3
txt
  4

  0
STYLE
  2

 70
     1
 40
0.0
 41
1.0
 50
0.0
 71
     0
 42
2.5
  3
ltypeshp.shx
  4

  0
STYLE
  2
ACISOTS
 70
     0
 40
1.0
 41
1.0
 50
0.0
 71
     0
 42
2.5
  3
isocp.shx
  4
extfont.shx
  0
STYLE
  2
ACISOGDT
 70
     0
 40
0.0
 41
1.0
 50
0.0
 71
     0
 42
2.5
  3
amgdt.shx
  4

  0
STYLE
  2
ACANSTS
 70
     0
 40
1.0
 41
1.0
 50
0.0
 71
     0
 42
2.5
  3
romans.shx
  4
bigfont.shx
  0
STYLE
  2
ACANSGDT
 70
     0
 40
0.0
 41
1.0
 50
0.0
 71
     0
 42
2.5
  3
amgdt.shx
  4

  0
STYLE
  2
ACJISTS
 70
     0
 40
1.0
 41
1.0
 50
0.0
 71
     0
 42
2.5
  3
isocp.shx
  4
bigfont.shx
  0
STYLE
  2
ACJISGDT
 70
     0
 40
0.0
 41
1.0
 50
0.0
 71
     0
 42
2.5
  3
amgdt.shx
  4

  0
ENDTAB
  0
TABLE
  2
VIEW
 70
     6
  0
VIEW
  2
AM_VIEW1
 70
     0
 40
277.49999999999989
 10
249.64779005524849
 20
416.24999999999989
 41
499.2955801104971
 11
0.0
 21
0.0
 31
1.0
 12
0.0
 22
0.0
 32
0.0
 42
50.0
 43
0.0
 44
0.0
 50
0.0
 71
     0
  0
VIEW
  2
AM_VIEW2
 70
     0
 40
277.49999999999989
 10
603.85220994475117
 20
416.24999999999989
 41
499.2955801104971
 11
0.0
 21
0.0
 31
1.0
 12
0.0
 22
0.0
 32
0.0
 42
50.0
 43
0.0
 44
0.0
 50
0.0
 71
     0
  0
VIEW
  2
AM_VIEW3
 70
     0
 40
277.49999999999989
 10
249.64779005524849
 20
138.7499999999998
 41
499.2955801104971
 11
0.0
 21
0.0
 31
1.0
 12
0.0
 22
0.0
 32
0.0
 42
50.0
 43
0.0
 44
0.0
 50
0.0
 71
     0
  0
VIEW
  2
AM_VIEW4
 70
     0
 40
277.49999999999989
 10
603.85220994475117
 20
138.7499999999998
 41
499.2955801104971
 11
0.0
 21
0.0
 31
1.0
 12
0.0
 22
0.0
 32
0.0
 42
50.0
 43
0.0
 44
0.0
 50
0.0
 71
     0
  0
VIEW
  2
AM_VIEW5
 70
     0
 40
277.5
 10
426.75
 20
277.49999999999989
 41
499.2955801104971
 11
0.0
 21
0.0
 31
1.0
 12
0.0
 22
0.0
 32
0.0
 42
50.0
 43
0.0
 44
0.0
 50
0.0
 71
     0
  0
VIEW
  2
AM_VIEW6
 70
     0
 40
554.99445000000014
 10
426.75
 20
277.49999999999989
 41
998.5811743093924
 11
0.0
 21
0.0
 31
1.0
 12
0.0
 22
0.0
 32
0.0
 42
50.0
 43
0.0
 44
0.0
 50
0.0
 71
     0
  0
ENDTAB
  0
TABLE
  2
UCS
 70
     0
  0
ENDTAB
  0
TABLE
  2
APPID
 70
    95
  0
APPID
  2
ACAD
 70
     0
  0
APPID
  2
ACADANNOTATIVE
 70
     0
  0
APPID
  2
MCAD_NO_VIS
 70
     0
  0
APPID
  2
ACAD_TEMP_GRAPHIC
 70
     0
  0
APPID
  2
ACATTRIBSERVICES
 70
     0
  0
APPID
  2
GENIUS_GENREC_14
 70
     0
  0
APPID
  2
GENIUS_GENOBJ-N-REC_13
 70
     0
  0
APPID
  2
GENIUS_GENODEF_13
 70
     0
  0
APPID
  2
GENIUS_GENOLIS_13
 70
     0
  0
APPID
  2
GENIUS_GENOBJ-N-TIT_13
 70
     0
  0
APPID
  2
GENIUS_GENOENT_13
 70
     0
  0
APPID
  2
GENIUS_GENTITLE_13
 70
     0
  0
APPID
  2
GENIUS_GENOREF_13
 70
     0
  0
APPID
  2
GENIUS_GENSCREG_15
 70
     0
  0
APPID
  2
GENIUS_GENOBJ-N-SDF_13
 70
     0
  0
APPID
  2
GENIUS_GENFIL_13
 70
     0
  0
APPID
  2
GENIUS_GENOBJ-N-CHA_13
 70
     0
  0
APPID
  2
GENIUS_GENDTOL_13
 70
     0
  0
APPID
  2
GENIUS_GENOBJ-N-FIL_13
 70
     0
  0
APPID
  2
AD_DRAW
 70
     0
  0
APPID
  2
DESIGNERASSEMBLIES
 70
     0
  0
APPID
  2
ASURF_PCURVE_APPNAME
 70
     0
  0
APPID
  2
GENIUS_GE3SECT_13
 70
     0
  0
APPID
  2
GENIUS_GENCFG_13
 70
     0
  0
APPID
  2
GENIUS_GE3CFG0_13
 70
     0
  0
APPID
  2
GENIUS_GENCFG0_13
 70
     0
  0
APPID
  2
GENIUS_GENCFG1_13
 70
     0
  0
APPID
  2
GENIUS_GENCFG2_13
 70
     0
  0
APPID
  2
GENIUS_GENCFG3_13
 70
     0
  0
APPID
  2
GENIUS_GENCFG4_13
 70
     0
  0
APPID
  2
GENIUS_GEVCFG0_13
 70
     0
  0
APPID
  2
GENIUS_GENHINW_13
 70
     0
  0
APPID
  2
GENIUS_FIRSTVISTXT_14
 70
     0
  0
APPID
  2
GENIUS_GENOBJ-N-LEADER_13
 70
     0
  0
APPID
  2
GEV_VCCNULL_SWITCH_OFF
 70
     0
  0
APPID
  2
GENIUS_GEFCFG0_13
 70
     0
  0
APPID
  2
GENIUS_GENZVEED_13
 70
     0
  0
APPID
  2
GENIUS_GENSCREG_13
 70
     0
  0
APPID
  2
GENIUS_DUMCFG0_13
 70
     0
  0
APPID
  2
GEVID936201362
 70
     0
  0
APPID
  2
GEVDC
 70
     0
  0
APPID
  2
GEVCON
 70
     0
  0
APPID
  2
VCC
 70
     0
  0
APPID
  2
GEVPT
 70
     0
  0
APPID
  2
GEVIT
 70
     0
  0
APPID
  2
GENBH
 70
     0
  0
APPID
  2
GEVMK
 70
     0
  0
APPID
  2
GENIUS_GENBH_13
 70
     0
  0
APPID
  2
GENIUS_GENOBJ-NBEHI-BHF_13
 70
     0
  0
APPID
  2
GENIUS_GENOBJ-NBEHI-BHB_13
 70
     0
  0
APPID
  2
GENIUS_GENOBJ-F-DESC_13
 70
     0
  0
APPID
  2
GENIUS_GEFDESC_14
 70
     0
  0
APPID
  2
GENIUS_GENOBJ-F-PART_13
 70
     0
  0
APPID
  2
GENIUS_GEFSTDP_13
 70
     0
  0
APPID
  2
GENIUS_GEFPARTINS_13
 70
     0
  0
APPID
  2
GENIUS_GENTRA_14
 70
     0
  0
APPID
  2
GENIUS_GENINF13_13
 70
     0
  0
APPID
  2
GENIUS_GENOBJ-N-INFOPT_13
 70
     0
  0
APPID
  2
GENIUS_GENOBJ-N-RSSYM_13
 70
     0
  0
APPID
  2
GENIUS_GENSYMENT_13
 70
     0
  0
APPID
  2
GENIUS_GENSCSYM_13
 70
     0
  0
APPID
  2
GENIUS_GEFINFNAM_13
 70
     0
  0
APPID
  2
GENIUS_GENOBJ-N-CEN_13
 70
     0
  0
APPID
  2
GENIUS_GENOBJ-N-CRS_13
 70
     0
  0
APPID
  2
GENIUS_GENOBJ-N-CRC_13
 70
     0
  0
APPID
  2
GENIUS_GENCRC_14
 70
     0
  0
APPID
  2
GEVID942827039
 70
     0
  0
APPID
  2
GEVID942827040
 70
     0
  0
APPID
  2
GEVID942827041
 70
     0
  0
APPID
  2
GENIUS_GENOBJ-F-SCPASSM_13
 70
     0
  0
APPID
  2
GENIUS_GENDIMSH_14
 70
     0
  0
APPID
  2
GEVID942827042
 70
     0
  0
APPID
  2
GEVID946020473
 70
     0
  0
APPID
  2
GEVID946020474
 70
     0
  0
APPID
  2
GEVID946020475
 70
     0
  0
APPID
  2
GENIUS_GENOBJ-N-HTC_13
 70
     0
  0
APPID
  2
GENIUS_GENHATCH_13
 70
     0
  0
APPID
  2
GEVID948854295
 70
     0
  0
APPID
  2
GEVID939402019
 70
     0
  0
APPID
  2
GEVID952919491
 70
     0
  0
APPID
  2
GEVID952919492
 70
     0
  0
APPID
  2
GENIUS_GEFWELD_13
 70
     0
  0
APPID
  2
GENIUS_GENOBJ-F-WELS_13
 70
     0
  0
APPID
  2
GEVID952919493
 70
     0
  0
APPID
  2
GENIUS_GENOBJ-N-RSBK_13
 70
     0
  0
APPID
  2
GENIUS_GENOBJ-N-LIB_13
 70
     0
  0
APPID
  2
GENIUS_GENSCALE_13
 70
     0
  0
APPID
  2
GEVID986376691
 70
     0
  0
APPID
  2
DCO15
 70
     0
  0
APPID
  2
ACAD_DSTYLE_DIMBREAK
 70
     0
  0
APPID
  2
ACAD_DSTYLE_DIMJAG
 70
     0
  0
APPID
  2
ACAD_NAV_VCDISPLAY
 70
     0
  0
APPID
  2
ACADANNOPO
 70
     0
  0
APPID
  2
ACAD_EXEMPT_FROM_CAD_STANDARDS
 70
     0
  0
APPID
  2
ACAD_MLEADERVER
 70
     0
  0
ENDTAB
  0
TABLE
  2
DIMSTYLE
 70
    22
  0
DIMSTYLE
  2
STANDARD
 70
     0
  3

  4

  5

  6

  7

 40
1.0
 41
0.18
 42
0.0625
 43
0.38
 44
0.18
 45
0.0
 46
0.0
 47
0.0
 48
0.0
140
0.18
141
0.09
142
0.0
143
25.399999999999999
144
1.0
145
0.0
146
1.0
147
0.09
 71
     0
 72
     0
 73
     1
 74
     1
 75
     0
 76
     0
 77
     0
 78
     0
170
     0
171
     2
172
     0
173
     0
174
     0
175
     0
176
     0
177
     0
178
     0
  0
DIMSTYLE
  2
ANNOTATIVE
 70
     0
  3

  4

  5

  6

  7

 40
1.0
 41
0.18
 42
0.0625
 43
0.38
 44
0.18
 45
0.0
 46
0.0
 47
0.0
 48
0.0
140
0.18
141
0.09
142
0.0
143
25.399999999999999
144
1.0
145
0.0
146
1.0
147
0.09
 71
     0
 72
     0
 73
     1
 74
     1
 75
     0
 76
     0
 77
     0
 78
     0
170
     0
171
     2
172
     0
173
     0
174
     0
175
     0
176
     0
177
     0
178
     0
  0
DIMSTYLE
  2
AM_ISO
 70
     0
  3

  4
"
  5

  6

  7

 40
1.0
 41
2.5
 42
1.0
 43
8.0
 44
0.6
 45
0.0
 46
0.0
 47
0.1
 48
0.1
140
2.5
141
0.0
142
0.0
143
0.0393701
144
1.0
145
0.0
146
0.71
147
0.8
 71
     0
 72
     0
 73
     0
 74
     0
 75
     0
 76
     0
 77
     1
 78
     8
170
     0
171
     2
172
     1
173
     0
174
     0
175
     0
176
   256
177
   256
178
     4
  0
DIMSTYLE
  2
AM_ISO$3
 70
     0
  3

  4
"
  5

  6

  7

 40
1.0
 41
2.5
 42
1.0
 43
8.0
 44
0.6
 45
0.0
 46
0.0
 47
0.1
 48
0.1
140
2.5
141
0.0
142
0.0
143
0.0393701
144
1.0
145
0.0
146
0.71
147
0.8
 71
     0
 72
     0
 73
     0
 74
     1
 75
     0
 76
     0
 77
     1
 78
     8
170
     0
171
     2
172
     0
173
     0
174
     0
175
     0
176
   256
177
   256
178
     4
  0
DIMSTYLE
  2
AM_ISO$4
 70
     0
  3

  4
"
  5

  6

  7

 40
1.0
 41
2.5
 42
1.0
 43
8.0
 44
0.6
 45
0.0
 46
0.0
 47
0.1
 48
0.1
140
2.5
141
0.0
142
0.0
143
0.0393701
144
1.0
145
0.0
146
0.71
147
0.8
 71
     0
 72
     0
 73
     0
 74
     1
 75
     0
 76
     0
 77
     1
 78
     8
170
     0
171
     2
172
     0
173
     0
174
     0
175
     0
176
   256
177
   256
178
     4
  0
DIMSTYLE
  2
AM_ISO$6
 70
     0
  3

  4
"
  5

  6

  7

 40
1.0
 41
2.5
 42
1.0
 43
8.0
 44
0.6
 45
0.0
 46
0.0
 47
0.1
 48
0.1
140
2.5
141
0.0
142
0.0
143
0.0393701
144
1.0
145
0.0
146
0.71
147
0.8
 71
     0
 72
     0
 73
     0
 74
     0
 75
     0
 76
     0
 77
     0
 78
     8
170
     0
171
     2
172
     1
173
     0
174
     0
175
     0
176
   256
177
   256
178
     4
  0
DIMSTYLE
  2
AM_ISO$7
 70
     0
  3

  4
"
  5

  6

  7

 40
1.0
 41
2.5
 42
1.0
 43
8.0
 44
0.6
 45
0.0
 46
0.0
 47
0.1
 48
0.1
140
2.5
141
0.0
142
0.0
143
0.0393701
144
1.0
145
0.0
146
0.71
147
0.8
 71
     0
 72
     0
 73
     0
 74
     0
 75
     0
 76
     0
 77
     1
 78
     8
170
     0
171
     2
172
     1
173
     0
174
     0
175
     0
176
   256
177
   256
178
     4
  0
DIMSTYLE
  2
AM_ISO$SF
 70
     0
  3

  4
"
  5

  6

  7

 40
1.0
 41
2.5
 42
1.0
 43
10.0
 44
1.0
 45
0.0
 46
0.0
 47
0.1
 48
0.1
140
3.5
141
0.0
142
0.0
143
0.0393701
144
1.0
145
0.0
146
0.71
147
1.5
 71
     0
 72
     0
 73
     0
 74
     0
 75
     1
 76
     1
 77
     1
 78
     8
170
     0
171
     2
172
     1
173
     0
174
     0
175
     0
176
   256
177
   256
178
     2
  0
DIMSTYLE
  2
AM_ISO$SH
 70
     0
  3

  4
"
  5

  6

  7

 40
1.0
 41
2.5
 42
1.0
 43
10.0
 44
1.0
 45
0.0
 46
0.0
 47
0.1
 48
0.1
140
3.5
141
0.0
142
0.0
143
0.0393701
144
2.0
145
0.0
146
0.71
147
1.5
 71
     0
 72
     0
 73
     0
 74
     0
 75
     1
 76
     1
 77
     1
 78
     8
170
     0
171
     2
172
     1
173
     1
174
     0
175
     0
176
   256
177
   256
178
     2
  0
DIMSTYLE
  2
AM_JIS
 70
     0
  3

  4
"
  5

  6

  7

 40
1.0
 41
2.5
 42
1.0
 43
7.0
 44
1.0
 45
0.0
 46
0.0
 47
0.1
 48
0.1000000001
140
2.5
141
0.0
142
0.0
143
0.0393701
144
1.0
145
0.0
146
0.71
147
1.0
 71
     0
 72
     0
 73
     0
 74
     0
 75
     0
 76
     0
 77
     3
 78
     8
170
     0
171
     2
172
     1
173
     0
174
     0
175
     0
176
   256
177
   256
178
     4
  0
DIMSTYLE
  2
AM_JIS$3
 70
     0
  3

  4
"
  5

  6

  7

 40
1.0
 41
2.5
 42
1.0
 43
7.0
 44
1.0
 45
0.0
 46
0.0
 47
0.1
 48
0.1000000001
140
2.5
141
0.0
142
0.0
143
0.0393701
144
1.0
145
0.0
146
0.71
147
1.0
 71
     0
 72
     0
 73
     0
 74
     1
 75
     0
 76
     0
 77
     3
 78
     8
170
     0
171
     2
172
     0
173
     0
174
     0
175
     0
176
   256
177
   256
178
     4
  0
DIMSTYLE
  2
AM_JIS$4
 70
     0
  3

  4
"
  5

  6

  7

 40
1.0
 41
2.5
 42
1.0
 43
7.0
 44
1.0
 45
0.0
 46
0.0
 47
0.1
 48
0.1000000001
140
2.5
141
0.0
142
0.0
143
0.0393701
144
1.0
145
0.0
146
0.71
147
1.0
 71
     0
 72
     0
 73
     0
 74
     0
 75
     0
 76
     0
 77
     3
 78
     8
170
     0
171
     2
172
     0
173
     0
174
     0
175
     0
176
   256
177
   256
178
     4
  0
DIMSTYLE
  2
AM_JIS$6
 70
     0
  3

  4
"
  5

  6

  7

 40
1.0
 41
2.5
 42
1.0
 43
7.0
 44
1.0
 45
0.0
 46
0.0
 47
0.1
 48
0.1000000001
140
2.5
141
0.0
142
0.0
143
0.0393701
144
1.0
145
0.0
146
0.71
147
1.0
 71
     0
 72
     0
 73
     0
 74
     0
 75
     0
 76
     0
 77
     0
 78
     8
170
     0
171
     2
172
     1
173
     0
174
     0
175
     0
176
   256
177
   256
178
     4
  0
DIMSTYLE
  2
AM_JIS$7
 70
     0
  3

  4
"
  5

  6

  7

 40
1.0
 41
2.5
 42
1.0
 43
7.0
 44
1.0
 45
0.0
 46
0.0
 47
0.1
 48
0.1000000001
140
2.5
141
0.0
142
0.0
143
0.0393701
144
1.0
145
0.0
146
0.71
147
1.0
 71
     0
 72
     0
 73
     0
 74
     0
 75
     0
 76
     0
 77
     3
 78
     8
170
     0
171
     2
172
     1
173
     0
174
     0
175
     0
176
   256
177
   256
178
     4
  0
DIMSTYLE
  2
AM_JIS$SF
 70
     0
  3

  4
"
  5

  6

  7

 40
1.0
 41
2.5
 42
1.0
 43
10.0
 44
1.0
 45
0.0
 46
0.0
 47
0.1
 48
0.1
140
3.5
141
0.0
142
0.0
143
0.0393701
144
1.0
145
0.0
146
0.71
147
1.5
 71
     0
 72
     0
 73
     0
 74
     0
 75
     1
 76
     1
 77
     3
 78
     8
170
     0
171
     2
172
     1
173
     0
174
     0
175
     0
176
   256
177
   256
178
     4
  0
DIMSTYLE
  2
AM_JIS$SH
 70
     0
  3

  4
"
  5

  6

  7

 40
1.0
 41
2.5
 42
1.0
 43
10.0
 44
1.0
 45
0.0
 46
0.0
 47
0.1
 48
0.1
140
3.5
141
0.0
142
0.0
143
0.0393701
144
1.0
145
0.0
146
0.71
147
1.5
 71
     0
 72
     0
 73
     0
 74
     0
 75
     1
 76
     0
 77
     3
 78
     8
170
     0
171
     2
172
     1
173
     1
174
     0
175
     0
176
   256
177
   256
178
     4
  0
DIMSTYLE
  2
AM_ANSI
 70
     0
  3

  4
mm
  5

  6

  7

 40
1.0
 41
0.1
 42
0.05
 43
0.5
 44
0.1
 45
0.0
 46
0.0
 47
0.1
 48
0.1
140
0.12
141
0.0
142
0.0
143
25.399999999999999
144
1.0
145
0.0
146
0.71
147
0.06
 71
     0
 72
     0
 73
     1
 74
     1
 75
     0
 76
     0
 77
     0
 78
     7
170
     0
171
     2
172
     0
173
     0
174
     0
175
     0
176
   256
177
   256
178
     2
  0
DIMSTYLE
  2
AM_ANSI$3
 70
     0
  3

  4
mm
  5

  6

  7

 40
1.0
 41
0.1
 42
0.05
 43
0.5
 44
0.1
 45
0.0
 46
0.0
 47
0.1
 48
0.1
140
0.12
141
0.0
142
0.0
143
25.399999999999999
144
1.0
145
0.0
146
0.71
147
0.06
 71
     0
 72
     0
 73
     1
 74
     1
 75
     0
 76
     0
 77
     0
 78
     7
170
     0
171
     2
172
     0
173
     0
174
     0
175
     0
176
   256
177
   256
178
     2
  0
DIMSTYLE
  2
AM_ANSI$4
 70
     0
  3

  4
mm
  5

  6

  7

 40
1.0
 41
0.1
 42
0.05
 43
0.5
 44
0.1
 45
0.0
 46
0.0
 47
0.1
 48
0.1
140
0.12
141
0.0
142
0.0
143
25.399999999999999
144
1.0
145
0.0
146
0.71
147
0.06
 71
     0
 72
     0
 73
     1
 74
     1
 75
     0
 76
     0
 77
     0
 78
     7
170
     0
171
     2
172
     0
173
     0
174
     0
175
     0
176
   256
177
   256
178
     2
  0
DIMSTYLE
  2
AM_ANSI$7
 70
     0
  3

  4
mm
  5

  6

  7

 40
1.0
 41
0.1
 42
0.05
 43
0.5
 44
0.1
 45
0.0
 46
0.0
 47
0.1
 48
0.1
140
0.24
141
0.0
142
0.0
143
25.399999999999999
144
1.0
145
0.0
146
0.71
147
0.06
 71
     0
 72
     0
 73
     1
 74
     1
 75
     0
 76
     0
 77
     0
 78
     7
170
     0
171
     2
172
     0
173
     0
174
     0
175
     0
176
   256
177
   256
178
     2
  0
DIMSTYLE
  2
AM_ANSI$SF
 70
     0
  3

  4
mm
  5

  6

  7

 40
1.0
 41
0.1
 42
0.05
 43
0.5
 44
0.1
 45
0.0
 46
0.0
 47
0.1
 48
0.1
140
0.12
141
0.0
142
0.0
143
25.399999999999999
144
1.0
145
0.0
146
0.71
147
0.06
 71
     0
 72
     0
 73
     1
 74
     1
 75
     1
 76
     1
 77
     0
 78
     7
170
     0
171
     2
172
     0
173
     0
174
     0
175
     0
176
   256
177
   256
178
     2
  0
DIMSTYLE
  2
AM_ANSI$SH
 70
     0
  3

  4
mm
  5

  6

  7

 40
1.0
 41
0.1
 42
0.05
 43
0.5
 44
0.1
 45
0.0
 46
0.0
 47
0.1
 48
0.1
140
0.12
141
0.0
142
0.0
143
25.399999999999999
144
1.0
145
0.0
146
0.71
147
0.06
 71
     0
 72
     0
 73
     1
 74
     1
 75
     1
 76
     1
 77
     0
 78
     7
170
     0
171
     2
172
     0
173
     1
174
     0
175
     0
176
   256
177
   256
178
     2
  0
ENDTAB
  0
ENDSEC
  0
SECTION
  2
BLOCKS
  0
BLOCK
  8
0
  2
$MODEL_SPACE
 70
     0
 10
0.0
 20
0.0
 30
0.0
  3
$MODEL_SPACE
  1

  0
ENDBLK
  5
3538
  8
0
  0
BLOCK
 67
     1
  8
0
  2
$PAPER_SPACE
 70
     0
 10
0.0
 20
0.0
 30
0.0
  3
$PAPER_SPACE
  1

  0
ENDBLK
  5
3534
 67
     1
  8
0
  0
BLOCK
  8
0
  2
GENAXEH
 70
     0
 10
0.0
 20
0.0
 30
0.0
  3
GENAXEH
  1

  0
LINE
  5
32B4
  8
0
 10
-1.0
 20
0.0
 30
0.0
 11
1.0
 21
0.0
 31
0.0
  0
ENDBLK
  5
32B5
  8
0
  0
BLOCK
  8
0
  2
_OPEN30
 70
     0
 10
0.0
 20
0.0
 30
0.0
  3
_OPEN30
  1

  0
LINE
  5
32B8
  8
0
 62
     0
 10
-1.0
 20
0.26794919
 30
0.0
 11
0.0
 21
0.0
 31
0.0
  0
LINE
  5
32B9
  8
0
 62
     0
 10
0.0
 20
0.0
 30
0.0
 11
-1.0
 21
-0.26794919
 31
0.0
  0
LINE
  5
32BA
  8
0
 62
     0
 10
0.0
 20
0.0
 30
0.0
 11
-1.0
 21
0.0
 31
0.0
  0
ENDBLK
  5
32BB
  8
0
  0
BLOCK
  8
0
  2
_NONE
 70
     0
 10
0.0
 20
0.0
 30
0.0
  3
_NONE
  1

  0
ENDBLK
  5
32BE
  8
0
  0
BLOCK
  8
0
  2
*U5
 70
     1
 10
0.0
 20
0.0
 30
0.0
  3
*U5
  1

  0
TEXT
  5
32C1
  8
AM_0
 62
     4
 10
707.07154410361386
 20
220.43633950000009
 30
0.0
 40
7.5
  1
95
 50
90.0
 41
0.8299999999999999
  0
TEXT
  5
32C2
  8
AM_0
 62
     3
 10
699.97154410361361
 20
232.88633949999999
 30
0.0
 40
5.3249999999999993
  1
 0
 50
90.0
 41
0.8299999999999999
  0
TEXT
  5
32C3
  8
AM_0
 62
     3
 10
707.07154410361386
 20
232.88633949999999
 30
0.0
 40
5.3249999999999993
  1
-0.5
 50
90.0
 41
0.8299999999999999
  0
ENDBLK
  5
32C4
  8
0
  0
BLOCK
  8
0
  2
_ACMFILLEDHALF
 70
     0
 10
0.0
 20
0.0
 30
0.0
  3
_ACMFILLEDHALF
  1

  0
TRACE
  5
3632
  8
AM_0
 62
     0
 10
-0.8
 20
0.0
 30
0.0
 11
-1.0
 21
0.166666666
 31
0.0
 12
0.0
 22
0.0
 32
0.0
 13
0.0
 23
0.0
 33
0.0
  0
LINE
  5
3633
  8
AM_0
 62
     0
 10
-1.0
 20
0.0
 30
0.0
 11
-0.8
 21
0.0
 31
0.0
  0
ENDBLK
  5
3631
  8
0
  0
ENDSEC
  0
SECTION
  2
ENTITIES
  0
LINE
  5
32C5
  8
AM_0
 10
361.92997520153682
 20
295.42266000000001
 30
0.0
 11
361.92997520153682
 21
265.42264499999987
 31
0.0
  0
LINE
  5
32C6
  8
AM_0
 10
401.92996520153679
 20
297.42266999999998
 30
0.0
 11
401.92996520153679
 21
266.42267399999992
 31
0.0
  0
LINE
  5
32C7
  8
AM_0
 10
217.42997283093121
 20
287.42267700000002
 30
0.0
 11
217.42997283093121
 21
233.42267699999991
 31
0.0
  0
LINE
  5
32C8
  8
AM_0
 10
247.92996520153679
 20
323.42267700000002
 30
0.0
 11
247.92996520153679
 21
197.42267699999991
 31
0.0
  0
LINE
  5
32C9
  8
AM_0
 10
192.42997736088429
 20
235.42267699999991
 30
0.0
 11
192.42997736088429
 21
285.42267700000002
 31
0.0
  0
LINE
  5
32CA
  8
AM_0
 10
190.42997736088421
 20
277.5084634376268
 30
0.0
 11
190.42997736088421
 21
243.3368905623729
 31
0.0
  0
LINE
  5
32CB
  8
AM_0
 10
359.92996520153679
 20
255.07737
 30
0.0
 11
359.92996520153679
 21
305.7679500000001
 31
0.0
  0
LINE
  5
32CC
  8
AM_0
 10
294.92995520153681
 20
331.42266000000001
 30
0.0
 11
294.92995520153681
 21
216.27980700000001
 31
0.0
  0
LINE
  5
32CD
  8
AM_0
 10
356.92996520153667
 20
310.67367000000002
 30
0.0
 11
356.92996520153667
 21
201.167226
 31
0.0
  0
LINE
  5
32CE
  8
AM_0
 10
330.92995520153681
 20
290.21347800000001
 30
0.0
 11
330.92995520153681
 21
202.42265999999989
 31
0.0
  0
LINE
  5
32CF
  8
AM_0
 10
343.92997520153659
 20
325.26875999999987
 30
0.0
 11
343.92997520153659
 21
216.46346099999991
 31
0.0
  0
LINE
  5
32D0
  8
AM_0
 10
308.92996520153662
 20
293.77136999999988
 30
0.0
 11
308.92996520153662
 21
267.63892499999992
 31
0.0
  0
LINE
  5
32D1
  8
AM_0
 10
321.75958520153682
 20
293.77136999999988
 30
0.0
 11
308.92996520153662
 21
267.63892499999992
 31
0.0
  0
LINE
  5
32D2
  8
AM_0
 10
287.92996520153662
 20
302.81067000000002
 30
0.0
 11
287.92996520153662
 21
199.825614
 31
0.0
  0
LINE
  5
32D3
  8
AM_0
 10
257.9299652015369
 20
323.92266000000001
 30
0.0
 11
257.9299652015369
 21
196.92261300000001
 31
0.0
  0
LINE
  5
32D4
  8
ﾁｭｳｼﾝｾﾝ
 10
154.63600112520581
 20
260.42267700000002
 30
0.0
 11
281.54385239733551
 21
260.42267700000002
 31
0.0
  0
LINE
  5
32D5
  8
AM_0
 10
291.77047520153673
 20
201.38513699999999
 30
0.0
 11
297.82114520153681
 21
229.909614
 31
0.0
  0
LINE
  5
32D6
  8
AM_0
 10
291.92995520153681
 20
186.42264299999999
 30
0.0
 11
333.92995520153681
 21
186.42264299999999
 31
0.0
  0
LINE
  5
32D7
  8
ｶｸﾚｾﾝ2
 10
271.9300052015368
 20
197.42267399999989
 30
0.0
 11
271.9300052015368
 21
185.42265900000001
 31
0.0
  0
LINE
  5
32D8
  8
ｶｸﾚｾﾝ2
 10
283.9300052015368
 20
197.42267399999989
 30
0.0
 11
283.9300052015368
 21
185.42265900000001
 31
0.0
  0
LINE
  5
32D9
  8
ﾁｭｳｼﾝｾﾝ1
 10
277.9300052015368
 20
199.2776855605604
 30
0.0
 11
277.9300052015368
 21
183.6905272934261
 31
0.0
  0
LINE
  5
32DA
  8
AM_0
 10
265.9300052015368
 20
195.42265800000001
 30
0.0
 11
265.9300052015368
 21
185.42265900000001
 31
0.0
  0
LINE
  5
32DB
  8
AM_0
 10
265.9300052015368
 20
185.42265900000001
 30
0.0
 11
290.92996520153662
 21
185.42265900000001
 31
0.0
  0
LINE
  5
32DC
  8
AM_0
 10
290.92996520153662
 20
185.42265900000001
 30
0.0
 11
290.92996520153662
 21
185.42265900000001
 31
0.0
  0
ARC
  5
32DD
  8
AM_0
 10
291.92995520153681
 20
185.42265900000001
 30
0.0
 40
1.0000000199999981
 50
90.000003000000007
 51
180.00001
  0
LINE
  5
32DE
  8
AM_0
 10
246.46549910746941
 20
204.3871507234617
 30
0.0
 11
220.35890501906559
 21
230.4937448118655
 31
0.0
  0
ARC
  5
32DF
  8
AM_0
 10
194.42997736088421
 20
235.42267699999991
 30
0.0
 40
2.0
 50
180.0
 51
270.0
1001
GENIUS_GENOBJ-N-FIL_13
1002
{
1000
OWNER
1000
GEN
1002
}
1001
GENIUS_GENODEF_13
1002
{
1000
HIER
1070
     0
1002
}
1002
{
1000
MANEDIT
1070
     0
1002
}
1002
{
1000
NOSEL
1070
     0
1002
}
1002
{
1000
BEHIND
1070
     0
1002
}
1002
{
1000
OTHER
1070
     0
1002
}
1002
{
1000
REACTOR
1002
}
  0
LINE
  5
32E0
  8
AM_0
 10
194.42997736088421
 20
233.42267699999991
 30
0.0
 11
213.28783720720011
 21
233.42267699999991
 31
0.0
  0
ARC
  5
32E1
  8
AM_0
 10
213.28783720720011
 20
223.42267699999991
 30
0.0
 40
10.0
 50
45.0
 51
90.0
1001
GENIUS_GENODEF_13
1002
{
1000
HIER
1070
     0
1002
}
1002
{
1000
MANEDIT
1070
     0
1002
}
1002
{
1000
NOSEL
1070
     0
1002
}
1002
{
1000
BEHIND
1070
     0
1002
}
1002
{
1000
OTHER
1070
     0
1002
}
1002
{
1000
REACTOR
1002
}
1001
GENIUS_GENOBJ-N-FIL_13
1002
{
1000
OWNER
1000
GEN
1002
}
  0
LINE
  5
32E2
  8
AM_0
 10
160.42997736088421
 20
270.42267700000002
 30
0.0
 11
160.42997736088421
 21
252.42267699999991
 31
0.0
  0
LINE
  5
32E3
  8
AM_0
 10
188.42997736088421
 20
268.92267700000002
 30
0.0
 11
188.42997736088421
 21
251.92267699999991
 31
0.0
  0
LINE
  5
32E4
  8
AM_0
 10
160.42997736088421
 20
252.42267699999991
 30
0.0
 11
188.42997736088421
 21
252.42267699999991
 31
0.0
  0
ARC
  5
32E5
  8
AM_0
 10
191.42997736088421
 20
243.3368905623729
 30
0.0
 40
1.0
 50
180.0
 51
225.0
1001
GENIUS_GENODEF_13
1002
{
1000
HIER
1070
     0
1002
}
1002
{
1000
MANEDIT
1070
     0
1002
}
1002
{
1000
NOSEL
1070
     0
1002
}
1002
{
1000
BEHIND
1070
     0
1002
}
1002
{
1000
OTHER
1070
     0
1002
}
1002
{
1000
REACTOR
1002
}
1001
GENIUS_GENOBJ-N-FIL_13
1002
{
1000
OWNER
1000
GEN
1002
}
  0
ARC
  5
32E6
  8
AM_0
 10
191.42997736088421
 20
240.5084634376268
 30
0.0
 40
1.0
 50
0.0
 51
45.0
1001
GENIUS_GENODEF_13
1002
{
1000
HIER
1070
     0
1002
}
1002
{
1000
MANEDIT
1070
     0
1002
}
1002
{
1000
NOSEL
1070
     0
1002
}
1002
{
1000
BEHIND
1070
     0
1002
}
1002
{
1000
OTHER
1070
     0
1002
}
1002
{
1000
REACTOR
1002
}
1001
GENIUS_GENOBJ-N-FIL_13
1002
{
1000
OWNER
1000
GEN
1002
}
  0
LINE
  5
32E7
  8
AM_0
 10
190.7228705796978
 20
242.6297837811866
 30
0.0
 11
192.13708414207071
 21
241.2155702188135
 31
0.0
  0
LINE
  5
32E8
  8
AM_0
 10
188.42997736088421
 20
251.92268233304989
 30
0.0
 11
190.42997736088421
 21
251.92268126643989
 31
0.0
  0
LINE
  5
32E9
  8
AM_0
 10
160.42997736088421
 20
268.42267700000002
 30
0.0
 11
188.42997736088421
 21
268.42267700000002
 31
0.0
  0
LINE
  5
32EA
  8
AM_0
 10
160.42997736088421
 20
270.42267700000002
 30
0.0
 11
182.4299773608841
 21
270.42267700000002
 31
0.0
  0
LINE
  5
32EB
  8
AM_0
 10
182.4299773608841
 20
268.42267700000002
 30
0.0
 11
182.4299773608841
 21
270.42267700000002
 31
0.0
  0
LINE
  5
32EC
  8
AM_0
 10
188.42997736088421
 20
268.92267700000002
 30
0.0
 11
190.42997736088421
 21
268.92267700000002
 31
0.0
  0
LINE
  5
32ED
  8
AM_0
 10
257.9299652015369
 20
196.92265800000001
 30
0.0
 11
266.39188520153658
 21
196.70107200000001
 31
0.0
  0
LINE
  5
32EE
  8
AM_0
 10
257.9299652015369
 20
223.27474199999989
 30
0.0
 11
287.92996520153662
 21
223.27474199999989
 31
0.0
  0
LINE
  5
32EF
  8
AM_0
 10
257.9299652015369
 20
208.92265800000001
 30
0.0
 11
287.92996520153662
 21
208.92265800000001
 31
0.0
  0
ARC
  5
32F0
  8
AM_0
 10
242.92996520153659
 20
200.85161681752891
 30
0.0
 40
5.0
 50
0.0
 51
45.0
1001
GENIUS_GENODEF_13
1002
{
1000
HIER
1070
     0
1002
}
1002
{
1000
MANEDIT
1070
     0
1002
}
1002
{
1000
NOSEL
1070
     0
1002
}
1002
{
1000
BEHIND
1070
     0
1002
}
1002
{
1000
OTHER
1070
     0
1002
}
1002
{
1000
REACTOR
1002
}
1001
GENIUS_GENOBJ-N-FIL_13
1002
{
1000
OWNER
1000
GEN
1002
}
  0
LINE
  5
32F1
  8
AM_0
 10
257.9299652015369
 20
196.42267699999991
 30
0.0
 11
248.92996520153659
 21
196.42267699999991
 31
0.0
  0
ARC
  5
32F2
  8
AM_0
 10
248.92996520153659
 20
197.42267699999991
 30
0.0
 40
1.0
 50
180.0
 51
270.0
1001
GENIUS_GENODEF_13
1002
{
1000
HIER
1070
     0
1002
}
1002
{
1000
MANEDIT
1070
     0
1002
}
1002
{
1000
NOSEL
1070
     0
1002
}
1002
{
1000
BEHIND
1070
     0
1002
}
1002
{
1000
OTHER
1070
     0
1002
}
1002
{
1000
REACTOR
1002
}
1001
GENIUS_GENOBJ-N-FIL_13
1002
{
1000
OWNER
1000
GEN
1002
}
  0
LINE
  5
32F3
  8
AM_0
 10
267.92995520153681
 20
197.42267399999989
 30
0.0
 11
286.87930520153662
 21
197.42267399999989
 31
0.0
  0
ARC
  5
32F4
  8
AM_0
 10
267.92995520153681
 20
195.42265800000001
 30
0.0
 40
2.00000007
 50
90.000003000000007
 51
180.00001
  0
LINE
  5
32F5
  8
AM_0
 10
282.92995520153681
 20
202.792653
 30
0.0
 11
282.92995520153681
 21
197.42267399999989
 31
0.0
  0
LINE
  5
32F6
  8
AM_0
 10
284.92996520153662
 20
197.82559800000001
 30
0.0
 11
285.92995520153681
 21
197.82559800000001
 31
0.0
  0
ARC
  5
32F7
  8
AM_0
 10
284.92996520153662
 20
195.8255969999999
 30
0.0
 40
2.00000007
 50
90.000003000000007
 51
127.01007
  0
ARC
  5
32F8
  8
AM_0
 10
286.87930520153662
 20
202.42265999999989
 30
0.0
 40
5.0000001000000003
 50
270.0
 51
348.02386999999999
  0
ARC
  5
32F9
  8
AM_0
 10
285.92995520153681
 20
199.825614
 30
0.0
 40
2.00000007
 50
270.0
 51
0.0
  0
LINE
  5
32FA
  8
AM_0
 10
282.92995520153681
 20
204.7926689999999
 30
0.0
 11
287.4099452015368
 21
204.7926689999999
 31
0.0
  0
ARC
  5
32FB
  8
AM_0
 10
280.9300052015368
 20
202.792653
 30
0.0
 40
2.00000007
 50
0.0
 51
90.000003000000007
  0
LINE
  5
32FC
  8
ｶｸﾚｾﾝ2
 10
341.92996520153679
 20
197.42267399999989
 30
0.0
 11
341.92996520153679
 21
185.42265900000001
 31
0.0
  0
LINE
  5
32FD
  8
ｶｸﾚｾﾝ2
 10
353.92996520153679
 20
197.42267399999989
 30
0.0
 11
353.92996520153679
 21
185.42265900000001
 31
0.0
  0
LINE
  5
32FE
  8
ﾁｭｳｼﾝｾﾝ1
 10
347.92996520153679
 20
199.2776855605604
 30
0.0
 11
347.92996520153679
 21
183.6905272934261
 31
0.0
  0
LINE
  5
32FF
  8
AM_0
 10
359.92996520153679
 20
195.42265800000001
 30
0.0
 11
359.92996520153679
 21
185.42265900000001
 31
0.0
  0
LINE
  5
3300
  8
AM_0
 10
334.92997520153682
 20
185.42265900000001
 30
0.0
 11
359.92996520153679
 21
185.42265900000001
 31
0.0
  0
ARC
  5
3301
  8
AM_0
 10
333.92995520153681
 20
185.42265900000001
 30
0.0
 40
1.0000000199999981
 50
0.0
 51
90.000003000000007
  0
LINE
  5
3302
  8
AM_0
 10
334.92997520153682
 20
185.42265900000001
 30
0.0
 11
334.92997520153682
 21
185.42265900000001
 31
0.0
  0
LINE
  5
3303
  8
AM_0
 10
359.92996520153679
 20
265.42264499999987
 30
0.0
 11
361.92997520153682
 21
265.42264499999987
 31
0.0
  0
ARC
  5
3304
  8
AM_0
 10
357.92995520153681
 20
195.42265800000001
 30
0.0
 40
2.00000007
 50
0.0
 51
90.000003000000007
  0
ARC
  5
3305
  8
AM_0
 10
357.92995520153681
 20
255.07737
 30
0.0
 40
2.00000007
 50
300.0
 51
0.0
  0
LINE
  5
3306
  8
AM_0
 10
297.92995520153681
 20
267.63892499999992
 30
0.0
 11
297.92995520153681
 21
230.94713399999989
 31
0.0
  0
ARC
  5
3307
  8
AM_0
 10
292.9300052015368
 20
230.94713399999989
 30
0.0
 40
5.0000001000000003
 50
348.02386999999999
 51
0.0
  0
ARC
  5
3308
  8
AM_0
 10
339.92995520153681
 20
216.46346099999991
 30
0.0
 40
4.000000199999997
 50
270.0
 51
0.0
  0
LINE
  5
3309
  8
AM_0
 10
335.92996520153662
 20
197.42267399999989
 30
0.0
 11
357.92995520153681
 21
197.42267399999989
 31
0.0
  0
ARC
  5
330A
  8
AM_0
 10
335.92996520153662
 20
202.42265999999989
 30
0.0
 40
5.0000001000000003
 50
180.00001
 51
270.0
  0
ARC
  5
330B
  8
AM_0
 10
361.92997520153671
 20
201.167226
 30
0.0
 40
5.0000001000000003
 50
179.99998999999991
 51
235.15011000000001
  0
LINE
  5
330C
  8
AM_0
 10
330.92995520153681
 20
212.46347700000001
 30
0.0
 11
339.92995520153681
 21
212.46347700000001
 31
0.0
  0
LINE
  5
330D
  8
AM_0
 10
297.92995520153681
 20
267.63892499999992
 30
0.0
 11
308.92996520153662
 21
267.63892499999992
 31
0.0
  0
ARC
  5
330E
  8
AM_0
 10
358.92997520153671
 20
251.035911
 30
0.0
 40
2.00000007
 50
119.9999999999999
 51
180.00001
  0
LINE
  5
330F
  8
AM_0
 10
357.92998520153679
 20
252.767922
 30
0.0
 11
358.92997520153671
 21
253.34528399999991
 31
0.0
  0
LINE
  5
3310
  8
AM_0
 10
361.92997520153682
 20
266.42267399999992
 30
0.0
 11
401.92996520153679
 21
266.42267399999992
 31
0.0
  0
LINE
  5
3311
  8
ﾁｭｳｼﾝｾﾝ
 10
404.39089520153669
 20
280.42264499999987
 30
0.0
 11
274.89304520153672
 21
280.42264499999987
 31
0.0
  0
LINE
  5
3312
  8
AM_0
 10
289.9300052015368
 20
331.42266000000001
 30
0.0
 11
294.92995520153681
 21
331.42266000000001
 31
0.0
  0
LINE
  5
3313
  8
AM_0
 10
246.46549910746941
 20
316.45820327653831
 30
0.0
 11
220.35890501906559
 21
290.3516091881346
 31
0.0
  0
ARC
  5
3314
  8
AM_0
 10
194.42997736088421
 20
285.42267700000002
 30
0.0
 40
2.0
 50
90.0
 51
180.0
1001
GENIUS_GENOBJ-N-FIL_13
1002
{
1000
OWNER
1000
GEN
1002
}
1001
GENIUS_GENODEF_13
1002
{
1000
HIER
1070
     0
1002
}
1002
{
1000
MANEDIT
1070
     0
1002
}
1002
{
1000
NOSEL
1070
     0
1002
}
1002
{
1000
BEHIND
1070
     0
1002
}
1002
{
1000
OTHER
1070
     0
1002
}
1002
{
1000
REACTOR
1002
}
  0
LINE
  5
3315
  8
AM_0
 10
190.7228705796978
 20
278.21557021881341
 30
0.0
 11
192.13708414207071
 21
279.62978378118652
 31
0.0
  0
ARC
  5
3316
  8
AM_0
 10
191.42997736088421
 20
280.33689056237318
 30
0.0
 40
1.0
 50
315.0
 51
0.0
1001
GENIUS_GENODEF_13
1002
{
1000
HIER
1070
     0
1002
}
1002
{
1000
MANEDIT
1070
     0
1002
}
1002
{
1000
NOSEL
1070
     0
1002
}
1002
{
1000
BEHIND
1070
     0
1002
}
1002
{
1000
OTHER
1070
     0
1002
}
1002
{
1000
REACTOR
1002
}
1001
GENIUS_GENOBJ-N-FIL_13
1002
{
1000
OWNER
1000
GEN
1002
}
  0
ARC
  5
3317
  8
AM_0
 10
191.42997736088421
 20
277.5084634376268
 30
0.0
 40
1.0
 50
135.0
 51
180.0
1001
GENIUS_GENODEF_13
1002
{
1000
HIER
1070
     0
1002
}
1002
{
1000
MANEDIT
1070
     0
1002
}
1002
{
1000
NOSEL
1070
     0
1002
}
1002
{
1000
BEHIND
1070
     0
1002
}
1002
{
1000
OTHER
1070
     0
1002
}
1002
{
1000
REACTOR
1002
}
1001
GENIUS_GENOBJ-N-FIL_13
1002
{
1000
OWNER
1000
GEN
1002
}
  0
LINE
  5
3318
  8
AM_0
 10
194.42997736088421
 20
287.42267700000002
 30
0.0
 11
213.28783720720011
 21
287.42267700000002
 31
0.0
  0
ARC
  5
3319
  8
AM_0
 10
213.28783720720011
 20
297.42267700000002
 30
0.0
 40
10.0
 50
270.0
 51
315.0
1001
GENIUS_GENODEF_13
1002
{
1000
HIER
1070
     0
1002
}
1002
{
1000
MANEDIT
1070
     0
1002
}
1002
{
1000
NOSEL
1070
     0
1002
}
1002
{
1000
BEHIND
1070
     0
1002
}
1002
{
1000
OTHER
1070
     0
1002
}
1002
{
1000
REACTOR
1002
}
1001
GENIUS_GENOBJ-N-FIL_13
1002
{
1000
OWNER
1000
GEN
1002
}
  0
LINE
  5
331A
  8
AM_0
 10
287.92996520153662
 20
329.42268000000001
 30
0.0
 11
287.92996520153662
 21
313.92264
 31
0.0
  0
LINE
  5
331B
  8
AM_0
 10
257.9299652015369
 20
311.92266000000001
 30
0.0
 11
283.9300052015368
 21
311.92266000000001
 31
0.0
  0
LINE
  5
331C
  8
AM_0
 10
257.9299652015369
 20
297.57059700000002
 30
0.0
 11
282.92995520153681
 21
297.57059700000002
 31
0.0
  0
ARC
  5
331D
  8
AM_0
 10
242.92996520153659
 20
319.99373718247102
 30
0.0
 40
5.0
 50
315.0
 51
0.0
1001
GENIUS_GENODEF_13
1002
{
1000
HIER
1070
     0
1002
}
1002
{
1000
MANEDIT
1070
     0
1002
}
1002
{
1000
NOSEL
1070
     0
1002
}
1002
{
1000
BEHIND
1070
     0
1002
}
1002
{
1000
OTHER
1070
     0
1002
}
1002
{
1000
REACTOR
1002
}
1001
GENIUS_GENOBJ-N-FIL_13
1002
{
1000
OWNER
1000
GEN
1002
}
  0
LINE
  5
331E
  8
AM_0
 10
282.92995520153681
 20
309.92268000000001
 30
0.0
 11
282.92995520153681
 21
295.28998799999999
 31
0.0
  0
LINE
  5
331F
  8
AM_0
 10
282.92995520153681
 20
293.28998699999988
 30
0.0
 11
287.37064520153677
 21
293.28998699999988
 31
0.0
  0
ARC
  5
3320
  8
AM_0
 10
280.9300052015368
 20
295.28998799999999
 30
0.0
 40
2.00000007
 50
270.0
 51
0.0
  0
ARC
  5
3321
  8
AM_0
 10
284.92996520153662
 20
309.92268000000001
 30
0.0
 40
2.00000007
 50
90.000003000000007
 51
180.00001
  0
LINE
  5
3322
  8
AM_0
 10
284.92996520153662
 20
302.81067000000002
 30
0.0
 11
287.92996520153662
 21
302.81067000000002
 31
0.0
  0
ARC
  5
3323
  8
AM_0
 10
284.92996520153662
 20
304.81067999999988
 30
0.0
 40
2.00000007
 50
179.99998999999991
 51
270.0
  0
LINE
  5
3324
  8
AM_0
 10
284.92996520153662
 20
311.92266000000001
 30
0.0
 11
285.92995520153681
 21
311.92266000000001
 31
0.0
  0
ARC
  5
3325
  8
AM_0
 10
285.92995520153681
 20
313.92264
 30
0.0
 40
2.00000007
 50
270.0
 51
0.0
  0
LINE
  5
3326
  8
AM_0
 10
257.9299652015369
 20
323.92266000000001
 30
0.0
 11
285.98233520153678
 21
324.65724
 31
0.0
  0
LINE
  5
3327
  8
AM_0
 10
257.9299652015369
 20
324.42267700000002
 30
0.0
 11
248.92996520153659
 21
324.42267700000002
 31
0.0
  0
ARC
  5
3328
  8
AM_0
 10
248.92996520153659
 20
323.42267700000002
 30
0.0
 40
1.0
 50
90.0
 51
180.0
1001
GENIUS_GENODEF_13
1002
{
1000
HIER
1070
     0
1002
}
1002
{
1000
MANEDIT
1070
     0
1002
}
1002
{
1000
NOSEL
1070
     0
1002
}
1002
{
1000
BEHIND
1070
     0
1002
}
1002
{
1000
OTHER
1070
     0
1002
}
1002
{
1000
REACTOR
1002
}
1001
GENIUS_GENOBJ-N-FIL_13
1002
{
1000
OWNER
1000
GEN
1002
}
  0
ARC
  5
3329
  8
AM_0
 10
289.9300052015368
 20
329.42268000000001
 30
0.0
 40
2.00000007
 50
90.000003000000007
 51
180.00001
  0
ARC
  5
332A
  8
AM_0
 10
285.92995520153681
 20
326.65656000000001
 30
0.0
 40
2.00000007
 50
271.49999999999972
 51
0.0
  0
LINE
  5
332B
  8
AM_0
 10
359.92996520153679
 20
295.42266000000001
 30
0.0
 11
361.92997520153682
 21
295.42266000000001
 31
0.0
  0
ARC
  5
332C
  8
AM_0
 10
357.92995520153681
 20
305.7679500000001
 30
0.0
 40
2.00000007
 50
0.0
 51
60.000002000000002
  0
LINE
  5
332D
  8
AM_0
 10
308.92996520153662
 20
330.97752000000008
 30
0.0
 11
308.92996520153662
 21
311.95010999999988
 31
0.0
  0
LINE
  5
332E
  8
AM_0
 10
308.92996520153662
 20
330.9774900000001
 30
0.0
 11
322.51195520153669
 21
311.95010999999988
 31
0.0
  0
LINE
  5
332F
  8
AM_0
 10
308.92996520153662
 20
293.77136999999988
 30
0.0
 11
331.76467520153648
 21
293.77136999999988
 31
0.0
  0
LINE
  5
3330
  8
AM_0
 10
308.92996520153662
 20
311.95010999999988
 30
0.0
 11
343.92997520153659
 21
311.95010999999988
 31
0.0
  0
LINE
  5
3331
  8
AM_0
 10
306.92995520153681
 20
311.94015000000002
 30
0.0
 11
306.92995520153681
 21
298.39313700000002
 31
0.0
  0
LINE
  5
3332
  8
AM_0
 10
305.9299652015369
 20
316.94943000000001
 30
0.0
 11
305.9299652015369
 21
294.04740299999992
 31
0.0
  0
LINE
  5
3333
  8
AM_0
 10
305.9299652015369
 20
298.39313700000002
 30
0.0
 11
306.92995520153681
 21
298.39313700000002
 31
0.0
  0
ARC
  5
3334
  8
AM_0
 10
306.92995520153681
 20
294.04740299999992
 30
0.0
 40
1.0000000199999981
 50
179.99998999999991
 51
270.0
  0
ARC
  5
3335
  8
AM_0
 10
306.92995520153681
 20
291.04740299999992
 30
0.0
 40
2.00000007
 50
0.0
 51
90.000003000000007
  0
ARC
  5
3336
  8
AM_0
 10
309.92995520153681
 20
309.94017000000002
 30
0.0
 40
1.0000000199999981
 50
0.0
 51
90.000003000000007
  0
ARC
  5
3337
  8
AM_0
 10
309.92995520153681
 20
303.2799
 30
0.0
 40
1.0000000199999981
 50
270.0
 51
0.0
  0
ARC
  5
3338
  8
AM_0
 10
309.92995520153681
 20
307.05342000000002
 30
0.0
 40
1.0000000199999981
 50
0.0
 51
90.000003000000007
  0
ARC
  5
3339
  8
AM_0
 10
309.92995520153681
 20
309.05336999999992
 30
0.0
 40
1.0000000199999981
 50
270.0
 51
0.0
  0
ARC
  5
333A
  8
AM_0
 10
309.92995520153681
 20
301.27989000000002
 30
0.0
 40
1.0000000199999981
 50
0.0
 51
90.000003000000007
  0
ARC
  5
333B
  8
AM_0
 10
309.92995520153681
 20
300.39314999999999
 30
0.0
 40
1.0000000199999981
 50
270.0
 51
0.0
  0
LINE
  5
333C
  8
AM_0
 10
306.92995520153681
 20
299.39313600000008
 30
0.0
 11
309.92995520153681
 21
299.39313600000008
 31
0.0
  0
LINE
  5
333D
  8
AM_0
 10
306.92995520153681
 20
302.27987999999988
 30
0.0
 11
309.92995520153681
 21
302.27987999999988
 31
0.0
  0
LINE
  5
333E
  8
AM_0
 10
306.92995520153681
 20
308.05337999999989
 30
0.0
 11
309.92995520153681
 21
308.05337999999989
 31
0.0
  0
LINE
  5
333F
  8
AM_0
 10
305.9299652015369
 20
311.94015000000002
 30
0.0
 11
306.92995520153681
 21
311.94015000000002
 31
0.0
  0
ARC
  5
3340
  8
AM_0
 10
306.92995520153681
 20
316.94943000000001
 30
0.0
 40
1.0000000199999981
 50
90.000003000000007
 51
180.00001
  0
LINE
  5
3341
  8
AM_0
 10
306.92995520153681
 20
310.94015999999988
 30
0.0
 11
309.92995520153681
 21
310.94015999999988
 31
0.0
  0
ARC
  5
3342
  8
AM_0
 10
306.92995520153681
 20
319.94943000000001
 30
0.0
 40
2.00000007
 50
270.0
 51
0.0
  0
LINE
  5
3343
  8
AM_0
 10
310.9299152015368
 20
300.39314999999999
 30
0.0
 11
310.9299152015368
 21
309.94017000000002
 31
0.0
  0
ARC
  5
3344
  8
AM_0
 10
338.92996520153662
 20
290.21347800000001
 30
0.0
 40
8.0000000999999976
 50
90.000003000000007
 51
180.00001
  0
LINE
  5
3345
  8
AM_0
 10
338.92996520153662
 20
298.21344900000008
 30
0.0
 11
343.92997520153659
 21
298.21344900000008
 31
0.0
  0
ARC
  5
3346
  8
AM_0
 10
348.92995520153681
 20
319.14168000000001
 30
0.0
 40
5.0000001000000003
 50
179.99998999999991
 51
265.0
  0
ARC
  5
3347
  8
AM_0
 10
358.92997520153671
 20
309.80943000000002
 30
0.0
 40
2.00000007
 50
179.99998999999991
 51
240.00001
  0
LINE
  5
3348
  8
AM_0
 10
357.92998520153679
 20
308.07735000000002
 30
0.0
 11
358.92997520153671
 21
307.5
 31
0.0
  0
LINE
  5
3349
  8
AM_0
 10
348.49420520153672
 20
314.16068999999987
 30
0.0
 11
354.19147520153672
 21
313.66224
 31
0.0
  0
ARC
  5
334A
  8
AM_0
 10
353.92996520153679
 20
310.67367000000002
 30
0.0
 40
3.0
 50
0.0
 51
84.999996999999979
  0
LINE
  5
334B
  8
AM_0
 10
294.92995520153681
 20
331.42266000000001
 30
0.0
 11
339.06085520153681
 21
330.26702999999992
 31
0.0
  0
ARC
  5
334C
  8
AM_0
 10
338.92996520153662
 20
325.26875999999987
 30
0.0
 40
5.0000001000000003
 50
0.0
 51
88.499996999999965
  0
LINE
  5
334D
  8
AM_0
 10
369.92992520153678
 20
297.42266999999998
 30
0.0
 11
401.92996520153679
 21
297.42266999999998
 31
0.0
  0
LINE
  5
334E
  8
AM_0
 10
361.92997520153682
 20
294.42267600000002
 30
0.0
 11
401.92996520153679
 21
294.42267600000002
 31
0.0
  0
LINE
  5
334F
  8
AM_0
 10
369.92992520153678
 20
297.42266999999998
 30
0.0
 11
369.92992520153678
 21
294.42267600000002
 31
0.0
  0
CIRCLE
  5
3350
  8
AM_0
 10
550.99341876928793
 20
280.42264499999987
 30
0.0
 40
3.0
  0
CIRCLE
  5
3351
  8
AM_5
 10
550.99341876928793
 20
280.42264499999987
 30
0.0
 40
4.000000199999997
  0
ARC
  5
3352
  8
AM_0
 10
550.99341876928793
 20
280.42264499999987
 30
0.0
 40
14.000001299999999
 50
106.6015399999999
 51
73.398452000000006
  0
LINE
  5
3353
  8
ﾁｭｳｼﾝｾﾝ
 10
550.99341876928793
 20
336.07428005403341
 30
0.0
 11
550.99341876928793
 21
181.1883599999999
 31
0.0
  0
LINE
  5
3354
  8
AM_0
 10
628.99343676928811
 20
197.42265900000001
 30
0.0
 11
618.22500276928804
 21
300.05282999999991
 31
0.0
  0
LINE
  5
3355
  8
AM_0
 10
472.99342476928803
 20
197.42265900000001
 30
0.0
 11
483.76186476928791
 21
300.05282999999991
 31
0.0
  0
LINE
  5
3356
  8
AM_0
 10
603.99343476928755
 20
295.675209
 30
0.0
 11
603.99343476928755
 21
234.42266100000001
 31
0.0
  0
LINE
  5
3357
  8
AM_0
 10
497.99343276928801
 20
295.675209
 30
0.0
 11
497.99343276928801
 21
234.42266100000001
 31
0.0
  0
ARC
  5
3358
  8
AM_0
 10
550.99341876928793
 20
280.42264499999987
 30
0.0
 40
26.500002599999998
 50
90.000003000000007
 51
270.0
  0
ARC
  5
3359
  8
AM_0
 10
550.99341876928793
 20
260.42267700000002
 30
0.0
 40
71.000000999999983
 50
5.989814199999997
 51
27.000572999999999
  0
ARC
  5
335A
  8
AM_0
 10
550.99341876928793
 20
265.42264499999987
 30
0.0
 40
48.0
 50
0.0
 51
180.00001
  0
ARC
  5
335B
  8
AM_0
 10
550.99341876928793
 20
280.42264499999987
 30
0.0
 40
26.500002599999998
 50
270.0
 51
90.000003000000007
  0
ARC
  5
335C
  8
AM_0
 10
550.99341876928793
 20
260.42267700000002
 30
0.0
 40
71.000000999999983
 50
152.9994199999999
 51
174.01018999999991
  0
LINE
  5
335D
  8
AM_0
 10
516.993434769288
 20
202.42265999999989
 30
0.0
 11
584.99345076928796
 21
202.42265999999989
 31
0.0
  0
LINE
  5
335E
  8
AM_0
 10
597.99343476928789
 20
186.42265800000001
 30
0.0
 11
503.99343276928801
 21
186.42265800000001
 31
0.0
  0
LINE
  5
335F
  8
ﾁｭｳｼﾝｾﾝ
 10
482.73946476928802
 20
260.42267700000002
 30
0.0
 11
618.78197976928811
 21
260.42267700000002
 31
0.0
  0
CIRCLE
  5
3360
  8
AM_0
 10
522.86612976928791
 20
192.51752400000001
 30
0.0
 40
4.9999998000000003
  0
LINE
  5
3361
  8
AM_0
 10
523.61974476928788
 20
186.79341600000001
 30
0.0
 11
528.20017476928797
 21
190.30809600000001
 31
0.0
  0
LINE
  5
3362
  8
AM_0
 10
527.446604769288
 20
196.032186
 30
0.0
 11
522.11257476928779
 21
198.24161399999991
 31
0.0
  0
LINE
  5
3363
  8
ｶｸﾚｾﾝ2
 10
479.99343276928801
 20
197.42267399999989
 30
0.0
 11
479.99343276928801
 21
185.42265900000001
 31
0.0
  0
LINE
  5
3364
  8
ｶｸﾚｾﾝ2
 10
491.99343276928801
 20
197.42267399999989
 30
0.0
 11
491.99343276928801
 21
185.42265900000001
 31
0.0
  0
LINE
  5
3365
  8
ﾁｭｳｼﾝｾﾝ1
 10
485.99340276928791
 20
199.2776855605604
 30
0.0
 11
485.99340276928791
 21
183.6905272934261
 31
0.0
  0
LINE
  5
3366
  8
AM_0
 10
517.53212976928808
 20
194.726934
 30
0.0
 11
518.28572976928785
 21
189.00282899999999
 31
0.0
  0
LINE
  5
3367
  8
AM_0
 10
502.99343376928789
 20
185.42265900000001
 30
0.0
 11
502.99343376928789
 21
195.422673
 31
0.0
  0
ARC
  5
3368
  8
AM_0
 10
508.993433769288
 20
191.42265900000001
 30
0.0
 40
3.0
 50
270.0
 51
0.0
  0
LINE
  5
3369
  8
AM_0
 10
472.99342476928803
 20
185.42265900000001
 30
0.0
 11
472.99342476928803
 21
197.42267399999989
 31
0.0
  0
LINE
  5
336A
  8
AM_0
 10
472.99342476928803
 20
185.42265900000001
 30
0.0
 11
502.99343376928789
 21
185.42265900000001
 31
0.0
  0
ARC
  5
336B
  8
AM_0
 10
504.99343176928818
 20
186.42265800000001
 30
0.0
 40
2.00000007
 50
90.000003000000007
 51
180.00001
  0
ARC
  5
336C
  8
AM_0
 10
503.99343276928801
 20
185.42265900000001
 30
0.0
 40
1.0000000199999981
 50
90.000003000000007
 51
180.00001
  0
LINE
  5
336D
  8
AM_0
 10
508.993433769288
 20
188.42265900000001
 30
0.0
 11
504.99343176928818
 21
188.42265900000001
 31
0.0
  0
LINE
  5
336E
  8
AM_0
 10
518.285762769288
 20
189.002814
 30
0.0
 11
523.61976276928795
 21
186.7934009999999
 31
0.0
  0
LINE
  5
336F
  8
AM_0
 10
502.99343376928789
 20
265.42264499999987
 30
0.0
 11
502.99343376928789
 21
202.42265999999989
 31
0.0
  0
ARC
  5
3370
  8
AM_0
 10
531.99341976928804
 20
234.42266100000001
 30
0.0
 40
34.000001999999988
 50
179.99998999999991
 51
211.46697
  0
LINE
  5
3371
  8
AM_0
 10
500.99343276928801
 20
197.42267399999989
 30
0.0
 11
474.99343176928818
 21
197.42267399999989
 31
0.0
  0
ARC
  5
3372
  8
AM_0
 10
474.99343176928818
 20
195.422673
 30
0.0
 40
2.00000007
 50
90.000003000000007
 51
180.00001
  0
ARC
  5
3373
  8
AM_0
 10
497.99343276928801
 20
202.42265999999989
 30
0.0
 40
5.0000001000000003
 50
270.0
 51
0.0
  0
ARC
  5
3374
  8
AM_0
 10
500.99343276928801
 20
195.422673
 30
0.0
 40
2.00000007
 50
0.0
 51
90.000003000000007
  0
ARC
  5
3375
  8
AM_0
 10
516.993434769288
 20
197.42267399999989
 30
0.0
 40
5.0000001000000003
 50
90.000003000000007
 51
180.00001
  0
LINE
  5
3376
  8
AM_0
 10
522.11257476928779
 20
198.24162899999999
 30
0.0
 11
517.53212976928808
 21
194.726934
 31
0.0
  0
LINE
  5
3377
  8
AM_0
 10
511.993433769288
 20
197.42267399999989
 30
0.0
 11
511.993433769288
 21
191.42265900000001
 31
0.0
  0
LINE
  5
3378
  8
AM_0
 10
528.20017476928797
 20
190.30809600000001
 30
0.0
 11
527.44658976928804
 21
196.0322009999999
 31
0.0
  0
LINE
  5
3379
  8
ｶｸﾚｾﾝ2
 10
621.99343776928788
 20
197.42267399999989
 30
0.0
 11
621.99343776928788
 21
185.42265900000001
 31
0.0
  0
LINE
  5
337A
  8
ｶｸﾚｾﾝ2
 10
609.99343776928777
 20
197.42267399999989
 30
0.0
 11
609.99343776928777
 21
185.42265900000001
 31
0.0
  0
LINE
  5
337B
  8
ﾁｭｳｼﾝｾﾝ1
 10
615.99343776928799
 20
199.2776855605604
 30
0.0
 11
615.99343776928799
 21
183.6905272934261
 31
0.0
  0
LINE
  5
337C
  8
AM_0
 10
574.540265769288
 20
196.0322009999999
 30
0.0
 11
573.78666276928811
 21
190.30809600000001
 31
0.0
  0
LINE
  5
337D
  8
AM_0
 10
583.70112276928796
 20
189.00282899999999
 30
0.0
 11
584.45472276928797
 21
194.726934
 31
0.0
  0
LINE
  5
337E
  8
AM_0
 10
598.99343676928811
 20
185.42265900000001
 30
0.0
 11
598.99343676928811
 21
195.422673
 31
0.0
  0
LINE
  5
337F
  8
AM_0
 10
628.99343676928811
 20
185.42265900000001
 30
0.0
 11
628.99343676928811
 21
197.42267399999989
 31
0.0
  0
CIRCLE
  5
3380
  8
AM_0
 10
579.12066276928795
 20
192.51752400000001
 30
0.0
 40
4.9999998000000003
  0
ARC
  5
3381
  8
AM_0
 10
592.99343676928788
 20
191.42265900000001
 30
0.0
 40
3.0
 50
179.99998999999991
 51
270.0
  0
LINE
  5
3382
  8
AM_0
 10
573.78667776928785
 20
190.3080809999999
 30
0.0
 11
578.36710776928805
 21
186.7934009999999
 31
0.0
  0
LINE
  5
3383
  8
AM_0
 10
578.36710776928805
 20
186.793431
 30
0.0
 11
583.70113776928793
 21
189.002859
 31
0.0
  0
LINE
  5
3384
  8
AM_0
 10
628.99343676928811
 20
185.42265900000001
 30
0.0
 11
598.99343676928811
 21
185.42265900000001
 31
0.0
  0
LINE
  5
3385
  8
AM_0
 10
596.99345076928796
 20
188.42265900000001
 30
0.0
 11
592.99343676928788
 21
188.42265900000001
 31
0.0
  0
ARC
  5
3386
  8
AM_0
 10
597.99343476928789
 20
185.42265900000001
 30
0.0
 40
1.0000000199999981
 50
0.0
 51
90.000003000000007
  0
ARC
  5
3387
  8
AM_0
 10
596.99345076928796
 20
186.42265800000001
 30
0.0
 40
2.00000007
 50
0.0
 51
90.000003000000007
  0
LINE
  5
3388
  8
AM_0
 10
579.87431076928794
 20
198.24164400000001
 30
0.0
 11
574.54028076928796
 21
196.03221600000001
 31
0.0
  0
ARC
  5
3389
  8
AM_0
 10
584.99345076928796
 20
197.42267399999989
 30
0.0
 40
5.0000001000000003
 50
0.0
 51
90.000003000000007
  0
LINE
  5
338A
  8
AM_0
 10
584.45472276928797
 20
194.726934
 30
0.0
 11
579.87429576928776
 21
198.24161399999991
 31
0.0
  0
LINE
  5
338B
  8
AM_0
 10
589.99343676928811
 20
197.42267399999989
 30
0.0
 11
589.99343676928811
 21
191.42265900000001
 31
0.0
  0
LINE
  5
338C
  8
AM_0
 10
598.99343676928811
 20
265.42264499999987
 30
0.0
 11
598.99343676928811
 21
202.42265999999989
 31
0.0
  0
ARC
  5
338D
  8
AM_0
 10
569.99343576928811
 20
234.42266100000001
 30
0.0
 40
34.000001999999988
 50
328.53302000000002
 51
0.0
  0
LINE
  5
338E
  8
AM_0
 10
600.99343476928789
 20
197.42267399999989
 30
0.0
 11
626.99345076928796
 21
197.42267399999989
 31
0.0
  0
ARC
  5
338F
  8
AM_0
 10
603.99343476928755
 20
202.42265999999989
 30
0.0
 40
5.0000001000000003
 50
179.99998999999991
 51
270.0
  0
ARC
  5
3390
  8
AM_0
 10
600.99343476928789
 20
195.422673
 30
0.0
 40
2.00000007
 50
90.000003000000007
 51
180.00001
  0
ARC
  5
3391
  8
AM_0
 10
626.99345076928796
 20
195.422673
 30
0.0
 40
2.00000007
 50
0.0
 51
90.000003000000007
  0
LINE
  5
3392
  8
ﾁｭｳｼﾝｾﾝ
 10
511.99343466928781
 20
280.42264499999987
 30
0.0
 11
589.99345086928804
 21
280.42264499999987
 31
0.0
  0
ARC
  5
3393
  8
AM_0
 10
550.99341876928793
 20
260.42267700000002
 30
0.0
 40
71.000000999999983
 50
47.999358999999998
 51
132.00065000000001
  0
ARC
  5
3394
  8
AM_0
 10
550.99341876928793
 20
221.422674
 30
0.0
 40
110.000004
 50
58.263835999999991
 51
121.73617
  0
ARC
  5
3395
  8
AM_0
 10
505.9261737692882
 20
316.25906999999989
 30
0.0
 40
5.0000001000000003
 50
115.41755999999999
 51
205.06296999999989
  0
LINE
  5
3396
  8
AM_0
 10
497.26241376928789
 20
308.68131
 30
0.0
 11
491.92839876928792
 21
310.89075000000008
 31
0.0
  0
CIRCLE
  5
3397
  8
AM_0
 10
492.68197176928771
 20
305.16662999999988
 30
0.0
 40
4.9999998000000003
  0
ARC
  5
3398
  8
AM_0
 10
488.71517376928767
 20
308.21039999999999
 30
0.0
 40
13.9999986
 50
266.80063999999987
 51
25.06296900000001
  0
ARC
  5
3399
  8
AM_0
 10
503.65264476928797
 20
297.965799
 30
0.0
 40
20.000000700000001
 50
121.73617
 51
174.01018999999991
  0
LINE
  5
339A
  8
AM_0
 10
488.10155676928792
 20
301.65195
 30
0.0
 11
493.43557176928789
 21
299.442543
 31
0.0
  0
ARC
  5
339B
  8
AM_0
 10
487.65477876928799
 20
289.23999900000001
 30
0.0
 40
5.0000001000000003
 50
86.800639000000004
 51
174.01018999999991
  0
ARC
  5
339C
  8
AM_0
 10
490.40529876928798
 20
291.294624
 30
0.0
 40
3.0
 50
95.705737999999982
 51
152.9994199999999
  0
LINE
  5
339D
  8
AM_0
 10
491.92839876928792
 20
310.89075000000008
 30
0.0
 11
487.34798676928779
 21
307.37607000000008
 31
0.0
  0
LINE
  5
339E
  8
AM_0
 10
487.34798676928779
 20
307.37607000000008
 30
0.0
 11
488.10155676928792
 21
301.65195
 31
0.0
  0
ARC
  5
339F
  8
AM_0
 10
502.99343376928789
 20
295.675209
 30
0.0
 40
5.0000001000000003
 50
138.71941000000001
 51
180.00001
  0
LINE
  5
33A0
  8
AM_0
 10
493.43557176928789
 20
299.442543
 30
0.0
 11
498.01601676928789
 21
302.95724999999999
 31
0.0
  0
LINE
  5
33A1
  8
AM_0
 10
498.01601676928789
 20
302.95722000000001
 30
0.0
 11
497.26241376928789
 21
308.68131
 31
0.0
  0
ARC
  5
33A2
  8
AM_0
 10
505.49196876928818
 20
310.95600000000002
 30
0.0
 40
3.0
 50
132.00065000000001
 51
189.29434000000001
  0
LINE
  5
33A3
  8
AM_0
 10
546.99340476928808
 20
297.42266999999998
 30
0.0
 11
554.99340276928785
 21
297.42266999999998
 31
0.0
  0
LINE
  5
33A4
  8
AM_0
 10
546.99340476928808
 20
290.42267700000002
 30
0.0
 11
554.99340276928785
 21
290.42267700000002
 31
0.0
  0
LINE
  5
33A5
  8
AM_0
 10
546.99340476928808
 20
290.42267700000002
 30
0.0
 11
546.99340476928808
 21
297.42266999999998
 31
0.0
  0
LINE
  5
33A6
  8
AM_0
 10
554.99340276928785
 20
290.42267700000002
 30
0.0
 11
554.99340276928785
 21
297.42266999999998
 31
0.0
  0
ARC
  5
33A7
  8
AM_0
 10
596.06068176928795
 20
316.25906999999989
 30
0.0
 40
5.0000001000000003
 50
334.93702999999988
 51
64.582443999999995
  0
ARC
  5
33A8
  8
AM_0
 10
613.27171176928812
 20
308.21039999999999
 30
0.0
 40
13.9999986
 50
154.93703999999991
 51
273.19936999999987
  0
ARC
  5
33A9
  8
AM_0
 10
598.99343676928811
 20
295.675209
 30
0.0
 40
5.0000001000000003
 50
0.0
 51
41.280590999999973
  0
ARC
  5
33AA
  8
AM_0
 10
614.33210676928786
 20
289.23999900000001
 30
0.0
 40
5.0000001000000003
 50
5.9898154999999971
 51
93.199358999999944
  0
ARC
  5
33AB
  8
AM_0
 10
611.58157176928796
 20
291.294624
 30
0.0
 40
3.0
 50
27.000572999999999
 51
84.294260999999977
  0
LINE
  5
33AC
  8
AM_0
 10
608.55132876928792
 20
299.44248299999992
 30
0.0
 11
613.8853587692879
 21
301.65192000000002
 31
0.0
  0
CIRCLE
  5
33AD
  8
AM_0
 10
609.30491376928796
 20
305.16656999999998
 30
0.0
 40
4.9999998000000003
  0
ARC
  5
33AE
  8
AM_0
 10
598.33421076928767
 20
297.965799
 30
0.0
 40
20.000000700000001
 50
5.9898154999999971
 51
58.263835999999991
  0
LINE
  5
33AF
  8
AM_0
 10
610.05851376928786
 20
310.89071999999987
 30
0.0
 11
604.7244837692881
 21
308.68128000000002
 31
0.0
  0
LINE
  5
33B0
  8
AM_0
 10
604.7244837692881
 20
308.68124999999992
 30
0.0
 11
603.97088376928809
 21
302.95713000000001
 31
0.0
  0
LINE
  5
33B1
  8
AM_0
 10
603.97089876928806
 20
302.95713000000001
 30
0.0
 11
608.55132876928792
 21
299.44245299999989
 31
0.0
  0
ARC
  5
33B2
  8
AM_0
 10
596.49490176928805
 20
310.95600000000002
 30
0.0
 40
3.0
 50
350.70567
 51
47.999358999999998
  0
LINE
  5
33B3
  8
AM_0
 10
614.6389287692881
 20
307.37598000000008
 30
0.0
 11
610.05851376928786
 21
310.89066000000008
 31
0.0
  0
LINE
  5
33B4
  8
AM_0
 10
614.63889876928795
 20
307.37603999999988
 30
0.0
 11
613.88531376928813
 21
301.65195
 31
0.0
  0
LINE
  5
33B5
  8
AM_0
 10
257.9299652015369
 20
298.41894649999989
 30
0.0
 11
247.9299652015369
 21
298.41894649999989
 31
0.0
  0
LINE
  5
33B6
  8
AM_0
 10
257.9299652015369
 20
311.92263649999973
 30
0.0
 11
247.9299652015369
 21
311.92263649999973
 31
0.0
  0
LINE
  5
33B7
  8
AM_0
 10
257.9299652015369
 20
208.92263650000001
 30
0.0
 11
247.9299652015369
 21
208.92263650000001
 31
0.0
  0
LINE
  5
33B8
  8
AM_0
 10
257.9299652015369
 20
222.42633149999989
 30
0.0
 11
247.9299652015369
 21
222.42633149999989
 31
0.0
  0
LINE
  5
33B9
  8
AM_0
 10
217.4300028309313
 20
497.51810596616491
 30
0.0
 11
217.4300028309313
 21
443.5181059661648
 31
0.0
  0
LINE
  5
33BA
  8
AM_0
 10
247.9299952015368
 20
533.51810596616508
 30
0.0
 11
247.9299952015368
 21
407.5181059661648
 31
0.0
  0
LINE
  5
33BB
  8
AM_0
 10
192.4300073608843
 20
445.51810596616508
 30
0.0
 11
192.4300073608843
 21
495.51810596616508
 31
0.0
  0
LINE
  5
33BC
  8
AM_0
 10
190.4300073608843
 20
487.60389240379197
 30
0.0
 11
190.4300073608843
 21
453.43231952853819
 31
0.0
  0
LINE
  5
33BD
  8
AM_0
 10
194.4300073608843
 20
443.5181059661648
 30
0.0
 11
213.28786720720021
 21
443.5181059661648
 31
0.0
  0
ARC
  5
33BE
  8
AM_0
 10
194.4300073608843
 20
445.51810596616508
 30
0.0
 40
2.0
 50
180.0
 51
270.0
1001
GENIUS_GENOBJ-N-FIL_13
1002
{
1000
OWNER
1000
GEN
1002
}
1001
GENIUS_GENODEF_13
1002
{
1000
HIER
1070
     0
1002
}
1002
{
1000
MANEDIT
1070
     0
1002
}
1002
{
1000
NOSEL
1070
     0
1002
}
1002
{
1000
BEHIND
1070
     0
1002
}
1002
{
1000
OTHER
1070
     0
1002
}
1002
{
1000
REACTOR
1002
}
  0
ARC
  5
33BF
  8
AM_0
 10
191.4300073608843
 20
453.43231952853819
 30
0.0
 40
1.0
 50
180.0
 51
225.0
1001
GENIUS_GENODEF_13
1002
{
1000
HIER
1070
     0
1002
}
1002
{
1000
MANEDIT
1070
     0
1002
}
1002
{
1000
NOSEL
1070
     0
1002
}
1002
{
1000
BEHIND
1070
     0
1002
}
1002
{
1000
OTHER
1070
     0
1002
}
1002
{
1000
REACTOR
1002
}
1001
GENIUS_GENOBJ-N-FIL_13
1002
{
1000
OWNER
1000
GEN
1002
}
  0
ARC
  5
33C0
  8
AM_0
 10
191.4300073608843
 20
450.60389240379197
 30
0.0
 40
1.0
 50
0.0
 51
45.0
1001
GENIUS_GENODEF_13
1002
{
1000
HIER
1070
     0
1002
}
1002
{
1000
MANEDIT
1070
     0
1002
}
1002
{
1000
NOSEL
1070
     0
1002
}
1002
{
1000
BEHIND
1070
     0
1002
}
1002
{
1000
OTHER
1070
     0
1002
}
1002
{
1000
REACTOR
1002
}
1001
GENIUS_GENOBJ-N-FIL_13
1002
{
1000
OWNER
1000
GEN
1002
}
  0
LINE
  5
33C1
  8
AM_0
 10
190.72290057969781
 20
452.72521274735158
 30
0.0
 11
192.13711414207069
 21
451.31099918497858
 31
0.0
  0
LINE
  5
33C2
  8
AM_0
 10
246.46552910746951
 20
414.48257968962679
 30
0.0
 11
220.35893501906571
 21
440.58917377803039
 31
0.0
  0
ARC
  5
33C3
  8
AM_0
 10
248.9299952015368
 20
407.5181059661648
 30
0.0
 40
1.0
 50
180.0
 51
270.0
1001
GENIUS_GENODEF_13
1002
{
1000
HIER
1070
     0
1002
}
1002
{
1000
MANEDIT
1070
     0
1002
}
1002
{
1000
NOSEL
1070
     0
1002
}
1002
{
1000
BEHIND
1070
     0
1002
}
1002
{
1000
OTHER
1070
     0
1002
}
1002
{
1000
REACTOR
1002
}
1001
GENIUS_GENOBJ-N-FIL_13
1002
{
1000
OWNER
1000
GEN
1002
}
  0
ARC
  5
33C4
  8
AM_0
 10
242.9299952015368
 20
410.9470457836938
 30
0.0
 40
5.0
 50
0.0
 51
45.0
1001
GENIUS_GENODEF_13
1002
{
1000
HIER
1070
     0
1002
}
1002
{
1000
MANEDIT
1070
     0
1002
}
1002
{
1000
NOSEL
1070
     0
1002
}
1002
{
1000
BEHIND
1070
     0
1002
}
1002
{
1000
OTHER
1070
     0
1002
}
1002
{
1000
REACTOR
1002
}
1001
GENIUS_GENOBJ-N-FIL_13
1002
{
1000
OWNER
1000
GEN
1002
}
  0
LINE
  5
33C5
  8
AM_0
 10
257.92999520153683
 20
406.51810596616468
 30
0.0
 11
248.9299952015368
 21
406.51810596616468
 31
0.0
  0
ARC
  5
33C6
  8
AM_0
 10
213.28786720720021
 20
433.51810596616508
 30
0.0
 40
10.0
 50
45.0
 51
90.0
1001
GENIUS_GENODEF_13
1002
{
1000
HIER
1070
     0
1002
}
1002
{
1000
MANEDIT
1070
     0
1002
}
1002
{
1000
NOSEL
1070
     0
1002
}
1002
{
1000
BEHIND
1070
     0
1002
}
1002
{
1000
OTHER
1070
     0
1002
}
1002
{
1000
REACTOR
1002
}
1001
GENIUS_GENOBJ-N-FIL_13
1002
{
1000
OWNER
1000
GEN
1002
}
  0
LINE
  5
33C7
  8
AM_0
 10
257.92999520153683
 20
419.01810596616468
 30
0.0
 11
247.929995201537
 21
419.01810596616468
 31
0.0
  0
LINE
  5
33C8
  8
AM_0
 10
257.92999520153683
 20
432.52180096616519
 30
0.0
 11
247.929995201537
 21
432.52180096616519
 31
0.0
  0
LINE
  5
33C9
  8
AM_0
 10
194.4300073608843
 20
497.51810596616491
 30
0.0
 11
213.28786720720021
 21
497.51810596616491
 31
0.0
  0
LINE
  5
33CA
  8
AM_0
 10
160.4300073608843
 20
473.0181059661648
 30
0.0
 11
182.4300073608843
 21
473.0181059661648
 31
0.0
  0
LINE
  5
33CB
  8
AM_0
 10
160.4300073608843
 20
468.0181059661648
 30
0.0
 11
182.4300073608843
 21
468.0181059661648
 31
0.0
  0
LINE
  5
33CC
  8
AM_0
 10
160.4300073608843
 20
462.51810596616508
 30
0.0
 11
188.4300073608843
 21
462.51810596616508
 31
0.0
  0
LINE
  5
33CD
  8
AM_0
 10
160.4300073608843
 20
478.51810596616508
 30
0.0
 11
188.4300073608843
 21
478.51810596616508
 31
0.0
  0
LINE
  5
33CE
  8
AM_0
 10
160.4300073608843
 20
478.51810596616508
 30
0.0
 11
160.4300073608843
 21
462.51810596616508
 31
0.0
  0
ARC
  5
33CF
  8
AM_0
 10
182.4300073608843
 20
470.51810596616508
 30
0.0
 40
2.5
 50
270.0
 51
90.0
  0
LINE
  5
33D0
  8
AM_0
 10
182.4300073608843
 20
473.0181059661648
 30
0.0
 11
182.4300073608843
 21
468.0181059661648
 31
0.0
  0
LINE
  5
33D1
  8
AM_0
 10
188.4300073608843
 20
479.01810596616508
 30
0.0
 11
188.4300073608843
 21
462.01810596616508
 31
0.0
  0
LINE
  5
33D2
  8
AM_0
 10
188.4300073608843
 20
462.01811129921509
 30
0.0
 11
190.4300073608843
 21
462.01811023260518
 31
0.0
  0
LINE
  5
33D3
  8
AM_0
 10
188.4300073608843
 20
479.01810596616508
 30
0.0
 11
190.4300073608843
 21
479.01810596616508
 31
0.0
  0
LINE
  5
33D4
  8
AM_0
 10
190.72290057969781
 20
488.31099918497841
 30
0.0
 11
192.13711414207069
 21
489.72521274735169
 31
0.0
  0
ARC
  5
33D5
  8
AM_0
 10
191.4300073608843
 20
490.43231952853819
 30
0.0
 40
1.0
 50
315.0
 51
0.0
1001
GENIUS_GENODEF_13
1002
{
1000
HIER
1070
     0
1002
}
1002
{
1000
MANEDIT
1070
     0
1002
}
1002
{
1000
NOSEL
1070
     0
1002
}
1002
{
1000
BEHIND
1070
     0
1002
}
1002
{
1000
OTHER
1070
     0
1002
}
1002
{
1000
REACTOR
1002
}
1001
GENIUS_GENOBJ-N-FIL_13
1002
{
1000
OWNER
1000
GEN
1002
}
  0
ARC
  5
33D6
  8
AM_0
 10
191.4300073608843
 20
487.60389240379197
 30
0.0
 40
1.0
 50
135.0
 51
180.0
1001
GENIUS_GENODEF_13
1002
{
1000
HIER
1070
     0
1002
}
1002
{
1000
MANEDIT
1070
     0
1002
}
1002
{
1000
NOSEL
1070
     0
1002
}
1002
{
1000
BEHIND
1070
     0
1002
}
1002
{
1000
OTHER
1070
     0
1002
}
1002
{
1000
REACTOR
1002
}
1001
GENIUS_GENOBJ-N-FIL_13
1002
{
1000
OWNER
1000
GEN
1002
}
  0
ARC
  5
33D7
  8
AM_0
 10
194.4300073608843
 20
495.51810596616508
 30
0.0
 40
2.0
 50
90.0
 51
180.0
1001
GENIUS_GENOBJ-N-FIL_13
1002
{
1000
OWNER
1000
GEN
1002
}
1001
GENIUS_GENODEF_13
1002
{
1000
HIER
1070
     0
1002
}
1002
{
1000
MANEDIT
1070
     0
1002
}
1002
{
1000
NOSEL
1070
     0
1002
}
1002
{
1000
BEHIND
1070
     0
1002
}
1002
{
1000
OTHER
1070
     0
1002
}
1002
{
1000
REACTOR
1002
}
  0
LINE
  5
33D8
  8
AM_0
 10
246.46552910746951
 20
526.55363224270343
 30
0.0
 11
220.35893501906571
 21
500.44703815429938
 31
0.0
  0
ARC
  5
33D9
  8
AM_0
 10
213.28786720720021
 20
507.51810596616508
 30
0.0
 40
10.0
 50
270.0
 51
315.0
1001
GENIUS_GENODEF_13
1002
{
1000
HIER
1070
     0
1002
}
1002
{
1000
MANEDIT
1070
     0
1002
}
1002
{
1000
NOSEL
1070
     0
1002
}
1002
{
1000
BEHIND
1070
     0
1002
}
1002
{
1000
OTHER
1070
     0
1002
}
1002
{
1000
REACTOR
1002
}
1001
GENIUS_GENOBJ-N-FIL_13
1002
{
1000
OWNER
1000
GEN
1002
}
  0
LINE
  5
33DA
  8
AM_0
 10
257.92999520153683
 20
508.51441596616479
 30
0.0
 11
247.929995201537
 21
508.51441596616479
 31
0.0
  0
LINE
  5
33DB
  8
AM_0
 10
257.92999520153683
 20
522.01810596616497
 30
0.0
 11
247.929995201537
 21
522.01810596616497
 31
0.0
  0
ARC
  5
33DC
  8
AM_0
 10
248.9299952015368
 20
533.51810596616508
 30
0.0
 40
1.0
 50
90.0
 51
180.0
1001
GENIUS_GENODEF_13
1002
{
1000
HIER
1070
     0
1002
}
1002
{
1000
MANEDIT
1070
     0
1002
}
1002
{
1000
NOSEL
1070
     0
1002
}
1002
{
1000
BEHIND
1070
     0
1002
}
1002
{
1000
OTHER
1070
     0
1002
}
1002
{
1000
REACTOR
1002
}
1001
GENIUS_GENOBJ-N-FIL_13
1002
{
1000
OWNER
1000
GEN
1002
}
  0
ARC
  5
33DD
  8
AM_0
 10
242.9299952015368
 20
530.08916614863585
 30
0.0
 40
5.0
 50
315.0
 51
0.0
1001
GENIUS_GENODEF_13
1002
{
1000
HIER
1070
     0
1002
}
1002
{
1000
MANEDIT
1070
     0
1002
}
1002
{
1000
NOSEL
1070
     0
1002
}
1002
{
1000
BEHIND
1070
     0
1002
}
1002
{
1000
OTHER
1070
     0
1002
}
1002
{
1000
REACTOR
1002
}
1001
GENIUS_GENOBJ-N-FIL_13
1002
{
1000
OWNER
1000
GEN
1002
}
  0
LINE
  5
33DE
  8
AM_0
 10
257.92999520153683
 20
534.51810596616497
 30
0.0
 11
248.9299952015368
 21
534.51810596616497
 31
0.0
  0
LINE
  5
33E0
  8
ﾁｭｳｼﾝｾﾝ
 10
154.63600112520581
 20
470.51810596616508
 30
0.0
 11
408.1496552015368
 21
470.51810596616508
 31
0.0
  0
ARC
  5
33E1
  8
AM_0
 10
410.41870520153668
 20
470.51810596616508
 30
0.0
 40
101.4887199999999
 50
151.89333000000019
 51
208.10666999999961
  0
LINE
  5
33E2
  8
AM_0
 10
361.92996520153667
 20
485.5181059661648
 30
0.0
 11
361.92996520153667
 21
455.51810596616491
 31
0.0
  0
LINE
  5
33E3
  8
AM_0
 10
257.92999520153683
 20
406.51810596616468
 30
0.0
 11
257.92999520153671
 21
534.51810596616497
 31
0.0
  0
LINE
  5
33E4
  8
AM_0
 10
287.92999520153683
 20
401.64972596616468
 30
0.0
 11
287.92999520153683
 21
539.38647596616511
 31
0.0
  0
LINE
  5
33E5
  8
AM_0
 10
308.92999520153683
 20
420.45087596616469
 30
0.0
 11
308.92999520153683
 21
520.58533596616496
 31
0.0
  0
LINE
  5
33E6
  8
AM_0
 10
343.92999520153671
 20
420.26709596616502
 30
0.0
 11
343.92999520153671
 21
520.76910596616494
 31
0.0
  0
LINE
  5
33E7
  8
AM_0
 10
359.92996520153679
 20
444.98376596616509
 30
0.0
 11
359.92996520153679
 21
496.052405966165
 31
0.0
  0
LINE
  5
33E8
  8
AM_0
 10
356.92996520153667
 20
520.06305596616505
 30
0.0
 11
356.92996520153667
 21
420.97314596616468
 31
0.0
  0
LINE
  5
33E9
  8
AM_0
 10
294.92996520153662
 20
541.51810596616508
 30
0.0
 11
294.92996520153662
 21
399.51810596616491
 31
0.0
  0
ARC
  5
33EA
  8
AM_0
 10
309.9299652015369
 20
416.09338596616521
 30
0.0
 40
1.0
 50
269.999989999999
 51
0.0000006832462478
  0
ARC
  5
33EB
  8
AM_0
 10
309.9299652015369
 20
410.31985596616522
 30
0.0
 40
1.0
 50
269.999989999999
 51
0.0000006832462478
  0
ARC
  5
33EC
  8
AM_0
 10
309.9299652015369
 20
407.43311596616491
 30
0.0
 40
1.0
 50
269.999989999999
 51
0.0000006832462478
  0
ARC
  5
33ED
  8
AM_0
 10
309.9299652015369
 20
408.31988596616469
 30
0.0
 40
1.0
 50
0.0
 51
90.000003000000945
  0
ARC
  5
33EE
  8
AM_0
 10
309.9299652015369
 20
414.09338596616482
 30
0.0
 40
1.0
 50
0.0
 51
90.000003000000945
  0
ARC
  5
33EF
  8
AM_0
 10
309.9299652015369
 20
416.98013596616522
 30
0.0
 40
1.0
 50
0.0
 51
90.000003000000945
  0
LINE
  5
33F0
  8
AM_0
 10
310.02639520153679
 20
400.51483596616492
 30
0.0
 11
320.66317520153677
 21
406.62805596616522
 31
0.0
  0
LINE
  5
33F1
  8
AM_0
 10
308.92996520153662
 20
420.45087596616469
 30
0.0
 11
322.51196520153673
 21
423.00925596616509
 31
0.0
  0
LINE
  5
33F2
  8
AM_0
 10
297.92999520153683
 20
392.51810596616491
 30
0.0
 11
357.98232520153681
 21
394.09064596616491
 31
0.0
  0
LINE
  5
33F3
  8
AM_0
 10
257.92999520153683
 20
433.36807596616518
 30
0.0
 11
287.92999520153683
 21
433.36807596616518
 31
0.0
  0
LINE
  5
33F4
  8
AM_0
 10
257.92999520153683
 20
418.4780659661651
 30
0.0
 11
287.92999520153683
 21
418.4780659661651
 31
0.0
  0
LINE
  5
33F5
  8
AM_0
 10
283.16979520153677
 20
406.35715596616512
 30
0.0
 11
257.93002520153681
 21
407.0181059661648
 31
0.0
  0
ARC
  5
33F6
  8
AM_0
 10
280.9299652015369
 20
416.4780659661651
 30
0.0
 40
2.0
 50
0.0
 51
90.000003000000945
  0
LINE
  5
33F7
  8
AM_0
 10
306.92996520153667
 20
418.9801659661648
 30
0.0
 11
306.92996520153667
 21
405.43311596616479
 31
0.0
  0
LINE
  5
33F8
  8
AM_0
 10
305.9299652015369
 20
420.45087596616469
 30
0.0
 11
305.9299652015369
 21
399.80615596616491
 31
0.0
  0
ARC
  5
33F9
  8
AM_0
 10
284.92996520153662
 20
407.30682596616509
 30
0.0
 40
2.0
 50
180.00001000000091
 51
270.0
  0
LINE
  5
33FA
  8
AM_0
 10
267.87762520153677
 20
393.30505596616518
 30
0.0
 11
297.92996520153679
 21
392.51810596616491
 31
0.0
  0
LINE
  5
33FB
  8
ﾁｭｳｼﾝｾﾝ1
 10
269.26544520153669
 20
405.51810596616491
 30
0.0
 11
286.17474520153678
 21
405.51810596616491
 31
0.0
  0
LINE
  5
33FC
  8
AM_0
 10
265.92996520153662
 20
395.30438596616523
 30
0.0
 11
265.92996520153662
 21
406.75623596616509
 31
0.0
  0
LINE
  5
33FD
  8
ﾁｭｳｼﾝｾﾝ1
 10
277.92996520153662
 20
396.71613596616493
 30
0.0
 11
277.92996520153662
 21
414.71289596616481
 31
0.0
  0
ARC
  5
33FE
  8
AM_0
 10
267.92996520153662
 20
395.30438596616523
 30
0.0
 40
2.0
 50
180.00001000000091
 51
268.5000000000004
  0
ARC
  5
33FF
  8
AM_0
 10
277.92996520153662
 20
405.51810596616491
 30
0.0
 40
6.0
 50
169.13878999999881
 51
0.5425729200004517
  0
ARC
  5
3400
  8
ｶｸﾚｾﾝ2
 10
277.92996520153662
 20
405.51810596616491
 30
0.0
 40
6.0
 50
0.5425604000007392
 51
169.13878999999881
  0
LINE
  5
3401
  8
AM_0
 10
282.92996520153679
 20
407.30682596616509
 30
0.0
 11
282.92996520153679
 21
416.4780659661651
 31
0.0
  0
LINE
  5
3402
  8
AM_0
 10
297.92996520153679
 20
399.59665596616509
 30
0.0
 11
297.92996520153679
 21
396.3740859661649
 31
0.0
  0
LINE
  5
3403
  8
AM_0
 10
295.33297520153678
 20
399.52866596616491
 30
0.0
 11
290.92996520153662
 21
397.218515966165
 31
0.0
  0
LINE
  5
3404
  8
AM_0
 10
297.92996520153679
 20
396.37405596616492
 30
0.0
 11
290.92996520153662
 21
392.7013959661648
 31
0.0
  0
LINE
  5
3405
  8
AM_0
 10
290.92996520153662
 20
392.701425966165
 30
0.0
 11
290.92996520153662
 21
397.218515966165
 31
0.0
  0
LINE
  5
3406
  8
AM_0
 10
307.6658052015369
 20
399.85162596616522
 30
0.0
 11
294.92996520153662
 21
399.51810596616491
 31
0.0
  0
LINE
  5
3407
  8
AM_0
 10
294.92999520153683
 20
399.51810596616491
 30
0.0
 11
289.87765520153681
 21
399.65039596616509
 31
0.0
  0
ARC
  5
3408
  8
AM_0
 10
285.92999520153683
 20
403.30682596616509
 30
0.0
 40
2.0
 50
0.0
 51
90.000003000000945
  0
ARC
  5
3409
  8
AM_0
 10
289.92999520153683
 20
401.64972596616468
 30
0.0
 40
2.0
 50
180.00001000000091
 51
268.5000000000004
  0
LINE
  5
340A
  8
AM_0
 10
284.92996520153662
 20
405.30682596616481
 30
0.0
 11
285.92999520153683
 21
405.30682596616481
 31
0.0
  0
ARC
  5
340B
  8
AM_0
 10
307.53494520153669
 20
404.84988596616512
 30
0.0
 40
5.0
 50
271.49999999999932
 51
299.88701999999893
  0
LINE
  5
340C
  8
AM_0
 10
306.92996520153667
 20
406.43311596616508
 30
0.0
 11
309.9299652015369
 21
406.43311596616508
 31
0.0
  0
LINE
  5
340D
  8
AM_0
 10
305.9299652015369
 20
405.43311596616479
 30
0.0
 11
306.92996520153667
 21
405.43311596616479
 31
0.0
  0
LINE
  5
340E
  8
AM_0
 10
306.92996520153667
 20
409.31988596616509
 30
0.0
 11
309.9299652015369
 21
409.31988596616509
 31
0.0
  0
LINE
  5
340F
  8
AM_0
 10
306.92996520153667
 20
415.0933859661651
 30
0.0
 11
309.9299652015369
 21
415.0933859661651
 31
0.0
  0
LINE
  5
3410
  8
AM_0
 10
305.9299652015369
 20
420.45087596616469
 30
0.0
 11
308.92996520153662
 21
420.45087596616469
 31
0.0
  0
LINE
  5
3411
  8
AM_0
 10
306.92996520153667
 20
417.98016596616492
 30
0.0
 11
309.9299652015369
 21
417.98016596616492
 31
0.0
  0
LINE
  5
3412
  8
AM_0
 10
305.9299652015369
 20
418.9801659661648
 30
0.0
 11
306.92996520153667
 21
418.9801659661648
 31
0.0
  0
LINE
  5
3413
  8
AM_0
 10
359.92996520153679
 20
455.51810596616491
 30
0.0
 11
361.92996520153667
 21
455.51810596616491
 31
0.0
  0
ARC
  5
3414
  8
AM_0
 10
340.92999520153683
 20
420.26709596616502
 30
0.0
 40
3.0
 50
274.99999999999972
 51
0.0
  0
ARC
  5
3415
  8
AM_0
 10
335.92996520153662
 20
411.79907596616482
 30
0.0
 40
5.0
 50
95.00000199999856
 51
180.00001000000091
  0
LINE
  5
3416
  8
AM_0
 10
341.1914652015368
 20
417.27853596616478
 30
0.0
 11
335.49417520153668
 21
416.78006596616518
 31
0.0
  0
LINE
  5
3417
  8
AM_0
 10
359.92996520153679
 20
396.08993596616523
 30
0.0
 11
359.92996520153679
 21
418.9462659661649
 31
0.0
  0
LINE
  5
3418
  8
AM_0
 10
310.92993520153669
 20
407.43311596616491
 30
0.0
 11
310.92993520153669
 21
416.98013596616522
 31
0.0
  0
ARC
  5
3419
  8
AM_0
 10
335.92996520153662
 20
398.51489596616523
 30
0.0
 40
5.0
 50
180.00001000000091
 51
271.49999999999932
  0
ARC
  5
341A
  8
AM_0
 10
323.15463520153662
 20
402.29300596616508
 30
0.0
 40
5.0
 50
91.500001000001546
 51
119.887019999999
  0
ARC
  5
341B
  8
AM_0
 10
327.92996520153662
 20
410.420785966165
 30
0.0
 40
3.0
 50
271.49999999999932
 51
0.0
  0
LINE
  5
341C
  8
AM_0
 10
330.9299652015369
 20
398.51489596616523
 30
0.0
 11
330.9299652015369
 21
411.79907596616482
 31
0.0
  0
LINE
  5
341D
  8
AM_0
 10
328.0084852015367
 20
407.42181596616518
 30
0.0
 11
323.02374520153683
 21
407.29129596616508
 31
0.0
  0
LINE
  5
341E
  8
ﾁｭｳｼﾝｾﾝ1
 10
347.92996520153679
 20
396.03281596616517
 30
0.0
 11
347.92996520153679
 21
413.97064596616508
 31
0.0
  0
ARC
  5
341F
  8
AM_0
 10
357.92996520153679
 20
396.08993596616523
 30
0.0
 40
2.0
 50
271.49999999999932
 51
0.0
  0
CIRCLE
  5
3420
  8
AM_0
 10
347.92996520153679
 20
405.51810596616491
 30
0.0
 40
6.0
  0
LINE
  5
3421
  8
ﾁｭｳｼﾝｾﾝ1
 10
339.70834520153682
 20
405.51810596616491
 30
0.0
 11
357.27505520153682
 21
405.51810596616491
 31
0.0
  0
LINE
  5
3422
  8
AM_0
 10
341.00854520153678
 20
423.49356596616479
 30
0.0
 11
322.5119352015368
 21
423.0092259661651
 31
0.0
  0
LINE
  5
3423
  8
AM_0
 10
352.36575520153679
 20
422.118775966165
 30
0.0
 11
347.66824520153671
 21
421.70779596616518
 31
0.0
  0
ARC
  5
3424
  8
AM_0
 10
340.92999520153683
 20
426.49255596616513
 30
0.0
 40
3.0
 50
271.49999999999932
 51
0.0
  0
ARC
  5
3425
  8
AM_0
 10
348.10400520153672
 20
416.72681596616479
 30
0.0
 40
5.0
 50
95.00000199999856
 51
153.73432999999969
  0
ARC
  5
3426
  8
AM_0
 10
351.92996520153679
 20
427.0997359661651
 30
0.0
 40
5.0
 50
274.99999999999972
 51
0.0
  0
ARC
  5
3427
  8
AM_0
 10
357.92996520153679
 20
418.9462659661649
 30
0.0
 40
2.0
 50
0.0
 51
88.499997000000747
  0
LINE
  5
3428
  8
AM_0
 10
357.98232520153681
 20
420.94559596616511
 30
0.0
 11
356.9299952015366
 21
420.97311596616481
 31
0.0
  0
ARC
  5
3429
  8
AM_0
 10
358.92996520153667
 20
444.98376596616509
 30
0.0
 40
1.0
 50
272.0000000000004
 51
0.0
  0
ARC
  5
342A
  8
AM_0
 10
357.92996520153679
 20
442.9476359661648
 30
0.0
 40
1.0
 50
91.999998000000545
 51
180.00001000000091
  0
LINE
  5
342B
  8
AM_0
 10
357.89508520153669
 20
443.94705596616518
 30
0.0
 11
358.96487520153681
 21
443.98441596616487
 31
0.0
  0
ARC
  5
342C
  8
AM_0
 10
309.9299652015369
 20
524.05606596616497
 30
0.0
 40
1.0
 50
269.999989999999
 51
0.0000006832462478
  0
ARC
  5
342D
  8
AM_0
 10
309.9299652015369
 20
526.9428159661652
 30
0.0
 40
1.0
 50
269.999989999999
 51
0.0000006832462478
  0
ARC
  5
342E
  8
AM_0
 10
309.9299652015369
 20
532.71631596616476
 30
0.0
 40
1.0
 50
269.999989999999
 51
0.0000006832462478
  0
ARC
  5
342F
  8
AM_0
 10
309.9299652015369
 20
533.60309596616469
 30
0.0
 40
1.0
 50
0.0
 51
90.000003000000945
  0
ARC
  5
3430
  8
AM_0
 10
309.9299652015369
 20
530.71634596616514
 30
0.0
 40
1.0
 50
0.0
 51
90.000003000000945
  0
ARC
  5
3431
  8
AM_0
 10
309.9299652015369
 20
524.94281596616497
 30
0.0
 40
1.0
 50
0.0
 51
90.000003000000945
  0
LINE
  5
3432
  8
AM_0
 10
308.92996520153662
 20
520.585365966165
 30
0.0
 11
322.51196520153673
 21
518.02698596616494
 31
0.0
  0
LINE
  5
3433
  8
AM_0
 10
310.02642520153682
 20
540.52133596616511
 30
0.0
 11
320.66317520153677
 21
534.40814596616508
 31
0.0
  0
LINE
  5
3434
  8
AM_0
 10
297.92999520153683
 20
548.51810596616485
 30
0.0
 11
357.98232520153681
 21
546.94556596616485
 31
0.0
  0
ARC
  5
3435
  8
ｶｸﾚｾﾝ2
 10
277.92996520153662
 20
535.51810596616485
 30
0.0
 40
6.0
 50
190.86121000000111
 51
359.45752000000078
  0
ARC
  5
3436
  8
AM_0
 10
277.92996520153662
 20
535.51810596616485
 30
0.0
 40
6.0
 50
359.45751000000092
 51
190.86121000000111
  0
LINE
  5
3437
  8
AM_0
 10
282.92996520153679
 20
533.72940596616513
 30
0.0
 11
282.92996520153679
 21
524.55814596616494
 31
0.0
  0
LINE
  5
3438
  8
AM_0
 10
305.9299652015369
 20
520.58533596616496
 30
0.0
 11
305.9299652015369
 21
541.23004596616511
 31
0.0
  0
LINE
  5
3439
  8
AM_0
 10
306.92996520153667
 20
522.05603596616515
 30
0.0
 11
306.92996520153667
 21
535.6030959661648
 31
0.0
  0
LINE
  5
343A
  8
ﾁｭｳｼﾝｾﾝ1
 10
277.92996520153662
 20
544.03082596616514
 30
0.0
 11
277.92996520153662
 21
526.68539596616495
 31
0.0
  0
LINE
  5
343B
  8
AM_0
 10
257.92999520153683
 20
522.55814596616494
 30
0.0
 11
287.92999520153683
 21
522.55814596616494
 31
0.0
  0
LINE
  5
343C
  8
AM_0
 10
257.92999520153683
 20
507.66812596616478
 30
0.0
 11
287.92999520153683
 21
507.66812596616478
 31
0.0
  0
ARC
  5
343D
  8
AM_0
 10
280.9299652015369
 20
524.55814596616494
 30
0.0
 40
2.0
 50
270.0
 51
0.0
  0
LINE
  5
343E
  8
AM_0
 10
305.9299652015369
 20
520.58533596616496
 30
0.0
 11
308.92996520153662
 21
520.58533596616496
 31
0.0
  0
LINE
  5
343F
  8
AM_0
 10
305.9299652015369
 20
522.05603596616515
 30
0.0
 11
306.92996520153667
 21
522.05603596616515
 31
0.0
  0
LINE
  5
3440
  8
AM_0
 10
306.92996520153667
 20
523.05606596616508
 30
0.0
 11
309.9299652015369
 21
523.05606596616508
 31
0.0
  0
LINE
  5
3441
  8
AM_0
 10
306.92996520153667
 20
525.94281596616486
 30
0.0
 11
309.9299652015369
 21
525.94281596616486
 31
0.0
  0
LINE
  5
3442
  8
AM_0
 10
306.92996520153667
 20
531.71631596616487
 30
0.0
 11
309.9299652015369
 21
531.71631596616487
 31
0.0
  0
LINE
  5
3443
  8
AM_0
 10
283.16979520153677
 20
534.67905596616481
 30
0.0
 11
257.92999520153683
 21
534.01810596616508
 31
0.0
  0
ARC
  5
3444
  8
AM_0
 10
284.92996520153662
 20
533.72940596616513
 30
0.0
 40
2.0
 50
90.000003000000945
 51
180.00001000000091
  0
LINE
  5
3445
  8
AM_0
 10
267.87762520153677
 20
547.73114596616495
 30
0.0
 11
297.92996520153679
 21
548.51810596616485
 31
0.0
  0
LINE
  5
3446
  8
ﾁｭｳｼﾝｾﾝ1
 10
269.4484852015367
 20
535.51810596616485
 30
0.0
 11
286.13586520153677
 21
535.51810596616485
 31
0.0
  0
LINE
  5
3447
  8
AM_0
 10
265.92996520153662
 20
545.73184596616488
 30
0.0
 11
265.92996520153662
 21
534.2799759661649
 31
0.0
  0
ARC
  5
3448
  8
AM_0
 10
267.92996520153662
 20
545.73184596616488
 30
0.0
 40
2.0
 50
91.500001000001546
 51
180.00001000000091
  0
LINE
  5
3449
  8
AM_0
 10
307.66583520153682
 20
541.18457596616508
 30
0.0
 11
294.92999520153683
 21
541.51810596616508
 31
0.0
  0
LINE
  5
344A
  8
AM_0
 10
297.92999520153683
 20
544.66211596616517
 30
0.0
 11
290.92999520153683
 21
548.33478596616521
 31
0.0
  0
LINE
  5
344B
  8
AM_0
 10
295.33300520153682
 20
541.50754596616491
 30
0.0
 11
290.92999520153683
 21
543.8176659661649
 31
0.0
  0
LINE
  5
344C
  8
AM_0
 10
294.92996520153662
 20
541.51810596616508
 30
0.0
 11
289.87762520153677
 21
541.38580596616498
 31
0.0
  0
ARC
  5
344D
  8
AM_0
 10
285.92999520153683
 20
537.72940596616513
 30
0.0
 40
2.0
 50
270.0
 51
0.0
  0
ARC
  5
344E
  8
AM_0
 10
289.92999520153683
 20
539.38647596616511
 30
0.0
 40
2.0
 50
91.500001000001546
 51
180.00001000000091
  0
LINE
  5
344F
  8
AM_0
 10
284.92996520153662
 20
535.72940596616513
 30
0.0
 11
285.92999520153683
 21
535.72940596616513
 31
0.0
  0
LINE
  5
3450
  8
AM_0
 10
290.92996520153662
 20
548.33478596616521
 30
0.0
 11
290.92996520153662
 21
543.81769596616505
 31
0.0
  0
LINE
  5
3451
  8
AM_0
 10
297.92996520153679
 20
541.43954596616481
 30
0.0
 11
297.92996520153679
 21
544.66211596616517
 31
0.0
  0
ARC
  5
3452
  8
AM_0
 10
307.53494520153669
 20
536.18631596616513
 30
0.0
 40
5.0
 50
60.112980000000888
 51
88.499997000000747
  0
LINE
  5
3453
  8
AM_0
 10
305.9299652015369
 20
535.6030959661648
 30
0.0
 11
306.92996520153667
 21
535.6030959661648
 31
0.0
  0
LINE
  5
3454
  8
AM_0
 10
306.92996520153667
 20
534.6030659661651
 30
0.0
 11
309.9299652015369
 21
534.6030659661651
 31
0.0
  0
ARC
  5
3455
  8
AM_0
 10
327.92996520153662
 20
530.61542596616505
 30
0.0
 40
3.0
 50
0.0
 51
88.499997000000747
  0
CIRCLE
  5
3456
  8
AM_0
 10
347.92996520153679
 20
535.51810596616485
 30
0.0
 40
6.0
  0
LINE
  5
3457
  8
AM_0
 10
310.92993520153669
 20
533.60309596616469
 30
0.0
 11
310.92993520153669
 21
524.05606596616497
 31
0.0
  0
LINE
  5
3458
  8
AM_0
 10
330.9299652015369
 20
529.2370959661647
 30
0.0
 11
330.9299652015369
 21
542.52130596616507
 31
0.0
  0
LINE
  5
3459
  8
ﾁｭｳｼﾝｾﾝ1
 10
347.92996520153679
 20
544.04129596616485
 30
0.0
 11
347.92996520153679
 21
526.80911596616511
 31
0.0
  0
LINE
  5
345A
  8
AM_0
 10
359.92996520153679
 20
544.94626596616513
 30
0.0
 11
359.92996520153679
 21
522.08993596616494
 31
0.0
  0
LINE
  5
345B
  8
AM_0
 10
359.92996520153679
 20
485.5181059661648
 30
0.0
 11
361.92996520153667
 21
485.5181059661648
 31
0.0
  0
LINE
  5
345C
  8
AM_0
 10
341.00854520153678
 20
517.54263596616511
 30
0.0
 11
322.51196520153673
 21
518.02698596616494
 31
0.0
  0
LINE
  5
345D
  8
AM_0
 10
341.1914652015368
 20
523.75769596616522
 30
0.0
 11
335.49420520153677
 21
524.25613596616495
 31
0.0
  0
ARC
  5
345E
  8
AM_0
 10
335.92996520153662
 20
529.2370959661647
 30
0.0
 40
5.0
 50
180.00001000000091
 51
265.00001000000071
  0
ARC
  5
345F
  8
AM_0
 10
358.92996520153667
 20
496.052405966165
 30
0.0
 40
1.0
 50
0.0
 51
87.999999999999659
  0
ARC
  5
3460
  8
AM_0
 10
357.92996520153679
 20
498.08856596616511
 30
0.0
 40
1.0
 50
180.00001000000091
 51
267.9999999999996
  0
LINE
  5
3461
  8
AM_0
 10
357.89504520153679
 20
497.08914596616501
 30
0.0
 11
358.96487520153681
 21
497.05179596616512
 31
0.0
  0
LINE
  5
3462
  8
AM_0
 10
352.3657252015368
 20
518.91742596616496
 30
0.0
 11
347.66821520153673
 21
519.32840596616495
 31
0.0
  0
ARC
  5
3463
  8
AM_0
 10
340.92999520153683
 20
520.76910596616494
 30
0.0
 40
3.0
 50
0.0
 51
85.000004000001198
  0
ARC
  5
3464
  8
AM_0
 10
340.92999520153683
 20
514.54364596616506
 30
0.0
 40
3.0
 50
0.0
 51
88.499997000000747
  0
ARC
  5
3465
  8
AM_0
 10
348.10400520153672
 20
524.30936596616505
 30
0.0
 40
5.0
 50
206.2656700000002
 51
265.00001000000071
  0
ARC
  5
3466
  8
AM_0
 10
351.92996520153679
 20
513.93643596616516
 30
0.0
 40
5.0
 50
0.0
 51
85.000004000001198
  0
ARC
  5
3467
  8
AM_0
 10
357.92996520153679
 20
522.08993596616494
 30
0.0
 40
2.0
 50
271.49999999999932
 51
0.0
  0
LINE
  5
3468
  8
AM_0
 10
356.92996520153667
 20
520.06305596616505
 30
0.0
 11
357.98229520153672
 21
520.09061596616505
 31
0.0
  0
LINE
  5
3469
  8
AM_0
 10
369.92996520153667
 20
466.51810596616508
 30
0.0
 11
401.92996520153679
 21
466.51810596616508
 31
0.0
  0
LINE
  5
346A
  8
AM_0
 10
361.92996520153667
 20
484.51813596616478
 30
0.0
 11
401.92996520153679
 21
484.51813596616478
 31
0.0
  0
LINE
  5
346B
  8
AM_0
 10
361.92996520153667
 20
456.51813596616512
 30
0.0
 11
401.92996520153679
 21
456.51813596616512
 31
0.0
  0
LINE
  5
346C
  8
AM_0
 10
369.92996520153667
 20
474.51807596616482
 30
0.0
 11
401.92996520153679
 21
474.51807596616482
 31
0.0
  0
ARC
  5
346D
  8
AM_0
 10
369.92996520153667
 20
470.51807596616482
 30
0.0
 40
3.9999962
 50
90.000003000000945
 51
270.0
  0
LINE
  5
346E
  8
AM_0
 10
369.92996520153667
 20
474.51807596616482
 30
0.0
 11
369.92996520153667
 21
466.51810596616508
 31
0.0
  0
LINE
  5
346F
  8
AM_0
 10
401.92996520153679
 20
484.51813596616478
 30
0.0
 11
401.92996520153679
 21
456.51813596616512
 31
0.0
  0
ARC
  5
3470
  8
AM_0
 10
335.92996520153662
 20
542.52130596616507
 30
0.0
 40
5.0
 50
88.499997000000747
 51
180.00001000000091
  0
ARC
  5
3471
  8
AM_0
 10
323.15463520153662
 20
538.74319596616488
 30
0.0
 40
5.0
 50
240.11298000000079
 51
268.5000000000004
  0
LINE
  5
3472
  8
AM_0
 10
328.00851520153668
 20
533.61438596616506
 30
0.0
 11
323.02377520153681
 21
533.74490596616511
 31
0.0
  0
LINE
  5
3473
  8
ﾁｭｳｼﾝｾﾝ1
 10
339.26577520153683
 20
535.51810596616485
 30
0.0
 11
357.02239520153671
 21
535.51810596616485
 31
0.0
  0
ARC
  5
3474
  8
AM_0
 10
357.92996520153679
 20
544.94626596616513
 30
0.0
 40
2.0
 50
0.0
 51
88.499997000000747
  0
TEXT
  5
3659
  8
AM_0
 10
461.46214195281948
 20
462.25711704659068
 30
0.0
 40
10.0
  1
VX04-040G~VX04-050G
  0
ENDSEC
  0
EOF
