  0
SECTION
  2
HEADER
  9
$ACADVER
  1
AC1009
  9
$INSBASE
 10
0.0
 20
0.0
 30
0.0
  9
$EXTMIN
 10
128.05886291509819
 20
158.76989099425711
 30
-0.0000000000112498
  9
$EXTMAX
 10
811.20007518015325
 20
698.09498942921346
 30
0.0000000000002956
  9
$LIMMIN
 10
0.0
 20
0.0
  9
$LIMMAX
 10
853.5
 20
555.00000000000011
  9
$ORTHOMODE
 70
     0
  9
$REGENMODE
 70
     1
  9
$FILLMODE
 70
     1
  9
$QTEXTMODE
 70
     0
  9
$MIRRTEXT
 70
     1
  9
$DRAGMODE
 70
     2
  9
$LTSCALE
 40
3.0
  9
$OSMODE
 70
   551
  9
$ATTMODE
 70
     1
  9
$TEXTSIZE
 40
2.5
  9
$TRACEWID
 40
1.0
  9
$TEXTSTYLE
  7
STANDARD
  9
$CLAYER
  8
AM_0
  9
$CELTYPE
  6
BYLAYER
  9
$CECOLOR
 62
   256
  9
$DIMSCALE
 40
1.0
  9
$DIMASZ
 40
2.5
  9
$DIMEXO
 40
1.0
  9
$DIMDLI
 40
8.0
  9
$DIMRND
 40
0.0
  9
$DIMDLE
 40
0.0
  9
$DIMEXE
 40
0.6
  9
$DIMTP
 40
0.1
  9
$DIMTM
 40
0.1
  9
$DIMTXT
 40
2.5
  9
$DIMCEN
 40
0.0
  9
$DIMTSZ
 40
0.0
  9
$DIMTOL
 70
     0
  9
$DIMLIM
 70
     0
  9
$DIMTIH
 70
     0
  9
$DIMTOH
 70
     0
  9
$DIMSE1
 70
     0
  9
$DIMSE2
 70
     0
  9
$DIMTAD
 70
     1
  9
$DIMZIN
 70
     8
  9
$DIMBLK
  1

  9
$DIMASO
 70
     1
  9
$DIMSHO
 70
     1
  9
$DIMPOST
  1

  9
$DIMAPOST
  1
"
  9
$DIMALT
 70
     0
  9
$DIMALTD
 70
     2
  9
$DIMALTF
 40
0.0393701
  9
$DIMLFAC
 40
1.0
  9
$DIMTOFL
 70
     1
  9
$DIMTVP
 40
0.0
  9
$DIMTIX
 70
     0
  9
$DIMSOXD
 70
     0
  9
$DIMSAH
 70
     0
  9
$DIMBLK1
  1

  9
$DIMBLK2
  1

  9
$DIMSTYLE
  2
AM_ISO
  9
$DIMCLRD
 70
   256
  9
$DIMCLRE
 70
   256
  9
$DIMCLRT
 70
     4
  9
$DIMTFAC
 40
0.71
  9
$DIMGAP
 40
0.8
  9
$LUNITS
 70
     2
  9
$LUPREC
 70
     2
  9
$SKETCHINC
 40
1.0
  9
$FILLETRAD
 40
15.0
  9
$AUNITS
 70
     0
  9
$AUPREC
 70
     0
  9
$MENU
  1
.
  9
$ELEVATION
 40
0.0
  9
$PELEVATION
 40
0.0
  9
$THICKNESS
 40
0.0
  9
$LIMCHECK
 70
     0
  9
$BLIPMODE
 70
     0
  9
$CHAMFERA
 40
6.0
  9
$CHAMFERB
 40
3.0
  9
$SKPOLY
 70
     0
  9
$TDCREATE
 40
2452066.4013071419
  9
$TDUPDATE
 40
2458541.4135097112
  9
$TDINDWG
 40
0.1414491551
  9
$TDUSRTIMER
 40
0.1414491435
  9
$USRTIMER
 70
     1
  9
$ANGBASE
 50
0.0
  9
$ANGDIR
 70
     0
  9
$PDMODE
 70
     0
  9
$PDSIZE
 40
0.0
  9
$PLINEWID
 40
0.0
  9
$COORDS
 70
     1
  9
$SPLFRAME
 70
     0
  9
$SPLINETYPE
 70
     6
  9
$SPLINESEGS
 70
     8
  9
$ATTDIA
 70
     1
  9
$ATTREQ
 70
     1
  9
$HANDLING
 70
     1
  9
$HANDSEED
  5
2DF2
  9
$SURFTAB1
 70
     6
  9
$SURFTAB2
 70
     6
  9
$SURFTYPE
 70
     6
  9
$SURFU
 70
     6
  9
$SURFV
 70
     6
  9
$UCSNAME
  2

  9
$UCSORG
 10
0.0
 20
0.0
 30
0.0
  9
$UCSXDIR
 10
1.0
 20
0.0
 30
0.0
  9
$UCSYDIR
 10
0.0
 20
1.0
 30
0.0
  9
$PUCSNAME
  2

  9
$PUCSORG
 10
0.0
 20
0.0
 30
0.0
  9
$PUCSXDIR
 10
1.0
 20
0.0
 30
0.0
  9
$PUCSYDIR
 10
0.0
 20
1.0
 30
0.0
  9
$USERI1
 70
     0
  9
$USERI2
 70
     0
  9
$USERI3
 70
     0
  9
$USERI4
 70
     0
  9
$USERI5
 70
     0
  9
$USERR1
 40
0.0
  9
$USERR2
 40
0.0
  9
$USERR3
 40
0.0
  9
$USERR4
 40
0.0
  9
$USERR5
 40
0.0
  9
$WORLDVIEW
 70
     1
  9
$SHADEDGE
 70
     3
  9
$SHADEDIF
 70
    70
  9
$TILEMODE
 70
     1
  9
$MAXACTVP
 70
    64
  9
$PLIMCHECK
 70
     0
  9
$PEXTMIN
 10
1.0000000000000000E+020
 20
1.0000000000000000E+020
 30
1.0000000000000000E+020
  9
$PEXTMAX
 10
-1.0000000000000000E+020
 20
-1.0000000000000000E+020
 30
-1.0000000000000000E+020
  9
$PLIMMIN
 10
0.0
 20
0.0
  9
$PLIMMAX
 10
420.0
 20
297.0
  9
$UNITMODE
 70
     0
  9
$VISRETAIN
 70
     1
  9
$PLINEGEN
 70
     0
  9
$PSLTSCALE
 70
     1
  0
ENDSEC
  0
SECTION
  2
TABLES
  0
TABLE
  2
VPORT
 70
     1
  0
VPORT
  2
*ACTIVE
 70
     0
 10
0.0
 20
0.0
 11
1.0
 21
1.0
 12
469.62946904762572
 22
428.4324402117353
 13
0.0
 23
0.0
 14
7.5
 24
7.5
 15
30.0
 25
30.0
 16
0.0
 26
0.0
 36
1.0
 17
0.0
 27
0.0
 37
0.0
 40
543.02755906494463
 41
1.7571592210767459
 42
50.0
 43
0.0
 44
0.0
 50
0.0
 51
0.0
 71
     0
 72
   100
 73
     1
 74
     3
 75
     0
 76
     0
 77
     0
 78
     0
  0
ENDTAB
  0
TABLE
  2
LTYPE
 70
    27
  0
LTYPE
  2
CONTINUOUS
 70
     0
  3
Solid line
 72
    65
 73
     0
 40
0.0
  0
LTYPE
  2
AM_ISO02W050
 70
     0
  3
__ __ __ __ __ __ __ __ __ __ __ __ __ __ __
 72
    65
 73
     2
 40
7.5
 49
6.0
 49
-1.5
  0
LTYPE
  2
AM_ISO08W050
 70
     0
  3
____ . ____ . ____ . ____ . ____ . ____ . ____
 72
    65
 73
     4
 40
18.0
 49
12.0
 49
-1.5
 49
3.0
 49
-1.5
  0
LTYPE
  2
AM_ISO09W050
 70
     0
  3
_____ . . _____ . . _____ . . ____ .. ____
 72
    65
 73
     6
 40
22.5
 49
12.0
 49
-1.5
 49
3.0
 49
-1.5
 49
3.0
 49
-1.5
  0
LTYPE
  2
AMCONSTR
 70
     0
  3
_______________________
 72
    65
 73
     2
 40
9999.0
 49
9999.0
 49
0.0
  0
LTYPE
  2
AM_ISO08W050X2
 70
     0
  3
__ . __ . __ . __ . __ . __
 72
    65
 73
     4
 40
9.0
 49
6.0
 49
-0.75
 49
1.5
 49
-0.75
  0
LTYPE
  2
AM_ISO02W050X2
 70
     0
  3
 _ _ _ _ _ _ _ _ _ _ _ _
 72
    65
 73
     2
 40
3.75
 49
3.0
 49
-0.75
  0
LTYPE
  2
AMZIGZAG
 70
     0
  3
/\/-/\/-/\/-/\/-/\/-/\/
 72
    65
 73
     2
 40
11.000099999999991
 49
0.0001
 49
-11.0
  0
LTYPE
  2
ACISOWELD
 70
     0
  3
_ _ _ _ _
 72
    65
 73
     2
 40
2.0
 49
2.0
 49
-1.0
  0
LTYPE
  2
ACISOTGB
 70
     0
  3
__ . . __ . .
 72
    65
 73
     6
 40
9.0
 49
4.0
 49
-1.0
 49
1.0
 49
-1.0
 49
1.0
 49
-1.0
  0
LTYPE
  2
ACISOTGL
 70
     0
  3
_ _ _ _ _
 72
    65
 73
     2
 40
3.0
 49
2.0
 49
-1.0
  0
LTYPE
  2
CENTER
 70
     0
  3
__ . __
 72
    65
 73
     4
 40
7.0
 49
4.0
 49
-1.0
 49
1.0
 49
-1.0
  0
LTYPE
  2
PHANTOM2
 70
     0
  3
Phantom (.5x) ___ _ _ ___ _ _ ___ _ _ ___ _ _
 72
    65
 73
     6
 40
31.75
 49
15.875
 49
-3.174999999999998
 49
3.174999999999998
 49
-3.174999999999998
 49
3.174999999999998
 49
-3.174999999999998
  0
LTYPE
  2
ACANSTGBM
 70
     0
  3
__ . . __ . .
 72
    65
 73
     6
 40
9.0
 49
4.0
 49
-1.0
 49
1.0
 49
-1.0
 49
1.0
 49
-1.0
  0
LTYPE
  2
ACANSTGLM
 70
     0
  3
_ _ _ _ _
 72
    65
 73
     2
 40
3.0
 49
2.0
 49
-1.0
  0
LTYPE
  2
GEN7
 70
     0
  3
____ . ____ . ____ . ____ . ____ . ____ . ____
 72
    65
 73
     4
 40
14.25
 49
9.75
 49
-1.5
 49
1.5
 49
-1.5
  0
LTYPE
  2
GEN3B
 70
     0
  3
 - - - - -
 72
    65
 73
     2
 40
1.0
 49
0.5
 49
-0.5
  0
LTYPE
  2
GEN7A
 70
     0
  3
__ . __ . __
 72
    65
 73
     4
 40
7.375
 49
4.75
 49
-0.875
 49
0.875
 49
-0.875
  0
LTYPE
  2
ACJISTGB
 70
     0
  3
__ . . __ . .
 72
    65
 73
     6
 40
9.0
 49
4.0
 49
-1.0
 49
1.0
 49
-1.0
 49
1.0
 49
-1.0
  0
LTYPE
  2
ACJISTGL
 70
     0
  3
_ _ _ _ _
 72
    65
 73
     2
 40
3.0
 49
2.0
 49
-1.0
  0
LTYPE
  2
HIDDEN
 70
     0
  3
Hidden __ __ __ __ __ __ __ __ __ __ __ __ __ _
 72
    65
 73
     2
 40
0.375
 49
0.25
 49
-0.125
  0
LTYPE
  2
CENTER2
 70
     0
  3
Center (.5x) ___ _ ___ _ ___ _ ___ _ ___ _ ___
 72
    65
 73
     4
 40
1.125
 49
0.75
 49
-0.125
 49
0.125
 49
-0.125
  0
LTYPE
  2
HIDDEN2
 70
     0
  3
Hidden (.5x) _ _ _ _ _ _ _ _ _ _ _ _ _ _ _ _ _
 72
    65
 73
     2
 40
0.1875
 49
0.125
 49
-0.0625
  0
LTYPE
  2
AMZIGZAG2
 70
     0
  3
/\/-/\/-/\/-/\/-/\/-/\/
 72
    65
 73
     2
 40
0.4401
 49
0.0001
 49
-0.4400000000000002
  0
LTYPE
  2
ACANSTGB
 70
     0
  3
__ . . __ . .
 72
    65
 73
     6
 40
0.35433070866
 49
0.15748031496
 49
-0.03937007874
 49
0.03937007874
 49
-0.03937007874
 49
0.03937007874
 49
-0.03937007874
  0
LTYPE
  2
ACANSTGL
 70
     0
  3
_ _ _ _ _
 72
    65
 73
     2
 40
0.11811023622
 49
0.07874015748
 49
-0.03937007874
  0
ENDTAB
  0
TABLE
  2
LAYER
 70
     7
  0
LAYER
  2
0
 70
     0
 62
     7
  6
CONTINUOUS
  0
LAYER
  2
AM_0
 70
     0
 62
     7
  6
CONTINUOUS
  0
LAYER
  2
AM_5
 70
     0
 62
     2
  6
CONTINUOUS
  0
LAYER
  2
DEFPOINTS
 70
     0
 62
     7
  6
CONTINUOUS
  0
LAYER
  2
ｶｸﾚｾﾝ2
 70
     0
 62
     3
  6
GEN3B
  0
LAYER
  2
ﾁｭｳｼﾝｾﾝ
 70
     0
 62
     1
  6
GEN7
  0
LAYER
  2
ﾁｭｳｼﾝｾﾝ1
 70
     0
 62
     1
  6
GEN7A
  0
ENDTAB
  0
TABLE
  2
STYLE
 70
     9
  0
STYLE
  2
STANDARD
 70
     0
 40
0.0
 41
0.8299999999999999
 50
0.0
 71
     0
 42
2.5
  3
txt.shx
  4
bigfont.shx
  0
STYLE
  2
ANNOTATIVE
 70
     0
 40
0.0
 41
1.0
 50
0.0
 71
     0
 42
0.2
  3
txt
  4

  0
STYLE
  2

 70
     1
 40
0.0
 41
1.0
 50
0.0
 71
     0
 42
2.5
  3
ltypeshp.shx
  4

  0
STYLE
  2
ACISOTS
 70
     0
 40
1.0
 41
1.0
 50
0.0
 71
     0
 42
2.5
  3
isocp.shx
  4
extfont.shx
  0
STYLE
  2
ACISOGDT
 70
     0
 40
0.0
 41
1.0
 50
0.0
 71
     0
 42
2.5
  3
amgdt.shx
  4

  0
STYLE
  2
ACANSTS
 70
     0
 40
1.0
 41
1.0
 50
0.0
 71
     0
 42
2.5
  3
romans.shx
  4
bigfont.shx
  0
STYLE
  2
ACANSGDT
 70
     0
 40
0.0
 41
1.0
 50
0.0
 71
     0
 42
2.5
  3
amgdt.shx
  4

  0
STYLE
  2
ACJISTS
 70
     0
 40
1.0
 41
1.0
 50
0.0
 71
     0
 42
2.5
  3
isocp.shx
  4
bigfont.shx
  0
STYLE
  2
ACJISGDT
 70
     0
 40
0.0
 41
1.0
 50
0.0
 71
     0
 42
2.5
  3
amgdt.shx
  4

  0
ENDTAB
  0
TABLE
  2
VIEW
 70
     6
  0
VIEW
  2
AM_VIEW1
 70
     0
 40
277.49999999999989
 10
249.64779005524849
 20
416.24999999999989
 41
499.2955801104971
 11
0.0
 21
0.0
 31
1.0
 12
0.0
 22
0.0
 32
0.0
 42
50.0
 43
0.0
 44
0.0
 50
0.0
 71
     0
  0
VIEW
  2
AM_VIEW2
 70
     0
 40
277.49999999999989
 10
603.85220994475117
 20
416.24999999999989
 41
499.2955801104971
 11
0.0
 21
0.0
 31
1.0
 12
0.0
 22
0.0
 32
0.0
 42
50.0
 43
0.0
 44
0.0
 50
0.0
 71
     0
  0
VIEW
  2
AM_VIEW3
 70
     0
 40
277.49999999999989
 10
249.64779005524849
 20
138.7499999999998
 41
499.2955801104971
 11
0.0
 21
0.0
 31
1.0
 12
0.0
 22
0.0
 32
0.0
 42
50.0
 43
0.0
 44
0.0
 50
0.0
 71
     0
  0
VIEW
  2
AM_VIEW4
 70
     0
 40
277.49999999999989
 10
603.85220994475117
 20
138.7499999999998
 41
499.2955801104971
 11
0.0
 21
0.0
 31
1.0
 12
0.0
 22
0.0
 32
0.0
 42
50.0
 43
0.0
 44
0.0
 50
0.0
 71
     0
  0
VIEW
  2
AM_VIEW5
 70
     0
 40
277.5
 10
426.75
 20
277.49999999999989
 41
499.2955801104971
 11
0.0
 21
0.0
 31
1.0
 12
0.0
 22
0.0
 32
0.0
 42
50.0
 43
0.0
 44
0.0
 50
0.0
 71
     0
  0
VIEW
  2
AM_VIEW6
 70
     0
 40
554.99445000000014
 10
426.75
 20
277.49999999999989
 41
998.5811743093924
 11
0.0
 21
0.0
 31
1.0
 12
0.0
 22
0.0
 32
0.0
 42
50.0
 43
0.0
 44
0.0
 50
0.0
 71
     0
  0
ENDTAB
  0
TABLE
  2
UCS
 70
     0
  0
ENDTAB
  0
TABLE
  2
APPID
 70
    95
  0
APPID
  2
ACAD
 70
     0
  0
APPID
  2
ACADANNOTATIVE
 70
     0
  0
APPID
  2
MCAD_NO_VIS
 70
     0
  0
APPID
  2
ACAD_TEMP_GRAPHIC
 70
     0
  0
APPID
  2
ACATTRIBSERVICES
 70
     0
  0
APPID
  2
GENIUS_GENREC_14
 70
     0
  0
APPID
  2
GENIUS_GENOBJ-N-REC_13
 70
     0
  0
APPID
  2
GENIUS_GENODEF_13
 70
     0
  0
APPID
  2
GENIUS_GENOLIS_13
 70
     0
  0
APPID
  2
GENIUS_GENOBJ-N-TIT_13
 70
     0
  0
APPID
  2
GENIUS_GENOENT_13
 70
     0
  0
APPID
  2
GENIUS_GENTITLE_13
 70
     0
  0
APPID
  2
GENIUS_GENOREF_13
 70
     0
  0
APPID
  2
GENIUS_GENSCREG_15
 70
     0
  0
APPID
  2
GENIUS_GENOBJ-N-SDF_13
 70
     0
  0
APPID
  2
GENIUS_GENFIL_13
 70
     0
  0
APPID
  2
GENIUS_GENOBJ-N-CHA_13
 70
     0
  0
APPID
  2
GENIUS_GENDTOL_13
 70
     0
  0
APPID
  2
GENIUS_GENOBJ-N-FIL_13
 70
     0
  0
APPID
  2
AD_DRAW
 70
     0
  0
APPID
  2
DESIGNERASSEMBLIES
 70
     0
  0
APPID
  2
ASURF_PCURVE_APPNAME
 70
     0
  0
APPID
  2
GENIUS_GE3SECT_13
 70
     0
  0
APPID
  2
GENIUS_GENCFG_13
 70
     0
  0
APPID
  2
GENIUS_GE3CFG0_13
 70
     0
  0
APPID
  2
GENIUS_GENCFG0_13
 70
     0
  0
APPID
  2
GENIUS_GENCFG1_13
 70
     0
  0
APPID
  2
GENIUS_GENCFG2_13
 70
     0
  0
APPID
  2
GENIUS_GENCFG3_13
 70
     0
  0
APPID
  2
GENIUS_GENCFG4_13
 70
     0
  0
APPID
  2
GENIUS_GEVCFG0_13
 70
     0
  0
APPID
  2
GENIUS_GENHINW_13
 70
     0
  0
APPID
  2
GENIUS_FIRSTVISTXT_14
 70
     0
  0
APPID
  2
GENIUS_GENOBJ-N-LEADER_13
 70
     0
  0
APPID
  2
GEV_VCCNULL_SWITCH_OFF
 70
     0
  0
APPID
  2
GENIUS_GEFCFG0_13
 70
     0
  0
APPID
  2
GENIUS_GENZVEED_13
 70
     0
  0
APPID
  2
GENIUS_GENSCREG_13
 70
     0
  0
APPID
  2
GENIUS_DUMCFG0_13
 70
     0
  0
APPID
  2
GEVID936201362
 70
     0
  0
APPID
  2
GEVDC
 70
     0
  0
APPID
  2
GEVCON
 70
     0
  0
APPID
  2
VCC
 70
     0
  0
APPID
  2
GEVPT
 70
     0
  0
APPID
  2
GEVIT
 70
     0
  0
APPID
  2
GENBH
 70
     0
  0
APPID
  2
GEVMK
 70
     0
  0
APPID
  2
GENIUS_GENBH_13
 70
     0
  0
APPID
  2
GENIUS_GENOBJ-NBEHI-BHF_13
 70
     0
  0
APPID
  2
GENIUS_GENOBJ-NBEHI-BHB_13
 70
     0
  0
APPID
  2
GENIUS_GENOBJ-F-DESC_13
 70
     0
  0
APPID
  2
GENIUS_GEFDESC_14
 70
     0
  0
APPID
  2
GENIUS_GENOBJ-F-PART_13
 70
     0
  0
APPID
  2
GENIUS_GEFSTDP_13
 70
     0
  0
APPID
  2
GENIUS_GEFPARTINS_13
 70
     0
  0
APPID
  2
GENIUS_GENTRA_14
 70
     0
  0
APPID
  2
GENIUS_GENINF13_13
 70
     0
  0
APPID
  2
GENIUS_GENOBJ-N-INFOPT_13
 70
     0
  0
APPID
  2
GENIUS_GENOBJ-N-RSSYM_13
 70
     0
  0
APPID
  2
GENIUS_GENSYMENT_13
 70
     0
  0
APPID
  2
GENIUS_GENSCSYM_13
 70
     0
  0
APPID
  2
GENIUS_GEFINFNAM_13
 70
     0
  0
APPID
  2
GENIUS_GENOBJ-N-CEN_13
 70
     0
  0
APPID
  2
GENIUS_GENOBJ-N-CRS_13
 70
     0
  0
APPID
  2
GENIUS_GENOBJ-N-CRC_13
 70
     0
  0
APPID
  2
GENIUS_GENCRC_14
 70
     0
  0
APPID
  2
GEVID942827039
 70
     0
  0
APPID
  2
GEVID942827040
 70
     0
  0
APPID
  2
GEVID942827041
 70
     0
  0
APPID
  2
GENIUS_GENOBJ-F-SCPASSM_13
 70
     0
  0
APPID
  2
GENIUS_GENDIMSH_14
 70
     0
  0
APPID
  2
GEVID942827042
 70
     0
  0
APPID
  2
GEVID946020473
 70
     0
  0
APPID
  2
GEVID946020474
 70
     0
  0
APPID
  2
GEVID946020475
 70
     0
  0
APPID
  2
GENIUS_GENOBJ-N-HTC_13
 70
     0
  0
APPID
  2
GENIUS_GENHATCH_13
 70
     0
  0
APPID
  2
GEVID948854295
 70
     0
  0
APPID
  2
GEVID939402019
 70
     0
  0
APPID
  2
GEVID952919491
 70
     0
  0
APPID
  2
GEVID952919492
 70
     0
  0
APPID
  2
GENIUS_GEFWELD_13
 70
     0
  0
APPID
  2
GENIUS_GENOBJ-F-WELS_13
 70
     0
  0
APPID
  2
GEVID952919493
 70
     0
  0
APPID
  2
GENIUS_GENOBJ-N-RSBK_13
 70
     0
  0
APPID
  2
GENIUS_GENOBJ-N-LIB_13
 70
     0
  0
APPID
  2
GENIUS_GENSCALE_13
 70
     0
  0
APPID
  2
GEVID986376691
 70
     0
  0
APPID
  2
DCO15
 70
     0
  0
APPID
  2
ACAD_DSTYLE_DIMBREAK
 70
     0
  0
APPID
  2
ACAD_DSTYLE_DIMJAG
 70
     0
  0
APPID
  2
ACAD_NAV_VCDISPLAY
 70
     0
  0
APPID
  2
ACADANNOPO
 70
     0
  0
APPID
  2
ACAD_EXEMPT_FROM_CAD_STANDARDS
 70
     0
  0
APPID
  2
ACAD_MLEADERVER
 70
     0
  0
ENDTAB
  0
TABLE
  2
DIMSTYLE
 70
    22
  0
DIMSTYLE
  2
STANDARD
 70
     0
  3

  4

  5

  6

  7

 40
1.0
 41
0.18
 42
0.0625
 43
0.38
 44
0.18
 45
0.0
 46
0.0
 47
0.0
 48
0.0
140
0.18
141
0.09
142
0.0
143
25.399999999999999
144
1.0
145
0.0
146
1.0
147
0.09
 71
     0
 72
     0
 73
     1
 74
     1
 75
     0
 76
     0
 77
     0
 78
     0
170
     0
171
     2
172
     0
173
     0
174
     0
175
     0
176
     0
177
     0
178
     0
  0
DIMSTYLE
  2
ANNOTATIVE
 70
     0
  3

  4

  5

  6

  7

 40
1.0
 41
0.18
 42
0.0625
 43
0.38
 44
0.18
 45
0.0
 46
0.0
 47
0.0
 48
0.0
140
0.18
141
0.09
142
0.0
143
25.399999999999999
144
1.0
145
0.0
146
1.0
147
0.09
 71
     0
 72
     0
 73
     1
 74
     1
 75
     0
 76
     0
 77
     0
 78
     0
170
     0
171
     2
172
     0
173
     0
174
     0
175
     0
176
     0
177
     0
178
     0
  0
DIMSTYLE
  2
AM_ISO
 70
     0
  3

  4
"
  5

  6

  7

 40
1.0
 41
2.5
 42
1.0
 43
8.0
 44
0.6
 45
0.0
 46
0.0
 47
0.1
 48
0.1
140
2.5
141
0.0
142
0.0
143
0.0393701
144
1.0
145
0.0
146
0.71
147
0.8
 71
     0
 72
     0
 73
     0
 74
     0
 75
     0
 76
     0
 77
     1
 78
     8
170
     0
171
     2
172
     1
173
     0
174
     0
175
     0
176
   256
177
   256
178
     4
  0
DIMSTYLE
  2
AM_ISO$3
 70
     0
  3

  4
"
  5

  6

  7

 40
1.0
 41
2.5
 42
1.0
 43
8.0
 44
0.6
 45
0.0
 46
0.0
 47
0.1
 48
0.1
140
2.5
141
0.0
142
0.0
143
0.0393701
144
1.0
145
0.0
146
0.71
147
0.8
 71
     0
 72
     0
 73
     0
 74
     1
 75
     0
 76
     0
 77
     1
 78
     8
170
     0
171
     2
172
     0
173
     0
174
     0
175
     0
176
   256
177
   256
178
     4
  0
DIMSTYLE
  2
AM_ISO$4
 70
     0
  3

  4
"
  5

  6

  7

 40
1.0
 41
2.5
 42
1.0
 43
8.0
 44
0.6
 45
0.0
 46
0.0
 47
0.1
 48
0.1
140
2.5
141
0.0
142
0.0
143
0.0393701
144
1.0
145
0.0
146
0.71
147
0.8
 71
     0
 72
     0
 73
     0
 74
     1
 75
     0
 76
     0
 77
     1
 78
     8
170
     0
171
     2
172
     0
173
     0
174
     0
175
     0
176
   256
177
   256
178
     4
  0
DIMSTYLE
  2
AM_ISO$6
 70
     0
  3

  4
"
  5

  6

  7

 40
1.0
 41
2.5
 42
1.0
 43
8.0
 44
0.6
 45
0.0
 46
0.0
 47
0.1
 48
0.1
140
2.5
141
0.0
142
0.0
143
0.0393701
144
1.0
145
0.0
146
0.71
147
0.8
 71
     0
 72
     0
 73
     0
 74
     0
 75
     0
 76
     0
 77
     0
 78
     8
170
     0
171
     2
172
     1
173
     0
174
     0
175
     0
176
   256
177
   256
178
     4
  0
DIMSTYLE
  2
AM_ISO$7
 70
     0
  3

  4
"
  5

  6

  7

 40
1.0
 41
2.5
 42
1.0
 43
8.0
 44
0.6
 45
0.0
 46
0.0
 47
0.1
 48
0.1
140
2.5
141
0.0
142
0.0
143
0.0393701
144
1.0
145
0.0
146
0.71
147
0.8
 71
     0
 72
     0
 73
     0
 74
     0
 75
     0
 76
     0
 77
     1
 78
     8
170
     0
171
     2
172
     1
173
     0
174
     0
175
     0
176
   256
177
   256
178
     4
  0
DIMSTYLE
  2
AM_ISO$SF
 70
     0
  3

  4
"
  5

  6

  7

 40
1.0
 41
2.5
 42
1.0
 43
10.0
 44
1.0
 45
0.0
 46
0.0
 47
0.1
 48
0.1
140
3.5
141
0.0
142
0.0
143
0.0393701
144
1.0
145
0.0
146
0.71
147
1.5
 71
     0
 72
     0
 73
     0
 74
     0
 75
     1
 76
     1
 77
     1
 78
     8
170
     0
171
     2
172
     1
173
     0
174
     0
175
     0
176
   256
177
   256
178
     2
  0
DIMSTYLE
  2
AM_ISO$SH
 70
     0
  3

  4
"
  5

  6

  7

 40
1.0
 41
2.5
 42
1.0
 43
10.0
 44
1.0
 45
0.0
 46
0.0
 47
0.1
 48
0.1
140
3.5
141
0.0
142
0.0
143
0.0393701
144
2.0
145
0.0
146
0.71
147
1.5
 71
     0
 72
     0
 73
     0
 74
     0
 75
     1
 76
     1
 77
     1
 78
     8
170
     0
171
     2
172
     1
173
     1
174
     0
175
     0
176
   256
177
   256
178
     2
  0
DIMSTYLE
  2
AM_JIS
 70
     0
  3

  4
"
  5

  6

  7

 40
1.0
 41
2.5
 42
1.0
 43
7.0
 44
1.0
 45
0.0
 46
0.0
 47
0.1
 48
0.1000000001
140
2.5
141
0.0
142
0.0
143
0.0393701
144
1.0
145
0.0
146
0.71
147
1.0
 71
     0
 72
     0
 73
     0
 74
     0
 75
     0
 76
     0
 77
     3
 78
     8
170
     0
171
     2
172
     1
173
     0
174
     0
175
     0
176
   256
177
   256
178
     4
  0
DIMSTYLE
  2
AM_JIS$3
 70
     0
  3

  4
"
  5

  6

  7

 40
1.0
 41
2.5
 42
1.0
 43
7.0
 44
1.0
 45
0.0
 46
0.0
 47
0.1
 48
0.1000000001
140
2.5
141
0.0
142
0.0
143
0.0393701
144
1.0
145
0.0
146
0.71
147
1.0
 71
     0
 72
     0
 73
     0
 74
     1
 75
     0
 76
     0
 77
     3
 78
     8
170
     0
171
     2
172
     0
173
     0
174
     0
175
     0
176
   256
177
   256
178
     4
  0
DIMSTYLE
  2
AM_JIS$4
 70
     0
  3

  4
"
  5

  6

  7

 40
1.0
 41
2.5
 42
1.0
 43
7.0
 44
1.0
 45
0.0
 46
0.0
 47
0.1
 48
0.1000000001
140
2.5
141
0.0
142
0.0
143
0.0393701
144
1.0
145
0.0
146
0.71
147
1.0
 71
     0
 72
     0
 73
     0
 74
     0
 75
     0
 76
     0
 77
     3
 78
     8
170
     0
171
     2
172
     0
173
     0
174
     0
175
     0
176
   256
177
   256
178
     4
  0
DIMSTYLE
  2
AM_JIS$6
 70
     0
  3

  4
"
  5

  6

  7

 40
1.0
 41
2.5
 42
1.0
 43
7.0
 44
1.0
 45
0.0
 46
0.0
 47
0.1
 48
0.1000000001
140
2.5
141
0.0
142
0.0
143
0.0393701
144
1.0
145
0.0
146
0.71
147
1.0
 71
     0
 72
     0
 73
     0
 74
     0
 75
     0
 76
     0
 77
     0
 78
     8
170
     0
171
     2
172
     1
173
     0
174
     0
175
     0
176
   256
177
   256
178
     4
  0
DIMSTYLE
  2
AM_JIS$7
 70
     0
  3

  4
"
  5

  6

  7

 40
1.0
 41
2.5
 42
1.0
 43
7.0
 44
1.0
 45
0.0
 46
0.0
 47
0.1
 48
0.1000000001
140
2.5
141
0.0
142
0.0
143
0.0393701
144
1.0
145
0.0
146
0.71
147
1.0
 71
     0
 72
     0
 73
     0
 74
     0
 75
     0
 76
     0
 77
     3
 78
     8
170
     0
171
     2
172
     1
173
     0
174
     0
175
     0
176
   256
177
   256
178
     4
  0
DIMSTYLE
  2
AM_JIS$SF
 70
     0
  3

  4
"
  5

  6

  7

 40
1.0
 41
2.5
 42
1.0
 43
10.0
 44
1.0
 45
0.0
 46
0.0
 47
0.1
 48
0.1
140
3.5
141
0.0
142
0.0
143
0.0393701
144
1.0
145
0.0
146
0.71
147
1.5
 71
     0
 72
     0
 73
     0
 74
     0
 75
     1
 76
     1
 77
     3
 78
     8
170
     0
171
     2
172
     1
173
     0
174
     0
175
     0
176
   256
177
   256
178
     4
  0
DIMSTYLE
  2
AM_JIS$SH
 70
     0
  3

  4
"
  5

  6

  7

 40
1.0
 41
2.5
 42
1.0
 43
10.0
 44
1.0
 45
0.0
 46
0.0
 47
0.1
 48
0.1
140
3.5
141
0.0
142
0.0
143
0.0393701
144
1.0
145
0.0
146
0.71
147
1.5
 71
     0
 72
     0
 73
     0
 74
     0
 75
     1
 76
     0
 77
     3
 78
     8
170
     0
171
     2
172
     1
173
     1
174
     0
175
     0
176
   256
177
   256
178
     4
  0
DIMSTYLE
  2
AM_ANSI
 70
     0
  3

  4
mm
  5

  6

  7

 40
1.0
 41
0.1
 42
0.05
 43
0.5
 44
0.1
 45
0.0
 46
0.0
 47
0.1
 48
0.1
140
0.12
141
0.0
142
0.0
143
25.399999999999999
144
1.0
145
0.0
146
0.71
147
0.06
 71
     0
 72
     0
 73
     1
 74
     1
 75
     0
 76
     0
 77
     0
 78
     7
170
     0
171
     2
172
     0
173
     0
174
     0
175
     0
176
   256
177
   256
178
     2
  0
DIMSTYLE
  2
AM_ANSI$3
 70
     0
  3

  4
mm
  5

  6

  7

 40
1.0
 41
0.1
 42
0.05
 43
0.5
 44
0.1
 45
0.0
 46
0.0
 47
0.1
 48
0.1
140
0.12
141
0.0
142
0.0
143
25.399999999999999
144
1.0
145
0.0
146
0.71
147
0.06
 71
     0
 72
     0
 73
     1
 74
     1
 75
     0
 76
     0
 77
     0
 78
     7
170
     0
171
     2
172
     0
173
     0
174
     0
175
     0
176
   256
177
   256
178
     2
  0
DIMSTYLE
  2
AM_ANSI$4
 70
     0
  3

  4
mm
  5

  6

  7

 40
1.0
 41
0.1
 42
0.05
 43
0.5
 44
0.1
 45
0.0
 46
0.0
 47
0.1
 48
0.1
140
0.12
141
0.0
142
0.0
143
25.399999999999999
144
1.0
145
0.0
146
0.71
147
0.06
 71
     0
 72
     0
 73
     1
 74
     1
 75
     0
 76
     0
 77
     0
 78
     7
170
     0
171
     2
172
     0
173
     0
174
     0
175
     0
176
   256
177
   256
178
     2
  0
DIMSTYLE
  2
AM_ANSI$7
 70
     0
  3

  4
mm
  5

  6

  7

 40
1.0
 41
0.1
 42
0.05
 43
0.5
 44
0.1
 45
0.0
 46
0.0
 47
0.1
 48
0.1
140
0.24
141
0.0
142
0.0
143
25.399999999999999
144
1.0
145
0.0
146
0.71
147
0.06
 71
     0
 72
     0
 73
     1
 74
     1
 75
     0
 76
     0
 77
     0
 78
     7
170
     0
171
     2
172
     0
173
     0
174
     0
175
     0
176
   256
177
   256
178
     2
  0
DIMSTYLE
  2
AM_ANSI$SF
 70
     0
  3

  4
mm
  5

  6

  7

 40
1.0
 41
0.1
 42
0.05
 43
0.5
 44
0.1
 45
0.0
 46
0.0
 47
0.1
 48
0.1
140
0.12
141
0.0
142
0.0
143
25.399999999999999
144
1.0
145
0.0
146
0.71
147
0.06
 71
     0
 72
     0
 73
     1
 74
     1
 75
     1
 76
     1
 77
     0
 78
     7
170
     0
171
     2
172
     0
173
     0
174
     0
175
     0
176
   256
177
   256
178
     2
  0
DIMSTYLE
  2
AM_ANSI$SH
 70
     0
  3

  4
mm
  5

  6

  7

 40
1.0
 41
0.1
 42
0.05
 43
0.5
 44
0.1
 45
0.0
 46
0.0
 47
0.1
 48
0.1
140
0.12
141
0.0
142
0.0
143
25.399999999999999
144
1.0
145
0.0
146
0.71
147
0.06
 71
     0
 72
     0
 73
     1
 74
     1
 75
     1
 76
     1
 77
     0
 78
     7
170
     0
171
     2
172
     0
173
     1
174
     0
175
     0
176
   256
177
   256
178
     2
  0
ENDTAB
  0
ENDSEC
  0
SECTION
  2
BLOCKS
  0
BLOCK
  8
0
  2
$MODEL_SPACE
 70
     0
 10
0.0
 20
0.0
 30
0.0
  3
$MODEL_SPACE
  1

  0
ENDBLK
  5
2C62
  8
0
  0
BLOCK
 67
     1
  8
0
  2
$PAPER_SPACE
 70
     0
 10
0.0
 20
0.0
 30
0.0
  3
$PAPER_SPACE
  1

  0
ENDBLK
  5
2C5E
 67
     1
  8
0
  0
BLOCK
  8
0
  2
GENAXEH
 70
     0
 10
0.0
 20
0.0
 30
0.0
  3
GENAXEH
  1

  0
LINE
  5
2A14
  8
0
 10
-1.0
 20
0.0
 30
0.0
 11
1.0
 21
0.0
 31
0.0
  0
ENDBLK
  5
2A15
  8
0
  0
BLOCK
  8
0
  2
_OPEN30
 70
     0
 10
0.0
 20
0.0
 30
0.0
  3
_OPEN30
  1

  0
LINE
  5
2A18
  8
0
 62
     0
 10
-1.0
 20
0.26794919
 30
0.0
 11
0.0
 21
0.0
 31
0.0
  0
LINE
  5
2A19
  8
0
 62
     0
 10
0.0
 20
0.0
 30
0.0
 11
-1.0
 21
-0.26794919
 31
0.0
  0
LINE
  5
2A1A
  8
0
 62
     0
 10
0.0
 20
0.0
 30
0.0
 11
-1.0
 21
0.0
 31
0.0
  0
ENDBLK
  5
2A1B
  8
0
  0
BLOCK
  8
0
  2
_NONE
 70
     0
 10
0.0
 20
0.0
 30
0.0
  3
_NONE
  1

  0
ENDBLK
  5
2A1E
  8
0
  0
BLOCK
  8
0
  2
_ACMFILLEDHALF
 70
     0
 10
0.0
 20
0.0
 30
0.0
  3
_ACMFILLEDHALF
  1

  0
TRACE
  5
2D5A
  8
AM_0
 62
     0
 10
-0.8
 20
0.0
 30
0.0
 11
-1.0
 21
0.166666666
 31
0.0
 12
0.0
 22
0.0
 32
0.0
 13
0.0
 23
0.0
 33
0.0
  0
LINE
  5
2D5B
  8
AM_0
 62
     0
 10
-1.0
 20
0.0
 30
0.0
 11
-0.8
 21
0.0
 31
0.0
  0
ENDBLK
  5
2D59
  8
0
  0
ENDSEC
  0
SECTION
  2
ENTITIES
  0
LINE
  5
2A1F
  8
ﾁｭｳｼﾝｾﾝ
 10
249.5651494073648
 20
302.52930848409358
 30
0.0
 11
446.19761135536362
 21
302.52930848409358
 31
0.0
  0
LINE
  5
2A20
  8
AM_0
 10
443.4184113553635
 20
286.52933948409361
 30
0.0
 11
385.41845135536369
 21
286.52933948409361
 31
0.0
  0
LINE
  5
2A21
  8
AM_0
 10
443.4184113553635
 20
321.52929548409361
 30
0.0
 11
398.41841135536379
 21
321.52929548409361
 31
0.0
  0
LINE
  5
2A22
  8
AM_0
 10
443.4184113553635
 20
318.52929548409361
 30
0.0
 11
385.41845135536369
 21
318.52929548409361
 31
0.0
  0
LINE
  5
2A23
  8
AM_0
 10
381.41843135536362
 20
275.26139348409367
 30
0.0
 11
381.41843135536362
 21
302.52930848409358
 31
0.0
  0
LINE
  5
2A24
  8
AM_0
 10
230.91848135536381
 20
338.52933948409361
 30
0.0
 11
230.9184813553635
 21
210.52933948409361
 31
0.0
  0
LINE
  5
2A25
  8
AM_0
 10
163.4184935147112
 20
291.61512592172051
 30
0.0
 11
163.4184935147112
 21
257.44355304646672
 31
0.0
  0
LINE
  5
2A26
  8
AM_0
 10
165.4184935147112
 20
249.5293394840935
 30
0.0
 11
165.4184935147112
 21
299.52933948409361
 31
0.0
  0
LINE
  5
2A27
  8
AM_0
 10
220.91848135536381
 20
337.52933948409361
 30
0.0
 11
220.91848135536381
 21
211.5293394840935
 31
0.0
  0
LINE
  5
2A28
  8
AM_0
 10
190.41848898475831
 20
301.52933948409361
 30
0.0
 11
190.41848898475831
 21
247.5293394840935
 31
0.0
  0
LINE
  5
2A29
  8
AM_0
 10
161.4184935147112
 20
283.02933948409361
 30
0.0
 11
161.4184935147112
 21
266.02933948409361
 31
0.0
  0
LINE
  5
2A2A
  8
AM_0
 10
133.4184935147112
 20
284.52933948409361
 30
0.0
 11
133.4184935147112
 21
266.52933948409361
 31
0.0
  0
LINE
  5
2A2B
  8
AM_0
 10
268.41848135536372
 20
218.02932248409371
 30
0.0
 11
268.41848135536372
 21
374.02935548409368
 31
0.0
  0
LINE
  5
2A2C
  8
AM_0
 10
374.41841135536362
 20
188.06871848409369
 30
0.0
 11
374.41841135536362
 21
346.52934548409371
 31
0.0
  0
LINE
  5
2A2D
  8
AM_0
 10
333.41843135536362
 20
195.52932248409371
 30
0.0
 11
333.41843135536362
 21
333.97206548409349
 31
0.0
  0
LINE
  5
2A2E
  8
AM_0
 10
353.41841135536362
 20
202.9870554840937
 30
0.0
 11
353.41841135536362
 21
364.01025548409359
 31
0.0
  0
LINE
  5
2A2F
  8
AM_0
 10
272.4184113553635
 20
231.1537284840937
 30
0.0
 11
272.4184113553635
 21
289.17707348409363
 31
0.0
  0
LINE
  5
2A30
  8
AM_0
 10
258.41843135536351
 20
186.77933648409351
 30
0.0
 11
258.41843135536351
 21
371.74872548409371
 31
0.0
  0
LINE
  5
2A31
  8
AM_0
 10
243.41843135536359
 20
202.60039748409349
 30
0.0
 11
243.41843135536359
 21
346.45827548409358
 31
0.0
  0
LINE
  5
2A32
  8
ﾁｭｳｼﾝｾﾝ
 10
128.06242838049511
 20
274.52933948409361
 30
0.0
 11
264.47606712643687
 21
274.52933948409361
 31
0.0
  0
LINE
  5
2A33
  8
AM_0
 10
133.4184935147112
 20
266.52933948409361
 30
0.0
 11
161.4184935147112
 21
266.52933948409361
 31
0.0
  0
LINE
  5
2A34
  8
AM_0
 10
258.41843135536351
 20
164.5293204840936
 30
0.0
 11
343.41845135536369
 21
164.5293204840936
 31
0.0
  0
LINE
  5
2A35
  8
AM_0
 10
244.88291135536369
 20
199.06487348409371
 30
0.0
 11
257.53976135536391
 21
186.40799948409369
 31
0.0
  0
LINE
  5
2A36
  8
AM_0
 10
257.30831135536391
 20
183.3102054840937
 30
0.0
 11
272.22812135536373
 21
229.93461248409369
 31
0.0
  0
LINE
  5
2A37
  8
AM_0
 10
222.41843135536359
 20
180.52931948409349
 30
0.0
 11
253.49861135536381
 21
180.52931948409349
 31
0.0
  0
LINE
  5
2A38
  8
AM_0
 10
220.4184813553637
 20
162.52931948409369
 30
0.0
 11
256.41848135536372
 21
162.52931948409369
 31
0.0
  0
LINE
  5
2A39
  8
AM_0
 10
220.4184813553637
 20
162.52931948409369
 30
0.0
 11
220.4184813553637
 21
178.52933648409351
 31
0.0
  0
ARC
  5
2A3A
  8
AM_0
 10
222.41843135536359
 20
178.52933648409351
 30
0.0
 40
2.00000007
 50
90.000003000000007
 51
180.00001
  0
LINE
  5
2A3B
  8
ｶｸﾚｾﾝ2
 10
245.91848135536381
 20
180.52931948409349
 30
0.0
 11
245.91848135536381
 21
162.52931948409369
 31
0.0
  0
LINE
  5
2A3C
  8
ｶｸﾚｾﾝ2
 10
230.91848135536381
 20
180.52931948409349
 30
0.0
 11
230.91848135536381
 21
162.52931948409369
 31
0.0
  0
LINE
  5
2A3D
  8
ﾁｭｳｼﾝｾﾝ1
 10
238.41848135536381
 20
160.0888808055463
 30
0.0
 11
238.41848135536381
 21
182.84792236574029
 31
0.0
  0
ARC
  5
2A3E
  8
AM_0
 10
258.41843135536351
 20
162.52931948409369
 30
0.0
 40
2.00000007
 50
90.000003000000007
 51
180.00001
  0
ARC
  5
2A3F
  8
AM_0
 10
253.49861135536381
 20
184.52933648409351
 30
0.0
 40
4.000000199999997
 50
270.0
 51
342.2553299999999
  0
ARC
  5
2A40
  8
AM_0
 10
255.41843135536371
 20
184.2866904840937
 30
0.0
 40
3.0
 50
27.893113
 51
45.00000099999999
  0
LINE
  5
2A41
  8
AM_0
 10
230.91848135536381
 20
210.52933948409361
 30
0.0
 11
221.91848135536381
 21
210.52933948409361
 31
0.0
  0
LINE
  5
2A42
  8
AM_0
 10
219.45401526129641
 20
218.49381320755521
 30
0.0
 11
193.34742117289281
 21
244.60040729595909
 31
0.0
  0
ARC
  5
2A43
  8
AM_0
 10
221.91848135536381
 20
211.5293394840935
 30
0.0
 40
1.0
 50
180.0
 51
270.0
1001
GENIUS_GENODEF_13
1002
{
1000
HIER
1070
     0
1002
}
1002
{
1000
MANEDIT
1070
     0
1002
}
1002
{
1000
NOSEL
1070
     0
1002
}
1002
{
1000
BEHIND
1070
     0
1002
}
1002
{
1000
OTHER
1070
     0
1002
}
1002
{
1000
REACTOR
1002
}
1001
GENIUS_GENOBJ-N-FIL_13
1002
{
1000
OWNER
1000
GEN
1002
}
  0
ARC
  5
2A44
  8
AM_0
 10
215.91848135536381
 20
214.9582793016225
 30
0.0
 40
5.0
 50
0.0
 51
45.0
1001
GENIUS_GENODEF_13
1002
{
1000
HIER
1070
     0
1002
}
1002
{
1000
MANEDIT
1070
     0
1002
}
1002
{
1000
NOSEL
1070
     0
1002
}
1002
{
1000
BEHIND
1070
     0
1002
}
1002
{
1000
OTHER
1070
     0
1002
}
1002
{
1000
REACTOR
1002
}
1001
GENIUS_GENOBJ-N-FIL_13
1002
{
1000
OWNER
1000
GEN
1002
}
  0
ARC
  5
2A45
  8
AM_0
 10
186.2763533610273
 20
237.52933948409361
 30
0.0
 40
10.0
 50
45.0
 51
90.0
1001
GENIUS_GENODEF_13
1002
{
1000
HIER
1070
     0
1002
}
1002
{
1000
MANEDIT
1070
     0
1002
}
1002
{
1000
NOSEL
1070
     0
1002
}
1002
{
1000
BEHIND
1070
     0
1002
}
1002
{
1000
OTHER
1070
     0
1002
}
1002
{
1000
REACTOR
1002
}
1001
GENIUS_GENOBJ-N-FIL_13
1002
{
1000
OWNER
1000
GEN
1002
}
  0
LINE
  5
2A46
  8
AM_0
 10
163.7113867335249
 20
256.73644626528028
 30
0.0
 11
165.12560029589781
 21
255.32223270290709
 31
0.0
  0
LINE
  5
2A47
  8
AM_0
 10
167.4184935147112
 20
247.5293394840935
 30
0.0
 11
186.2763533610273
 21
247.5293394840935
 31
0.0
  0
ARC
  5
2A48
  8
AM_0
 10
164.4184935147112
 20
254.61512592172039
 30
0.0
 40
1.0
 50
0.0
 51
45.0
1001
GENIUS_GENODEF_13
1002
{
1000
HIER
1070
     0
1002
}
1002
{
1000
MANEDIT
1070
     0
1002
}
1002
{
1000
NOSEL
1070
     0
1002
}
1002
{
1000
BEHIND
1070
     0
1002
}
1002
{
1000
OTHER
1070
     0
1002
}
1002
{
1000
REACTOR
1002
}
1001
GENIUS_GENOBJ-N-FIL_13
1002
{
1000
OWNER
1000
GEN
1002
}
  0
ARC
  5
2A49
  8
AM_0
 10
167.4184935147112
 20
249.5293394840935
 30
0.0
 40
2.0
 50
180.0
 51
270.0
1001
GENIUS_GENOBJ-N-FIL_13
1002
{
1000
OWNER
1000
GEN
1002
}
1001
GENIUS_GENODEF_13
1002
{
1000
HIER
1070
     0
1002
}
1002
{
1000
MANEDIT
1070
     0
1002
}
1002
{
1000
NOSEL
1070
     0
1002
}
1002
{
1000
BEHIND
1070
     0
1002
}
1002
{
1000
OTHER
1070
     0
1002
}
1002
{
1000
REACTOR
1002
}
  0
LINE
  5
2A4A
  8
AM_0
 10
161.4184935147112
 20
266.02934481714351
 30
0.0
 11
163.4184935147112
 21
266.0293437505336
 31
0.0
  0
ARC
  5
2A4B
  8
AM_0
 10
164.4184935147112
 20
257.44355304646672
 30
0.0
 40
1.0
 50
180.0
 51
225.0
1001
GENIUS_GENODEF_13
1002
{
1000
HIER
1070
     0
1002
}
1002
{
1000
MANEDIT
1070
     0
1002
}
1002
{
1000
NOSEL
1070
     0
1002
}
1002
{
1000
BEHIND
1070
     0
1002
}
1002
{
1000
OTHER
1070
     0
1002
}
1002
{
1000
REACTOR
1002
}
1001
GENIUS_GENOBJ-N-FIL_13
1002
{
1000
OWNER
1000
GEN
1002
}
  0
LINE
  5
2A4C
  8
AM_0
 10
258.41843135536351
 20
194.11153448409351
 30
0.0
 11
260.76473135536389
 21
194.11153448409351
 31
0.0
  0
LINE
  5
2A4D
  8
AM_0
 10
258.41843135536351
 20
211.4643054840937
 30
0.0
 11
266.31764135536372
 21
211.4643054840937
 31
0.0
  0
ARC
  5
2A4E
  8
AM_0
 10
238.41848135536381
 20
205.7643684840935
 30
0.0
 40
5.0000001000000003
 50
0.0
 51
88.0
  0
ARC
  5
2A4F
  8
AM_0
 10
248.4184113553637
 20
202.60039748409349
 30
0.0
 40
5.0000001000000003
 50
179.99998999999991
 51
225.0
  0
LINE
  5
2A50
  8
AM_0
 10
230.91842135536371
 20
211.0293054840935
 30
0.0
 11
238.5929313553637
 21
210.7613154840937
 31
0.0
  0
LINE
  5
2A51
  8
AM_0
 10
230.91848135536381
 20
223.02932348409371
 30
0.0
 11
243.41843135536359
 21
223.02932348409371
 31
0.0
  0
ARC
  5
2A52
  8
AM_0
 10
268.41848135536372
 20
231.1537284840937
 30
0.0
 40
4.000000199999997
 50
342.2553299999999
 51
0.0
  0
LINE
  5
2A53
  8
AM_0
 10
230.91848135536381
 20
237.38140448409371
 30
0.0
 11
243.41843135536359
 21
237.38140448409371
 31
0.0
  0
ARC
  5
2A54
  8
AM_0
 10
348.41843135536362
 20
195.52932248409371
 30
0.0
 40
15.00000029999998
 50
179.99998999999991
 51
270.0
  0
LINE
  5
2A55
  8
AM_0
 10
348.41843135536362
 20
180.52931948409349
 30
0.0
 11
379.41845135536357
 21
180.52931948409349
 31
0.0
  0
LINE
  5
2A56
  8
AM_0
 10
345.41843135536362
 20
162.52931948409369
 30
0.0
 11
381.41843135536362
 21
162.52931948409369
 31
0.0
  0
LINE
  5
2A57
  8
ｶｸﾚｾﾝ2
 10
355.91843135536362
 20
180.52931948409349
 30
0.0
 11
355.91843135536362
 21
162.52931948409369
 31
0.0
  0
LINE
  5
2A58
  8
AM_0
 10
345.41843135536362
 20
162.52931948409369
 30
0.0
 11
345.41843135536362
 21
162.52931948409369
 31
0.0
  0
ARC
  5
2A59
  8
AM_0
 10
343.41845135536369
 20
162.52931948409369
 30
0.0
 40
2.00000007
 50
0.0
 51
90.000003000000007
  0
LINE
  5
2A5A
  8
AM_0
 10
381.41843135536362
 20
162.52931948409369
 30
0.0
 11
381.41843135536362
 21
178.52933648409351
 31
0.0
  0
LINE
  5
2A5B
  8
ｶｸﾚｾﾝ2
 10
370.91843135536362
 20
180.52931948409349
 30
0.0
 11
370.91843135536362
 21
162.52931948409369
 31
0.0
  0
LINE
  5
2A5C
  8
ﾁｭｳｼﾝｾﾝ1
 10
363.41843135536362
 20
160.0888808055463
 30
0.0
 11
363.41843135536362
 21
182.84792236574029
 31
0.0
  0
ARC
  5
2A5D
  8
AM_0
 10
382.41845135536357
 20
188.06871848409369
 30
0.0
 40
8.0000000999999976
 50
179.99998999999991
 51
252.54239000000001
  0
ARC
  5
2A5E
  8
AM_0
 10
379.41845135536357
 20
178.52933648409351
 30
0.0
 40
2.00000007
 50
0.0
 51
90.000003000000007
  0
LINE
  5
2A5F
  8
AM_0
 10
338.49341135536372
 20
194.9870544840937
 30
0.0
 11
345.41843135536362
 21
194.9870544840937
 31
0.0
  0
ARC
  5
2A60
  8
AM_0
 10
345.41843135536362
 20
202.9870554840937
 30
0.0
 40
8.0000000999999976
 50
270.0
 51
0.0
  0
LINE
  5
2A61
  8
AM_0
 10
375.91838135536369
 20
270.35392448409351
 30
0.0
 11
379.91840135536381
 21
272.6633424840935
 31
0.0
  0
ARC
  5
2A62
  8
AM_0
 10
377.41841135536379
 20
267.75581048409362
 30
0.0
 40
3.0
 50
119.9999999999999
 51
180.00001
  0
ARC
  5
2A63
  8
AM_0
 10
378.41843135536368
 20
275.26139348409367
 30
0.0
 40
3.0
 50
300.0
 51
0.0
  0
LINE
  5
2A64
  8
AM_0
 10
133.4184935147112
 20
282.52933948409361
 30
0.0
 11
161.4184935147112
 21
282.52933948409361
 31
0.0
  0
LINE
  5
2A65
  8
AM_0
 10
133.4184935147112
 20
284.52933948409361
 30
0.0
 11
155.4184935147112
 21
284.52933948409361
 31
0.0
  0
LINE
  5
2A66
  8
AM_0
 10
155.4184935147112
 20
282.52933948409361
 30
0.0
 11
155.4184935147112
 21
284.52933948409361
 31
0.0
  0
LINE
  5
2A67
  8
AM_0
 10
268.41842135536371
 20
374.02935548409368
 30
0.0
 11
345.62783135536392
 21
372.00756548409362
 31
0.0
  0
POLYLINE
  5
2A68
  8
AM_0
 66
     1
 10
0.0
 20
0.0
 30
0.0
  0
VERTEX
  5
2A69
  8
AM_0
  6
CONTINUOUS
 10
296.18762135536372
 20
330.0016554840937
 30
0.0
 42
0.038759451
  0
VERTEX
  5
2A6A
  8
AM_0
  6
CONTINUOUS
 10
298.93544135536371
 20
332.91249548409371
 30
0.0
 42
0.045306413
  0
VERTEX
  5
2A6B
  8
AM_0
  6
CONTINUOUS
 10
301.15763135536372
 20
336.2402154840936
 30
0.0
 42
0.052171431
  0
VERTEX
  5
2A6C
  8
AM_0
  6
CONTINUOUS
 10
302.6943213553638
 20
339.93801548409363
 30
0.0
 42
0.057266618
  0
VERTEX
  5
2A6D
  8
AM_0
  6
CONTINUOUS
 10
303.38858135536373
 20
343.87677548409363
 30
0.0
 42
0.058402263
  0
VERTEX
  5
2A6E
  8
AM_0
  6
CONTINUOUS
 10
303.15782135536392
 20
347.86497548409369
 30
0.0
 42
0.055045302
  0
VERTEX
  5
2A6F
  8
AM_0
  6
CONTINUOUS
 10
302.03231135536367
 20
351.70014548409358
 30
0.0
 42
0.048778173
  0
VERTEX
  5
2A70
  8
AM_0
  6
CONTINUOUS
 10
300.13946135536372
 20
355.22064548409361
 30
0.0
 42
0.041944207
  0
VERTEX
  5
2A71
  8
AM_0
  6
CONTINUOUS
 10
297.64193135536368
 20
358.34367548409369
 30
0.0
 42
0.035908261
  0
VERTEX
  5
2A72
  8
AM_0
  6
CONTINUOUS
 10
294.68936135536381
 20
361.04448548409363
 30
0.0
 42
0.031063208
  0
VERTEX
  5
2A73
  8
AM_0
  6
CONTINUOUS
 10
291.40268135536371
 20
363.32841548409363
 30
0.0
 42
0.027381869
  0
VERTEX
  5
2A74
  8
AM_0
  6
CONTINUOUS
 10
287.87075135536372
 20
365.21553548409372
 30
0.0
 42
0.024647405
  0
VERTEX
  5
2A75
  8
AM_0
  6
CONTINUOUS
 10
284.16176135536392
 20
366.7266654840937
 30
0.0
 42
0.022677562
  0
VERTEX
  5
2A76
  8
AM_0
  6
CONTINUOUS
 10
280.32635135536373
 20
367.8813354840936
 30
0.0
 42
0.021321502
  0
VERTEX
  5
2A77
  8
AM_0
  6
CONTINUOUS
 10
276.40394135536371
 20
368.69517548409362
 30
0.0
 42
0.020471074
  0
VERTEX
  5
2A78
  8
AM_0
  6
CONTINUOUS
 10
272.4270513553638
 20
369.17922548409371
 30
0.0
 42
0.020088488
  0
VERTEX
  5
2A79
  8
AM_0
  6
CONTINUOUS
 10
268.41845135536369
 20
369.34014548409368
 30
0.0
  0
SEQEND
  5
2A7A
  8
AM_0
  0
LINE
  5
2A7B
  8
AM_0
 10
268.41842135536371
 20
304.71461348409372
 30
0.0
 11
296.1871113553637
 21
330.00111548409359
 31
0.0
  0
POLYLINE
  5
2A7C
  8
AM_0
 66
     1
 10
0.0
 20
0.0
 30
0.0
  0
VERTEX
  5
2A7D
  8
AM_0
  6
CONTINUOUS
 10
301.87511135536391
 20
347.17071548409359
 30
0.0
 42
0.046334034
  0
VERTEX
  5
2A7E
  8
AM_0
  6
CONTINUOUS
 10
300.0232713553637
 20
348.22836548409362
 30
0.0
 42
0.024113349
  0
VERTEX
  5
2A7F
  8
AM_0
  6
CONTINUOUS
 10
298.04381135536391
 20
349.02822548409358
 30
0.0
 42
0.015482213
  0
VERTEX
  5
2A80
  8
AM_0
  6
CONTINUOUS
 10
296.00687135536373
 20
349.67289548409371
 30
0.0
 42
0.011170747
  0
VERTEX
  5
2A81
  8
AM_0
  6
CONTINUOUS
 10
293.93912135536368
 20
350.20938548409367
 30
0.0
 42
0.0086851837
  0
VERTEX
  5
2A82
  8
AM_0
  6
CONTINUOUS
 10
291.85157135536372
 20
350.66406548409361
 30
0.0
 42
0.0071112966
  0
VERTEX
  5
2A83
  8
AM_0
  6
CONTINUOUS
 10
289.74986135536392
 20
351.05307548409371
 30
0.0
 42
0.0060487861
  0
VERTEX
  5
2A84
  8
AM_0
  6
CONTINUOUS
 10
287.63717135536371
 20
351.38709548409372
 30
0.0
 42
0.0052886795
  0
VERTEX
  5
2A85
  8
AM_0
  6
CONTINUOUS
 10
285.51980135536382
 20
351.67293548409378
 30
0.0
 42
0.004745088
  0
VERTEX
  5
2A86
  8
AM_0
  6
CONTINUOUS
 10
283.39469135536348
 20
351.9165954840937
 30
0.0
 42
0.0043374779
  0
VERTEX
  5
2A87
  8
AM_0
  6
CONTINUOUS
 10
281.26499135536369
 20
352.12173548409362
 30
0.0
 42
0.0040309373
  0
VERTEX
  5
2A88
  8
AM_0
  6
CONTINUOUS
 10
279.13220135536392
 20
352.29123548409359
 30
0.0
 42
0.0038017218
  0
VERTEX
  5
2A89
  8
AM_0
  6
CONTINUOUS
 10
276.99698135536391
 20
352.42737548409372
 30
0.0
 42
0.0036333144
  0
VERTEX
  5
2A8A
  8
AM_0
  6
CONTINUOUS
 10
274.85990135536389
 20
352.53174548409362
 30
0.0
 42
0.0035147919
  0
VERTEX
  5
2A8B
  8
AM_0
  6
CONTINUOUS
 10
272.72150135536373
 20
352.6056054840937
 30
0.0
 42
0.003439074
  0
VERTEX
  5
2A8C
  8
AM_0
  6
CONTINUOUS
 10
270.58229135536368
 20
352.6497354840937
 30
0.0
 42
0.0034021156
  0
VERTEX
  5
2A8D
  8
AM_0
  6
CONTINUOUS
 10
268.44260135536382
 20
352.66461548409359
 30
0.0
  0
SEQEND
  5
2A8E
  8
AM_0
  0
ARC
  5
2A8F
  8
AM_0
 10
255.41843135536371
 20
364.7719854840937
 30
0.0
 40
3.0
 50
315.0
 51
0.0
  0
LINE
  5
2A90
  8
AM_0
 10
230.91848135536381
 20
338.52933948409361
 30
0.0
 11
221.91848135536381
 21
338.52933948409361
 31
0.0
  0
LINE
  5
2A91
  8
AM_0
 10
219.45401526129641
 20
330.56486576063168
 30
0.0
 11
193.34742117289281
 21
304.45827167222819
 31
0.0
  0
ARC
  5
2A92
  8
AM_0
 10
186.2763533610273
 20
311.52933948409361
 30
0.0
 40
10.0
 50
270.0
 51
315.0
1001
GENIUS_GENODEF_13
1002
{
1000
HIER
1070
     0
1002
}
1002
{
1000
MANEDIT
1070
     0
1002
}
1002
{
1000
NOSEL
1070
     0
1002
}
1002
{
1000
BEHIND
1070
     0
1002
}
1002
{
1000
OTHER
1070
     0
1002
}
1002
{
1000
REACTOR
1002
}
1001
GENIUS_GENOBJ-N-FIL_13
1002
{
1000
OWNER
1000
GEN
1002
}
  0
LINE
  5
2A93
  8
AM_0
 10
161.4184935147112
 20
283.02933948409361
 30
0.0
 11
163.4184935147112
 21
283.02933948409361
 31
0.0
  0
LINE
  5
2A94
  8
AM_0
 10
163.7113867335249
 20
292.32223270290689
 30
0.0
 11
165.12560029589781
 21
293.73644626528028
 31
0.0
  0
ARC
  5
2A95
  8
AM_0
 10
164.4184935147112
 20
291.61512592172051
 30
0.0
 40
1.0
 50
135.0
 51
180.0
1001
GENIUS_GENODEF_13
1002
{
1000
HIER
1070
     0
1002
}
1002
{
1000
MANEDIT
1070
     0
1002
}
1002
{
1000
NOSEL
1070
     0
1002
}
1002
{
1000
BEHIND
1070
     0
1002
}
1002
{
1000
OTHER
1070
     0
1002
}
1002
{
1000
REACTOR
1002
}
1001
GENIUS_GENOBJ-N-FIL_13
1002
{
1000
OWNER
1000
GEN
1002
}
  0
ARC
  5
2A96
  8
AM_0
 10
164.4184935147112
 20
294.44355304646677
 30
0.0
 40
1.0
 50
315.0
 51
0.0
1001
GENIUS_GENODEF_13
1002
{
1000
HIER
1070
     0
1002
}
1002
{
1000
MANEDIT
1070
     0
1002
}
1002
{
1000
NOSEL
1070
     0
1002
}
1002
{
1000
BEHIND
1070
     0
1002
}
1002
{
1000
OTHER
1070
     0
1002
}
1002
{
1000
REACTOR
1002
}
1001
GENIUS_GENOBJ-N-FIL_13
1002
{
1000
OWNER
1000
GEN
1002
}
  0
LINE
  5
2A97
  8
AM_0
 10
167.4184935147112
 20
301.52933948409361
 30
0.0
 11
186.2763533610273
 21
301.52933948409361
 31
0.0
  0
ARC
  5
2A98
  8
AM_0
 10
167.4184935147112
 20
299.52933948409361
 30
0.0
 40
2.0
 50
90.0
 51
180.0
1001
GENIUS_GENOBJ-N-FIL_13
1002
{
1000
OWNER
1000
GEN
1002
}
1001
GENIUS_GENODEF_13
1002
{
1000
HIER
1070
     0
1002
}
1002
{
1000
MANEDIT
1070
     0
1002
}
1002
{
1000
NOSEL
1070
     0
1002
}
1002
{
1000
BEHIND
1070
     0
1002
}
1002
{
1000
OTHER
1070
     0
1002
}
1002
{
1000
REACTOR
1002
}
  0
ARC
  5
2A99
  8
AM_0
 10
215.91848135536381
 20
334.10039966656461
 30
0.0
 40
5.0
 50
315.0
 51
0.0
1001
GENIUS_GENODEF_13
1002
{
1000
HIER
1070
     0
1002
}
1002
{
1000
MANEDIT
1070
     0
1002
}
1002
{
1000
NOSEL
1070
     0
1002
}
1002
{
1000
BEHIND
1070
     0
1002
}
1002
{
1000
OTHER
1070
     0
1002
}
1002
{
1000
REACTOR
1002
}
1001
GENIUS_GENOBJ-N-FIL_13
1002
{
1000
OWNER
1000
GEN
1002
}
  0
ARC
  5
2A9A
  8
AM_0
 10
221.91848135536381
 20
337.52933948409361
 30
0.0
 40
1.0
 50
90.0
 51
180.0
1001
GENIUS_GENODEF_13
1002
{
1000
HIER
1070
     0
1002
}
1002
{
1000
MANEDIT
1070
     0
1002
}
1002
{
1000
NOSEL
1070
     0
1002
}
1002
{
1000
BEHIND
1070
     0
1002
}
1002
{
1000
OTHER
1070
     0
1002
}
1002
{
1000
REACTOR
1002
}
1001
GENIUS_GENOBJ-N-FIL_13
1002
{
1000
OWNER
1000
GEN
1002
}
  0
LINE
  5
2A9B
  8
AM_0
 10
268.41848135536372
 20
304.71466812081292
 30
0.0
 11
258.41843135536351
 21
304.79686378891688
 31
0.0
  0
LINE
  5
2A9C
  8
AM_0
 10
230.91848135536381
 20
311.67726548409371
 30
0.0
 11
243.41843135536359
 21
311.67726548409371
 31
0.0
  0
LINE
  5
2A9D
  8
AM_0
 10
268.41848135536372
 20
289.17707348409363
 30
0.0
 11
272.4184113553635
 21
289.17707348409363
 31
0.0
  0
LINE
  5
2A9E
  8
AM_0
 10
268.41842135536371
 20
304.7146434840937
 30
0.0
 11
268.42001135536373
 21
304.7146434840937
 31
0.0
  0
LINE
  5
2A9F
  8
AM_0
 10
258.41843135536351
 20
352.66461548409359
 30
0.0
 11
268.41848135536372
 21
352.66461548409359
 31
0.0
  0
ARC
  5
2AA0
  8
AM_0
 10
238.41848135536381
 20
343.29429548409371
 30
0.0
 40
5.0000001000000003
 50
272.0
 51
0.0
  0
LINE
  5
2AA1
  8
AM_0
 10
230.91848135536381
 20
326.02929548409361
 30
0.0
 11
243.41843135536359
 21
326.02929548409361
 31
0.0
  0
LINE
  5
2AA2
  8
AM_0
 10
230.9183613553634
 20
338.0292954840935
 30
0.0
 11
238.59287135536391
 21
338.29731548409359
 31
0.0
  0
ARC
  5
2AA3
  8
AM_0
 10
248.4184113553637
 20
346.45827548409358
 30
0.0
 40
5.0000001000000003
 50
135.0
 51
180.00001
  0
LINE
  5
2AA4
  8
AM_0
 10
244.88291135536369
 20
349.99377548409359
 30
0.0
 11
257.53976135536391
 21
362.6506554840937
 31
0.0
  0
LINE
  5
2AA5
  8
AM_0
 10
268.41845135536369
 20
369.34014548409368
 30
0.0
 11
258.41843135536351
 21
369.34014548409368
 31
0.0
  0
ARC
  5
2AA6
  8
AM_0
 10
260.41841135536367
 20
371.74872548409371
 30
0.0
 40
2.00000007
 50
91.999997999999948
 51
180.00001
  0
LINE
  5
2AA7
  8
AM_0
 10
260.34860135536383
 20
373.74753548409359
 30
0.0
 11
268.41836135536352
 21
374.02935548409368
 31
0.0
  0
ARC
  5
2AA8
  8
AM_0
 10
345.41843135536362
 20
364.01025548409359
 30
0.0
 40
8.0000000999999976
 50
0.0
 51
88.499996999999965
  0
ARC
  5
2AA9
  8
AM_0
 10
361.41845135536357
 20
358.5293454840936
 30
0.0
 40
8.0000000999999976
 50
179.99998999999991
 51
270.0
  0
ARC
  5
2AAA
  8
AM_0
 10
341.41841135536367
 20
333.97206548409349
 30
0.0
 40
8.0000000999999976
 50
90.000003000000007
 51
180.00001
  0
LINE
  5
2AAB
  8
AM_0
 10
341.41841135536367
 20
341.97201548409362
 30
0.0
 11
349.81793135536378
 21
341.97201548409362
 31
0.0
  0
LINE
  5
2AAC
  8
AM_0
 10
398.41841135536379
 20
318.52929548409361
 30
0.0
 11
398.41841135536379
 21
321.52929548409361
 31
0.0
  0
LINE
  5
2AAD
  8
AM_0
 10
381.41843135536362
 20
302.52930848409358
 30
0.0
 11
381.41843135536362
 21
329.7972654840936
 31
0.0
  0
LINE
  5
2AAE
  8
AM_0
 10
385.41845135536369
 20
285.02933948409361
 30
0.0
 11
385.41845135536369
 21
320.02929548409361
 31
0.0
  0
LINE
  5
2AAF
  8
AM_0
 10
385.41845135536369
 20
285.02933948409361
 30
0.0
 11
381.41843135536362
 21
285.02933948409361
 31
0.0
  0
LINE
  5
2AB0
  8
AM_0
 10
385.41845135536369
 20
320.02929548409361
 30
0.0
 11
381.41843135536362
 21
320.02929548409361
 31
0.0
  0
LINE
  5
2AB1
  8
AM_0
 10
375.918441355364
 20
334.70475548409371
 30
0.0
 11
379.91846135536377
 21
332.39535548409361
 31
0.0
  0
ARC
  5
2AB2
  8
AM_0
 10
377.41841135536379
 20
337.30284548409372
 30
0.0
 40
3.0
 50
179.99998999999991
 51
240.00001
  0
ARC
  5
2AB3
  8
AM_0
 10
378.41843135536368
 20
329.7972654840936
 30
0.0
 40
3.0
 50
0.0
 51
60.000002000000002
  0
LINE
  5
2AB4
  8
AM_0
 10
361.41845135536357
 20
350.52933548409368
 30
0.0
 11
370.41845135536369
 21
350.52933548409368
 31
0.0
  0
ARC
  5
2AB5
  8
AM_0
 10
370.41845135536369
 20
346.52934548409371
 30
0.0
 40
4.000000199999997
 50
0.0
 51
90.000003000000007
  0
CIRCLE
  5
2AB6
  8
AM_0
 10
629.01549195820644
 20
302.52930848409358
 30
0.0
 40
29.000001000000001
  0
LINE
  5
2AB7
  8
ﾁｭｳｼﾝｾﾝ
 10
629.01549195820644
 20
158.77271348409371
 30
0.0
 11
629.01549195820644
 21
377.55967524321818
 31
0.0
  0
LINE
  5
2AB8
  8
AM_0
 10
564.01550595820629
 20
285.52930748409358
 30
0.0
 11
564.01550595820629
 21
195.52932248409371
 31
0.0
  0
LINE
  5
2AB9
  8
AM_0
 10
694.01551095820651
 20
285.52930748409358
 30
0.0
 11
694.01551095820651
 21
195.52932248409371
 31
0.0
  0
LINE
  5
2ABA
  8
AM_0
 10
706.01551095820651
 20
334.62300548409371
 30
0.0
 11
706.01551095820651
 21
236.26658048409371
 31
0.0
  0
LINE
  5
2ABB
  8
AM_0
 10
552.0155059582064
 20
334.62300548409371
 30
0.0
 11
552.0155059582064
 21
236.26658048409371
 31
0.0
  0
LINE
  5
2ABC
  8
AM_0
 10
743.98282095820628
 20
177.97094048409369
 30
0.0
 11
727.43141895820622
 21
289.17710648409371
 31
0.0
  0
LINE
  5
2ABD
  8
AM_0
 10
514.04818695820654
 20
177.97095548409371
 30
0.0
 11
530.5995769582064
 21
289.17710648409371
 31
0.0
  0
ARC
  5
2ABE
  8
AM_0
 10
629.01549195820644
 20
285.52930748409358
 30
0.0
 40
65.000000999999997
 50
0.0
 51
180.00001
  0
LINE
  5
2ABF
  8
ﾁｭｳｼﾝｾﾝ
 10
531.72988482259495
 20
274.52933948409361
 30
0.0
 11
726.5014391503214
 21
274.52933948409361
 31
0.0
  0
ARC
  5
2AC0
  8
AM_0
 10
709.01551095820651
 20
195.52932248409371
 30
0.0
 40
15.00000029999998
 50
179.99998999999991
 51
270.0
  0
ARC
  5
2AC1
  8
AM_0
 10
692.0154949582062
 20
162.52931948409369
 30
0.0
 40
2.00000007
 50
0.0
 51
90.000003000000007
  0
ARC
  5
2AC2
  8
AM_0
 10
698.01549495820632
 20
176.52932048409369
 30
0.0
 40
4.000000199999997
 50
90.000003000000007
 51
180.00001
  0
ARC
  5
2AC3
  8
AM_0
 10
549.0155059582064
 20
195.52932248409371
 30
0.0
 40
15.00000029999998
 50
270.0
 51
0.0
  0
LINE
  5
2AC4
  8
AM_0
 10
514.01551695820626
 20
162.52931948409369
 30
0.0
 11
564.01550595820629
 21
162.52931948409369
 31
0.0
  0
ARC
  5
2AC5
  8
AM_0
 10
560.01550695820652
 20
176.52932048409369
 30
0.0
 40
4.000000199999997
 50
0.0
 51
90.000003000000007
  0
ARC
  5
2AC6
  8
AM_0
 10
629.01549195820644
 20
236.26658048409371
 30
0.0
 40
77.000000999999983
 50
179.99998999999991
 51
212.4183899999997
  0
LINE
  5
2AC7
  8
AM_0
 10
560.01550695820652
 20
180.52931948409361
 30
0.0
 11
517.01551695820649
 21
180.52931948409361
 31
0.0
  0
LINE
  5
2AC8
  8
AM_0
 10
514.01551695820626
 20
177.52931948409361
 30
0.0
 11
514.01551695820626
 21
162.52931948409369
 31
0.0
  0
LINE
  5
2AC9
  8
ｶｸﾚｾﾝ2
 10
526.51549695820631
 20
180.52931948409361
 30
0.0
 11
526.51549695820631
 21
162.52931948409369
 31
0.0
  0
ARC
  5
2ACA
  8
AM_0
 10
517.01551695820649
 20
177.52931948409361
 30
0.0
 40
3.0
 50
90.000003000000007
 51
180.00001
  0
LINE
  5
2ACB
  8
ｶｸﾚｾﾝ2
 10
541.5155059582064
 20
180.52931948409361
 30
0.0
 11
541.5155059582064
 21
162.52931948409369
 31
0.0
  0
LINE
  5
2ACC
  8
ﾁｭｳｼﾝｾﾝ1
 10
534.01549695820631
 20
182.84792236574029
 30
0.0
 11
534.01549695820631
 21
160.0888808055463
 31
0.0
  0
LINE
  5
2ACD
  8
AM_0
 10
566.01550695820652
 20
164.5293204840936
 30
0.0
 11
692.0154949582062
 21
164.5293204840936
 31
0.0
  0
LINE
  5
2ACE
  8
AM_0
 10
564.01550595820629
 20
176.52932048409369
 30
0.0
 11
564.01550595820629
 21
162.52931948409369
 31
0.0
  0
ARC
  5
2ACF
  8
AM_0
 10
566.01550695820652
 20
162.52931948409369
 30
0.0
 40
2.00000007
 50
90.000003000000007
 51
180.00001
  0
LINE
  5
2AD0
  8
AM_0
 10
698.01549495820632
 20
180.52931948409361
 30
0.0
 11
741.01550295820653
 21
180.52931948409361
 31
0.0
  0
LINE
  5
2AD1
  8
AM_0
 10
694.01551095820651
 20
162.52931948409369
 30
0.0
 11
744.01550295820653
 21
162.52931948409369
 31
0.0
  0
LINE
  5
2AD2
  8
ｶｸﾚｾﾝ2
 10
716.51550495820629
 20
180.52931948409361
 30
0.0
 11
716.51550495820629
 21
162.52931948409369
 31
0.0
  0
LINE
  5
2AD3
  8
AM_0
 10
694.01551095820651
 20
176.52932048409369
 30
0.0
 11
694.01551095820651
 21
162.52931948409369
 31
0.0
  0
LINE
  5
2AD4
  8
ﾁｭｳｼﾝｾﾝ1
 10
724.01550495820629
 20
182.8479223657404
 30
0.0
 11
724.01550495820629
 21
160.0888808055463
 31
0.0
  0
LINE
  5
2AD5
  8
AM_0
 10
744.01550295820653
 20
177.52931948409361
 30
0.0
 11
744.01550295820653
 21
162.52931948409369
 31
0.0
  0
LINE
  5
2AD6
  8
ｶｸﾚｾﾝ2
 10
731.51550495820607
 20
180.52931948409361
 30
0.0
 11
731.51550495820607
 21
162.52931948409369
 31
0.0
  0
ARC
  5
2AD7
  8
AM_0
 10
741.01550295820653
 20
177.52931948409361
 30
0.0
 40
3.0
 50
0.0
 51
90.000003000000007
  0
ARC
  5
2AD8
  8
AM_0
 10
629.01549195820644
 20
236.26658048409371
 30
0.0
 40
77.000000999999983
 50
327.58159999999992
 51
0.0
  0
ARC
  5
2AD9
  8
AM_0
 10
629.01549195820644
 20
274.52933948409373
 30
0.0
 40
99.500004000000004
 50
8.4654901000000002
 51
171.53450000000001
  0
LINE
  5
2ADA
  8
AM_0
 10
700.53624795820633
 20
356.64528548409362
 30
0.0
 11
658.23842595820645
 21
369.6412254840937
 31
0.0
  0
LINE
  5
2ADB
  8
AM_0
 10
557.69354595820641
 20
356.24328548409358
 30
0.0
 11
598.83017595820627
 21
369.34014548409368
 31
0.0
  0
LINE
  5
2ADC
  8
AM_0
 10
443.4184113553635
 20
286.52933948409361
 30
0.0
 11
443.4184113553635
 21
321.52929548409361
 31
0.0
  0
LINE
  5
2ADD
  8
AM_0
 10
547.30151595820644
 20
345.85131548409367
 30
0.0
 11
534.20467695820605
 21
304.71467348409362
 31
0.0
  0
ARC
  5
2ADE
  8
AM_0
 10
560.01550695820652
 20
334.62300548409371
 30
0.0
 40
8.0000000999999976
 50
138.94665000000001
 51
180.00001
  0
ARC
  5
2ADF
  8
AM_0
 10
562.54745895820633
 20
340.99734548409373
 30
0.0
 40
16.000000499999999
 50
107.0794599999999
 51
162.92053000000001
  0
LINE
  5
2AE0
  8
ﾁｭｳｼﾝｾﾝ
 10
570.09739698065869
 20
302.52930848409358
 30
0.0
 11
688.3596173537552
 21
302.52930848409358
 31
0.0
  0
ARC
  5
2AE1
  8
AM_0
 10
629.01549195820644
 20
302.52930848409358
 30
0.0
 40
16.000000499999999
 50
108.20996
 51
71.790052000000003
  0
CIRCLE
  5
2AE2
  8
AM_0
 10
629.01549195820644
 20
302.52930848409358
 30
0.0
 40
2.75000007
  0
CIRCLE
  5
2AE3
  8
AM_5
 10
629.01549195820644
 20
302.52930848409358
 30
0.0
 40
4.000000199999997
  0
LINE
  5
2AE4
  8
AM_0
 10
624.0155089582064
 20
313.52934548409371
 30
0.0
 11
634.01549295820621
 21
313.52934548409371
 31
0.0
  0
LINE
  5
2AE5
  8
AM_0
 10
624.0155089582064
 20
321.52929548409372
 30
0.0
 11
634.01549295820621
 21
321.52929548409372
 31
0.0
  0
LINE
  5
2AE6
  8
AM_0
 10
624.0155089582064
 20
313.52934548409371
 30
0.0
 11
624.0155089582064
 21
321.52929548409372
 31
0.0
  0
LINE
  5
2AE7
  8
AM_0
 10
634.01549295820621
 20
313.52934548409371
 30
0.0
 11
634.01549295820621
 21
321.52929548409372
 31
0.0
  0
LINE
  5
2AE8
  8
AM_0
 10
711.13146195820627
 20
346.05012548409371
 30
0.0
 11
724.12738995820632
 21
303.7522404840937
 31
0.0
  0
ARC
  5
2AE9
  8
AM_0
 10
698.01549495820632
 20
334.62300548409371
 30
0.0
 40
8.0000000999999976
 50
0.0
 51
41.053350999999999
  0
ARC
  5
2AEA
  8
AM_0
 10
695.83708995820632
 20
341.35092548409369
 30
0.0
 40
16.000000499999999
 50
17.079463000000001
 51
72.920534000000004
  0
LINE
  5
2AEB
  8
AM_0
 10
230.9184813553637
 20
312.52564948409349
 30
0.0
 11
220.91848135536389
 21
312.52564948409349
 31
0.0
  0
LINE
  5
2AEC
  8
AM_0
 10
230.9184813553637
 20
326.02933948409338
 30
0.0
 11
220.91848135536389
 21
326.02933948409338
 31
0.0
  0
LINE
  5
2AED
  8
AM_0
 10
230.9184813553637
 20
223.02933948409361
 30
0.0
 11
220.91848135536389
 21
223.02933948409361
 31
0.0
  0
LINE
  5
2AEE
  8
AM_0
 10
230.9184813553637
 20
236.53303448409341
 30
0.0
 11
220.91848135536389
 21
236.53303448409341
 31
0.0
  0
LINE
  5
2AEF
  8
AM_0
 10
190.41838898475831
 20
610.07195759800265
 30
0.0
 11
190.41838898475831
 21
556.07195759800265
 31
0.0
  0
LINE
  5
2AF0
  8
AM_0
 10
220.91838135536381
 20
646.07195759800265
 30
0.0
 11
220.91838135536381
 21
520.07195759800265
 31
0.0
  0
LINE
  5
2AF1
  8
AM_0
 10
165.41839351471131
 20
558.07195759800265
 30
0.0
 11
165.41839351471131
 21
608.07195759800265
 31
0.0
  0
LINE
  5
2AF2
  8
AM_0
 10
163.41839351471131
 20
600.15774403562955
 30
0.0
 11
163.41839351471131
 21
565.98617116037565
 31
0.0
  0
LINE
  5
2AF3
  8
AM_0
 10
167.41839351471131
 20
556.07195759800265
 30
0.0
 11
186.2762533610273
 21
556.07195759800265
 31
0.0
  0
ARC
  5
2AF4
  8
AM_0
 10
167.41839351471131
 20
558.07195759800265
 30
0.0
 40
2.0
 50
180.0
 51
270.0
1001
GENIUS_GENOBJ-N-FIL_13
1002
{
1000
OWNER
1000
GEN
1002
}
1001
GENIUS_GENODEF_13
1002
{
1000
HIER
1070
     0
1002
}
1002
{
1000
MANEDIT
1070
     0
1002
}
1002
{
1000
NOSEL
1070
     0
1002
}
1002
{
1000
BEHIND
1070
     0
1002
}
1002
{
1000
OTHER
1070
     0
1002
}
1002
{
1000
REACTOR
1002
}
  0
ARC
  5
2AF5
  8
AM_0
 10
164.41839351471131
 20
565.98617116037565
 30
0.0
 40
1.0
 50
180.0
 51
225.0
1001
GENIUS_GENODEF_13
1002
{
1000
HIER
1070
     0
1002
}
1002
{
1000
MANEDIT
1070
     0
1002
}
1002
{
1000
NOSEL
1070
     0
1002
}
1002
{
1000
BEHIND
1070
     0
1002
}
1002
{
1000
OTHER
1070
     0
1002
}
1002
{
1000
REACTOR
1002
}
1001
GENIUS_GENOBJ-N-FIL_13
1002
{
1000
OWNER
1000
GEN
1002
}
  0
ARC
  5
2AF6
  8
AM_0
 10
164.41839351471131
 20
563.15774403562955
 30
0.0
 40
1.0
 50
0.0
 51
45.0
1001
GENIUS_GENODEF_13
1002
{
1000
HIER
1070
     0
1002
}
1002
{
1000
MANEDIT
1070
     0
1002
}
1002
{
1000
NOSEL
1070
     0
1002
}
1002
{
1000
BEHIND
1070
     0
1002
}
1002
{
1000
OTHER
1070
     0
1002
}
1002
{
1000
REACTOR
1002
}
1001
GENIUS_GENOBJ-N-FIL_13
1002
{
1000
OWNER
1000
GEN
1002
}
  0
LINE
  5
2AF7
  8
AM_0
 10
163.71128673352479
 20
565.27906437918921
 30
0.0
 11
165.12550029589781
 21
563.86485081681587
 31
0.0
  0
LINE
  5
2AF8
  8
AM_0
 10
219.45391526129649
 20
527.03643132146442
 30
0.0
 11
193.3473211728928
 21
553.14302540986807
 31
0.0
  0
ARC
  5
2AF9
  8
AM_0
 10
221.91838135536369
 20
520.07195759800265
 30
0.0
 40
1.0
 50
180.0
 51
270.0
1001
GENIUS_GENODEF_13
1002
{
1000
HIER
1070
     0
1002
}
1002
{
1000
MANEDIT
1070
     0
1002
}
1002
{
1000
NOSEL
1070
     0
1002
}
1002
{
1000
BEHIND
1070
     0
1002
}
1002
{
1000
OTHER
1070
     0
1002
}
1002
{
1000
REACTOR
1002
}
1001
GENIUS_GENOBJ-N-FIL_13
1002
{
1000
OWNER
1000
GEN
1002
}
  0
ARC
  5
2AFA
  8
AM_0
 10
215.91838135536381
 20
523.50089741553165
 30
0.0
 40
5.0
 50
0.0
 51
45.0
1001
GENIUS_GENODEF_13
1002
{
1000
HIER
1070
     0
1002
}
1002
{
1000
MANEDIT
1070
     0
1002
}
1002
{
1000
NOSEL
1070
     0
1002
}
1002
{
1000
BEHIND
1070
     0
1002
}
1002
{
1000
OTHER
1070
     0
1002
}
1002
{
1000
REACTOR
1002
}
1001
GENIUS_GENOBJ-N-FIL_13
1002
{
1000
OWNER
1000
GEN
1002
}
  0
LINE
  5
2AFB
  8
AM_0
 10
230.91838135536381
 20
519.07195759800265
 30
0.0
 11
221.91838135536369
 21
519.07195759800265
 31
0.0
  0
ARC
  5
2AFC
  8
AM_0
 10
186.2762533610273
 20
546.07195759800265
 30
0.0
 40
10.0
 50
45.0
 51
90.0
1001
GENIUS_GENODEF_13
1002
{
1000
HIER
1070
     0
1002
}
1002
{
1000
MANEDIT
1070
     0
1002
}
1002
{
1000
NOSEL
1070
     0
1002
}
1002
{
1000
BEHIND
1070
     0
1002
}
1002
{
1000
OTHER
1070
     0
1002
}
1002
{
1000
REACTOR
1002
}
1001
GENIUS_GENOBJ-N-FIL_13
1002
{
1000
OWNER
1000
GEN
1002
}
  0
LINE
  5
2AFD
  8
AM_0
 10
230.91838135536381
 20
531.57195759800265
 30
0.0
 11
220.91838135536389
 21
531.57195759800265
 31
0.0
  0
LINE
  5
2AFE
  8
AM_0
 10
230.91838135536381
 20
545.07565259800265
 30
0.0
 11
220.91838135536389
 21
545.07565259800265
 31
0.0
  0
LINE
  5
2AFF
  8
AM_0
 10
167.41839351471131
 20
610.07195759800265
 30
0.0
 11
186.2762533610273
 21
610.07195759800265
 31
0.0
  0
LINE
  5
2B00
  8
AM_0
 10
133.4183935147114
 20
585.57195759800265
 30
0.0
 11
155.4183935147114
 21
585.57195759800265
 31
0.0
  0
LINE
  5
2B01
  8
AM_0
 10
133.4183935147114
 20
580.57195759800265
 30
0.0
 11
155.4183935147114
 21
580.57195759800265
 31
0.0
  0
LINE
  5
2B02
  8
AM_0
 10
133.4183935147114
 20
575.07195759800265
 30
0.0
 11
161.4183935147114
 21
575.07195759800265
 31
0.0
  0
LINE
  5
2B03
  8
AM_0
 10
133.4183935147114
 20
591.07195759800265
 30
0.0
 11
161.4183935147114
 21
591.07195759800265
 31
0.0
  0
LINE
  5
2B04
  8
AM_0
 10
133.4183935147114
 20
591.07195759800265
 30
0.0
 11
133.4183935147114
 21
575.07195759800265
 31
0.0
  0
ARC
  5
2B05
  8
AM_0
 10
155.4183935147114
 20
583.07195759800265
 30
0.0
 40
2.5
 50
270.0
 51
90.0
  0
LINE
  5
2B06
  8
AM_0
 10
155.4183935147114
 20
585.57195759800265
 30
0.0
 11
155.4183935147114
 21
580.57195759800265
 31
0.0
  0
LINE
  5
2B07
  8
AM_0
 10
161.4183935147114
 20
591.57195759800265
 30
0.0
 11
161.4183935147114
 21
574.57195759800265
 31
0.0
  0
LINE
  5
2B08
  8
AM_0
 10
161.4183935147114
 20
574.57196293105244
 30
0.0
 11
163.41839351471131
 21
574.57196186444276
 31
0.0
  0
LINE
  5
2B09
  8
AM_0
 10
161.4183935147114
 20
591.57195759800265
 30
0.0
 11
163.41839351471131
 21
591.57195759800265
 31
0.0
  0
LINE
  5
2B0A
  8
AM_0
 10
163.71128673352479
 20
600.86485081681587
 30
0.0
 11
165.12550029589781
 21
602.27906437918921
 31
0.0
  0
ARC
  5
2B0B
  8
AM_0
 10
164.41839351471131
 20
602.98617116037565
 30
0.0
 40
1.0
 50
315.0
 51
0.0
1001
GENIUS_GENODEF_13
1002
{
1000
HIER
1070
     0
1002
}
1002
{
1000
MANEDIT
1070
     0
1002
}
1002
{
1000
NOSEL
1070
     0
1002
}
1002
{
1000
BEHIND
1070
     0
1002
}
1002
{
1000
OTHER
1070
     0
1002
}
1002
{
1000
REACTOR
1002
}
1001
GENIUS_GENOBJ-N-FIL_13
1002
{
1000
OWNER
1000
GEN
1002
}
  0
ARC
  5
2B0C
  8
AM_0
 10
164.41839351471131
 20
600.15774403562955
 30
0.0
 40
1.0
 50
135.0
 51
180.0
1001
GENIUS_GENODEF_13
1002
{
1000
HIER
1070
     0
1002
}
1002
{
1000
MANEDIT
1070
     0
1002
}
1002
{
1000
NOSEL
1070
     0
1002
}
1002
{
1000
BEHIND
1070
     0
1002
}
1002
{
1000
OTHER
1070
     0
1002
}
1002
{
1000
REACTOR
1002
}
1001
GENIUS_GENOBJ-N-FIL_13
1002
{
1000
OWNER
1000
GEN
1002
}
  0
ARC
  5
2B0D
  8
AM_0
 10
167.41839351471131
 20
608.07195759800265
 30
0.0
 40
2.0
 50
90.0
 51
180.0
1001
GENIUS_GENOBJ-N-FIL_13
1002
{
1000
OWNER
1000
GEN
1002
}
1001
GENIUS_GENODEF_13
1002
{
1000
HIER
1070
     0
1002
}
1002
{
1000
MANEDIT
1070
     0
1002
}
1002
{
1000
NOSEL
1070
     0
1002
}
1002
{
1000
BEHIND
1070
     0
1002
}
1002
{
1000
OTHER
1070
     0
1002
}
1002
{
1000
REACTOR
1002
}
  0
LINE
  5
2B0E
  8
AM_0
 10
219.45391526129649
 20
639.107483874541
 30
0.0
 11
193.34732117289269
 21
613.00088978613724
 31
0.0
  0
ARC
  5
2B0F
  8
AM_0
 10
186.2762533610273
 20
620.07195759800265
 30
0.0
 40
10.0
 50
270.0
 51
315.0
1001
GENIUS_GENODEF_13
1002
{
1000
HIER
1070
     0
1002
}
1002
{
1000
MANEDIT
1070
     0
1002
}
1002
{
1000
NOSEL
1070
     0
1002
}
1002
{
1000
BEHIND
1070
     0
1002
}
1002
{
1000
OTHER
1070
     0
1002
}
1002
{
1000
REACTOR
1002
}
1001
GENIUS_GENOBJ-N-FIL_13
1002
{
1000
OWNER
1000
GEN
1002
}
  0
LINE
  5
2B10
  8
AM_0
 10
230.91838135536381
 20
621.06826759800265
 30
0.0
 11
220.91838135536389
 21
621.06826759800265
 31
0.0
  0
LINE
  5
2B11
  8
AM_0
 10
230.91838135536381
 20
634.57195759800265
 30
0.0
 11
220.91838135536389
 21
634.57195759800265
 31
0.0
  0
ARC
  5
2B12
  8
AM_0
 10
221.91838135536369
 20
646.07195759800265
 30
0.0
 40
1.0
 50
90.0
 51
180.0
1001
GENIUS_GENODEF_13
1002
{
1000
HIER
1070
     0
1002
}
1002
{
1000
MANEDIT
1070
     0
1002
}
1002
{
1000
NOSEL
1070
     0
1002
}
1002
{
1000
BEHIND
1070
     0
1002
}
1002
{
1000
OTHER
1070
     0
1002
}
1002
{
1000
REACTOR
1002
}
1001
GENIUS_GENOBJ-N-FIL_13
1002
{
1000
OWNER
1000
GEN
1002
}
  0
ARC
  5
2B13
  8
AM_0
 10
215.91838135536381
 20
642.64301778047366
 30
0.0
 40
5.0
 50
315.0
 51
0.0
1001
GENIUS_GENODEF_13
1002
{
1000
HIER
1070
     0
1002
}
1002
{
1000
MANEDIT
1070
     0
1002
}
1002
{
1000
NOSEL
1070
     0
1002
}
1002
{
1000
BEHIND
1070
     0
1002
}
1002
{
1000
OTHER
1070
     0
1002
}
1002
{
1000
REACTOR
1002
}
1001
GENIUS_GENOBJ-N-FIL_13
1002
{
1000
OWNER
1000
GEN
1002
}
  0
LINE
  5
2B14
  8
AM_0
 10
230.91838135536381
 20
647.07195759800265
 30
0.0
 11
221.91838135536369
 21
647.07195759800265
 31
0.0
  0
LINE
  5
2B16
  8
AM_0
 10
398.41841135536379
 20
588.07195759800265
 30
0.0
 11
443.4184113553635
 21
588.07195759800265
 31
0.0
  0
LINE
  5
2B17
  8
AM_0
 10
398.41841135536379
 20
578.07201759800273
 30
0.0
 11
443.4184113553635
 21
578.07201759800273
 31
0.0
  0
LINE
  5
2B18
  8
AM_0
 10
443.4184113553635
 20
567.07201759800273
 30
0.0
 11
385.41844135536371
 21
567.07201759800273
 31
0.0
  0
LINE
  5
2B19
  8
AM_0
 10
443.4184113553635
 20
599.07195759800265
 30
0.0
 11
385.41844135536371
 21
599.07195759800265
 31
0.0
  0
LINE
  5
2B1A
  8
ﾁｭｳｼﾝｾﾝ
 10
128.06242838049511
 20
583.07195759800265
 30
0.0
 11
451.33125135536358
 21
583.07195759800265
 31
0.0
  0
ARC
  5
2B1B
  8
AM_0
 10
398.41841135536379
 20
583.07195759800265
 30
0.0
 40
4.9999924
 50
90.000003000000945
 51
270.0
  0
LINE
  5
2B1C
  8
AM_0
 10
353.41844135536371
 20
513.86522759800255
 30
0.0
 11
353.41844135536371
 21
652.27873759800252
 31
0.0
  0
LINE
  5
2B1D
  8
AM_0
 10
398.41844135536383
 20
578.07201759800273
 30
0.0
 11
398.41844135536383
 21
588.07195759800265
 31
0.0
  0
LINE
  5
2B1E
  8
AM_0
 10
385.41844135536371
 20
565.57201759800273
 30
0.0
 11
385.41844135536371
 21
600.57201759800273
 31
0.0
  0
LINE
  5
2B1F
  8
AM_0
 10
381.41841135536379
 20
555.8040675980028
 30
0.0
 11
381.41841135536379
 21
583.07195759800265
 31
0.0
  0
LINE
  5
2B20
  8
AM_0
 10
230.91838135536381
 20
647.07195759800265
 30
0.0
 11
230.91838135536381
 21
519.07195759800265
 31
0.0
  0
LINE
  5
2B21
  8
AM_0
 10
258.41838135536381
 20
485.85259759800272
 30
0.0
 11
258.41838135536381
 21
680.29137759800267
 31
0.0
  0
LINE
  5
2B22
  8
AM_0
 10
243.41838135536381
 20
511.14305759800271
 30
0.0
 11
243.41838135536381
 21
655.00090759800253
 31
0.0
  0
LINE
  5
2B23
  8
AM_0
 10
374.41844135536371
 20
521.96861759800277
 30
0.0
 11
374.41844135536371
 21
644.17534759800265
 31
0.0
  0
LINE
  5
2B24
  8
AM_0
 10
268.41838135536381
 20
483.57198759800252
 30
0.0
 11
268.41838135536381
 21
682.57195759800265
 31
0.0
  0
LINE
  5
2B25
  8
AM_0
 10
274.41844135536383
 20
468.07195759800271
 30
0.0
 11
377.55800135536367
 21
471.6736675980024
 31
0.0
  0
CIRCLE
  5
2B26
  8
AM_0
 10
238.41838135536369
 20
488.07198759800252
 30
0.0
 40
7.5
  0
LINE
  5
2B27
  8
AM_0
 10
272.41838135536381
 20
483.57198759800252
 30
0.0
 11
272.41838135536381
 21
473.70348759800271
 31
0.0
  0
LINE
  5
2B28
  8
AM_0
 10
220.41838135536381
 20
500.53343759800248
 30
0.0
 11
220.41838135536381
 21
476.46169759800239
 31
0.0
  0
LINE
  5
2B29
  8
ﾁｭｳｼﾝｾﾝ1
 10
238.41838135536369
 20
501.57198759800241
 30
0.0
 11
238.41838135536369
 21
474.57198759800252
 31
0.0
  0
LINE
  5
2B2A
  8
AM_0
 10
259.67986135536358
 20
475.38436759800283
 30
0.0
 11
268.0698113553637
 21
474.65035759800247
 31
0.0
  0
LINE
  5
2B2B
  8
AM_0
 10
224.06975135536371
 20
472.4769275980027
 30
0.0
 11
274.41838135536381
 21
468.07198759800252
 31
0.0
  0
ARC
  5
2B2C
  8
AM_0
 10
224.41838135536381
 20
476.46169759800239
 30
0.0
 40
4.0
 50
180.00001000000091
 51
265.00001000000071
  0
ARC
  5
2B2D
  8
AM_0
 10
259.41838135536369
 20
472.39577759800278
 30
0.0
 40
3.0
 50
85.000004000001198
 51
265.00000000000028
  0
ARC
  5
2B2E
  8
AM_0
 10
267.41838135536369
 20
473.70348759800271
 30
0.0
 40
5.0
 50
265.00001000000071
 51
0.0000006832462478
  0
ARC
  5
2B2F
  8
AM_0
 10
268.41838135536381
 20
478.63512759800273
 30
0.0
 40
4.0
 50
265.00001000000071
 51
0.0000006832462478
  0
LINE
  5
2B30
  8
AM_0
 10
268.41838135536381
 20
552.79555759800235
 30
0.0
 11
258.41838135536381
 21
552.79555759800235
 31
0.0
  0
LINE
  5
2B31
  8
AM_0
 10
268.41838135536381
 20
505.65520759800239
 30
0.0
 11
258.41838135536381
 21
505.65520759800239
 31
0.0
  0
LINE
  5
2B32
  8
AM_0
 10
268.41838135536381
 20
488.28179759800241
 30
0.0
 11
258.41838135536381
 21
488.28179759800241
 31
0.0
  0
LINE
  5
2B33
  8
AM_0
 10
260.34856135536381
 20
483.85381759800248
 30
0.0
 11
268.41838135536381
 21
483.57198759800252
 31
0.0
  0
LINE
  5
2B34
  8
AM_0
 10
230.9184413553638
 20
519.57192759800273
 30
0.0
 11
238.59294135536371
 21
519.30397759800235
 31
0.0
  0
LINE
  5
2B35
  8
AM_0
 10
230.91838135536381
 20
531.03197759800253
 30
0.0
 11
243.41838135536381
 21
531.03197759800253
 31
0.0
  0
LINE
  5
2B36
  8
ﾁｭｳｼﾝｾﾝ1
 10
224.91838135536381
 20
488.07198759800252
 30
0.0
 11
251.91838135536381
 21
488.07198759800252
 31
0.0
  0
LINE
  5
2B37
  8
AM_0
 10
223.3831613553636
 20
504.39714759800262
 30
0.0
 11
243.59831135536359
 21
509.8137775980025
 31
0.0
  0
ARC
  5
2B38
  8
AM_0
 10
224.41838135536381
 20
500.53343759800248
 30
0.0
 40
4.0
 50
105.00000000000161
 51
180.00001000000091
  0
LINE
  5
2B39
  8
AM_0
 10
244.8828613553637
 20
507.60753759800252
 30
0.0
 11
257.53972135536372
 21
494.95070759800251
 31
0.0
  0
ARC
  5
2B3A
  8
AM_0
 10
255.41838135536381
 20
492.82933759800238
 30
0.0
 40
3.0
 50
0.0
 51
44.999998000001611
  0
ARC
  5
2B3B
  8
AM_0
 10
260.41838135536381
 20
485.85259759800272
 30
0.0
 40
2.0
 50
179.9999899999988
 51
268.00000999999861
  0
ARC
  5
2B3C
  8
AM_0
 10
238.41838135536369
 20
514.30702759800283
 30
0.0
 40
5.0
 50
0.0
 51
87.999999999999659
  0
ARC
  5
2B3D
  8
AM_0
 10
248.41838135536381
 20
511.14305759800271
 30
0.0
 40
5.0
 50
179.9999899999988
 51
225.0
  0
LINE
  5
2B3E
  8
AM_0
 10
230.91838135536381
 20
545.92198759800283
 30
0.0
 11
243.41838135536381
 21
545.92198759800283
 31
0.0
  0
POLYLINE
  5
2B3F
  8
AM_0
 66
     1
 10
0.0
 20
0.0
 30
0.0
  0
VERTEX
  5
2B40
  8
AM_0
 10
268.41838135536381
 20
552.79555759800235
 30
0.0
 42
-0.070055462
  0
VERTEX
  5
2B41
  8
AM_0
 10
294.77905135536372
 20
532.59821759800275
 30
0.0
 42
-0.27110597
  0
VERTEX
  5
2B42
  8
AM_0
 10
303.41841135536362
 20
512.71486759800246
 30
0.0
 42
-0.2130317
  0
VERTEX
  5
2B43
  8
AM_0
 10
283.82795135536361
 20
494.58005759800238
 30
0.0
  0
VERTEX
  5
2B44
  8
AM_0
 10
268.41838135536381
 20
488.28179759800241
 30
0.0
 42
-1.0
  0
SEQEND
  5
2B45
  8
AM_0
  0
POLYLINE
  5
2B46
  8
AM_0
 66
     1
 10
0.0
 20
0.0
 30
0.0
  0
VERTEX
  5
2B47
  8
AM_0
 10
268.41838135536381
 20
505.65520759800239
 30
0.0
 42
0.040442845
  0
VERTEX
  5
2B48
  8
AM_0
 10
279.94657135536357
 20
505.87854759800251
 30
0.0
 42
0.04246989
  0
VERTEX
  5
2B49
  8
AM_0
 10
291.28028135536368
 20
507.99202759800272
 30
0.0
 42
0.022672802
  0
VERTEX
  5
2B4A
  8
AM_0
 10
296.76478135536382
 20
509.78297759800239
 30
0.0
  0
VERTEX
  5
2B4B
  8
AM_0
 10
302.07039135536371
 20
512.05183759800275
 30
0.0
 42
-1.0
  0
SEQEND
  5
2B4C
  8
AM_0
  0
LINE
  5
2B4D
  8
AM_0
 10
268.41838135536381
 20
483.57198759800252
 30
0.0
 11
272.41838135536381
 21
483.57198759800252
 31
0.0
  0
CIRCLE
  5
2B4E
  8
AM_0
 10
363.4184413553636
 20
488.07198759800252
 30
0.0
 40
7.5
  0
LINE
  5
2B4F
  8
AM_0
 10
333.41841135536367
 20
478.41655759800273
 30
0.0
 11
333.41841135536367
 21
493.85839759800263
 31
0.0
  0
LINE
  5
2B50
  8
AM_0
 10
381.41844135536371
 20
514.07198759800258
 30
0.0
 11
381.41844135536371
 21
475.6712575980024
 31
0.0
  0
LINE
  5
2B51
  8
ﾁｭｳｼﾝｾﾝ1
 10
363.4184413553636
 20
501.57198759800241
 30
0.0
 11
363.4184413553636
 21
474.57198759800252
 31
0.0
  0
ARC
  5
2B52
  8
AM_0
 10
377.41844135536371
 20
475.6712575980024
 30
0.0
 40
4.0
 50
272.0000000000004
 51
0.0
  0
ARC
  5
2B53
  8
AM_0
 10
341.41841135536367
 20
478.41655759800273
 30
0.0
 40
8.0
 50
180.00001000000091
 51
271.99999000000139
  0
ARC
  5
2B54
  8
AM_0
 10
377.41844135536371
 20
514.07198759800258
 30
0.0
 40
4.0
 50
0.0
 51
82.819247000000175
  0
LINE
  5
2B55
  8
AM_0
 10
375.91838135536369
 20
550.8965975980027
 30
0.0
 11
379.91838135536369
 21
553.20598759800225
 31
0.0
  0
ARC
  5
2B56
  8
AM_0
 10
345.41844135536371
 20
513.86522759800255
 30
0.0
 40
8.0
 50
271.49999999999932
 51
0.0
  0
ARC
  5
2B57
  8
AM_0
 10
345.41841135536362
 20
493.85839759800263
 30
0.0
 40
12.0
 50
91.500001000001546
 51
180.00001000000091
  0
LINE
  5
2B58
  8
AM_0
 10
345.62785135536387
 20
505.86800759800252
 30
0.0
 11
345.10426135536392
 21
505.85430759800249
 31
0.0
  0
LINE
  5
2B59
  8
ﾁｭｳｼﾝｾﾝ1
 10
349.91844135536371
 20
488.07198759800252
 30
0.0
 11
376.91844135536371
 21
488.07198759800252
 31
0.0
  0
LINE
  5
2B5A
  8
AM_0
 10
370.52312135536363
 20
517.96999759800246
 30
0.0
 11
360.6612413553637
 21
517.71175759800258
 31
0.0
  0
ARC
  5
2B5B
  8
AM_0
 10
360.8706513553638
 20
509.71446759800273
 30
0.0
 40
8.0
 50
91.500001000001546
 51
164.96419999999981
  0
ARC
  5
2B5C
  8
AM_0
 10
370.41844135536371
 20
521.96861759800277
 30
0.0
 40
4.0
 50
271.49999999999932
 51
0.0
  0
ARC
  5
2B5D
  8
AM_0
 10
378.41844135536371
 20
522.00923759800276
 30
0.0
 40
4.0
 50
180.00001000000091
 51
262.8192499999995
  0
ARC
  5
2B5E
  8
AM_0
 10
377.41844135536371
 20
548.29851759800283
 30
0.0
 40
3.0
 50
120.0000000000005
 51
180.00001000000091
  0
ARC
  5
2B5F
  8
AM_0
 10
378.41841135536362
 20
555.8040675980028
 30
0.0
 40
3.0
 50
300.00001000000083
 51
0.0
  0
LINE
  5
2B60
  8
AM_0
 10
385.41844135536371
 20
565.57201759800273
 30
0.0
 11
381.41841135536379
 21
565.57201759800273
 31
0.0
  0
LINE
  5
2B61
  8
AM_0
 10
274.41844135536383
 20
698.07201759800273
 30
0.0
 11
377.55803135536382
 21
694.47026759800247
 31
0.0
  0
CIRCLE
  5
2B62
  8
AM_0
 10
238.41838135536369
 20
678.07195759800265
 30
0.0
 40
7.5
  0
LINE
  5
2B63
  8
ﾁｭｳｼﾝｾﾝ1
 10
238.41838135536369
 20
664.57195759800265
 30
0.0
 11
238.41838135536369
 21
691.57195759800265
 31
0.0
  0
LINE
  5
2B64
  8
AM_0
 10
220.41838135536381
 20
665.61052759800282
 30
0.0
 11
220.41838135536381
 21
689.68224759800273
 31
0.0
  0
LINE
  5
2B65
  8
AM_0
 10
268.41838135536381
 20
677.86217759800275
 30
0.0
 11
258.41838135536381
 21
677.86217759800275
 31
0.0
  0
LINE
  5
2B66
  8
AM_0
 10
268.41838135536381
 20
660.48876759800282
 30
0.0
 11
258.41838135536381
 21
660.48876759800282
 31
0.0
  0
LINE
  5
2B67
  8
AM_0
 10
268.41838135536381
 20
613.34844759800251
 30
0.0
 11
258.41838135536381
 21
613.34844759800251
 31
0.0
  0
LINE
  5
2B68
  8
AM_0
 10
230.91838135536381
 20
620.22197759800281
 30
0.0
 11
243.41838135536381
 21
620.22197759800281
 31
0.0
  0
LINE
  5
2B69
  8
AM_0
 10
230.9184413553638
 20
646.57195759800265
 30
0.0
 11
238.5928813553638
 21
646.83995759800246
 31
0.0
  0
LINE
  5
2B6A
  8
AM_0
 10
230.91838135536381
 20
635.11199759800274
 30
0.0
 11
243.41838135536381
 21
635.11199759800274
 31
0.0
  0
LINE
  5
2B6B
  8
AM_0
 10
223.3831613553636
 20
661.74681759800274
 30
0.0
 11
243.59831135536359
 21
656.33019759800266
 31
0.0
  0
LINE
  5
2B6C
  8
ﾁｭｳｼﾝｾﾝ1
 10
224.91838135536381
 20
678.07195759800265
 30
0.0
 11
251.91838135536381
 21
678.07195759800265
 31
0.0
  0
ARC
  5
2B6D
  8
AM_0
 10
224.41838135536381
 20
665.61052759800282
 30
0.0
 40
4.0
 50
180.00001000000091
 51
254.99999000000091
  0
ARC
  5
2B6E
  8
AM_0
 10
238.41838135536369
 20
651.83696759800273
 30
0.0
 40
5.0
 50
272.0000000000004
 51
0.0
  0
LINE
  5
2B6F
  8
AM_0
 10
244.8828613553637
 20
658.53642759800243
 30
0.0
 11
257.53972135536372
 21
671.1932975980028
 31
0.0
  0
ARC
  5
2B70
  8
AM_0
 10
248.41838135536381
 20
655.00090759800253
 30
0.0
 40
5.0
 50
135.0
 51
180.00001000000091
  0
ARC
  5
2B71
  8
AM_0
 10
255.41838135536381
 20
673.31462759800274
 30
0.0
 40
3.0
 50
315.0
 51
0.0
  0
POLYLINE
  5
2B72
  8
AM_0
 66
     1
 10
0.0
 20
0.0
 30
0.0
  0
VERTEX
  5
2B73
  8
AM_0
 10
268.41838135536381
 20
613.34844759800251
 30
0.0
 42
0.070055443
  0
VERTEX
  5
2B74
  8
AM_0
 10
294.77905135536372
 20
633.54578759800245
 30
0.0
 42
0.27110593
  0
VERTEX
  5
2B75
  8
AM_0
 10
303.41841135536362
 20
653.42912759800265
 30
0.0
 42
0.21303199
  0
VERTEX
  5
2B76
  8
AM_0
 10
283.82795135536361
 20
671.56391759800283
 30
0.0
  0
VERTEX
  5
2B77
  8
AM_0
 10
268.41838135536381
 20
677.86217759800275
 30
0.0
 42
-1.0
  0
SEQEND
  5
2B78
  8
AM_0
  0
POLYLINE
  5
2B79
  8
AM_0
 66
     1
 10
0.0
 20
0.0
 30
0.0
  0
VERTEX
  5
2B7A
  8
AM_0
 10
268.41838135536381
 20
660.48876759800282
 30
0.0
 42
-0.040442832
  0
VERTEX
  5
2B7B
  8
AM_0
 10
279.94656135536371
 20
660.26541759800284
 30
0.0
 42
-0.042469875
  0
VERTEX
  5
2B7C
  8
AM_0
 10
291.28028135536368
 20
658.15193759800252
 30
0.0
 42
-0.022671837
  0
VERTEX
  5
2B7D
  8
AM_0
 10
296.76477135536362
 20
656.36099759800265
 30
0.0
  0
VERTEX
  5
2B7E
  8
AM_0
 10
302.07039135536371
 20
654.09216759800279
 30
0.0
 42
-1.0
  0
SEQEND
  5
2B7F
  8
AM_0
  0
LINE
  5
2B80
  8
AM_0
 10
260.34862135536372
 20
682.29021759800276
 30
0.0
 11
268.41838135536381
 21
682.57201759800273
 31
0.0
  0
LINE
  5
2B81
  8
AM_0
 10
259.67992135536372
 20
690.75963759800266
 30
0.0
 11
268.0698113553637
 21
691.49364759800244
 31
0.0
  0
LINE
  5
2B82
  8
AM_0
 10
224.0698113553637
 20
693.66710759800276
 30
0.0
 11
274.41844135536383
 21
698.07201759800273
 31
0.0
  0
ARC
  5
2B83
  8
AM_0
 10
224.41838135536381
 20
689.68224759800273
 30
0.0
 40
4.0
 50
95.00000199999856
 51
180.00001000000091
  0
ARC
  5
2B84
  8
AM_0
 10
259.41838135536369
 20
693.74822759800281
 30
0.0
 40
3.0
 50
95.00000199999856
 51
274.99999999999972
  0
ARC
  5
2B85
  8
AM_0
 10
260.41838135536381
 20
680.29137759800267
 30
0.0
 40
2.0
 50
91.999998000000545
 51
180.00001000000091
  0
ARC
  5
2B86
  8
AM_0
 10
268.41838135536381
 20
687.50884759800283
 30
0.0
 40
4.0
 50
0.0
 51
95.00000199999856
  0
LINE
  5
2B87
  8
AM_0
 10
272.41838135536381
 20
682.57195759800265
 30
0.0
 11
272.41838135536381
 21
692.44048759800251
 31
0.0
  0
LINE
  5
2B88
  8
AM_0
 10
268.41838135536381
 20
682.57195759800265
 30
0.0
 11
272.41838135536381
 21
682.57195759800265
 31
0.0
  0
ARC
  5
2B89
  8
AM_0
 10
267.41838135536369
 20
692.44048759800251
 30
0.0
 40
5.0
 50
0.0
 51
95.00000199999856
  0
CIRCLE
  5
2B8A
  8
AM_0
 10
363.4184413553636
 20
678.07195759800265
 30
0.0
 40
7.5
  0
LINE
  5
2B8B
  8
AM_0
 10
333.41841135536367
 20
672.28557759800265
 30
0.0
 11
333.41841135536367
 21
687.72740759800251
 31
0.0
  0
LINE
  5
2B8C
  8
ﾁｭｳｼﾝｾﾝ1
 10
363.4184413553636
 20
664.57195759800265
 30
0.0
 11
363.4184413553636
 21
691.57195759800265
 31
0.0
  0
LINE
  5
2B8D
  8
AM_0
 10
381.41844135536371
 20
652.07195759800265
 30
0.0
 11
381.41844135536371
 21
690.47270759800233
 31
0.0
  0
ARC
  5
2B8E
  8
AM_0
 10
377.41844135536371
 20
652.07195759800265
 30
0.0
 40
4.0
 50
277.18075000000027
 51
0.0
  0
LINE
  5
2B8F
  8
AM_0
 10
375.91841135536367
 20
615.24742759800267
 30
0.0
 11
379.91838135536369
 21
612.93804759800253
 31
0.0
  0
ARC
  5
2B90
  8
AM_0
 10
377.41844135536371
 20
617.84551759800274
 30
0.0
 40
3.0
 50
179.9999899999988
 51
240.00000999999969
  0
ARC
  5
2B91
  8
AM_0
 10
345.41844135536371
 20
652.27873759800252
 30
0.0
 40
8.0
 50
0.0
 51
88.499997000000747
  0
ARC
  5
2B92
  8
AM_0
 10
345.41841135536362
 20
672.28557759800265
 30
0.0
 40
12.0
 50
180.00001000000091
 51
268.5000000000004
  0
LINE
  5
2B93
  8
AM_0
 10
345.62782135536378
 20
660.27599759800273
 30
0.0
 11
345.10429135536378
 21
660.28966759800244
 31
0.0
  0
LINE
  5
2B94
  8
AM_0
 10
370.52312135536363
 20
648.1740075980025
 30
0.0
 11
360.6612413553637
 21
648.43224759800273
 31
0.0
  0
ARC
  5
2B95
  8
AM_0
 10
360.8706513553638
 20
656.42949759800251
 30
0.0
 40
8.0
 50
195.03580000000011
 51
268.5000000000004
  0
ARC
  5
2B96
  8
AM_0
 10
370.41844135536371
 20
644.17534759800265
 30
0.0
 40
4.0
 50
0.0
 51
88.499997000000747
  0
ARC
  5
2B97
  8
AM_0
 10
378.41844135536371
 20
644.13469759800273
 30
0.0
 40
4.0
 50
97.180758000000424
 51
180.00001000000091
  0
LINE
  5
2B98
  8
ﾁｭｳｼﾝｾﾝ1
 10
349.91844135536371
 20
678.07195759800265
 30
0.0
 11
376.91844135536371
 21
678.07195759800265
 31
0.0
  0
LINE
  5
2B99
  8
AM_0
 10
381.41841135536379
 20
583.07195759800265
 30
0.0
 11
381.41841135536379
 21
610.33995759800246
 31
0.0
  0
LINE
  5
2B9A
  8
AM_0
 10
385.41844135536371
 20
600.57201759800273
 30
0.0
 11
381.41841135536379
 21
600.57201759800273
 31
0.0
  0
ARC
  5
2B9B
  8
AM_0
 10
378.41841135536362
 20
610.33995759800246
 30
0.0
 40
3.0
 50
0.0
 51
60.000002000001302
  0
ARC
  5
2B9C
  8
AM_0
 10
377.41844135536371
 20
690.47270759800233
 30
0.0
 40
4.0
 50
0.0
 51
87.999999999999659
  0
ARC
  5
2B9D
  8
AM_0
 10
341.41841135536367
 20
687.72740759800251
 30
0.0
 40
8.0
 50
87.999999999999659
 51
180.00001000000091
  0
LINE
  5
2B9E
  8
AM_0
 10
443.4184113553635
 20
567.07201759800273
 30
0.0
 11
443.4184113553635
 21
599.07195759800265
 31
0.0
  0
TEXT
  5
2D81
  8
AM_0
 10
538.64882755853159
 20
571.78236631072718
 30
0.0
 40
15.0
  1
VX04-120G~VX04-200G
  0
ENDSEC
  0
EOF
