  0
SECTION
  2
HEADER
  9
$ACADVER
  1
AC1009
  9
$INSBASE
 10
0.0
 20
0.0
 30
0.0
  9
$EXTMIN
 10
265.74200038651679
 20
306.83475123827088
 30
-0.0000000000112498
  9
$EXTMAX
 10
1153.5021621175131
 20
1005.2392952517069
 30
0.0000000000002956
  9
$LIMMIN
 10
0.0
 20
0.0
  9
$LIMMAX
 10
1422.5
 20
925.0
  9
$ORTHOMODE
 70
     0
  9
$REGENMODE
 70
     1
  9
$FILLMODE
 70
     1
  9
$QTEXTMODE
 70
     0
  9
$MIRRTEXT
 70
     1
  9
$DRAGMODE
 70
     2
  9
$LTSCALE
 40
5.0
  9
$OSMODE
 70
   551
  9
$ATTMODE
 70
     1
  9
$TEXTSIZE
 40
2.5
  9
$TRACEWID
 40
1.0
  9
$TEXTSTYLE
  7
STANDARD
  9
$CLAYER
  8
AM_0
  9
$CELTYPE
  6
BYLAYER
  9
$CECOLOR
 62
   256
  9
$DIMSCALE
 40
1.0
  9
$DIMASZ
 40
2.5
  9
$DIMEXO
 40
1.0
  9
$DIMDLI
 40
8.0
  9
$DIMRND
 40
0.0
  9
$DIMDLE
 40
0.0
  9
$DIMEXE
 40
0.6
  9
$DIMTP
 40
0.1
  9
$DIMTM
 40
0.1
  9
$DIMTXT
 40
2.5
  9
$DIMCEN
 40
0.0
  9
$DIMTSZ
 40
0.0
  9
$DIMTOL
 70
     0
  9
$DIMLIM
 70
     0
  9
$DIMTIH
 70
     0
  9
$DIMTOH
 70
     0
  9
$DIMSE1
 70
     0
  9
$DIMSE2
 70
     0
  9
$DIMTAD
 70
     1
  9
$DIMZIN
 70
     8
  9
$DIMBLK
  1

  9
$DIMASO
 70
     1
  9
$DIMSHO
 70
     1
  9
$DIMPOST
  1

  9
$DIMAPOST
  1
"
  9
$DIMALT
 70
     0
  9
$DIMALTD
 70
     2
  9
$DIMALTF
 40
0.0393701
  9
$DIMLFAC
 40
1.0
  9
$DIMTOFL
 70
     1
  9
$DIMTVP
 40
0.0
  9
$DIMTIX
 70
     0
  9
$DIMSOXD
 70
     0
  9
$DIMSAH
 70
     0
  9
$DIMBLK1
  1

  9
$DIMBLK2
  1

  9
$DIMSTYLE
  2
AM_ISO
  9
$DIMCLRD
 70
   256
  9
$DIMCLRE
 70
   256
  9
$DIMCLRT
 70
     4
  9
$DIMTFAC
 40
0.71
  9
$DIMGAP
 40
0.8
  9
$LUNITS
 70
     2
  9
$LUPREC
 70
     2
  9
$SKETCHINC
 40
1.0
  9
$FILLETRAD
 40
25.0
  9
$AUNITS
 70
     0
  9
$AUPREC
 70
     0
  9
$MENU
  1
.
  9
$ELEVATION
 40
0.0
  9
$PELEVATION
 40
0.0
  9
$THICKNESS
 40
0.0
  9
$LIMCHECK
 70
     0
  9
$BLIPMODE
 70
     0
  9
$CHAMFERA
 40
10.0
  9
$CHAMFERB
 40
5.0
  9
$SKPOLY
 70
     0
  9
$TDCREATE
 40
2452066.4139136579
  9
$TDUPDATE
 40
2458541.4139853702
  9
$TDINDWG
 40
0.1571395486
  9
$TDUSRTIMER
 40
0.1571395255
  9
$USRTIMER
 70
     1
  9
$ANGBASE
 50
0.0
  9
$ANGDIR
 70
     0
  9
$PDMODE
 70
     0
  9
$PDSIZE
 40
0.0
  9
$PLINEWID
 40
0.0
  9
$COORDS
 70
     1
  9
$SPLFRAME
 70
     0
  9
$SPLINETYPE
 70
     6
  9
$SPLINESEGS
 70
     8
  9
$ATTDIA
 70
     1
  9
$ATTREQ
 70
     1
  9
$HANDLING
 70
     1
  9
$HANDSEED
  5
3033
  9
$SURFTAB1
 70
     6
  9
$SURFTAB2
 70
     6
  9
$SURFTYPE
 70
     6
  9
$SURFU
 70
     6
  9
$SURFV
 70
     6
  9
$UCSNAME
  2

  9
$UCSORG
 10
0.0
 20
0.0
 30
0.0
  9
$UCSXDIR
 10
1.0
 20
0.0
 30
0.0
  9
$UCSYDIR
 10
0.0
 20
1.0
 30
0.0
  9
$PUCSNAME
  2

  9
$PUCSORG
 10
0.0
 20
0.0
 30
0.0
  9
$PUCSXDIR
 10
1.0
 20
0.0
 30
0.0
  9
$PUCSYDIR
 10
0.0
 20
1.0
 30
0.0
  9
$USERI1
 70
     0
  9
$USERI2
 70
     0
  9
$USERI3
 70
     0
  9
$USERI4
 70
     0
  9
$USERI5
 70
     0
  9
$USERR1
 40
0.0
  9
$USERR2
 40
0.0
  9
$USERR3
 40
0.0
  9
$USERR4
 40
0.0
  9
$USERR5
 40
0.0
  9
$WORLDVIEW
 70
     1
  9
$SHADEDGE
 70
     3
  9
$SHADEDIF
 70
    70
  9
$TILEMODE
 70
     1
  9
$MAXACTVP
 70
    64
  9
$PLIMCHECK
 70
     0
  9
$PEXTMIN
 10
1.0000000000000000E+020
 20
1.0000000000000000E+020
 30
1.0000000000000000E+020
  9
$PEXTMAX
 10
-1.0000000000000000E+020
 20
-1.0000000000000000E+020
 30
-1.0000000000000000E+020
  9
$PLIMMIN
 10
0.0
 20
0.0
  9
$PLIMMAX
 10
420.0
 20
297.0
  9
$UNITMODE
 70
     0
  9
$VISRETAIN
 70
     1
  9
$PLINEGEN
 70
     0
  9
$PSLTSCALE
 70
     1
  0
ENDSEC
  0
SECTION
  2
TABLES
  0
TABLE
  2
VPORT
 70
     1
  0
VPORT
  2
*ACTIVE
 70
     0
 10
0.0
 20
0.0
 11
1.0
 21
1.0
 12
709.62208125201505
 22
656.03702324498875
 13
0.0
 23
0.0
 14
12.5
 24
12.5
 15
50.0
 25
50.0
 16
0.0
 26
0.0
 36
1.0
 17
0.0
 27
0.0
 37
0.0
 40
703.19908321718958
 41
1.7571592210767459
 42
50.0
 43
0.0
 44
0.0
 50
0.0
 51
0.0
 71
     0
 72
   100
 73
     1
 74
     3
 75
     0
 76
     0
 77
     0
 78
     0
  0
ENDTAB
  0
TABLE
  2
LTYPE
 70
    26
  0
LTYPE
  2
CONTINUOUS
 70
     0
  3
Solid line
 72
    65
 73
     0
 40
0.0
  0
LTYPE
  2
AM_ISO02W050
 70
     0
  3
__ __ __ __ __ __ __ __ __ __ __ __ __ __ __
 72
    65
 73
     2
 40
7.5
 49
6.0
 49
-1.5
  0
LTYPE
  2
AM_ISO08W050
 70
     0
  3
____ . ____ . ____ . ____ . ____ . ____ . ____
 72
    65
 73
     4
 40
18.0
 49
12.0
 49
-1.5
 49
3.0
 49
-1.5
  0
LTYPE
  2
AM_ISO09W050
 70
     0
  3
_____ . . _____ . . _____ . . ____ .. ____
 72
    65
 73
     6
 40
22.5
 49
12.0
 49
-1.5
 49
3.0
 49
-1.5
 49
3.0
 49
-1.5
  0
LTYPE
  2
AMCONSTR
 70
     0
  3
_______________________
 72
    65
 73
     2
 40
9999.0
 49
9999.0
 49
0.0
  0
LTYPE
  2
AM_ISO08W050X2
 70
     0
  3
__ . __ . __ . __ . __ . __
 72
    65
 73
     4
 40
9.0
 49
6.0
 49
-0.75
 49
1.5
 49
-0.75
  0
LTYPE
  2
AM_ISO02W050X2
 70
     0
  3
 _ _ _ _ _ _ _ _ _ _ _ _
 72
    65
 73
     2
 40
3.75
 49
3.0
 49
-0.75
  0
LTYPE
  2
AMZIGZAG
 70
     0
  3
/\/-/\/-/\/-/\/-/\/-/\/
 72
    65
 73
     2
 40
11.000099999999991
 49
0.0001
 49
-11.0
  0
LTYPE
  2
ACISOWELD
 70
     0
  3
_ _ _ _ _
 72
    65
 73
     2
 40
2.0
 49
2.0
 49
-1.0
  0
LTYPE
  2
ACISOTGB
 70
     0
  3
__ . . __ . .
 72
    65
 73
     6
 40
9.0
 49
4.0
 49
-1.0
 49
1.0
 49
-1.0
 49
1.0
 49
-1.0
  0
LTYPE
  2
ACISOTGL
 70
     0
  3
_ _ _ _ _
 72
    65
 73
     2
 40
3.0
 49
2.0
 49
-1.0
  0
LTYPE
  2
CENTER
 70
     0
  3
__ . __
 72
    65
 73
     4
 40
7.0
 49
4.0
 49
-1.0
 49
1.0
 49
-1.0
  0
LTYPE
  2
PHANTOM2
 70
     0
  3
Phantom (.5x) ___ _ _ ___ _ _ ___ _ _ ___ _ _
 72
    65
 73
     6
 40
31.75
 49
15.875
 49
-3.174999999999998
 49
3.174999999999998
 49
-3.174999999999998
 49
3.174999999999998
 49
-3.174999999999998
  0
LTYPE
  2
ACANSTGBM
 70
     0
  3
__ . . __ . .
 72
    65
 73
     6
 40
9.0
 49
4.0
 49
-1.0
 49
1.0
 49
-1.0
 49
1.0
 49
-1.0
  0
LTYPE
  2
ACANSTGLM
 70
     0
  3
_ _ _ _ _
 72
    65
 73
     2
 40
3.0
 49
2.0
 49
-1.0
  0
LTYPE
  2
GEN3B
 70
     0
  3
 - - - - -
 72
    65
 73
     2
 40
1.0
 49
0.5
 49
-0.5
  0
LTYPE
  2
GEN7A
 70
     0
  3
__ . __ . __
 72
    65
 73
     4
 40
7.375
 49
4.75
 49
-0.875
 49
0.875
 49
-0.875
  0
LTYPE
  2
ACJISTGB
 70
     0
  3
__ . . __ . .
 72
    65
 73
     6
 40
9.0
 49
4.0
 49
-1.0
 49
1.0
 49
-1.0
 49
1.0
 49
-1.0
  0
LTYPE
  2
ACJISTGL
 70
     0
  3
_ _ _ _ _
 72
    65
 73
     2
 40
3.0
 49
2.0
 49
-1.0
  0
LTYPE
  2
HIDDEN
 70
     0
  3
Hidden __ __ __ __ __ __ __ __ __ __ __ __ __ _
 72
    65
 73
     2
 40
0.375
 49
0.25
 49
-0.125
  0
LTYPE
  2
CENTER2
 70
     0
  3
Center (.5x) ___ _ ___ _ ___ _ ___ _ ___ _ ___
 72
    65
 73
     4
 40
1.125
 49
0.75
 49
-0.125
 49
0.125
 49
-0.125
  0
LTYPE
  2
HIDDEN2
 70
     0
  3
Hidden (.5x) _ _ _ _ _ _ _ _ _ _ _ _ _ _ _ _ _
 72
    65
 73
     2
 40
0.1875
 49
0.125
 49
-0.0625
  0
LTYPE
  2
AMZIGZAG2
 70
     0
  3
/\/-/\/-/\/-/\/-/\/-/\/
 72
    65
 73
     2
 40
0.4401
 49
0.0001
 49
-0.4400000000000002
  0
LTYPE
  2
ACANSTGB
 70
     0
  3
__ . . __ . .
 72
    65
 73
     6
 40
0.35433070866
 49
0.15748031496
 49
-0.03937007874
 49
0.03937007874
 49
-0.03937007874
 49
0.03937007874
 49
-0.03937007874
  0
LTYPE
  2
ACANSTGL
 70
     0
  3
_ _ _ _ _
 72
    65
 73
     2
 40
0.11811023622
 49
0.07874015748
 49
-0.03937007874
  0
ENDTAB
  0
TABLE
  2
LAYER
 70
     6
  0
LAYER
  2
0
 70
     0
 62
     7
  6
CONTINUOUS
  0
LAYER
  2
AM_0
 70
     0
 62
     7
  6
CONTINUOUS
  0
LAYER
  2
AM_5
 70
     0
 62
     2
  6
CONTINUOUS
  0
LAYER
  2
DEFPOINTS
 70
     0
 62
     7
  6
CONTINUOUS
  0
LAYER
  2
ｶｸﾚｾﾝ2
 70
     0
 62
     3
  6
GEN3B
  0
LAYER
  2
ﾁｭｳｼﾝｾﾝ1
 70
     0
 62
     1
  6
GEN7A
  0
ENDTAB
  0
TABLE
  2
STYLE
 70
     9
  0
STYLE
  2
STANDARD
 70
     0
 40
0.0
 41
0.8299999999999999
 50
0.0
 71
     0
 42
2.5
  3
txt.shx
  4
bigfont.shx
  0
STYLE
  2
ANNOTATIVE
 70
     0
 40
0.0
 41
1.0
 50
0.0
 71
     0
 42
0.2
  3
txt
  4

  0
STYLE
  2

 70
     1
 40
0.0
 41
1.0
 50
0.0
 71
     0
 42
2.5
  3
ltypeshp.shx
  4

  0
STYLE
  2
ACISOTS
 70
     0
 40
1.0
 41
1.0
 50
0.0
 71
     0
 42
2.5
  3
isocp.shx
  4
extfont.shx
  0
STYLE
  2
ACISOGDT
 70
     0
 40
0.0
 41
1.0
 50
0.0
 71
     0
 42
2.5
  3
amgdt.shx
  4

  0
STYLE
  2
ACANSTS
 70
     0
 40
1.0
 41
1.0
 50
0.0
 71
     0
 42
2.5
  3
romans.shx
  4
bigfont.shx
  0
STYLE
  2
ACANSGDT
 70
     0
 40
0.0
 41
1.0
 50
0.0
 71
     0
 42
2.5
  3
amgdt.shx
  4

  0
STYLE
  2
ACJISTS
 70
     0
 40
1.0
 41
1.0
 50
0.0
 71
     0
 42
2.5
  3
isocp.shx
  4
bigfont.shx
  0
STYLE
  2
ACJISGDT
 70
     0
 40
0.0
 41
1.0
 50
0.0
 71
     0
 42
2.5
  3
amgdt.shx
  4

  0
ENDTAB
  0
TABLE
  2
VIEW
 70
     6
  0
VIEW
  2
AM_VIEW1
 70
     0
 40
462.5
 10
416.07965009208078
 20
693.75
 41
832.15930018416213
 11
0.0
 21
0.0
 31
1.0
 12
0.0
 22
0.0
 32
0.0
 42
50.0
 43
0.0
 44
0.0
 50
0.0
 71
     0
  0
VIEW
  2
AM_VIEW2
 70
     0
 40
462.5
 10
1006.420349907918
 20
693.75
 41
832.15930018416213
 11
0.0
 21
0.0
 31
1.0
 12
0.0
 22
0.0
 32
0.0
 42
50.0
 43
0.0
 44
0.0
 50
0.0
 71
     0
  0
VIEW
  2
AM_VIEW3
 70
     0
 40
462.5
 10
416.07965009208078
 20
231.25
 41
832.15930018416213
 11
0.0
 21
0.0
 31
1.0
 12
0.0
 22
0.0
 32
0.0
 42
50.0
 43
0.0
 44
0.0
 50
0.0
 71
     0
  0
VIEW
  2
AM_VIEW4
 70
     0
 40
462.5
 10
1006.420349907918
 20
231.25
 41
832.15930018416213
 11
0.0
 21
0.0
 31
1.0
 12
0.0
 22
0.0
 32
0.0
 42
50.0
 43
0.0
 44
0.0
 50
0.0
 71
     0
  0
VIEW
  2
AM_VIEW5
 70
     0
 40
462.5
 10
711.24999999999966
 20
462.5
 41
832.15930018416179
 11
0.0
 21
0.0
 31
1.0
 12
0.0
 22
0.0
 32
0.0
 42
50.0
 43
0.0
 44
0.0
 50
0.0
 71
     0
  0
VIEW
  2
AM_VIEW6
 70
     0
 40
924.99075000000005
 10
711.24999999999966
 20
462.5
 41
1664.3019571823199
 11
0.0
 21
0.0
 31
1.0
 12
0.0
 22
0.0
 32
0.0
 42
50.0
 43
0.0
 44
0.0
 50
0.0
 71
     0
  0
ENDTAB
  0
TABLE
  2
UCS
 70
     0
  0
ENDTAB
  0
TABLE
  2
APPID
 70
    95
  0
APPID
  2
ACAD
 70
     0
  0
APPID
  2
ACADANNOTATIVE
 70
     0
  0
APPID
  2
MCAD_NO_VIS
 70
     0
  0
APPID
  2
ACAD_TEMP_GRAPHIC
 70
     0
  0
APPID
  2
ACATTRIBSERVICES
 70
     0
  0
APPID
  2
GENIUS_GENREC_14
 70
     0
  0
APPID
  2
GENIUS_GENOBJ-N-REC_13
 70
     0
  0
APPID
  2
GENIUS_GENODEF_13
 70
     0
  0
APPID
  2
GENIUS_GENOLIS_13
 70
     0
  0
APPID
  2
GENIUS_GENOBJ-N-TIT_13
 70
     0
  0
APPID
  2
GENIUS_GENOENT_13
 70
     0
  0
APPID
  2
GENIUS_GENTITLE_13
 70
     0
  0
APPID
  2
GENIUS_GENOREF_13
 70
     0
  0
APPID
  2
GENIUS_GENSCREG_15
 70
     0
  0
APPID
  2
GENIUS_GENOBJ-N-SDF_13
 70
     0
  0
APPID
  2
GENIUS_GENFIL_13
 70
     0
  0
APPID
  2
GENIUS_GENOBJ-N-CHA_13
 70
     0
  0
APPID
  2
GENIUS_GENDTOL_13
 70
     0
  0
APPID
  2
GENIUS_GENOBJ-N-FIL_13
 70
     0
  0
APPID
  2
AD_DRAW
 70
     0
  0
APPID
  2
DESIGNERASSEMBLIES
 70
     0
  0
APPID
  2
ASURF_PCURVE_APPNAME
 70
     0
  0
APPID
  2
GENIUS_GE3SECT_13
 70
     0
  0
APPID
  2
GENIUS_GENCFG_13
 70
     0
  0
APPID
  2
GENIUS_GE3CFG0_13
 70
     0
  0
APPID
  2
GENIUS_GENCFG0_13
 70
     0
  0
APPID
  2
GENIUS_GENCFG1_13
 70
     0
  0
APPID
  2
GENIUS_GENCFG2_13
 70
     0
  0
APPID
  2
GENIUS_GENCFG3_13
 70
     0
  0
APPID
  2
GENIUS_GENCFG4_13
 70
     0
  0
APPID
  2
GENIUS_GEVCFG0_13
 70
     0
  0
APPID
  2
GENIUS_GENHINW_13
 70
     0
  0
APPID
  2
GENIUS_FIRSTVISTXT_14
 70
     0
  0
APPID
  2
GENIUS_GENOBJ-N-LEADER_13
 70
     0
  0
APPID
  2
GEV_VCCNULL_SWITCH_OFF
 70
     0
  0
APPID
  2
GENIUS_GEFCFG0_13
 70
     0
  0
APPID
  2
GENIUS_GENZVEED_13
 70
     0
  0
APPID
  2
GENIUS_GENSCREG_13
 70
     0
  0
APPID
  2
GENIUS_DUMCFG0_13
 70
     0
  0
APPID
  2
GEVID936201362
 70
     0
  0
APPID
  2
GEVDC
 70
     0
  0
APPID
  2
GEVCON
 70
     0
  0
APPID
  2
VCC
 70
     0
  0
APPID
  2
GEVPT
 70
     0
  0
APPID
  2
GEVIT
 70
     0
  0
APPID
  2
GENBH
 70
     0
  0
APPID
  2
GEVMK
 70
     0
  0
APPID
  2
GENIUS_GENBH_13
 70
     0
  0
APPID
  2
GENIUS_GENOBJ-NBEHI-BHF_13
 70
     0
  0
APPID
  2
GENIUS_GENOBJ-NBEHI-BHB_13
 70
     0
  0
APPID
  2
GENIUS_GENOBJ-F-DESC_13
 70
     0
  0
APPID
  2
GENIUS_GEFDESC_14
 70
     0
  0
APPID
  2
GENIUS_GENOBJ-F-PART_13
 70
     0
  0
APPID
  2
GENIUS_GEFSTDP_13
 70
     0
  0
APPID
  2
GENIUS_GEFPARTINS_13
 70
     0
  0
APPID
  2
GENIUS_GENTRA_14
 70
     0
  0
APPID
  2
GENIUS_GENINF13_13
 70
     0
  0
APPID
  2
GENIUS_GENOBJ-N-INFOPT_13
 70
     0
  0
APPID
  2
GENIUS_GENOBJ-N-RSSYM_13
 70
     0
  0
APPID
  2
GENIUS_GENSYMENT_13
 70
     0
  0
APPID
  2
GENIUS_GENSCSYM_13
 70
     0
  0
APPID
  2
GENIUS_GEFINFNAM_13
 70
     0
  0
APPID
  2
GENIUS_GENOBJ-N-CEN_13
 70
     0
  0
APPID
  2
GENIUS_GENOBJ-N-CRS_13
 70
     0
  0
APPID
  2
GENIUS_GENOBJ-N-CRC_13
 70
     0
  0
APPID
  2
GENIUS_GENCRC_14
 70
     0
  0
APPID
  2
GEVID942827039
 70
     0
  0
APPID
  2
GEVID942827040
 70
     0
  0
APPID
  2
GEVID942827041
 70
     0
  0
APPID
  2
GENIUS_GENOBJ-F-SCPASSM_13
 70
     0
  0
APPID
  2
GENIUS_GENDIMSH_14
 70
     0
  0
APPID
  2
GEVID942827042
 70
     0
  0
APPID
  2
GEVID946020473
 70
     0
  0
APPID
  2
GEVID946020474
 70
     0
  0
APPID
  2
GEVID946020475
 70
     0
  0
APPID
  2
GENIUS_GENOBJ-N-HTC_13
 70
     0
  0
APPID
  2
GENIUS_GENHATCH_13
 70
     0
  0
APPID
  2
GEVID948854295
 70
     0
  0
APPID
  2
GEVID939402019
 70
     0
  0
APPID
  2
GEVID952919491
 70
     0
  0
APPID
  2
GEVID952919492
 70
     0
  0
APPID
  2
GENIUS_GEFWELD_13
 70
     0
  0
APPID
  2
GENIUS_GENOBJ-F-WELS_13
 70
     0
  0
APPID
  2
GEVID952919493
 70
     0
  0
APPID
  2
GENIUS_GENOBJ-N-RSBK_13
 70
     0
  0
APPID
  2
GENIUS_GENOBJ-N-LIB_13
 70
     0
  0
APPID
  2
GENIUS_GENSCALE_13
 70
     0
  0
APPID
  2
GEVID986376691
 70
     0
  0
APPID
  2
DCO15
 70
     0
  0
APPID
  2
ACAD_DSTYLE_DIMBREAK
 70
     0
  0
APPID
  2
ACAD_DSTYLE_DIMJAG
 70
     0
  0
APPID
  2
ACAD_NAV_VCDISPLAY
 70
     0
  0
APPID
  2
ACADANNOPO
 70
     0
  0
APPID
  2
ACAD_EXEMPT_FROM_CAD_STANDARDS
 70
     0
  0
APPID
  2
ACAD_MLEADERVER
 70
     0
  0
ENDTAB
  0
TABLE
  2
DIMSTYLE
 70
    22
  0
DIMSTYLE
  2
STANDARD
 70
     0
  3

  4

  5

  6

  7

 40
1.0
 41
0.18
 42
0.0625
 43
0.38
 44
0.18
 45
0.0
 46
0.0
 47
0.0
 48
0.0
140
0.18
141
0.09
142
0.0
143
25.399999999999999
144
1.0
145
0.0
146
1.0
147
0.09
 71
     0
 72
     0
 73
     1
 74
     1
 75
     0
 76
     0
 77
     0
 78
     0
170
     0
171
     2
172
     0
173
     0
174
     0
175
     0
176
     0
177
     0
178
     0
  0
DIMSTYLE
  2
ANNOTATIVE
 70
     0
  3

  4

  5

  6

  7

 40
1.0
 41
0.18
 42
0.0625
 43
0.38
 44
0.18
 45
0.0
 46
0.0
 47
0.0
 48
0.0
140
0.18
141
0.09
142
0.0
143
25.399999999999999
144
1.0
145
0.0
146
1.0
147
0.09
 71
     0
 72
     0
 73
     1
 74
     1
 75
     0
 76
     0
 77
     0
 78
     0
170
     0
171
     2
172
     0
173
     0
174
     0
175
     0
176
     0
177
     0
178
     0
  0
DIMSTYLE
  2
AM_ISO
 70
     0
  3

  4
"
  5

  6

  7

 40
1.0
 41
2.5
 42
1.0
 43
8.0
 44
0.6
 45
0.0
 46
0.0
 47
0.1
 48
0.1
140
2.5
141
0.0
142
0.0
143
0.0393701
144
1.0
145
0.0
146
0.71
147
0.8
 71
     0
 72
     0
 73
     0
 74
     0
 75
     0
 76
     0
 77
     1
 78
     8
170
     0
171
     2
172
     1
173
     0
174
     0
175
     0
176
   256
177
   256
178
     4
  0
DIMSTYLE
  2
AM_ISO$3
 70
     0
  3

  4
"
  5

  6

  7

 40
1.0
 41
2.5
 42
1.0
 43
8.0
 44
0.6
 45
0.0
 46
0.0
 47
0.1
 48
0.1
140
2.5
141
0.0
142
0.0
143
0.0393701
144
1.0
145
0.0
146
0.71
147
0.8
 71
     0
 72
     0
 73
     0
 74
     1
 75
     0
 76
     0
 77
     1
 78
     8
170
     0
171
     2
172
     0
173
     0
174
     0
175
     0
176
   256
177
   256
178
     4
  0
DIMSTYLE
  2
AM_ISO$4
 70
     0
  3

  4
"
  5

  6

  7

 40
1.0
 41
2.5
 42
1.0
 43
8.0
 44
0.6
 45
0.0
 46
0.0
 47
0.1
 48
0.1
140
2.5
141
0.0
142
0.0
143
0.0393701
144
1.0
145
0.0
146
0.71
147
0.8
 71
     0
 72
     0
 73
     0
 74
     1
 75
     0
 76
     0
 77
     1
 78
     8
170
     0
171
     2
172
     0
173
     0
174
     0
175
     0
176
   256
177
   256
178
     4
  0
DIMSTYLE
  2
AM_ISO$6
 70
     0
  3

  4
"
  5

  6

  7

 40
1.0
 41
2.5
 42
1.0
 43
8.0
 44
0.6
 45
0.0
 46
0.0
 47
0.1
 48
0.1
140
2.5
141
0.0
142
0.0
143
0.0393701
144
1.0
145
0.0
146
0.71
147
0.8
 71
     0
 72
     0
 73
     0
 74
     0
 75
     0
 76
     0
 77
     0
 78
     8
170
     0
171
     2
172
     1
173
     0
174
     0
175
     0
176
   256
177
   256
178
     4
  0
DIMSTYLE
  2
AM_ISO$7
 70
     0
  3

  4
"
  5

  6

  7

 40
1.0
 41
2.5
 42
1.0
 43
8.0
 44
0.6
 45
0.0
 46
0.0
 47
0.1
 48
0.1
140
2.5
141
0.0
142
0.0
143
0.0393701
144
1.0
145
0.0
146
0.71
147
0.8
 71
     0
 72
     0
 73
     0
 74
     0
 75
     0
 76
     0
 77
     1
 78
     8
170
     0
171
     2
172
     1
173
     0
174
     0
175
     0
176
   256
177
   256
178
     4
  0
DIMSTYLE
  2
AM_ISO$SF
 70
     0
  3

  4
"
  5

  6

  7

 40
1.0
 41
2.5
 42
1.0
 43
10.0
 44
1.0
 45
0.0
 46
0.0
 47
0.1
 48
0.1
140
3.5
141
0.0
142
0.0
143
0.0393701
144
1.0
145
0.0
146
0.71
147
1.5
 71
     0
 72
     0
 73
     0
 74
     0
 75
     1
 76
     1
 77
     1
 78
     8
170
     0
171
     2
172
     1
173
     0
174
     0
175
     0
176
   256
177
   256
178
     2
  0
DIMSTYLE
  2
AM_ISO$SH
 70
     0
  3

  4
"
  5

  6

  7

 40
1.0
 41
2.5
 42
1.0
 43
10.0
 44
1.0
 45
0.0
 46
0.0
 47
0.1
 48
0.1
140
3.5
141
0.0
142
0.0
143
0.0393701
144
2.0
145
0.0
146
0.71
147
1.5
 71
     0
 72
     0
 73
     0
 74
     0
 75
     1
 76
     1
 77
     1
 78
     8
170
     0
171
     2
172
     1
173
     1
174
     0
175
     0
176
   256
177
   256
178
     2
  0
DIMSTYLE
  2
AM_JIS
 70
     0
  3

  4
"
  5

  6

  7

 40
1.0
 41
2.5
 42
1.0
 43
7.0
 44
1.0
 45
0.0
 46
0.0
 47
0.1
 48
0.1000000001
140
2.5
141
0.0
142
0.0
143
0.0393701
144
1.0
145
0.0
146
0.71
147
1.0
 71
     0
 72
     0
 73
     0
 74
     0
 75
     0
 76
     0
 77
     3
 78
     8
170
     0
171
     2
172
     1
173
     0
174
     0
175
     0
176
   256
177
   256
178
     4
  0
DIMSTYLE
  2
AM_JIS$3
 70
     0
  3

  4
"
  5

  6

  7

 40
1.0
 41
2.5
 42
1.0
 43
7.0
 44
1.0
 45
0.0
 46
0.0
 47
0.1
 48
0.1000000001
140
2.5
141
0.0
142
0.0
143
0.0393701
144
1.0
145
0.0
146
0.71
147
1.0
 71
     0
 72
     0
 73
     0
 74
     1
 75
     0
 76
     0
 77
     3
 78
     8
170
     0
171
     2
172
     0
173
     0
174
     0
175
     0
176
   256
177
   256
178
     4
  0
DIMSTYLE
  2
AM_JIS$4
 70
     0
  3

  4
"
  5

  6

  7

 40
1.0
 41
2.5
 42
1.0
 43
7.0
 44
1.0
 45
0.0
 46
0.0
 47
0.1
 48
0.1000000001
140
2.5
141
0.0
142
0.0
143
0.0393701
144
1.0
145
0.0
146
0.71
147
1.0
 71
     0
 72
     0
 73
     0
 74
     0
 75
     0
 76
     0
 77
     3
 78
     8
170
     0
171
     2
172
     0
173
     0
174
     0
175
     0
176
   256
177
   256
178
     4
  0
DIMSTYLE
  2
AM_JIS$6
 70
     0
  3

  4
"
  5

  6

  7

 40
1.0
 41
2.5
 42
1.0
 43
7.0
 44
1.0
 45
0.0
 46
0.0
 47
0.1
 48
0.1000000001
140
2.5
141
0.0
142
0.0
143
0.0393701
144
1.0
145
0.0
146
0.71
147
1.0
 71
     0
 72
     0
 73
     0
 74
     0
 75
     0
 76
     0
 77
     0
 78
     8
170
     0
171
     2
172
     1
173
     0
174
     0
175
     0
176
   256
177
   256
178
     4
  0
DIMSTYLE
  2
AM_JIS$7
 70
     0
  3

  4
"
  5

  6

  7

 40
1.0
 41
2.5
 42
1.0
 43
7.0
 44
1.0
 45
0.0
 46
0.0
 47
0.1
 48
0.1000000001
140
2.5
141
0.0
142
0.0
143
0.0393701
144
1.0
145
0.0
146
0.71
147
1.0
 71
     0
 72
     0
 73
     0
 74
     0
 75
     0
 76
     0
 77
     3
 78
     8
170
     0
171
     2
172
     1
173
     0
174
     0
175
     0
176
   256
177
   256
178
     4
  0
DIMSTYLE
  2
AM_JIS$SF
 70
     0
  3

  4
"
  5

  6

  7

 40
1.0
 41
2.5
 42
1.0
 43
10.0
 44
1.0
 45
0.0
 46
0.0
 47
0.1
 48
0.1
140
3.5
141
0.0
142
0.0
143
0.0393701
144
1.0
145
0.0
146
0.71
147
1.5
 71
     0
 72
     0
 73
     0
 74
     0
 75
     1
 76
     1
 77
     3
 78
     8
170
     0
171
     2
172
     1
173
     0
174
     0
175
     0
176
   256
177
   256
178
     4
  0
DIMSTYLE
  2
AM_JIS$SH
 70
     0
  3

  4
"
  5

  6

  7

 40
1.0
 41
2.5
 42
1.0
 43
10.0
 44
1.0
 45
0.0
 46
0.0
 47
0.1
 48
0.1
140
3.5
141
0.0
142
0.0
143
0.0393701
144
1.0
145
0.0
146
0.71
147
1.5
 71
     0
 72
     0
 73
     0
 74
     0
 75
     1
 76
     0
 77
     3
 78
     8
170
     0
171
     2
172
     1
173
     1
174
     0
175
     0
176
   256
177
   256
178
     4
  0
DIMSTYLE
  2
AM_ANSI
 70
     0
  3

  4
mm
  5

  6

  7

 40
1.0
 41
0.1
 42
0.05
 43
0.5
 44
0.1
 45
0.0
 46
0.0
 47
0.1
 48
0.1
140
0.12
141
0.0
142
0.0
143
25.399999999999999
144
1.0
145
0.0
146
0.71
147
0.06
 71
     0
 72
     0
 73
     1
 74
     1
 75
     0
 76
     0
 77
     0
 78
     7
170
     0
171
     2
172
     0
173
     0
174
     0
175
     0
176
   256
177
   256
178
     2
  0
DIMSTYLE
  2
AM_ANSI$3
 70
     0
  3

  4
mm
  5

  6

  7

 40
1.0
 41
0.1
 42
0.05
 43
0.5
 44
0.1
 45
0.0
 46
0.0
 47
0.1
 48
0.1
140
0.12
141
0.0
142
0.0
143
25.399999999999999
144
1.0
145
0.0
146
0.71
147
0.06
 71
     0
 72
     0
 73
     1
 74
     1
 75
     0
 76
     0
 77
     0
 78
     7
170
     0
171
     2
172
     0
173
     0
174
     0
175
     0
176
   256
177
   256
178
     2
  0
DIMSTYLE
  2
AM_ANSI$4
 70
     0
  3

  4
mm
  5

  6

  7

 40
1.0
 41
0.1
 42
0.05
 43
0.5
 44
0.1
 45
0.0
 46
0.0
 47
0.1
 48
0.1
140
0.12
141
0.0
142
0.0
143
25.399999999999999
144
1.0
145
0.0
146
0.71
147
0.06
 71
     0
 72
     0
 73
     1
 74
     1
 75
     0
 76
     0
 77
     0
 78
     7
170
     0
171
     2
172
     0
173
     0
174
     0
175
     0
176
   256
177
   256
178
     2
  0
DIMSTYLE
  2
AM_ANSI$7
 70
     0
  3

  4
mm
  5

  6

  7

 40
1.0
 41
0.1
 42
0.05
 43
0.5
 44
0.1
 45
0.0
 46
0.0
 47
0.1
 48
0.1
140
0.24
141
0.0
142
0.0
143
25.399999999999999
144
1.0
145
0.0
146
0.71
147
0.06
 71
     0
 72
     0
 73
     1
 74
     1
 75
     0
 76
     0
 77
     0
 78
     7
170
     0
171
     2
172
     0
173
     0
174
     0
175
     0
176
   256
177
   256
178
     2
  0
DIMSTYLE
  2
AM_ANSI$SF
 70
     0
  3

  4
mm
  5

  6

  7

 40
1.0
 41
0.1
 42
0.05
 43
0.5
 44
0.1
 45
0.0
 46
0.0
 47
0.1
 48
0.1
140
0.12
141
0.0
142
0.0
143
25.399999999999999
144
1.0
145
0.0
146
0.71
147
0.06
 71
     0
 72
     0
 73
     1
 74
     1
 75
     1
 76
     1
 77
     0
 78
     7
170
     0
171
     2
172
     0
173
     0
174
     0
175
     0
176
   256
177
   256
178
     2
  0
DIMSTYLE
  2
AM_ANSI$SH
 70
     0
  3

  4
mm
  5

  6

  7

 40
1.0
 41
0.1
 42
0.05
 43
0.5
 44
0.1
 45
0.0
 46
0.0
 47
0.1
 48
0.1
140
0.12
141
0.0
142
0.0
143
25.399999999999999
144
1.0
145
0.0
146
0.71
147
0.06
 71
     0
 72
     0
 73
     1
 74
     1
 75
     1
 76
     1
 77
     0
 78
     7
170
     0
171
     2
172
     0
173
     1
174
     0
175
     0
176
   256
177
   256
178
     2
  0
ENDTAB
  0
ENDSEC
  0
SECTION
  2
BLOCKS
  0
BLOCK
  8
0
  2
$MODEL_SPACE
 70
     0
 10
0.0
 20
0.0
 30
0.0
  3
$MODEL_SPACE
  1

  0
ENDBLK
  5
2EA7
  8
0
  0
BLOCK
 67
     1
  8
0
  2
$PAPER_SPACE
 70
     0
 10
0.0
 20
0.0
 30
0.0
  3
$PAPER_SPACE
  1

  0
ENDBLK
  5
2EA3
 67
     1
  8
0
  0
BLOCK
  8
0
  2
GENAXEH
 70
     0
 10
0.0
 20
0.0
 30
0.0
  3
GENAXEH
  1

  0
LINE
  5
2BCA
  8
0
 10
-1.0
 20
0.0
 30
0.0
 11
1.0
 21
0.0
 31
0.0
  0
ENDBLK
  5
2BCB
  8
0
  0
BLOCK
  8
0
  2
_OPEN30
 70
     0
 10
0.0
 20
0.0
 30
0.0
  3
_OPEN30
  1

  0
LINE
  5
2BCE
  8
0
 62
     0
 10
-1.0
 20
0.26794919
 30
0.0
 11
0.0
 21
0.0
 31
0.0
  0
LINE
  5
2BCF
  8
0
 62
     0
 10
0.0
 20
0.0
 30
0.0
 11
-1.0
 21
-0.26794919
 31
0.0
  0
LINE
  5
2BD0
  8
0
 62
     0
 10
0.0
 20
0.0
 30
0.0
 11
-1.0
 21
0.0
 31
0.0
  0
ENDBLK
  5
2BD1
  8
0
  0
BLOCK
  8
0
  2
_NONE
 70
     0
 10
0.0
 20
0.0
 30
0.0
  3
_NONE
  1

  0
ENDBLK
  5
2BD4
  8
0
  0
BLOCK
  8
0
  2
_ACMFILLEDHALF
 70
     0
 10
0.0
 20
0.0
 30
0.0
  3
_ACMFILLEDHALF
  1

  0
TRACE
  5
2F9D
  8
AM_0
 62
     0
 10
-0.8
 20
0.0
 30
0.0
 11
-1.0
 21
0.166666666
 31
0.0
 12
0.0
 22
0.0
 32
0.0
 13
0.0
 23
0.0
 33
0.0
  0
LINE
  5
2F9E
  8
AM_0
 62
     0
 10
-1.0
 20
0.0
 30
0.0
 11
-0.8
 21
0.0
 31
0.0
  0
ENDBLK
  5
2F9C
  8
0
  0
ENDSEC
  0
SECTION
  2
ENTITIES
  0
LINE
  5
2BD5
  8
ﾁｭｳｼﾝｾﾝ1
 10
490.4344444537308
 20
488.86377608545359
 30
0.0
 11
729.07534323006394
 21
488.86377608545359
 31
0.0
  0
LINE
  5
2BD6
  8
AM_0
 10
651.13094323006351
 20
509.86380608545369
 30
0.0
 11
721.13094323006362
 21
509.86380608545369
 31
0.0
  0
LINE
  5
2BD7
  8
AM_0
 10
651.13094323006351
 20
467.86377608545359
 30
0.0
 11
721.13094323006362
 21
467.86377608545359
 31
0.0
  0
LINE
  5
2BD8
  8
AM_0
 10
665.13094323006385
 20
512.86377608545365
 30
0.0
 11
721.13094323006362
 21
512.86377608545365
 31
0.0
  0
LINE
  5
2BD9
  8
AM_0
 10
356.16642713599663
 20
470.68930736199189
 30
0.0
 11
330.0598330475928
 21
444.58271327358841
 31
0.0
  0
LINE
  5
2BDA
  8
AM_0
 10
357.63089323006392
 20
477.65378108545372
 30
0.0
 11
357.63089323006392
 21
351.65378108545372
 31
0.0
  0
ARC
  5
2BDB
  8
AM_0
 10
447.36859323006382
 20
462.15378108545372
 30
0.0
 40
4.000000049999997
 50
315.0
 51
90.000003000000007
  0
LINE
  5
2BDC
  8
AM_0
 10
457.63094323006391
 20
379.94150108545369
 30
0.0
 11
457.63094323006391
 21
521.6101110854537
 31
0.0
  0
LINE
  5
2BDD
  8
AM_0
 10
467.63094323006362
 20
376.8638060854538
 30
0.0
 11
467.63094323006362
 21
524.86382108545365
 31
0.0
  0
LINE
  5
2BDE
  8
AM_0
 10
367.6308932300638
 20
350.65378108545372
 30
0.0
 11
367.6308932300638
 21
478.65378108545372
 31
0.0
  0
LINE
  5
2BDF
  8
AM_0
 10
516.13094323006374
 20
355.63797108545373
 30
0.0
 11
516.13094323006374
 21
578.47847108545375
 31
0.0
  0
LINE
  5
2BE0
  8
AM_0
 10
502.13099323006378
 20
339.41620108545362
 30
0.0
 11
502.13099323006378
 21
578.86377108545389
 31
0.0
  0
LINE
  5
2BE1
  8
AM_0
 10
647.13099323006384
 20
488.86377608545359
 30
0.0
 11
647.13099323006384
 21
455.10642108545369
 31
0.0
  0
LINE
  5
2BE2
  8
AM_0
 10
619.13094323006362
 20
392.46164108545372
 30
0.0
 11
619.13094323006362
 21
564.7091710854537
 31
0.0
  0
LINE
  5
2BE3
  8
AM_0
 10
641.13094323006362
 20
488.86377608545359
 30
0.0
 11
641.13094323006362
 21
342.60977608545369
 31
0.0
  0
LINE
  5
2BE4
  8
AM_0
 10
599.13094323006362
 20
523.0366210854537
 30
0.0
 11
599.13094323006362
 21
346.86380108545382
 31
0.0
  0
LINE
  5
2BE5
  8
AM_0
 10
548.63094323006374
 20
463.35159608545371
 30
0.0
 11
548.63094323006374
 21
436.23944608545372
 31
0.0
  0
LINE
  5
2BE6
  8
AM_0
 10
549.52759323006364
 20
471.35132108545372
 30
0.0
 11
561.66624323006386
 21
457.43793108545373
 31
0.0
  0
LINE
  5
2BE7
  8
AM_0
 10
529.13094323006374
 20
372.41217608545372
 30
0.0
 11
529.13094323006374
 21
580.86377108545366
 31
0.0
  0
LINE
  5
2BE8
  8
ﾁｭｳｼﾝｾﾝ1
 10
499.92332887797193
 20
414.65378108545372
 30
0.0
 11
265.8359280711702
 21
414.65378108545372
 31
0.0
  0
LINE
  5
2BE9
  8
AM_0
 10
457.63094323006391
 20
387.86377108545372
 30
0.0
 11
502.13099323006378
 21
387.86377108545372
 31
0.0
  0
LINE
  5
2BEA
  8
AM_0
 10
457.63094323006391
 20
412.04370608545372
 30
0.0
 11
502.13099323006378
 21
412.04370608545372
 31
0.0
  0
LINE
  5
2BEB
  8
AM_0
 10
475.36944323006378
 20
368.1241810854537
 30
0.0
 11
499.39239323006387
 21
366.02243608545371
 31
0.0
  0
LINE
  5
2BEC
  8
AM_0
 10
459.13094323006362
 20
338.86377108545378
 30
0.0
 11
499.20964323006382
 21
338.86377108545378
 31
0.0
  0
LINE
  5
2BED
  8
AM_0
 10
455.13094323006362
 20
313.86377108545378
 30
0.0
 11
647.13099323006384
 21
313.86377108545378
 31
0.0
  0
LINE
  5
2BEE
  8
ｶｸﾚｾﾝ2
 10
466.63094323006368
 20
338.86377108545378
 30
0.0
 11
466.63094323006368
 21
313.86377108545378
 31
0.0
  0
LINE
  5
2BEF
  8
ｶｸﾚｾﾝ2
 10
485.63094323006362
 20
338.86377108545378
 30
0.0
 11
485.63094323006362
 21
313.86377108545378
 31
0.0
  0
LINE
  5
2BF0
  8
ﾁｭｳｼﾝｾﾝ1
 10
476.13094323006351
 20
343.37167608545371
 30
0.0
 11
476.13094323006351
 21
308.97214108545381
 31
0.0
  0
LINE
  5
2BF1
  8
AM_0
 10
455.13094323006362
 20
334.8638010854537
 30
0.0
 11
455.13094323006362
 21
313.86377108545378
 31
0.0
  0
LINE
  5
2BF2
  8
AM_0
 10
367.63099323006372
 20
350.65375108545379
 30
0.0
 11
383.77054323006388
 21
351.21738108545372
 31
0.0
  0
LINE
  5
2BF3
  8
AM_0
 10
367.6308932300638
 20
452.65009108545371
 30
0.0
 11
443.52174323006358
 21
452.65009108545371
 31
0.0
  0
LINE
  5
2BF4
  8
AM_0
 10
367.6308932300638
 20
363.15378108545372
 30
0.0
 11
387.6308932300638
 21
363.15378108545372
 31
0.0
  0
LINE
  5
2BF5
  8
AM_0
 10
367.6308932300638
 20
376.65747608545371
 30
0.0
 11
387.6308932300638
 21
376.65747608545371
 31
0.0
  0
LINE
  5
2BF6
  8
AM_0
 10
302.1309053894114
 20
389.65378108545372
 30
0.0
 11
302.1309053894114
 21
439.65378108545372
 31
0.0
  0
LINE
  5
2BF7
  8
AM_0
 10
327.13090085945851
 20
441.65378108545372
 30
0.0
 11
327.13090085945851
 21
387.65378108545372
 31
0.0
  0
LINE
  5
2BF8
  8
AM_0
 10
304.1309053894114
 20
387.65378108545372
 30
0.0
 11
322.98876523572733
 21
387.65378108545372
 31
0.0
  0
ARC
  5
2BF9
  8
AM_0
 10
304.1309053894114
 20
389.65378108545372
 30
0.0
 40
2.0
 50
180.0
 51
270.0
1001
GENIUS_GENOBJ-N-FIL_13
1002
{
1000
OWNER
1000
GEN
1002
}
1001
GENIUS_GENODEF_13
1002
{
1000
HIER
1070
     0
1002
}
1002
{
1000
MANEDIT
1070
     0
1002
}
1002
{
1000
NOSEL
1070
     0
1002
}
1002
{
1000
BEHIND
1070
     0
1002
}
1002
{
1000
OTHER
1070
     0
1002
}
1002
{
1000
REACTOR
1002
}
  0
LINE
  5
2BFA
  8
AM_0
 10
367.63089323006392
 20
350.65378108545372
 30
0.0
 11
358.63089323006392
 21
350.65378108545372
 31
0.0
  0
ARC
  5
2BFB
  8
AM_0
 10
358.63089323006392
 20
351.65378108545372
 30
0.0
 40
1.0
 50
180.0
 51
270.0
1001
GENIUS_GENODEF_13
1002
{
1000
HIER
1070
     0
1002
}
1002
{
1000
MANEDIT
1070
     0
1002
}
1002
{
1000
NOSEL
1070
     0
1002
}
1002
{
1000
BEHIND
1070
     0
1002
}
1002
{
1000
OTHER
1070
     0
1002
}
1002
{
1000
REACTOR
1002
}
1001
GENIUS_GENOBJ-N-FIL_13
1002
{
1000
OWNER
1000
GEN
1002
}
  0
LINE
  5
2BFC
  8
AM_0
 10
356.16642713599663
 20
358.61825480891542
 30
0.0
 11
330.0598330475928
 21
384.7248488973193
 31
0.0
  0
ARC
  5
2BFD
  8
AM_0
 10
322.98876523572733
 20
377.65378108545372
 30
0.0
 40
10.0
 50
45.000000000004363
 51
90.0
1001
GENIUS_GENODEF_13
1002
{
1000
HIER
1070
     0
1002
}
1002
{
1000
MANEDIT
1070
     0
1002
}
1002
{
1000
NOSEL
1070
     0
1002
}
1002
{
1000
BEHIND
1070
     0
1002
}
1002
{
1000
OTHER
1070
     0
1002
}
1002
{
1000
REACTOR
1002
}
1001
GENIUS_GENOBJ-N-FIL_13
1002
{
1000
OWNER
1000
GEN
1002
}
  0
ARC
  5
2BFE
  8
AM_0
 10
352.63089323006398
 20
355.08272090298283
 30
0.0
 40
5.0
 50
0.0
 51
45.000000000004363
1001
GENIUS_GENODEF_13
1002
{
1000
HIER
1070
     0
1002
}
1002
{
1000
MANEDIT
1070
     0
1002
}
1002
{
1000
NOSEL
1070
     0
1002
}
1002
{
1000
BEHIND
1070
     0
1002
}
1002
{
1000
OTHER
1070
     0
1002
}
1002
{
1000
REACTOR
1002
}
1001
GENIUS_GENOBJ-N-FIL_13
1002
{
1000
OWNER
1000
GEN
1002
}
  0
LINE
  5
2BFF
  8
AM_0
 10
304.1309053894114
 20
441.65378108545372
 30
0.0
 11
322.98876523572733
 21
441.65378108545372
 31
0.0
  0
LINE
  5
2C00
  8
AM_0
 10
300.1309053894114
 20
431.73956752308038
 30
0.0
 11
300.1309053894114
 21
397.56799464782682
 31
0.0
  0
LINE
  5
2C01
  8
AM_0
 10
270.13090538941162
 20
422.6537810854536
 30
0.0
 11
298.13090538941151
 21
422.6537810854536
 31
0.0
  0
LINE
  5
2C02
  8
AM_0
 10
270.13090538941162
 20
406.65378108545372
 30
0.0
 11
298.13090538941151
 21
406.65378108545372
 31
0.0
  0
LINE
  5
2C03
  8
AM_0
 10
270.13090538941162
 20
424.65378108545372
 30
0.0
 11
270.13090538941162
 21
406.65378108545372
 31
0.0
  0
LINE
  5
2C04
  8
AM_0
 10
270.13090538941162
 20
424.65378108545372
 30
0.0
 11
292.13090538941151
 21
424.65378108545372
 31
0.0
  0
LINE
  5
2C05
  8
AM_0
 10
292.13090538941151
 20
422.6537810854536
 30
0.0
 11
292.13090538941151
 21
424.65378108545372
 31
0.0
  0
LINE
  5
2C06
  8
AM_0
 10
298.13090538941151
 20
423.15378108545372
 30
0.0
 11
298.13090538941151
 21
406.1537810854536
 31
0.0
  0
LINE
  5
2C07
  8
AM_0
 10
298.13090538941151
 20
406.15378641850373
 30
0.0
 11
300.1309053894114
 21
406.15378535189359
 31
0.0
  0
LINE
  5
2C08
  8
AM_0
 10
300.4237986082249
 20
396.86088786664033
 30
0.0
 11
301.83801217059789
 21
395.44667430426722
 31
0.0
  0
ARC
  5
2C09
  8
AM_0
 10
301.13090538941151
 20
394.73956752308078
 30
0.0
 40
1.0
 50
0.0
 51
45.000000000004363
1001
GENIUS_GENODEF_13
1002
{
1000
HIER
1070
     0
1002
}
1002
{
1000
MANEDIT
1070
     0
1002
}
1002
{
1000
NOSEL
1070
     0
1002
}
1002
{
1000
BEHIND
1070
     0
1002
}
1002
{
1000
OTHER
1070
     0
1002
}
1002
{
1000
REACTOR
1002
}
1001
GENIUS_GENOBJ-N-FIL_13
1002
{
1000
OWNER
1000
GEN
1002
}
  0
ARC
  5
2C0A
  8
AM_0
 10
301.13090538941151
 20
397.56799464782682
 30
0.0
 40
1.0
 50
180.0
 51
225.00000000000421
1001
GENIUS_GENODEF_13
1002
{
1000
HIER
1070
     0
1002
}
1002
{
1000
MANEDIT
1070
     0
1002
}
1002
{
1000
NOSEL
1070
     0
1002
}
1002
{
1000
BEHIND
1070
     0
1002
}
1002
{
1000
OTHER
1070
     0
1002
}
1002
{
1000
REACTOR
1002
}
1001
GENIUS_GENOBJ-N-FIL_13
1002
{
1000
OWNER
1000
GEN
1002
}
  0
LINE
  5
2C0B
  8
AM_0
 10
298.13090538941151
 20
423.15378108545372
 30
0.0
 11
300.1309053894114
 21
423.15378108545372
 31
0.0
  0
LINE
  5
2C0C
  8
AM_0
 10
300.4237986082249
 20
432.44667430426711
 30
0.0
 11
301.83801217059789
 21
433.86088786664038
 31
0.0
  0
ARC
  5
2C0D
  8
AM_0
 10
301.13090538941151
 20
431.73956752308038
 30
0.0
 40
1.0
 50
134.99999999999551
 51
180.0
1001
GENIUS_GENODEF_13
1002
{
1000
HIER
1070
     0
1002
}
1002
{
1000
MANEDIT
1070
     0
1002
}
1002
{
1000
NOSEL
1070
     0
1002
}
1002
{
1000
BEHIND
1070
     0
1002
}
1002
{
1000
OTHER
1070
     0
1002
}
1002
{
1000
REACTOR
1002
}
1001
GENIUS_GENOBJ-N-FIL_13
1002
{
1000
OWNER
1000
GEN
1002
}
  0
ARC
  5
2C0E
  8
AM_0
 10
301.13090538941151
 20
434.56799464782682
 30
0.0
 40
1.0
 50
314.99999999999562
 51
0.0
1001
GENIUS_GENODEF_13
1002
{
1000
HIER
1070
     0
1002
}
1002
{
1000
MANEDIT
1070
     0
1002
}
1002
{
1000
NOSEL
1070
     0
1002
}
1002
{
1000
BEHIND
1070
     0
1002
}
1002
{
1000
OTHER
1070
     0
1002
}
1002
{
1000
REACTOR
1002
}
1001
GENIUS_GENOBJ-N-FIL_13
1002
{
1000
OWNER
1000
GEN
1002
}
  0
ARC
  5
2C0F
  8
AM_0
 10
304.1309053894114
 20
439.65378108545372
 30
0.0
 40
2.0
 50
90.0
 51
180.0
1001
GENIUS_GENOBJ-N-FIL_13
1002
{
1000
OWNER
1000
GEN
1002
}
1001
GENIUS_GENODEF_13
1002
{
1000
HIER
1070
     0
1002
}
1002
{
1000
MANEDIT
1070
     0
1002
}
1002
{
1000
NOSEL
1070
     0
1002
}
1002
{
1000
BEHIND
1070
     0
1002
}
1002
{
1000
OTHER
1070
     0
1002
}
1002
{
1000
REACTOR
1002
}
  0
POINT
  5
2C10
  8
AM_0
 10
367.6308932300638
 20
414.65378108545372
 30
0.0
  0
ARC
  5
2C11
  8
AM_0
 10
322.98876523572733
 20
451.6537810854536
 30
0.0
 40
10.0
 50
270.0
 51
314.99999999999562
1001
GENIUS_GENODEF_13
1002
{
1000
HIER
1070
     0
1002
}
1002
{
1000
MANEDIT
1070
     0
1002
}
1002
{
1000
NOSEL
1070
     0
1002
}
1002
{
1000
BEHIND
1070
     0
1002
}
1002
{
1000
OTHER
1070
     0
1002
}
1002
{
1000
REACTOR
1002
}
1001
GENIUS_GENOBJ-N-FIL_13
1002
{
1000
OWNER
1000
GEN
1002
}
  0
LINE
  5
2C12
  8
AM_0
 10
387.6308932300638
 20
416.6568960854537
 30
0.0
 11
387.6308932300638
 21
355.21494108545369
 31
0.0
  0
LINE
  5
2C13
  8
AM_0
 10
392.805393230064
 20
383.61337608545358
 30
0.0
 11
454.63599323006389
 21
381.4541960854537
 31
0.0
  0
LINE
  5
2C14
  8
AM_0
 10
389.86219323006372
 20
356.05136608545371
 30
0.0
 11
456.98029323006392
 21
377.00980108545372
 31
0.0
  0
ARC
  5
2C15
  8
AM_0
 10
383.6308932300638
 20
355.21494108545369
 30
0.0
 40
4.000000049999997
 50
272.0
 51
0.0
  0
ARC
  5
2C16
  8
AM_0
 10
391.05444323006373
 20
352.23322108545381
 30
0.0
 40
4.000000049999997
 50
107.3416099999999
 51
158.11661000000001
  0
ARC
  5
2C17
  8
AM_0
 10
392.6308932300638
 20
378.61642608545372
 30
0.0
 40
5.0
 50
88.0
 51
180.00001
  0
ARC
  5
2C18
  8
AM_0
 10
459.13094323006362
 20
334.8638010854537
 30
0.0
 40
4.000000049999997
 50
90.000003000000007
 51
180.00001
  0
ARC
  5
2C19
  8
AM_0
 10
461.63094323006368
 20
381.07574608545372
 30
0.0
 40
4.000000049999997
 50
206.8969399999998
 51
268.0
  0
LINE
  5
2C1A
  8
AM_0
 10
458.31214323006378
 20
377.18921108545368
 30
0.0
 11
467.63099323006378
 21
376.86377108545372
 31
0.0
  0
ARC
  5
2C1B
  8
AM_0
 10
454.49639323006392
 20
377.45663608545368
 30
0.0
 40
4.000000049999997
 50
26.896937000000001
 51
88.0
  0
ARC
  5
2C1C
  8
AM_0
 10
458.17254323006398
 20
373.19162108545368
 30
0.0
 40
4.000000049999997
 50
88.0
 51
107.3416099999999
  0
LINE
  5
2C1D
  8
AM_0
 10
472.63094323006362
 20
371.1127660854537
 30
0.0
 11
472.63094323006362
 21
387.86377108545372
 31
0.0
  0
ARC
  5
2C1E
  8
AM_0
 10
475.63094323006362
 20
371.1127660854537
 30
0.0
 40
3.0000000500000001
 50
179.99998999999991
 51
265.0
  0
ARC
  5
2C1F
  8
AM_0
 10
469.63099323006361
 20
374.2921160854537
 30
0.0
 40
3.0000000500000001
 50
0.0
 51
88.0
  0
LINE
  5
2C20
  8
AM_0
 10
467.63084323006359
 20
377.36377108545372
 30
0.0
 11
469.73559323006373
 21
377.29028608545372
 31
0.0
  0
LINE
  5
2C21
  8
AM_0
 10
392.6308932300638
 20
421.65689608545358
 30
0.0
 11
457.63094323006391
 21
421.65689608545358
 31
0.0
  0
ARC
  5
2C22
  8
AM_0
 10
392.6308932300638
 20
416.6568960854537
 30
0.0
 40
5.0
 50
90.000003000000007
 51
180.00001
  0
LINE
  5
2C23
  8
AM_0
 10
443.52174323006358
 20
452.65009108545371
 30
0.0
 11
457.63094323006391
 21
425.46796108545368
 31
0.0
  0
LINE
  5
2C24
  8
AM_0
 10
443.52179323006391
 20
452.6500310854538
 30
0.0
 11
450.19709323006367
 21
459.32529108545373
 31
0.0
  0
LINE
  5
2C25
  8
ｶｸﾚｾﾝ2
 10
635.63094323006362
 20
338.86377108545378
 30
0.0
 11
635.63094323006362
 21
313.86377108545378
 31
0.0
  0
LINE
  5
2C26
  8
ｶｸﾚｾﾝ2
 10
616.63094323006362
 20
338.86377108545378
 30
0.0
 11
616.63094323006362
 21
313.86377108545378
 31
0.0
  0
LINE
  5
2C27
  8
ﾁｭｳｼﾝｾﾝ1
 10
626.13094323006385
 20
343.37167608545371
 30
0.0
 11
626.13094323006351
 21
308.97214108545381
 31
0.0
  0
LINE
  5
2C28
  8
AM_0
 10
647.13099323006384
 20
334.8638010854537
 30
0.0
 11
647.13099323006384
 21
313.86377108545378
 31
0.0
  0
ARC
  5
2C29
  8
AM_0
 10
607.13099323006384
 20
346.86380108545382
 30
0.0
 40
8.0
 50
180.00001
 51
270.0
  0
LINE
  5
2C2A
  8
AM_0
 10
534.13094323006374
 20
424.67569608545358
 30
0.0
 11
534.13094323006374
 21
378.86377108545372
 31
0.0
  0
LINE
  5
2C2B
  8
AM_0
 10
533.08299323006383
 20
377.51160108545372
 30
0.0
 11
505.53294323006372
 21
341.9632010854537
 31
0.0
  0
ARC
  5
2C2C
  8
AM_0
 10
499.20964323006382
 20
346.86380108545382
 30
0.0
 40
8.0
 50
270.0
 51
322.22431999999992
  0
ARC
  5
2C2D
  8
AM_0
 10
499.13094323006368
 20
363.0338760854537
 30
0.0
 40
3.0000000500000001
 50
0.0
 51
84.999996999999979
  0
ARC
  5
2C2E
  8
AM_0
 10
529.13094323006374
 20
380.57446608545371
 30
0.0
 40
5.0
 50
322.22431999999992
 51
0.0
  0
ARC
  5
2C2F
  8
AM_0
 10
541.13094323006374
 20
431.25345108545372
 30
0.0
 40
3.0000000500000001
 50
0.0
 51
90.000003000000007
  0
LINE
  5
2C30
  8
AM_0
 10
544.13094323006374
 20
431.25345108545372
 30
0.0
 11
544.13094323006374
 21
424.67569608545358
 31
0.0
  0
LINE
  5
2C31
  8
AM_0
 10
534.13094323006374
 20
424.67569608545358
 30
0.0
 11
544.13094323006374
 21
424.67569608545358
 31
0.0
  0
LINE
  5
2C32
  8
AM_0
 10
516.13094323006374
 20
435.85199608545372
 30
0.0
 11
529.13094323006374
 21
435.85199608545372
 31
0.0
  0
LINE
  5
2C33
  8
AM_0
 10
529.13094323006374
 20
434.25348108545359
 30
0.0
 11
541.13094323006374
 21
434.25348108545359
 31
0.0
  0
ARC
  5
2C34
  8
AM_0
 10
554.13094323006374
 20
450.86377608545359
 30
0.0
 40
10.0
 50
306.82303999999999
 51
41.102821999999989
  0
LINE
  5
2C35
  8
AM_0
 10
546.88859323006375
 20
432.94882608545367
 30
0.0
 11
560.12444323006378
 21
442.85880108545371
 31
0.0
  0
ARC
  5
2C36
  8
AM_0
 10
611.13094323006362
 20
392.46164108545372
 30
0.0
 40
8.0
 50
270.0
 51
0.0
  0
LINE
  5
2C37
  8
AM_0
 10
607.13099323006384
 20
338.86377108545378
 30
0.0
 11
643.13094323006362
 21
338.86377108545378
 31
0.0
  0
ARC
  5
2C38
  8
AM_0
 10
643.13094323006362
 20
334.8638010854537
 30
0.0
 40
4.000000049999997
 50
0.0
 51
90.000003000000007
  0
ARC
  5
2C39
  8
AM_0
 10
645.13094323006385
 20
342.60977608545369
 30
0.0
 40
4.000000049999997
 50
179.99998999999991
 51
255.52249
  0
LINE
  5
2C3A
  8
AM_0
 10
611.13094323006362
 20
384.46164108545372
 30
0.0
 11
602.61419323006362
 21
384.46164108545372
 31
0.0
  0
ARC
  5
2C3B
  8
AM_0
 10
644.13094323006362
 20
446.62116108545371
 30
0.0
 40
3.0000000500000001
 50
135.0
 51
180.00001
  0
ARC
  5
2C3C
  8
AM_0
 10
644.13094323006362
 20
455.10642108545369
 30
0.0
 40
3.0000000500000001
 50
315.0
 51
0.0
  0
LINE
  5
2C3D
  8
AM_0
 10
642.00969323006382
 20
448.74240608545392
 30
0.0
 11
646.25234323006362
 21
452.98505108545368
 31
0.0
  0
LINE
  5
2C3E
  8
AM_0
 10
457.63094323006391
 20
489.68390608545371
 30
0.0
 11
502.13099323006378
 21
489.68390608545371
 31
0.0
  0
LINE
  5
2C3F
  8
AM_0
 10
457.63094323006391
 20
513.86377608545365
 30
0.0
 11
502.13099323006378
 21
513.86377608545365
 31
0.0
  0
LINE
  5
2C40
  8
AM_0
 10
467.63094323006362
 20
524.36377108545355
 30
0.0
 11
497.3054432300637
 21
525.40002108545366
 31
0.0
  0
ARC
  5
2C41
  8
AM_0
 10
377.6308932300638
 20
484.00601608545372
 30
0.0
 40
5.0
 50
272.0
 51
0.0
  0
LINE
  5
2C42
  8
AM_0
 10
367.6308932300638
 20
466.15378108545372
 30
0.0
 11
447.36859323006382
 21
466.15378108545372
 31
0.0
  0
LINE
  5
2C43
  8
AM_0
 10
367.63089323006392
 20
478.65378108545372
 30
0.0
 11
358.63089323006392
 21
478.65378108545372
 31
0.0
  0
ARC
  5
2C44
  8
AM_0
 10
358.63089323006392
 20
477.65378108545372
 30
0.0
 40
1.0
 50
90.0
 51
180.0
1001
GENIUS_GENODEF_13
1002
{
1000
HIER
1070
     0
1002
}
1002
{
1000
MANEDIT
1070
     0
1002
}
1002
{
1000
NOSEL
1070
     0
1002
}
1002
{
1000
BEHIND
1070
     0
1002
}
1002
{
1000
OTHER
1070
     0
1002
}
1002
{
1000
REACTOR
1002
}
1001
GENIUS_GENOBJ-N-FIL_13
1002
{
1000
OWNER
1000
GEN
1002
}
  0
ARC
  5
2C45
  8
AM_0
 10
352.63089323006398
 20
474.22484126792477
 30
0.0
 40
5.0
 50
314.99999999999562
 51
0.0
1001
GENIUS_GENODEF_13
1002
{
1000
HIER
1070
     0
1002
}
1002
{
1000
MANEDIT
1070
     0
1002
}
1002
{
1000
NOSEL
1070
     0
1002
}
1002
{
1000
BEHIND
1070
     0
1002
}
1002
{
1000
OTHER
1070
     0
1002
}
1002
{
1000
REACTOR
1002
}
1001
GENIUS_GENOBJ-N-FIL_13
1002
{
1000
OWNER
1000
GEN
1002
}
  0
LINE
  5
2C46
  8
AM_0
 10
367.6308932300638
 20
478.65375108545368
 30
0.0
 11
377.805393230064
 21
479.0090710854538
 31
0.0
  0
LINE
  5
2C47
  8
AM_0
 10
385.5262932300638
 20
515.63315608545372
 30
0.0
 11
453.77049323006378
 21
518.0162710854537
 31
0.0
  0
LINE
  5
2C48
  8
AM_0
 10
387.4564932300637
 20
496.0322610854538
 30
0.0
 11
434.93779323006379
 21
497.69034108545372
 31
0.0
  0
LINE
  5
2C49
  8
AM_0
 10
382.63089323006369
 20
512.63498608545376
 30
0.0
 11
382.63089323006369
 21
469.1538160854538
 31
0.0
  0
ARC
  5
2C4A
  8
AM_0
 10
379.63099323006372
 20
469.1538160854538
 30
0.0
 40
3.0000000500000001
 50
270.0
 51
0.0
  0
ARC
  5
2C4B
  8
AM_0
 10
387.6308932300638
 20
491.0353160854537
 30
0.0
 40
5.0
 50
91.999997999999948
 51
180.00001
  0
ARC
  5
2C4C
  8
AM_0
 10
385.6308932300638
 20
512.63498608545376
 30
0.0
 40
3.0000000500000001
 50
91.999997999999948
 51
180.00001
  0
ARC
  5
2C4D
  8
AM_0
 10
434.7981932300637
 20
501.68793108545373
 30
0.0
 40
4.000000049999997
 50
272.0
 51
315.0
  0
LINE
  5
2C4E
  8
AM_0
 10
436.5124932300638
 20
497.74536608545361
 30
0.0
 11
436.5124932300638
 21
466.15378108545372
 31
0.0
  0
ARC
  5
2C4F
  8
AM_0
 10
461.51344323006379
 20
520.64771108545358
 30
0.0
 40
4.000000049999997
 50
91.999997999999948
 51
170.16762
  0
LINE
  5
2C50
  8
AM_0
 10
437.62664323006391
 20
498.85947108545361
 30
0.0
 11
456.45939323006371
 21
517.69217608545375
 31
0.0
  0
ARC
  5
2C51
  8
AM_0
 10
453.63094323006368
 20
522.01382108545374
 30
0.0
 40
4.000000049999997
 50
272.0
 51
350.16761000000002
  0
ARC
  5
2C52
  8
AM_0
 10
453.63094323006368
 20
520.52063608545359
 30
0.0
 40
4.000000049999997
 50
315.0
 51
0.0
  0
LINE
  5
2C53
  8
AM_0
 10
461.37384323006358
 20
524.64527108545371
 30
0.0
 11
467.63094323006362
 21
524.86377108545355
 31
0.0
  0
ARC
  5
2C54
  8
AM_0
 10
513.13094323006374
 20
601.36377108545366
 30
0.0
 40
20.500000499999992
 50
304.61363999999992
 51
235.38634999999999
  0
CIRCLE
  5
2C55
  8
AM_0
 10
513.13094323006374
 20
601.36377108545366
 30
0.0
 40
12.5
  0
ARC
  5
2C56
  8
AM_0
 10
609.13094323006362
 20
523.0366210854537
 30
0.0
 40
10.0
 50
90.000003000000007
 51
180.00001
  0
LINE
  5
2C57
  8
AM_0
 10
546.06114323006386
 20
574.9863210854536
 30
0.0
 11
611.41009323006381
 21
572.70427108545391
 31
0.0
  0
LINE
  5
2C58
  8
AM_0
 10
544.13094323006374
 20
468.8755560854537
 30
0.0
 11
544.13094323006374
 21
552.18807108545377
 31
0.0
  0
ARC
  5
2C59
  8
AM_0
 10
541.13094323006374
 20
468.8755560854537
 30
0.0
 40
3.0000000500000001
 50
270.0
 51
0.0
  0
LINE
  5
2C5A
  8
AM_0
 10
516.13094323006374
 20
465.8755560854537
 30
0.0
 11
529.13094323006374
 21
465.8755560854537
 31
0.0
  0
LINE
  5
2C5B
  8
AM_0
 10
529.13094323006374
 20
465.8755560854537
 30
0.0
 11
541.13094323006374
 21
465.8755560854537
 31
0.0
  0
ARC
  5
2C5C
  8
AM_0
 10
497.13099323006378
 20
530.39702108545373
 30
0.0
 40
5.0
 50
272.0
 51
0.0
  0
ARC
  5
2C5D
  8
AM_0
 10
547.26694323006382
 20
469.3790660854537
 30
0.0
 40
3.0000000500000001
 50
41.102821999999989
 51
90.000003000000007
  0
ARC
  5
2C5E
  8
AM_0
 10
546.13094323006374
 20
576.98512108545401
 30
0.0
 40
2.0000000500000001
 50
179.99998999999991
 51
268.00000999999992
  0
ARC
  5
2C5F
  8
AM_0
 10
541.13094323006374
 20
552.18807108545377
 30
0.0
 40
3.0000000500000001
 50
0.0
 51
90.000003000000007
  0
LINE
  5
2C60
  8
AM_0
 10
529.13094323006374
 20
573.44707108545356
 30
0.0
 11
547.82239323006388
 21
573.44707108545356
 31
0.0
  0
ARC
  5
2C61
  8
AM_0
 10
513.13094323006374
 20
572.49152108545366
 30
0.0
 40
3.0000000500000001
 50
280.0
 51
0.0
  0
LINE
  5
2C62
  8
AM_0
 10
516.13094323006374
 20
555.18807108545366
 30
0.0
 11
529.13094323006374
 21
555.18807108545366
 31
0.0
  0
ARC
  5
2C63
  8
AM_0
 10
505.13094323006362
 20
564.98837108545365
 30
0.0
 40
3.0000000500000001
 50
100.0
 51
180.00001
  0
LINE
  5
2C64
  8
AM_0
 10
504.60994323006361
 20
567.94277108545361
 30
0.0
 11
513.65179323006373
 21
569.53712108545369
 31
0.0
  0
LINE
  5
2C65
  8
AM_0
 10
529.13094323006374
 20
555.18807108545366
 30
0.0
 11
541.13094323006374
 21
555.18807108545366
 31
0.0
  0
ARC
  5
2C66
  8
AM_0
 10
518.13094323006374
 20
578.47847108545375
 30
0.0
 40
2.0000000500000001
 50
91.999997999999948
 51
180.00001
  0
LINE
  5
2C67
  8
AM_0
 10
513.13084323006365
 20
588.86382108545365
 30
0.0
 11
520.63429323006392
 21
587.47847108545375
 31
0.0
  0
LINE
  5
2C68
  8
AM_0
 10
505.31379323006382
 20
587.36382108545365
 30
0.0
 11
520.94799323006373
 21
587.36382108545365
 31
0.0
  0
LINE
  5
2C69
  8
AM_0
 10
502.80804323006379
 20
580.36382108545399
 30
0.0
 11
517.46364323006389
 21
580.36382108545399
 31
0.0
  0
LINE
  5
2C6A
  8
AM_0
 10
516.13094323006374
 20
573.44707108545356
 30
0.0
 11
529.13094323006374
 21
573.44707108545356
 31
0.0
  0
ARC
  5
2C6B
  8
AM_0
 10
499.21394323006359
 20
581.20027108545355
 30
0.0
 40
4.000000049999997
 50
347.92932999999999
 51
55.386358999999992
  0
ARC
  5
2C6C
  8
AM_0
 10
504.13094323006368
 20
578.86377108545389
 30
0.0
 40
2.0000000500000001
 50
131.4096199999999
 51
180.00001
  0
ARC
  5
2C6D
  8
AM_0
 10
505.80909323006381
 20
586.4950710854539
 30
0.0
 40
1.0
 50
100.4607199999999
 51
164.99999
  0
LINE
  5
2C6E
  8
AM_0
 10
505.62754323006391
 20
587.47852108545385
 30
0.0
 11
513.13099323006384
 21
588.86382108545365
 31
0.0
  0
LINE
  5
2C6F
  8
AM_0
 10
503.13094323006368
 20
580.36377108545366
 30
0.0
 11
504.84314323006367
 21
586.75392108545361
 31
0.0
  0
LINE
  5
2C70
  8
AM_0
 10
529.13094323006374
 20
580.86377108545366
 30
0.0
 11
542.20074323006384
 21
580.40737108545375
 31
0.0
  0
LINE
  5
2C71
  8
AM_0
 10
517.38689323006383
 20
572.10732108545369
 30
0.0
 11
544.13094323006374
 21
572.10732108545369
 31
0.0
  0
ARC
  5
2C72
  8
AM_0
 10
520.45284323006365
 20
586.4950710854539
 30
0.0
 40
1.0
 50
15.0
 51
79.539281000000003
  0
ARC
  5
2C73
  8
AM_0
 10
527.04784323006356
 20
581.20027108545355
 30
0.0
 40
4.000000049999997
 50
124.61365000000001
 51
187.86824999999999
  0
LINE
  5
2C74
  8
AM_0
 10
523.05379323006389
 20
580.65162108545348
 30
0.0
 11
521.4186932300637
 21
586.75387108545385
 31
0.0
  0
LINE
  5
2C75
  8
AM_0
 10
527.13099323006384
 20
580.79397108545368
 30
0.0
 11
527.13099323006384
 21
580.86382108545365
 31
0.0
  0
LINE
  5
2C76
  8
AM_0
 10
527.13099323006384
 20
580.86382108545365
 30
0.0
 11
529.13094323006374
 21
580.86382108545365
 31
0.0
  0
LINE
  5
2C77
  8
AM_0
 10
518.06114323006375
 20
580.47722108545395
 30
0.0
 11
529.13094323006374
 21
580.86377108545366
 31
0.0
  0
ARC
  5
2C78
  8
AM_0
 10
542.13099323006384
 20
578.40857108545367
 30
0.0
 40
2.0000000500000001
 50
0.0
 51
88.0
  0
LINE
  5
2C79
  8
AM_0
 10
544.13094323006374
 20
573.44707108545356
 30
0.0
 11
544.13094323006374
 21
578.40857108545367
 31
0.0
  0
LINE
  5
2C7A
  8
AM_0
 10
548.63094323006374
 20
550.33942108545375
 30
0.0
 11
548.63094323006374
 21
571.51262108545393
 31
0.0
  0
LINE
  5
2C7B
  8
AM_0
 10
549.3299432300638
 20
573.04077108545357
 30
0.0
 11
559.15599323006393
 21
567.32967108545358
 31
0.0
  0
ARC
  5
2C7C
  8
AM_0
 10
554.13094323006374
 20
558.68397108545355
 30
0.0
 40
10.0
 50
288.46821
 51
59.833878000000013
  0
ARC
  5
2C7D
  8
AM_0
 10
548.14324323006383
 20
549.30407108545376
 30
0.0
 40
3.0000000500000001
 50
270.0
 51
288.46821999999992
  0
LINE
  5
2C7E
  8
AM_0
 10
545.49739323006395
 20
545.25757108545395
 30
0.0
 11
557.29874323006379
 21
549.19897108545376
 31
0.0
  0
ARC
  5
2C7F
  8
AM_0
 10
547.82239323006388
 20
570.4470710854539
 30
0.0
 40
3.0000000500000001
 50
59.833878000000013
 51
90.000003000000007
  0
LINE
  5
2C80
  8
AM_0
 10
641.13094323006362
 20
488.86377608545359
 30
0.0
 11
641.13094323006362
 21
545.86377108545355
 31
0.0
  0
LINE
  5
2C81
  8
AM_0
 10
642.00964323006383
 20
534.98512108545356
 30
0.0
 11
646.25234323006362
 21
530.74242108545366
 31
0.0
  0
LINE
  5
2C82
  8
AM_0
 10
647.13099323006384
 20
488.86377608545359
 30
0.0
 11
647.13099323006384
 21
528.62117108545374
 31
0.0
  0
LINE
  5
2C83
  8
AM_0
 10
651.13094323006351
 20
466.36377608545371
 30
0.0
 11
651.13094323006351
 21
511.36377608545371
 31
0.0
  0
LINE
  5
2C84
  8
AM_0
 10
647.13099323006384
 20
466.36377608545371
 30
0.0
 11
651.13094323006351
 21
466.36377608545371
 31
0.0
  0
LINE
  5
2C85
  8
AM_0
 10
614.18919323006355
 20
533.0366210854537
 30
0.0
 11
609.13094323006362
 21
533.0366210854537
 31
0.0
  0
LINE
  5
2C86
  8
AM_0
 10
647.13099323006384
 20
511.36377608545371
 30
0.0
 11
651.13094323006351
 21
511.36377608545371
 31
0.0
  0
ARC
  5
2C87
  8
AM_0
 10
644.13094323006362
 20
528.62117108545374
 30
0.0
 40
3.0000000500000001
 50
0.0
 51
45.00000099999999
  0
LINE
  5
2C88
  8
AM_0
 10
665.13094323006385
 20
512.86377608545365
 30
0.0
 11
665.13094323006385
 21
509.86380608545369
 31
0.0
  0
ARC
  5
2C89
  8
AM_0
 10
611.13094323006362
 20
564.7091710854537
 30
0.0
 40
8.0
 50
0.0
 51
88.0
  0
LINE
  5
2C8A
  8
AM_0
 10
627.13099323006384
 20
548.86377108545355
 30
0.0
 11
638.13094323006362
 21
548.86377108545355
 31
0.0
  0
ARC
  5
2C8B
  8
AM_0
 10
627.13099323006384
 20
556.86377108545355
 30
0.0
 40
8.0
 50
180.00001
 51
270.0
  0
ARC
  5
2C8C
  8
AM_0
 10
644.13094323006362
 20
537.10637108545393
 30
0.0
 40
3.0000000500000001
 50
179.99998999999991
 51
225.0
  0
ARC
  5
2C8D
  8
AM_0
 10
638.13094323006362
 20
545.86377108545355
 30
0.0
 40
3.0000000500000001
 50
0.0
 51
90.000003000000007
  0
ARC
  5
2C8E
  8
AM_0
 10
1009.5937582300641
 20
460.86377608545371
 30
0.0
 40
88.0
 50
0.0
 51
186.52497999999991
  0
CIRCLE
  5
2C8F
  8
AM_0
 10
1009.5937582300641
 20
488.86377608545359
 30
0.0
 40
41.000000499999992
  0
LINE
  5
2C90
  8
AM_0
 10
1103.5937582300639
 20
532.49862108545369
 30
0.0
 11
1103.5937582300639
 21
413.24915108545372
 31
0.0
  0
LINE
  5
2C91
  8
AM_0
 10
1133.138693230062
 20
466.2553760854538
 30
0.0
 11
1149.555413230064
 21
334.4819360854537
 31
0.0
  0
LINE
  5
2C92
  8
AM_0
 10
915.59375323006384
 20
532.49862108545369
 30
0.0
 11
915.59375323006384
 21
416.85391608545359
 31
0.0
  0
LINE
  5
2C93
  8
AM_0
 10
886.04879323006367
 20
466.2553760854538
 30
0.0
 11
869.63209323006379
 21
334.48190608545372
 31
0.0
  0
LINE
  5
2C94
  8
AM_0
 10
872.52269323006385
 20
457.93479108545358
 30
0.0
 11
885.86259323006379
 21
471.2746960854538
 31
0.0
  0
LINE
  5
2C95
  8
AM_0
 10
1146.664818230063
 20
457.9348510854536
 30
0.0
 11
1133.324943230064
 21
471.27472608545372
 31
0.0
  0
LINE
  5
2C96
  8
ﾁｭｳｼﾝｾﾝ1
 10
1009.5937582300641
 20
623.40642108545364
 30
0.0
 11
1009.5937582300641
 21
312.89419608545381
 31
0.0
  0
ARC
  5
2C97
  8
AM_0
 10
942.59375323006395
 20
325.86377108545372
 30
0.0
 40
8.0
 50
90.000003000000007
 51
177.00553999999991
  0
ARC
  5
2C98
  8
AM_0
 10
926.61560323006393
 20
326.69961608545378
 30
0.0
 40
8.0
 50
279.48829999999998
 51
357.00554
  0
LINE
  5
2C99
  8
AM_0
 10
928.59375323006361
 20
318.86377108545361
 30
0.0
 11
1090.9595432300639
 21
318.86377108545361
 31
0.0
  0
LINE
  5
2C9A
  8
ﾁｭｳｼﾝｾﾝ1
 10
865.32819323006402
 20
450.86377608545359
 30
0.0
 11
1153.448233230064
 21
450.86377608545359
 31
0.0
  0
LINE
  5
2C9B
  8
ｶｸﾚｾﾝ2
 10
885.09374323006364
 20
338.86377108545378
 30
0.0
 11
885.09374323006364
 21
313.86377108545378
 31
0.0
  0
LINE
  5
2C9C
  8
ｶｸﾚｾﾝ2
 10
904.09378323006365
 20
338.86377108545378
 30
0.0
 11
904.09378323006365
 21
313.86377108545378
 31
0.0
  0
LINE
  5
2C9D
  8
ﾁｭｳｼﾝｾﾝ1
 10
894.59375323006395
 20
343.37167608545371
 30
0.0
 11
894.59375323006395
 21
308.97214108545381
 31
0.0
  0
ARC
  5
2C9E
  8
AM_0
 10
928.59375323006361
 20
314.86380108545359
 30
0.0
 40
4.000000049999997
 50
99.488295999999963
 51
180.00001
  0
LINE
  5
2C9F
  8
AM_0
 10
920.89377323006363
 20
334.8638010854537
 30
0.0
 11
920.89377323006363
 21
313.86377108545378
 31
0.0
  0
LINE
  5
2CA0
  8
AM_0
 10
869.59374323006364
 20
333.86377108545372
 30
0.0
 11
869.59374323006364
 21
313.86377108545378
 31
0.0
  0
LINE
  5
2CA1
  8
AM_0
 10
869.59374323006364
 20
313.86377108545378
 30
0.0
 11
924.59375323006395
 21
313.86377108545378
 31
0.0
  0
LINE
  5
2CA2
  8
AM_0
 10
924.59375323006395
 20
314.86380108545359
 30
0.0
 11
924.59375323006395
 21
313.86377108545378
 31
0.0
  0
ARC
  5
2CA3
  8
AM_0
 10
1009.5937582300641
 20
416.85391608545359
 30
0.0
 40
93.999994999999984
 50
179.99998999999991
 51
200.58195999999981
  0
LINE
  5
2CA4
  8
AM_0
 10
921.59378323006388
 20
450.86377608545359
 30
0.0
 11
921.59378323006388
 21
346.86380108545382
 31
0.0
  0
LINE
  5
2CA5
  8
AM_0
 10
874.59374323006386
 20
338.86377108545378
 30
0.0
 11
916.89377323006386
 21
338.86377108545378
 31
0.0
  0
ARC
  5
2CA6
  8
AM_0
 10
874.59374323006386
 20
333.86377108545372
 30
0.0
 40
5.0
 50
90.000003000000007
 51
180.00001
  0
ARC
  5
2CA7
  8
AM_0
 10
916.89377323006386
 20
334.8638010854537
 30
0.0
 40
4.000000049999997
 50
0.0
 51
90.000003000000007
  0
ARC
  5
2CA8
  8
AM_0
 10
913.59375323006395
 20
346.86380108545382
 30
0.0
 40
8.0
 50
270.0
 51
0.0
  0
LINE
  5
2CA9
  8
AM_0
 10
872.52269323006385
 20
443.79266608545367
 30
0.0
 11
880.33369323006343
 21
435.98169608545368
 31
0.0
  0
ARC
  5
2CAA
  8
AM_0
 10
879.59374323006364
 20
450.86377608545359
 30
0.0
 40
10.0
 50
135.0
 51
225.0
  0
ARC
  5
2CAB
  8
AM_0
 10
875.71074323006394
 20
433.5336060854537
 30
0.0
 40
5.0
 50
7.3755080999999967
 51
45.00000099999999
  0
ARC
  5
2CAC
  8
AM_0
 10
876.79814323006406
 20
432.44620108545371
 30
0.0
 40
5.0
 50
352.89852000000002
 51
45.00000099999999
  0
ARC
  5
2CAD
  8
AM_0
 10
1009.5937582300641
 20
450.86377608545359
 30
0.0
 40
130.0
 50
187.37550999999999
 51
189.62446
  0
LINE
  5
2CAE
  8
ｶｸﾚｾﾝ2
 10
1134.0937582300639
 20
338.86377108545378
 30
0.0
 11
1134.0937582300639
 21
313.86377108545378
 31
0.0
  0
LINE
  5
2CAF
  8
ｶｸﾚｾﾝ2
 10
1115.0937582300639
 20
338.86377108545378
 30
0.0
 11
1115.0937582300639
 21
313.86377108545378
 31
0.0
  0
LINE
  5
2CB0
  8
ﾁｭｳｼﾝｾﾝ1
 10
1124.5937582300639
 20
342.71393108545362
 30
0.0
 11
1124.5937582300639
 21
306.88824608545372
 31
0.0
  0
ARC
  5
2CB1
  8
AM_0
 10
1092.571938230064
 20
326.69961608545378
 30
0.0
 40
8.0
 50
182.99446
 51
260.51170000000002
  0
ARC
  5
2CB2
  8
AM_0
 10
1090.593758230063
 20
314.86380108545359
 30
0.0
 40
4.000000049999997
 50
0.0
 51
80.511701999999985
  0
LINE
  5
2CB3
  8
AM_0
 10
1149.593773230064
 20
333.86377108545372
 30
0.0
 11
1149.593773230064
 21
313.86377108545378
 31
0.0
  0
LINE
  5
2CB4
  8
AM_0
 10
1098.293768230064
 20
334.8638010854537
 30
0.0
 11
1098.293768230064
 21
313.86377108545378
 31
0.0
  0
LINE
  5
2CB5
  8
AM_0
 10
1094.5937582300639
 20
313.86377108545378
 30
0.0
 11
1149.593773230064
 21
313.86377108545378
 31
0.0
  0
LINE
  5
2CB6
  8
AM_0
 10
1094.5937582300639
 20
314.86380108545359
 30
0.0
 11
1094.5937582300639
 21
313.86377108545378
 31
0.0
  0
LINE
  5
2CB7
  8
AM_0
 10
939.23929323006337
 20
328.59445608545371
 30
0.0
 11
1079.948218230063
 21
328.59445608545371
 31
0.0
  0
LINE
  5
2CB8
  8
AM_0
 10
942.59375323006395
 20
333.86377108545372
 30
0.0
 11
1076.593758230063
 21
333.86377108545372
 31
0.0
  0
ARC
  5
2CB9
  8
AM_0
 10
939.23929323006337
 20
323.5944560854536
 30
0.0
 40
5.0
 50
90.000003000000007
 51
166.18078
  0
ARC
  5
2CBA
  8
AM_0
 10
1009.5937582300641
 20
416.85391608545359
 30
0.0
 40
93.999994999999984
 50
339.95001999999982
 51
20.049976000000001
  0
LINE
  5
2CBB
  8
AM_0
 10
1097.5937582300639
 20
460.86377608545371
 30
0.0
 11
1097.5937582300639
 21
346.86380108545382
 31
0.0
  0
ARC
  5
2CBC
  8
AM_0
 10
1105.5937582300639
 20
346.86380108545382
 30
0.0
 40
8.0
 50
180.00001
 51
270.0
  0
ARC
  5
2CBD
  8
AM_0
 10
1102.2937682300631
 20
334.8638010854537
 30
0.0
 40
4.000000049999997
 50
90.000003000000007
 51
180.00001
  0
ARC
  5
2CBE
  8
AM_0
 10
1079.948218230063
 20
323.5944560854536
 30
0.0
 40
5.0
 50
13.819217
 51
90.000003000000007
  0
ARC
  5
2CBF
  8
AM_0
 10
1076.593758230063
 20
325.86377108545372
 30
0.0
 40
8.0
 50
2.9944643999999991
 51
90.000003000000007
  0
ARC
  5
2CC0
  8
AM_0
 10
1102.5937582300639
 20
382.9128160854537
 30
0.0
 40
5.0
 50
159.95003
 51
180.00001
  0
LINE
  5
2CC1
  8
AM_0
 10
1105.5937582300639
 20
338.86377108545378
 30
0.0
 11
1144.593773230064
 21
338.86377108545378
 31
0.0
  0
ARC
  5
2CC2
  8
AM_0
 10
1144.593773230064
 20
333.86377108545372
 30
0.0
 40
5.0
 50
0.0
 51
90.000003000000007
  0
ARC
  5
2CC3
  8
AM_0
 10
1102.5937582300639
 20
450.79505108545368
 30
0.0
 40
5.0
 50
179.99998999999991
 51
200.04997
  0
ARC
  5
2CC4
  8
AM_0
 10
1139.593773230064
 20
450.86377608545359
 30
0.0
 40
10.0
 50
315.0
 51
45.00000099999999
  0
LINE
  5
2CC5
  8
AM_0
 10
1146.664818230063
 20
443.79273108545368
 30
0.0
 11
1138.853843230062
 21
435.98175608545358
 31
0.0
  0
ARC
  5
2CC6
  8
AM_0
 10
1143.476783230064
 20
433.5336060854537
 30
0.0
 40
5.0
 50
135.0
 51
172.62448999999989
  0
ARC
  5
2CC7
  8
AM_0
 10
1142.389383230063
 20
432.44620108545371
 30
0.0
 40
5.0
 50
135.0
 51
187.1014899999999
  0
ARC
  5
2CC8
  8
AM_0
 10
1009.5937582300641
 20
450.86377608545359
 30
0.0
 40
130.0
 50
350.37554999999998
 51
352.62448999999998
  0
ARC
  5
2CC9
  8
AM_0
 10
1009.5937582300641
 20
450.86377608545359
 30
0.0
 40
124.5
 50
7.1014839000000007
 51
172.89851999999991
  0
ARC
  5
2CCA
  8
AM_0
 10
944.59375323006395
 20
563.4470710854539
 30
0.0
 40
10.0
 50
74.999999000000003
 51
164.99999
  0
LINE
  5
2CCB
  8
AM_0
 10
934.93451323006389
 20
566.0352710854537
 30
0.0
 11
930.05176323006367
 21
547.81262108545366
 31
0.0
  0
LINE
  5
2CCC
  8
AM_0
 10
721.13094323006362
 20
467.86377608545359
 30
0.0
 11
721.13094323006362
 21
512.86377608545365
 31
0.0
  0
ARC
  5
2CCD
  8
AM_0
 10
1009.5937582300641
 20
450.86377608545359
 30
0.0
 40
130.0
 50
127.3754999999999
 51
172.62448999999989
  0
ARC
  5
2CCE
  8
AM_0
 10
875.71074323006394
 20
468.19394608545372
 30
0.0
 40
5.0
 50
315.0
 51
352.62448999999998
  0
ARC
  5
2CCF
  8
AM_0
 10
882.32704323006396
 20
474.81027608545361
 30
0.0
 40
5.0
 50
315.0
 51
349.34381999999982
  0
ARC
  5
2CD0
  8
AM_0
 10
925.22211323006366
 20
549.10667108545374
 30
0.0
 40
5.0
 50
310.65618000000001
 51
345.0
  0
ARC
  5
2CD1
  8
AM_0
 10
927.6438932300639
 20
558.14477108545373
 30
0.0
 40
5.0
 50
307.37551000000002
 51
345.0
  0
LINE
  5
2CD2
  8
AM_0
 10
1013.593758230063
 20
617.86377108545366
 30
0.0
 11
1013.593758230063
 21
584.36377108545355
 31
0.0
  0
LINE
  5
2CD3
  8
AM_0
 10
1005.593758230063
 20
617.86377108545366
 30
0.0
 11
1005.593758230063
 21
584.36377108545355
 31
0.0
  0
ARC
  5
2CD4
  8
AM_0
 10
1009.5937582300641
 20
450.86377608545359
 30
0.0
 40
130.0
 50
67.375506000000001
 51
112.62448999999999
  0
LINE
  5
2CD5
  8
ﾁｭｳｼﾝｾﾝ1
 10
942.59375323006395
 20
488.86377608545359
 30
0.0
 11
1076.593757811185
 21
488.86377608545359
 31
0.0
  0
ARC
  5
2CD6
  8
AM_0
 10
1009.5937582300641
 20
488.86377608545359
 30
0.0
 40
20.9999985
 50
106.60155
 51
73.398452000000006
  0
CIRCLE
  5
2CD7
  8
AM_5
 10
1009.5937582300641
 20
488.86377608545359
 30
0.0
 40
5.0
  0
CIRCLE
  5
2CD8
  8
AM_0
 10
1009.5937582300641
 20
488.86377608545359
 30
0.0
 40
3.5000000500000001
  0
LINE
  5
2CD9
  8
AM_0
 10
1003.593758230063
 20
504.86380608545369
 30
0.0
 11
1015.593758230063
 21
504.86380608545369
 31
0.0
  0
LINE
  5
2CDA
  8
AM_0
 10
1003.593758230063
 20
512.86377608545365
 30
0.0
 11
1003.593758230063
 21
504.86380608545369
 31
0.0
  0
LINE
  5
2CDB
  8
AM_0
 10
1015.593758230063
 20
512.86377608545365
 30
0.0
 11
1015.593758230063
 21
504.86380608545369
 31
0.0
  0
LINE
  5
2CDC
  8
AM_0
 10
1003.593758230063
 20
512.86377608545365
 30
0.0
 11
1015.593758230063
 21
512.86377608545365
 31
0.0
  0
LINE
  5
2CDD
  8
AM_0
 10
947.18195323006398
 20
573.1063210854536
 30
0.0
 11
965.40457823006363
 21
568.22362108545371
 31
0.0
  0
ARC
  5
2CDE
  8
AM_0
 10
957.66061823006396
 20
575.47497108545372
 30
0.0
 40
5.0
 50
255.0
 51
292.62448999999998
  0
ARC
  5
2CDF
  8
AM_0
 10
966.69867323006395
 20
573.05322108545397
 30
0.0
 40
5.0
 50
255.0
 51
289.34381999999982
  0
LINE
  5
2CE0
  8
AM_0
 10
1013.593758230063
 20
588.12532108545361
 30
0.0
 11
1017.097173230063
 21
587.47847108545375
 31
0.0
  0
LINE
  5
2CE1
  8
AM_0
 10
1005.593758230063
 20
588.12527108545362
 30
0.0
 11
1002.090338230063
 21
587.47847108545375
 31
0.0
  0
ARC
  5
2CE2
  8
AM_0
 10
1002.271918230063
 20
586.49502108545357
 30
0.0
 40
1.0
 50
100.4607199999999
 51
164.99999
  0
LINE
  5
2CE3
  8
AM_0
 10
999.62518823006383
 20
580.48102108545368
 30
0.0
 11
1001.305973230063
 21
586.75387108545385
 31
0.0
  0
ARC
  5
2CE4
  8
AM_0
 10
1015.593758230063
 20
584.36377108545355
 30
0.0
 40
2.0000000500000001
 50
179.99998999999991
 51
270.0
  0
ARC
  5
2CE5
  8
AM_0
 10
1003.593758230063
 20
584.36377108545355
 30
0.0
 40
2.0000000500000001
 50
270.0
 51
0.0
  0
ARC
  5
2CE6
  8
AM_0
 10
1016.915623230063
 20
586.49502108545357
 30
0.0
 40
1.0
 50
15.0
 51
79.539281000000003
  0
LINE
  5
2CE7
  8
AM_0
 10
1019.562353230063
 20
580.48102108545368
 30
0.0
 11
1017.881568230063
 21
586.75387108545385
 31
0.0
  0
ARC
  5
2CE8
  8
AM_0
 10
1009.5937582300641
 20
450.86377608545359
 30
0.0
 40
130.0
 50
7.3755071999999986
 51
52.624493999999991
  0
ARC
  5
2CE9
  8
AM_0
 10
1143.476783230064
 20
468.19394608545372
 30
0.0
 40
5.0
 50
187.37550999999999
 51
225.0
  0
ARC
  5
2CEA
  8
AM_0
 10
1136.860483230063
 20
474.81027608545361
 30
0.0
 40
5.0
 50
190.65618000000001
 51
225.0
  0
ARC
  5
2CEB
  8
AM_0
 10
1074.593758230063
 20
563.4470710854539
 30
0.0
 40
10.0
 50
15.0
 51
104.9999999999998
  0
LINE
  5
2CEC
  8
AM_0
 10
1072.005563230063
 20
573.1063210854536
 30
0.0
 11
1053.782933230063
 21
568.22357108545361
 31
0.0
  0
ARC
  5
2CED
  8
AM_0
 10
1052.488868230063
 20
573.05322108545397
 30
0.0
 40
5.0
 50
250.65617999999989
 51
285.0
  0
ARC
  5
2CEE
  8
AM_0
 10
1061.5268932300619
 20
575.47497108545372
 30
0.0
 40
5.0
 50
247.37550999999991
 51
285.0
  0
LINE
  5
2CEF
  8
AM_0
 10
1084.253028230064
 20
566.0352210854536
 30
0.0
 11
1089.135748230063
 21
547.81262108545366
 31
0.0
  0
ARC
  5
2CF0
  8
AM_0
 10
1093.9653982300631
 20
549.10667108545374
 30
0.0
 40
5.0
 50
195.00001
 51
229.34381999999991
  0
ARC
  5
2CF1
  8
AM_0
 10
1091.543648230062
 20
558.14477108545373
 30
0.0
 40
5.0
 50
195.00001
 51
232.62450000000001
  0
ARC
  5
2CF2
  8
AM_0
 10
1009.5937582300641
 20
617.86377108545366
 30
0.0
 40
4.000000049999997
 50
359.99998999999991
 51
179.99998999999991
  0
LINE
  5
2CF3
  8
AM_0
 10
367.6308932300638
 20
452.65009108545371
 30
0.0
 11
357.63089323006409
 21
452.65009108545371
 31
0.0
  0
LINE
  5
2CF4
  8
AM_0
 10
367.6308932300638
 20
466.15378108545372
 30
0.0
 11
357.63089323006409
 21
466.15378108545372
 31
0.0
  0
LINE
  5
2CF5
  8
AM_0
 10
367.6308932300638
 20
363.15378108545372
 30
0.0
 11
357.63089323006409
 21
363.15378108545372
 31
0.0
  0
LINE
  5
2CF6
  8
AM_0
 10
367.6308932300638
 20
376.65747608545371
 30
0.0
 11
357.63089323006409
 21
376.65747608545371
 31
0.0
  0
LINE
  5
2CF7
  8
AM_0
 10
327.1309808594583
 20
892.22395160239068
 30
0.0
 11
327.1309808594583
 21
838.2239516023908
 31
0.0
  0
LINE
  5
2CF8
  8
AM_0
 10
357.63097323006372
 20
928.2239516023908
 30
0.0
 11
357.63097323006372
 21
802.2239516023908
 31
0.0
  0
LINE
  5
2CF9
  8
AM_0
 10
302.13098538941119
 20
840.22395160239068
 30
0.0
 11
302.13098538941119
 21
890.22395160239068
 31
0.0
  0
LINE
  5
2CFA
  8
AM_0
 10
300.13098538941119
 20
882.30973804001769
 30
0.0
 11
300.13098538941119
 21
848.1381651647639
 31
0.0
  0
LINE
  5
2CFB
  8
AM_0
 10
304.13098538941119
 20
838.2239516023908
 30
0.0
 11
322.98884523572718
 21
838.2239516023908
 31
0.0
  0
ARC
  5
2CFC
  8
AM_0
 10
304.13098538941119
 20
840.22395160239068
 30
0.0
 40
2.0
 50
180.0
 51
270.0
1001
GENIUS_GENOBJ-N-FIL_13
1002
{
1000
OWNER
1000
GEN
1002
}
1001
GENIUS_GENODEF_13
1002
{
1000
HIER
1070
     0
1002
}
1002
{
1000
MANEDIT
1070
     0
1002
}
1002
{
1000
NOSEL
1070
     0
1002
}
1002
{
1000
BEHIND
1070
     0
1002
}
1002
{
1000
OTHER
1070
     0
1002
}
1002
{
1000
REACTOR
1002
}
  0
ARC
  5
2CFD
  8
AM_0
 10
301.13098538941119
 20
848.1381651647639
 30
0.0
 40
1.0
 50
180.0
 51
224.9999999999952
1001
GENIUS_GENODEF_13
1002
{
1000
HIER
1070
     0
1002
}
1002
{
1000
MANEDIT
1070
     0
1002
}
1002
{
1000
NOSEL
1070
     0
1002
}
1002
{
1000
BEHIND
1070
     0
1002
}
1002
{
1000
OTHER
1070
     0
1002
}
1002
{
1000
REACTOR
1002
}
1001
GENIUS_GENOBJ-N-FIL_13
1002
{
1000
OWNER
1000
GEN
1002
}
  0
ARC
  5
2CFE
  8
AM_0
 10
301.13098538941119
 20
845.30973804001758
 30
0.0
 40
1.0
 50
0.0
 51
44.999999999995367
1001
GENIUS_GENODEF_13
1002
{
1000
HIER
1070
     0
1002
}
1002
{
1000
MANEDIT
1070
     0
1002
}
1002
{
1000
NOSEL
1070
     0
1002
}
1002
{
1000
BEHIND
1070
     0
1002
}
1002
{
1000
OTHER
1070
     0
1002
}
1002
{
1000
REACTOR
1002
}
1001
GENIUS_GENOBJ-N-FIL_13
1002
{
1000
OWNER
1000
GEN
1002
}
  0
LINE
  5
2CFF
  8
AM_0
 10
300.42387860822481
 20
847.43105838357747
 30
0.0
 11
301.83809217059797
 21
846.01684482120413
 31
0.0
  0
LINE
  5
2D00
  8
AM_0
 10
356.1665071359966
 20
809.18842532585268
 30
0.0
 11
330.05991304759277
 21
835.29501941425644
 31
0.0
  0
ARC
  5
2D01
  8
AM_0
 10
358.63097323006372
 20
802.2239516023908
 30
0.0
 40
1.0
 50
180.0
 51
270.0
1001
GENIUS_GENODEF_13
1002
{
1000
HIER
1070
     0
1002
}
1002
{
1000
MANEDIT
1070
     0
1002
}
1002
{
1000
NOSEL
1070
     0
1002
}
1002
{
1000
BEHIND
1070
     0
1002
}
1002
{
1000
OTHER
1070
     0
1002
}
1002
{
1000
REACTOR
1002
}
1001
GENIUS_GENOBJ-N-FIL_13
1002
{
1000
OWNER
1000
GEN
1002
}
  0
ARC
  5
2D02
  8
AM_0
 10
352.63097323006372
 20
805.65289141991946
 30
0.0
 40
5.0
 50
0.0
 51
44.999999999995367
1001
GENIUS_GENODEF_13
1002
{
1000
HIER
1070
     0
1002
}
1002
{
1000
MANEDIT
1070
     0
1002
}
1002
{
1000
NOSEL
1070
     0
1002
}
1002
{
1000
BEHIND
1070
     0
1002
}
1002
{
1000
OTHER
1070
     0
1002
}
1002
{
1000
REACTOR
1002
}
1001
GENIUS_GENOBJ-N-FIL_13
1002
{
1000
OWNER
1000
GEN
1002
}
  0
LINE
  5
2D03
  8
AM_0
 10
367.63097323006372
 20
801.22395160239068
 30
0.0
 11
358.63097323006372
 21
801.22395160239068
 31
0.0
  0
ARC
  5
2D04
  8
AM_0
 10
322.98884523572718
 20
828.2239516023908
 30
0.0
 40
10.0
 50
44.999999999995367
 51
90.0
1001
GENIUS_GENODEF_13
1002
{
1000
HIER
1070
     0
1002
}
1002
{
1000
MANEDIT
1070
     0
1002
}
1002
{
1000
NOSEL
1070
     0
1002
}
1002
{
1000
BEHIND
1070
     0
1002
}
1002
{
1000
OTHER
1070
     0
1002
}
1002
{
1000
REACTOR
1002
}
1001
GENIUS_GENOBJ-N-FIL_13
1002
{
1000
OWNER
1000
GEN
1002
}
  0
LINE
  5
2D05
  8
AM_0
 10
367.63097323006372
 20
813.72395160239068
 30
0.0
 11
357.63097323006377
 21
813.72395160239068
 31
0.0
  0
LINE
  5
2D06
  8
AM_0
 10
367.63097323006372
 20
827.22764660239079
 30
0.0
 11
357.63097323006377
 21
827.22764660239079
 31
0.0
  0
LINE
  5
2D07
  8
AM_0
 10
304.13098538941119
 20
892.22395160239068
 30
0.0
 11
322.98884523572718
 21
892.22395160239068
 31
0.0
  0
LINE
  5
2D08
  8
AM_0
 10
270.13098538941119
 20
867.7239516023908
 30
0.0
 11
292.13098538941119
 21
867.7239516023908
 31
0.0
  0
LINE
  5
2D09
  8
AM_0
 10
270.13098538941119
 20
862.72395160239068
 30
0.0
 11
292.13098538941119
 21
862.72395160239068
 31
0.0
  0
LINE
  5
2D0A
  8
AM_0
 10
270.13098538941119
 20
857.22395160239068
 30
0.0
 11
298.13098538941119
 21
857.22395160239068
 31
0.0
  0
LINE
  5
2D0B
  8
AM_0
 10
270.13098538941119
 20
873.22395160239068
 30
0.0
 11
298.13098538941119
 21
873.22395160239068
 31
0.0
  0
LINE
  5
2D0C
  8
AM_0
 10
270.13098538941119
 20
873.22395160239068
 30
0.0
 11
270.13098538941119
 21
857.22395160239068
 31
0.0
  0
ARC
  5
2D0D
  8
AM_0
 10
292.13098538941119
 20
865.22395160239068
 30
0.0
 40
2.5
 50
270.0
 51
90.0
  0
LINE
  5
2D0E
  8
AM_0
 10
292.13098538941119
 20
867.7239516023908
 30
0.0
 11
292.13098538941119
 21
862.72395160239068
 31
0.0
  0
LINE
  5
2D0F
  8
AM_0
 10
298.13098538941119
 20
873.7239516023908
 30
0.0
 11
298.13098538941119
 21
856.7239516023908
 31
0.0
  0
LINE
  5
2D10
  8
AM_0
 10
298.13098538941119
 20
856.7239569354407
 30
0.0
 11
300.13098538941119
 21
856.72395586883079
 31
0.0
  0
LINE
  5
2D11
  8
AM_0
 10
298.13098538941119
 20
873.7239516023908
 30
0.0
 11
300.13098538941119
 21
873.7239516023908
 31
0.0
  0
LINE
  5
2D12
  8
AM_0
 10
300.42387860822481
 20
883.01684482120402
 30
0.0
 11
301.83809217059797
 21
884.43105838357724
 31
0.0
  0
ARC
  5
2D13
  8
AM_0
 10
301.13098538941119
 20
885.13816516476379
 30
0.0
 40
1.0
 50
315.0000000000046
 51
0.0
1001
GENIUS_GENODEF_13
1002
{
1000
HIER
1070
     0
1002
}
1002
{
1000
MANEDIT
1070
     0
1002
}
1002
{
1000
NOSEL
1070
     0
1002
}
1002
{
1000
BEHIND
1070
     0
1002
}
1002
{
1000
OTHER
1070
     0
1002
}
1002
{
1000
REACTOR
1002
}
1001
GENIUS_GENOBJ-N-FIL_13
1002
{
1000
OWNER
1000
GEN
1002
}
  0
ARC
  5
2D14
  8
AM_0
 10
301.13098538941119
 20
882.30973804001769
 30
0.0
 40
1.0
 50
135.0000000000046
 51
180.0
1001
GENIUS_GENODEF_13
1002
{
1000
HIER
1070
     0
1002
}
1002
{
1000
MANEDIT
1070
     0
1002
}
1002
{
1000
NOSEL
1070
     0
1002
}
1002
{
1000
BEHIND
1070
     0
1002
}
1002
{
1000
OTHER
1070
     0
1002
}
1002
{
1000
REACTOR
1002
}
1001
GENIUS_GENOBJ-N-FIL_13
1002
{
1000
OWNER
1000
GEN
1002
}
  0
ARC
  5
2D15
  8
AM_0
 10
304.13098538941119
 20
890.22395160239068
 30
0.0
 40
2.0
 50
90.0
 51
180.0
1001
GENIUS_GENOBJ-N-FIL_13
1002
{
1000
OWNER
1000
GEN
1002
}
1001
GENIUS_GENODEF_13
1002
{
1000
HIER
1070
     0
1002
}
1002
{
1000
MANEDIT
1070
     0
1002
}
1002
{
1000
NOSEL
1070
     0
1002
}
1002
{
1000
BEHIND
1070
     0
1002
}
1002
{
1000
OTHER
1070
     0
1002
}
1002
{
1000
REACTOR
1002
}
  0
LINE
  5
2D16
  8
AM_0
 10
356.1665071359966
 20
921.25947787892926
 30
0.0
 11
330.05991304759272
 21
895.15288379052504
 31
0.0
  0
ARC
  5
2D17
  8
AM_0
 10
322.98884523572718
 20
902.2239516023908
 30
0.0
 40
10.0
 50
270.0
 51
315.0000000000046
1001
GENIUS_GENODEF_13
1002
{
1000
HIER
1070
     0
1002
}
1002
{
1000
MANEDIT
1070
     0
1002
}
1002
{
1000
NOSEL
1070
     0
1002
}
1002
{
1000
BEHIND
1070
     0
1002
}
1002
{
1000
OTHER
1070
     0
1002
}
1002
{
1000
REACTOR
1002
}
1001
GENIUS_GENOBJ-N-FIL_13
1002
{
1000
OWNER
1000
GEN
1002
}
  0
LINE
  5
2D18
  8
AM_0
 10
367.63097323006372
 20
903.22026160239068
 30
0.0
 11
357.63097323006377
 21
903.22026160239068
 31
0.0
  0
LINE
  5
2D19
  8
AM_0
 10
367.63097323006372
 20
916.7239516023908
 30
0.0
 11
357.63097323006377
 21
916.7239516023908
 31
0.0
  0
ARC
  5
2D1A
  8
AM_0
 10
358.63097323006372
 20
928.2239516023908
 30
0.0
 40
1.0
 50
90.0
 51
180.0
1001
GENIUS_GENODEF_13
1002
{
1000
HIER
1070
     0
1002
}
1002
{
1000
MANEDIT
1070
     0
1002
}
1002
{
1000
NOSEL
1070
     0
1002
}
1002
{
1000
BEHIND
1070
     0
1002
}
1002
{
1000
OTHER
1070
     0
1002
}
1002
{
1000
REACTOR
1002
}
1001
GENIUS_GENOBJ-N-FIL_13
1002
{
1000
OWNER
1000
GEN
1002
}
  0
ARC
  5
2D1B
  8
AM_0
 10
352.63097323006372
 20
924.79501178486169
 30
0.0
 40
5.0
 50
315.0000000000046
 51
0.0
1001
GENIUS_GENODEF_13
1002
{
1000
HIER
1070
     0
1002
}
1002
{
1000
MANEDIT
1070
     0
1002
}
1002
{
1000
NOSEL
1070
     0
1002
}
1002
{
1000
BEHIND
1070
     0
1002
}
1002
{
1000
OTHER
1070
     0
1002
}
1002
{
1000
REACTOR
1002
}
1001
GENIUS_GENOBJ-N-FIL_13
1002
{
1000
OWNER
1000
GEN
1002
}
  0
LINE
  5
2D1C
  8
AM_0
 10
367.63097323006372
 20
929.2239516023908
 30
0.0
 11
358.63097323006372
 21
929.2239516023908
 31
0.0
  0
LINE
  5
2D1E
  8
AM_0
 10
665.13097323006377
 20
871.22389160239038
 30
0.0
 11
721.13094323006362
 21
871.22389160239038
 31
0.0
  0
LINE
  5
2D1F
  8
AM_0
 10
665.13097323006377
 20
859.22389160239095
 30
0.0
 11
721.13094323006362
 21
859.22389160239095
 31
0.0
  0
LINE
  5
2D20
  8
AM_0
 10
651.13097323006355
 20
844.2239516023908
 30
0.0
 11
721.13094323006362
 21
844.2239516023908
 31
0.0
  0
LINE
  5
2D21
  8
AM_0
 10
651.13097323006355
 20
886.2239516023908
 30
0.0
 11
721.13094323006362
 21
886.2239516023908
 31
0.0
  0
LINE
  5
2D22
  8
ﾁｭｳｼﾝｾﾝ1
 10
265.83592807116997
 20
865.22395160239068
 30
0.0
 11
732.64491323006393
 21
865.22395160239068
 31
0.0
  0
LINE
  5
2D23
  8
AM_0
 10
382.63097323006372
 20
908.08253160239076
 30
0.0
 11
445.02452323006372
 21
908.08253160239076
 31
0.0
  0
LINE
  5
2D24
  8
AM_0
 10
382.63097323006372
 20
822.90120160239076
 30
0.0
 11
444.81798323006359
 21
822.90120160239076
 31
0.0
  0
LINE
  5
2D25
  8
AM_0
 10
367.63097323006372
 20
813.72359160239091
 30
0.0
 11
448.70555323006369
 21
813.72359160239091
 31
0.0
  0
LINE
  5
2D26
  8
AM_0
 10
367.63097323006372
 20
916.7239516023908
 30
0.0
 11
448.70531323006372
 21
916.7239516023908
 31
0.0
  0
LINE
  5
2D27
  8
AM_0
 10
454.73564323006372
 20
847.70601160239028
 30
0.0
 11
385.5262932300638
 21
850.12288160239075
 31
0.0
  0
LINE
  5
2D28
  8
AM_0
 10
454.73564323006372
 20
882.74190160239084
 30
0.0
 11
385.52623323006372
 21
880.32503160239071
 31
0.0
  0
LINE
  5
2D29
  8
AM_0
 10
454.73570323006362
 20
932.26570160239078
 30
0.0
 11
367.63103323006379
 21
929.2239516023908
 31
0.0
  0
LINE
  5
2D2A
  8
AM_0
 10
454.73564323006372
 20
798.18220160239059
 30
0.0
 11
367.63097323006372
 21
801.22395160239068
 31
0.0
  0
ARC
  5
2D2B
  8
AM_0
 10
385.63097323006372
 20
853.12099160239075
 30
0.0
 40
3.0
 50
180.00001000000091
 51
267.99999999999631
  0
LINE
  5
2D2C
  8
AM_0
 10
382.63097323006372
 20
822.90120160239076
 30
0.0
 11
382.63097323006372
 21
908.08253160239076
 31
0.0
  0
LINE
  5
2D2D
  8
AM_0
 10
367.63097323006372
 20
801.22395160239068
 30
0.0
 11
367.63097323006372
 21
929.2239516023908
 31
0.0
  0
LINE
  5
2D2E
  8
AM_0
 10
367.63097323006372
 20
827.1690216023909
 30
0.0
 11
382.63097323006372
 21
827.1690216023909
 31
0.0
  0
ARC
  5
2D2F
  8
AM_0
 10
385.63097323006372
 20
877.32686160239075
 30
0.0
 40
3.0
 50
91.999998000000545
 51
180.00001000000091
  0
LINE
  5
2D30
  8
AM_0
 10
367.63097323006372
 20
904.08321160239052
 30
0.0
 11
382.63097323006372
 21
904.08321160239052
 31
0.0
  0
LINE
  5
2D31
  8
AM_0
 10
457.63097323006372
 20
794.97017160239091
 30
0.0
 11
457.63097323006372
 21
935.4776816023907
 31
0.0
  0
LINE
  5
2D32
  8
AM_0
 10
467.63084323006359
 20
791.72389160239072
 30
0.0
 11
467.63084323006359
 21
938.72395160239091
 31
0.0
  0
LINE
  5
2D33
  8
AM_0
 10
544.13097323006355
 20
815.65938160239079
 30
0.0
 11
544.13097323006355
 21
914.78847160239081
 31
0.0
  0
LINE
  5
2D34
  8
AM_0
 10
619.13097323006377
 20
774.2239516023908
 30
0.0
 11
619.13097323006377
 21
956.22395160239068
 31
0.0
  0
LINE
  5
2D35
  8
AM_0
 10
647.13097323006355
 20
904.98128160239071
 30
0.0
 11
647.13097323006355
 21
831.46657160239079
 31
0.0
  0
LINE
  5
2D36
  8
AM_0
 10
529.13097323006366
 20
725.48592160239059
 30
0.0
 11
529.13097323006366
 21
861.22389160239072
 31
0.0
  0
LINE
  5
2D37
  8
AM_0
 10
641.13097323006377
 20
951.10451160239074
 30
0.0
 11
641.13097323006377
 21
779.34334160239075
 31
0.0
  0
LINE
  5
2D38
  8
AM_0
 10
651.13097323006355
 20
842.7239516023908
 30
0.0
 11
651.13097323006355
 21
887.72395160239068
 31
0.0
  0
LINE
  5
2D39
  8
AM_0
 10
516.13084323006365
 20
729.01411160239093
 30
0.0
 11
516.13084323006365
 21
855.6845216023903
 31
0.0
  0
LINE
  5
2D3A
  8
AM_0
 10
502.13097323006372
 20
751.1159216023907
 30
0.0
 11
502.13097323006372
 21
861.22389160239072
 31
0.0
  0
POLYLINE
  5
2D3B
  8
AM_0
 66
     1
 10
0.0
 20
0.0
 30
0.0
  0
VERTEX
  5
2D3C
  8
AM_0
 10
549.06066323006371
 20
785.49240160239071
 30
0.0
 42
0.11075717
  0
VERTEX
  5
2D3D
  8
AM_0
 10
561.94160323006372
 20
795.4001816023906
 30
0.0
 42
0.20375769
  0
VERTEX
  5
2D3E
  8
AM_0
 10
564.19933323006364
 20
803.0656516023904
 30
0.0
  0
VERTEX
  5
2D3F
  8
AM_0
 10
549.42953323006361
 20
821.98080160239044
 30
0.0
 42
-1.0
  0
SEQEND
  5
2D40
  8
AM_0
  0
ARC
  5
2D41
  8
AM_0
 10
549.69163323006399
 20
735.94191160239075
 30
0.0
 40
10.0
 50
272.00000000000369
 51
316.51703999999847
  0
LINE
  5
2D42
  8
AM_0
 10
546.06120323006371
 20
742.66444160239075
 30
0.0
 11
570.66417323006362
 21
743.52364160239074
 31
0.0
  0
LINE
  5
2D43
  8
AM_0
 10
534.13090323006372
 20
725.22389160239072
 30
0.0
 11
643.27049323006361
 21
729.03517160239073
 31
0.0
  0
CIRCLE
  5
2D44
  8
AM_0
 10
476.13097323006372
 20
750.2239516023908
 30
0.0
 40
9.5
  0
LINE
  5
2D45
  8
AM_0
 10
467.63090323006338
 20
791.72389160239072
 30
0.0
 11
497.30547323006368
 21
790.68764160239073
 31
0.0
  0
LINE
  5
2D46
  8
AM_0
 10
467.63097323006338
 20
825.74922160239089
 30
0.0
 11
502.13097323006372
 21
825.74922160239089
 31
0.0
  0
LINE
  5
2D47
  8
AM_0
 10
467.63097323006338
 20
803.64528160239058
 30
0.0
 11
502.13097323006372
 21
803.64528160239058
 31
0.0
  0
LINE
  5
2D48
  8
AM_0
 10
458.92155323006358
 20
729.16548160239074
 30
0.0
 11
534.13090323006372
 21
725.2239516023908
 31
0.0
  0
LINE
  5
2D49
  8
AM_0
 10
458.78233323006361
 20
773.63179160239042
 30
0.0
 11
502.13097323006372
 21
777.4242716023906
 31
0.0
  0
LINE
  5
2D4A
  8
AM_0
 10
455.13097323006338
 20
733.15999160239073
 30
0.0
 11
455.13097323006338
 21
769.64699160239059
 31
0.0
  0
ARC
  5
2D4B
  8
AM_0
 10
459.13097323006338
 20
733.15999160239073
 30
0.0
 40
4.0
 50
180.00001000000091
 51
266.99999000000008
  0
ARC
  5
2D4C
  8
AM_0
 10
459.13097323006338
 20
769.64699160239059
 30
0.0
 40
4.0
 50
95.00000199999856
 51
180.00001000000091
  0
POLYLINE
  5
2D4D
  8
AM_0
 66
     1
 10
0.0
 20
0.0
 30
0.0
  0
VERTEX
  5
2D4E
  8
AM_0
 10
457.63097323006372
 20
797.2239516023908
 30
0.0
  0
VERTEX
  5
2D4F
  8
AM_0
 10
437.89454323006368
 20
848.29394160239053
 30
0.0
 42
-1.0
  0
SEQEND
  5
2D50
  8
AM_0
  0
ARC
  5
2D51
  8
AM_0
 10
454.6309732300636
 20
795.1839716023909
 30
0.0
 40
3.0
 50
0.0
 51
87.999999999996248
  0
LINE
  5
2D52
  8
AM_0
 10
467.63090323006338
 20
791.72389160239072
 30
0.0
 11
460.5262932300638
 21
791.97200160239072
 31
0.0
  0
ARC
  5
2D53
  8
AM_0
 10
460.63097323006372
 20
794.97017160239091
 30
0.0
 40
3.0
 50
180.00001000000091
 51
267.99999999999631
  0
LINE
  5
2D54
  8
AM_0
 10
467.63097323006338
 20
803.64528160239058
 30
0.0
 11
457.63097323006372
 21
803.64528160239058
 31
0.0
  0
ARC
  5
2D55
  8
AM_0
 10
454.6309732300636
 20
844.70778160239058
 30
0.0
 40
3.0
 50
0.0
 51
87.999999999996248
  0
LINE
  5
2D56
  8
AM_0
 10
467.63097323006338
 20
825.74922160239089
 30
0.0
 11
457.63097323006372
 21
825.74922160239089
 31
0.0
  0
LINE
  5
2D57
  8
AM_0
 10
544.13097323006355
 20
738.5487816023907
 30
0.0
 11
544.13097323006355
 21
785.65816160239092
 31
0.0
  0
ARC
  5
2D58
  8
AM_0
 10
519.13084323006365
 20
729.01411160239093
 30
0.0
 40
3.0
 50
180.00001000000091
 51
266.99999000000008
  0
ARC
  5
2D59
  8
AM_0
 10
513.13097323006355
 20
743.59621160239044
 30
0.0
 40
3.0
 50
0.0
 51
79.999998000001099
  0
ARC
  5
2D5A
  8
AM_0
 10
518.13097323006355
 20
738.47896160239043
 30
0.0
 40
2.0
 50
179.9999899999988
 51
268.00000999999861
  0
LINE
  5
2D5B
  8
AM_0
 10
516.13090323006361
 20
735.47694160239075
 30
0.0
 11
508.75236323006362
 21
734.5526916023905
 31
0.0
  0
ARC
  5
2D5C
  8
AM_0
 10
508.13097323006372
 20
739.51399160239043
 30
0.0
 40
5.0
 50
180.00001000000091
 51
277.13983000000007
  0
LINE
  5
2D5D
  8
AM_0
 10
503.13097323006372
 20
727.82869160239079
 30
0.0
 11
503.13097323006372
 21
735.6774416023909
 31
0.0
  0
LINE
  5
2D5E
  8
AM_0
 10
504.60997323006359
 20
748.14491160239072
 30
0.0
 11
513.65190323006357
 21
746.55055160239078
 31
0.0
  0
ARC
  5
2D5F
  8
AM_0
 10
505.13097323006338
 20
751.09932160239089
 30
0.0
 40
3.0
 50
179.9999899999988
 51
260.00000000000119
  0
LINE
  5
2D60
  8
AM_0
 10
529.13090323006372
 20
736.09358160239071
 30
0.0
 11
542.20079323006371
 21
736.55000160239069
 31
0.0
  0
LINE
  5
2D61
  8
AM_0
 10
518.06114323006375
 20
736.48018160239042
 30
0.0
 11
529.13097323006366
 21
736.09358160239071
 31
0.0
  0
ARC
  5
2D62
  8
AM_0
 10
542.13097323006355
 20
738.5487816023907
 30
0.0
 40
2.0
 50
272.00000000000369
 51
0.0
  0
LINE
  5
2D63
  8
AM_0
 10
548.63097323006377
 20
728.9867716023906
 30
0.0
 11
548.63097323006377
 21
741.0191216023909
 31
0.0
  0
ARC
  5
2D64
  8
AM_0
 10
546.13097323006355
 20
740.66573160239091
 30
0.0
 40
2.0
 50
91.999998000000545
 51
180.00001000000091
  0
ARC
  5
2D65
  8
AM_0
 10
548.15904323006373
 20
787.27766160239094
 30
0.0
 40
2.0
 50
270.0
 51
296.80019999999712
  0
ARC
  5
2D66
  8
AM_0
 10
497.13097323006372
 20
785.69069160239042
 30
0.0
 40
5.0
 50
0.0
 51
87.999999999996248
  0
LINE
  5
2D67
  8
AM_0
 10
516.13084323006365
 20
813.65938160239068
 30
0.0
 11
542.13097323006355
 21
813.65938160239068
 31
0.0
  0
LINE
  5
2D68
  8
AM_0
 10
516.13084323006365
 20
787.65816160239092
 30
0.0
 11
542.13097323006355
 21
787.65816160239092
 31
0.0
  0
LINE
  5
2D69
  8
AM_0
 10
548.63097323006377
 20
787.65816160239092
 30
0.0
 11
548.63097323006377
 21
813.65938160239068
 31
0.0
  0
ARC
  5
2D6A
  8
AM_0
 10
542.13097323006355
 20
785.65816160239092
 30
0.0
 40
2.0
 50
0.0
 51
90.00000299999769
  0
ARC
  5
2D6B
  8
AM_0
 10
542.13097323006355
 20
815.65938160239079
 30
0.0
 40
2.0
 50
270.0
 51
0.0
  0
ARC
  5
2D6C
  8
AM_0
 10
547.6805332300637
 20
819.54335160239089
 30
0.0
 40
3.0
 50
54.348324000004709
 51
90.00000299999769
  0
ARC
  5
2D6D
  8
AM_0
 10
636.13097323006377
 20
784.02315160239073
 30
0.0
 40
5.0
 50
272.00000000000369
 51
0.0
  0
ARC
  5
2D6E
  8
AM_0
 10
591.13097323006377
 20
750.68013160239059
 30
0.0
 40
8.0
 50
272.00000000000369
 51
0.0
  0
LINE
  5
2D6F
  8
AM_0
 10
573.22130323006365
 20
742.04982160239069
 30
0.0
 11
591.4101432300638
 21
742.68501160239043
 31
0.0
  0
LINE
  5
2D70
  8
AM_0
 10
556.9473732300637
 20
729.06050160239045
 30
0.0
 11
566.31456323006375
 21
738.93727160239075
 31
0.0
  0
ARC
  5
2D71
  8
AM_0
 10
573.57030323006347
 20
732.05586160239091
 30
0.0
 40
10.0
 50
91.999998000000545
 51
136.5170399999985
  0
CIRCLE
  5
2D72
  8
AM_0
 10
626.13097323006355
 20
750.2239516023908
 30
0.0
 40
9.5
  0
LINE
  5
2D73
  8
AM_0
 10
599.13097323006377
 20
756.22395160239068
 30
0.0
 11
599.13097323006377
 21
750.68013160239059
 31
0.0
  0
LINE
  5
2D74
  8
AM_0
 10
599.13097323006377
 20
732.67146160239042
 30
0.0
 11
599.13097323006377
 21
750.68013160239059
 31
0.0
  0
ARC
  5
2D75
  8
AM_0
 10
604.13097323006366
 20
732.67146160239042
 30
0.0
 40
5.0
 50
180.00001000000091
 51
271.99999000000139
  0
ARC
  5
2D76
  8
AM_0
 10
611.13097323006377
 20
774.2239516023908
 30
0.0
 40
8.0
 50
270.0
 51
0.0
  0
ARC
  5
2D77
  8
AM_0
 10
609.13097323006355
 20
756.22395160239068
 30
0.0
 40
10.0
 50
90.00000299999769
 51
180.00001000000091
  0
LINE
  5
2D78
  8
AM_0
 10
609.13097323006355
 20
766.2239516023908
 30
0.0
 11
611.13097323006377
 21
766.2239516023908
 31
0.0
  0
LINE
  5
2D79
  8
AM_0
 10
626.45598323006379
 20
778.68227160239076
 30
0.0
 11
636.3054032300638
 21
779.02620160239076
 31
0.0
  0
ARC
  5
2D7A
  8
AM_0
 10
626.73509323006363
 20
770.68709160239075
 30
0.0
 40
8.0
 50
91.999998000000545
 51
167.22924999999881
  0
LINE
  5
2D7B
  8
AM_0
 10
647.13097323006355
 20
733.03273160239075
 30
0.0
 11
647.13097323006355
 21
772.41512160239074
 31
0.0
  0
ARC
  5
2D7C
  8
AM_0
 10
643.13097323006355
 20
733.03273160239075
 30
0.0
 40
4.0
 50
272.00000000000369
 51
0.0
  0
ARC
  5
2D7D
  8
AM_0
 10
643.13097323006355
 20
772.41512160239074
 30
0.0
 40
4.0
 50
0.0
 51
81.786789000000198
  0
ARC
  5
2D7E
  8
AM_0
 10
644.13097323006377
 20
779.34334160239075
 30
0.0
 40
3.0
 50
180.00001000000091
 51
261.78677999999701
  0
ARC
  5
2D7F
  8
AM_0
 10
644.13097323006377
 20
831.46657160239079
 30
0.0
 40
3.0
 50
315.0
 51
0.0
  0
ARC
  5
2D80
  8
AM_0
 10
644.13097323006377
 20
822.98128160239071
 30
0.0
 40
3.0
 50
135.0
 51
180.00001000000091
  0
ARC
  5
2D81
  8
AM_0
 10
644.13097323006377
 20
822.98128160239071
 30
0.0
 40
3.0
 50
135.0
 51
180.00001000000091
  0
ARC
  5
2D82
  8
AM_0
 10
644.13097323006377
 20
831.46657160239079
 30
0.0
 40
3.0
 50
315.0
 51
0.0
  0
LINE
  5
2D83
  8
AM_0
 10
642.00975323006355
 20
825.10262160239074
 30
0.0
 11
646.25236323006357
 21
829.34523160239075
 31
0.0
  0
LINE
  5
2D84
  8
AM_0
 10
647.13097323006355
 20
842.7239516023908
 30
0.0
 11
651.13097323006355
 21
842.7239516023908
 31
0.0
  0
POLYLINE
  5
2D85
  8
AM_0
 66
     1
 10
0.0
 20
0.0
 30
0.0
  0
VERTEX
  5
2D86
  8
AM_0
 10
549.06066323006371
 20
944.95538160239073
 30
0.0
 42
-0.11075703
  0
VERTEX
  5
2D87
  8
AM_0
 10
561.94163323006364
 20
935.04767160239089
 30
0.0
 42
-0.20375918
  0
VERTEX
  5
2D88
  8
AM_0
 10
564.19933323006364
 20
927.38219160239089
 30
0.0
  0
VERTEX
  5
2D89
  8
AM_0
 10
549.42953323006361
 20
908.46705160239071
 30
0.0
 42
-1.0
  0
SEQEND
  5
2D8A
  8
AM_0
  0
ARC
  5
2D8B
  8
AM_0
 10
549.69163323006399
 20
994.50594160239075
 30
0.0
 40
10.0
 50
43.482964999999631
 51
87.999999999996248
  0
LINE
  5
2D8C
  8
AM_0
 10
546.06114323006375
 20
987.78340160239031
 30
0.0
 11
570.66423323006381
 21
986.92421160239076
 31
0.0
  0
LINE
  5
2D8D
  8
AM_0
 10
534.13097323006355
 20
1005.22389160239
 30
0.0
 11
643.27055323006357
 21
1001.412671602391
 31
0.0
  0
CIRCLE
  5
2D8E
  8
AM_0
 10
476.13097323006372
 20
980.2239516023908
 30
0.0
 40
9.5
  0
ARC
  5
2D8F
  8
AM_0
 10
505.13097323006338
 20
979.34846160239078
 30
0.0
 40
3.0
 50
99.999999999998593
 51
180.00001000000091
  0
LINE
  5
2D90
  8
AM_0
 10
516.13084323006365
 20
874.76332160239076
 30
0.0
 11
516.13084323006365
 21
1001.433671602389
 31
0.0
  0
LINE
  5
2D91
  8
AM_0
 10
529.13097323006366
 20
869.22389160239072
 30
0.0
 11
529.13097323006366
 21
1004.96187160239
 31
0.0
  0
LINE
  5
2D92
  8
AM_0
 10
544.13097323006355
 20
991.89906160239104
 30
0.0
 11
544.13097323006355
 21
944.78969160239069
 31
0.0
  0
LINE
  5
2D93
  8
AM_0
 10
455.13097323006338
 20
997.28786160239031
 30
0.0
 11
455.13097323006338
 21
960.80086160239068
 31
0.0
  0
LINE
  5
2D94
  8
AM_0
 10
458.78227323006371
 20
956.81606160239085
 30
0.0
 11
502.13090323006361
 21
953.02351160239084
 31
0.0
  0
LINE
  5
2D95
  8
AM_0
 10
467.63097323006338
 20
938.72395160239091
 30
0.0
 11
497.30540323006369
 21
939.76021160239043
 31
0.0
  0
LINE
  5
2D96
  8
AM_0
 10
467.63097323006338
 20
904.69856160239078
 30
0.0
 11
502.13097323006372
 21
904.69856160239078
 31
0.0
  0
LINE
  5
2D97
  8
AM_0
 10
467.63097323006338
 20
926.8025716023908
 30
0.0
 11
502.13097323006372
 21
926.8025716023908
 31
0.0
  0
POLYLINE
  5
2D98
  8
AM_0
 66
     1
 10
0.0
 20
0.0
 30
0.0
  0
VERTEX
  5
2D99
  8
AM_0
 10
437.89450323006372
 20
882.15368160239075
 30
0.0
 42
-0.037107926
  0
VERTEX
  5
2D9A
  8
AM_0
 10
442.17270323006358
 20
899.99989160239079
 30
0.0
 42
-0.032389855
  0
VERTEX
  5
2D9B
  8
AM_0
 10
448.87518323006373
 20
917.08841160239069
 30
0.0
 42
-0.029578605
  0
VERTEX
  5
2D9C
  8
AM_0
 10
457.63097323006372
 20
933.22395160239068
 30
0.0
  0
SEQEND
  5
2D9D
  8
AM_0
  0
ARC
  5
2D9E
  8
AM_0
 10
454.6309732300636
 20
885.7400716023908
 30
0.0
 40
3.0
 50
272.00000000000369
 51
0.0
  0
LINE
  5
2D9F
  8
AM_0
 10
467.63097323006338
 20
904.69856160239078
 30
0.0
 11
457.63097323006372
 21
904.69856160239078
 31
0.0
  0
ARC
  5
2DA0
  8
AM_0
 10
454.6309732300636
 20
935.26387160239074
 30
0.0
 40
3.0
 50
272.00000000000369
 51
0.0
  0
LINE
  5
2DA1
  8
AM_0
 10
467.63097323006338
 20
926.8025716023908
 30
0.0
 11
457.63097323006372
 21
926.8025716023908
 31
0.0
  0
LINE
  5
2DA2
  8
AM_0
 10
467.63090323006338
 20
938.72395160239091
 30
0.0
 11
460.5262932300638
 21
938.47585160239043
 31
0.0
  0
ARC
  5
2DA3
  8
AM_0
 10
460.63097323006372
 20
935.4776816023907
 30
0.0
 40
3.0
 50
91.999998000000545
 51
180.00001000000091
  0
ARC
  5
2DA4
  8
AM_0
 10
459.13097323006338
 20
960.80086160239068
 30
0.0
 40
4.0
 50
180.00001000000091
 51
265.00001000000032
  0
LINE
  5
2DA5
  8
AM_0
 10
502.13097323006372
 20
869.22389160239072
 30
0.0
 11
502.13097323006372
 21
979.3650716023908
 31
0.0
  0
ARC
  5
2DA6
  8
AM_0
 10
513.13097323006355
 20
865.22395160239068
 30
0.0
 40
10.0
 50
203.5782699999985
 51
336.4217200000013
  0
ARC
  5
2DA7
  8
AM_0
 10
513.13097323006355
 20
865.22395160239068
 30
0.0
 40
10.0
 50
23.57803699999776
 51
156.42196000000081
  0
LINE
  5
2DA8
  8
AM_0
 10
496.63097323006338
 20
869.22389160239072
 30
0.0
 11
529.63097323006355
 21
869.22389160239072
 31
0.0
  0
LINE
  5
2DA9
  8
AM_0
 10
496.63097323006338
 20
861.22389160239072
 30
0.0
 11
529.63097323006355
 21
861.22389160239072
 31
0.0
  0
ARC
  5
2DAA
  8
AM_0
 10
496.63097323006338
 20
865.22389160239072
 30
0.0
 40
3.9999962
 50
90.00000299999769
 51
270.0
  0
ARC
  5
2DAB
  8
AM_0
 10
529.63097323006355
 20
865.22389160239072
 30
0.0
 40
3.9999962
 50
270.0
 51
90.00000299999769
  0
ARC
  5
2DAC
  8
AM_0
 10
547.6805332300637
 20
910.90450160239072
 30
0.0
 40
3.0
 50
270.0
 51
305.65166999999718
  0
ARC
  5
2DAD
  8
AM_0
 10
497.13097323006372
 20
944.75716160239074
 30
0.0
 40
5.0
 50
272.00000000000369
 51
0.0
  0
LINE
  5
2DAE
  8
AM_0
 10
516.13084323006365
 20
942.78969160239069
 30
0.0
 11
542.13097323006355
 21
942.78969160239069
 31
0.0
  0
LINE
  5
2DAF
  8
AM_0
 10
516.13084323006365
 20
916.7884716023907
 30
0.0
 11
542.13097323006355
 21
916.7884716023907
 31
0.0
  0
LINE
  5
2DB0
  8
AM_0
 10
548.63097323006377
 20
942.78969160239069
 30
0.0
 11
548.63097323006377
 21
916.7884716023907
 31
0.0
  0
ARC
  5
2DB1
  8
AM_0
 10
542.13097323006355
 20
914.78847160239081
 30
0.0
 40
2.0
 50
0.0
 51
90.00000299999769
  0
ARC
  5
2DB2
  8
AM_0
 10
542.13097323006355
 20
944.78969160239069
 30
0.0
 40
2.0
 50
270.0
 51
0.0
  0
ARC
  5
2DB3
  8
AM_0
 10
548.15904323006373
 20
943.17012160239085
 30
0.0
 40
2.0
 50
63.199809000002318
 51
90.00000299999769
  0
LINE
  5
2DB4
  8
AM_0
 10
458.92155323006358
 20
1001.28236160239
 30
0.0
 11
534.13090323006372
 21
1005.22395160239
 31
0.0
  0
ARC
  5
2DB5
  8
AM_0
 10
459.13097323006338
 20
997.28786160239031
 30
0.0
 40
4.0
 50
92.999999000001679
 51
180.00001000000091
  0
ARC
  5
2DB6
  8
AM_0
 10
519.13084323006365
 20
1001.433671602389
 30
0.0
 40
3.0
 50
92.999999000001679
 51
180.00001000000091
  0
ARC
  5
2DB7
  8
AM_0
 10
513.13097323006355
 20
986.8516416023906
 30
0.0
 40
3.0
 50
280.00001000000128
 51
0.0
  0
ARC
  5
2DB8
  8
AM_0
 10
518.13097323006355
 20
991.96889160239084
 30
0.0
 40
2.0
 50
91.999998000000545
 51
180.00001000000091
  0
LINE
  5
2DB9
  8
AM_0
 10
516.13090323006361
 20
994.97090160239043
 30
0.0
 11
508.75236323006362
 21
995.89516160239077
 31
0.0
  0
ARC
  5
2DBA
  8
AM_0
 10
508.13097323006372
 20
990.93391160239071
 30
0.0
 40
5.0
 50
82.860167000000104
 51
180.00001000000091
  0
LINE
  5
2DBB
  8
AM_0
 10
503.13097323006372
 20
1002.61916160239
 30
0.0
 11
503.13097323006372
 21
994.77040160239073
 31
0.0
  0
LINE
  5
2DBC
  8
AM_0
 10
504.61003323006372
 20
982.30293160239069
 30
0.0
 11
513.65190323006357
 21
983.89729160239074
 31
0.0
  0
LINE
  5
2DBD
  8
AM_0
 10
529.13090323006372
 20
994.35426160239035
 30
0.0
 11
542.20079323006371
 21
993.89784160239071
 31
0.0
  0
LINE
  5
2DBE
  8
AM_0
 10
518.06120323006337
 20
993.9677316023907
 30
0.0
 11
529.13097323006366
 21
994.35432160239077
 31
0.0
  0
LINE
  5
2DBF
  8
AM_0
 10
548.63097323006377
 20
989.50380160239069
 30
0.0
 11
548.63097323006377
 21
1001.457231602389
 31
0.0
  0
ARC
  5
2DC0
  8
AM_0
 10
546.13097323006355
 20
989.78212160239036
 30
0.0
 40
2.0
 50
180.00001000000091
 51
267.99999999999631
  0
ARC
  5
2DC1
  8
AM_0
 10
542.13097323006355
 20
991.89906160239104
 30
0.0
 40
2.0
 50
0.0
 51
87.999999999996248
  0
CIRCLE
  5
2DC2
  8
AM_0
 10
626.13097323006355
 20
980.2239516023908
 30
0.0
 40
9.5
  0
LINE
  5
2DC3
  8
AM_0
 10
599.13097323006377
 20
974.22395160239068
 30
0.0
 11
599.13097323006377
 21
979.76778160239076
 31
0.0
  0
LINE
  5
2DC4
  8
ﾁｭｳｼﾝｾﾝ1
 10
626.13097323006355
 20
997.2239516023908
 30
0.0
 11
626.13097323006355
 21
963.2239516023908
 31
0.0
  0
LINE
  5
2DC5
  8
AM_0
 10
647.13097323006355
 20
997.41512160239074
 30
0.0
 11
647.13097323006355
 21
958.03273160239075
 31
0.0
  0
ARC
  5
2DC6
  8
AM_0
 10
636.13097323006377
 20
946.42470160239043
 30
0.0
 40
5.0
 50
0.0
 51
87.999999999996248
  0
ARC
  5
2DC7
  8
AM_0
 10
611.13097323006377
 20
956.22395160239068
 30
0.0
 40
8.0
 50
0.0
 51
90.00000299999769
  0
ARC
  5
2DC8
  8
AM_0
 10
609.13097323006355
 20
974.22395160239068
 30
0.0
 40
10.0
 50
180.00001000000091
 51
270.0
  0
LINE
  5
2DC9
  8
AM_0
 10
609.13097323006355
 20
964.2239516023908
 30
0.0
 11
611.13097323006377
 21
964.2239516023908
 31
0.0
  0
LINE
  5
2DCA
  8
AM_0
 10
626.45598323006379
 20
951.7656416023907
 30
0.0
 11
636.30547323006363
 21
951.4217116023907
 31
0.0
  0
ARC
  5
2DCB
  8
AM_0
 10
626.73509323006363
 20
959.76076160239074
 30
0.0
 40
8.0
 50
192.7707500000011
 51
267.99999999999631
  0
ARC
  5
2DCC
  8
AM_0
 10
665.13097323006377
 20
865.22389160239072
 30
0.0
 40
6.0000037999999991
 50
90.00000299999769
 51
270.0
  0
LINE
  5
2DCD
  8
AM_0
 10
665.13097323006377
 20
871.22389160239038
 30
0.0
 11
665.13097323006377
 21
859.22389160239095
 31
0.0
  0
LINE
  5
2DCE
  8
AM_0
 10
647.13097323006355
 20
887.72395160239068
 30
0.0
 11
651.13097323006355
 21
887.72395160239068
 31
0.0
  0
ARC
  5
2DCF
  8
AM_0
 10
644.13097323006377
 20
913.46657160239079
 30
0.0
 40
3.0
 50
180.00001000000091
 51
225.0
  0
ARC
  5
2DD0
  8
AM_0
 10
644.13097323006377
 20
904.98128160239071
 30
0.0
 40
3.0
 50
0.0
 51
44.999998000001611
  0
ARC
  5
2DD1
  8
AM_0
 10
644.13097323006377
 20
904.98128160239071
 30
0.0
 40
3.0
 50
0.0
 51
45.000001000003799
  0
ARC
  5
2DD2
  8
AM_0
 10
644.13097323006377
 20
913.46657160239079
 30
0.0
 40
3.0
 50
179.9999899999988
 51
225.0
  0
LINE
  5
2DD3
  8
AM_0
 10
642.00969323006382
 20
911.34523160239075
 30
0.0
 11
646.25236323006357
 21
907.10255160239046
 31
0.0
  0
ARC
  5
2DD4
  8
AM_0
 10
643.13097323006355
 20
958.03273160239075
 30
0.0
 40
4.0
 50
278.2132199999964
 51
0.0
  0
ARC
  5
2DD5
  8
AM_0
 10
644.13097323006377
 20
951.10451160239074
 30
0.0
 40
3.0
 50
98.213209000002095
 51
180.00001000000091
  0
LINE
  5
2DD6
  8
ﾁｭｳｼﾝｾﾝ1
 10
609.13097323006355
 20
980.2239516023908
 30
0.0
 11
643.13097323006355
 21
980.2239516023908
 31
0.0
  0
ARC
  5
2DD7
  8
AM_0
 10
591.13097323006377
 20
979.76778160239076
 30
0.0
 40
8.0
 50
0.0
 51
87.999999999996248
  0
LINE
  5
2DD8
  8
AM_0
 10
573.22130323006365
 20
988.3980316023908
 30
0.0
 11
591.4101432300638
 21
987.76283160239075
 31
0.0
  0
LINE
  5
2DD9
  8
AM_0
 10
556.94743323006378
 20
1001.38728160239
 30
0.0
 11
566.31450323006356
 21
991.51057160239031
 31
0.0
  0
ARC
  5
2DDA
  8
AM_0
 10
573.57030323006347
 20
998.39192160239077
 30
0.0
 40
10.0
 50
223.48296000000141
 51
267.99999999999631
  0
LINE
  5
2DDB
  8
AM_0
 10
599.13097323006377
 20
997.77644160239072
 30
0.0
 11
599.13097323006377
 21
979.76778160239076
 31
0.0
  0
ARC
  5
2DDC
  8
AM_0
 10
604.13097323006366
 20
997.77644160239072
 30
0.0
 40
5.0
 50
87.999999999996248
 51
180.00001000000091
  0
ARC
  5
2DDD
  8
AM_0
 10
643.13097323006355
 20
997.41512160239074
 30
0.0
 40
4.0
 50
0.0
 51
87.999999999996248
  0
LINE
  5
2DDE
  8
AM_0
 10
721.13094323006362
 20
844.2239516023908
 30
0.0
 11
721.13094323006362
 21
886.2239516023908
 31
0.0
  0
LINE
  5
2DDF
  8
ﾁｭｳｼﾝｾﾝ1
 10
476.13097323006372
 20
997.2239516023908
 30
0.0
 11
476.13097323006372
 21
963.2239516023908
 31
0.0
  0
LINE
  5
2DE0
  8
ﾁｭｳｼﾝｾﾝ1
 10
459.13097323006338
 20
980.2239516023908
 30
0.0
 11
493.13097323006372
 21
980.2239516023908
 31
0.0
  0
LINE
  5
2DE1
  8
ﾁｭｳｼﾝｾﾝ1
 10
476.13097323006372
 20
767.2239516023908
 30
0.0
 11
476.13097323006372
 21
733.2239516023908
 31
0.0
  0
LINE
  5
2DE2
  8
ﾁｭｳｼﾝｾﾝ1
 10
459.13097323006338
 20
750.2239516023908
 30
0.0
 11
493.13097323006372
 21
750.2239516023908
 31
0.0
  0
LINE
  5
2DE3
  8
ﾁｭｳｼﾝｾﾝ1
 10
626.13097323006355
 20
767.2239516023908
 30
0.0
 11
626.13097323006355
 21
733.2239516023908
 31
0.0
  0
LINE
  5
2DE4
  8
ﾁｭｳｼﾝｾﾝ1
 10
609.13097323006355
 20
750.2239516023908
 30
0.0
 11
643.13097323006355
 21
750.2239516023908
 31
0.0
  0
TEXT
  5
2FC4
  8
AM_0
 10
873.63490401339095
 20
858.53954575665205
 30
0.0
 40
15.0
  1
VX04-240G~VX04-600G
  0
ENDSEC
  0
EOF
