  0
SECTION
  2
HEADER
  9
$ACADVER
  1
AC1009
  9
$INSBASE
 10
0.0
 20
0.0
 30
0.0
  9
$EXTMIN
 10
213.53996632916369
 20
269.92520904556301
 30
-0.0000000000112498
  9
$EXTMAX
 10
1176.5101272321881
 20
1106.0469315454991
 30
0.0000000000002956
  9
$LIMMIN
 10
0.0
 20
0.0
  9
$LIMMAX
 10
1422.5
 20
925.0
  9
$ORTHOMODE
 70
     0
  9
$REGENMODE
 70
     1
  9
$FILLMODE
 70
     1
  9
$QTEXTMODE
 70
     0
  9
$MIRRTEXT
 70
     1
  9
$DRAGMODE
 70
     2
  9
$LTSCALE
 40
5.0
  9
$OSMODE
 70
   551
  9
$ATTMODE
 70
     1
  9
$TEXTSIZE
 40
2.5
  9
$TRACEWID
 40
1.0
  9
$TEXTSTYLE
  7
STANDARD
  9
$CLAYER
  8
AM_0
  9
$CELTYPE
  6
BYLAYER
  9
$CECOLOR
 62
   256
  9
$DIMSCALE
 40
1.0
  9
$DIMASZ
 40
2.5
  9
$DIMEXO
 40
1.0
  9
$DIMDLI
 40
8.0
  9
$DIMRND
 40
0.0
  9
$DIMDLE
 40
0.0
  9
$DIMEXE
 40
0.6
  9
$DIMTP
 40
0.1
  9
$DIMTM
 40
0.1
  9
$DIMTXT
 40
2.5
  9
$DIMCEN
 40
0.0
  9
$DIMTSZ
 40
0.0
  9
$DIMTOL
 70
     0
  9
$DIMLIM
 70
     0
  9
$DIMTIH
 70
     0
  9
$DIMTOH
 70
     0
  9
$DIMSE1
 70
     0
  9
$DIMSE2
 70
     0
  9
$DIMTAD
 70
     1
  9
$DIMZIN
 70
     8
  9
$DIMBLK
  1

  9
$DIMASO
 70
     1
  9
$DIMSHO
 70
     1
  9
$DIMPOST
  1

  9
$DIMAPOST
  1
"
  9
$DIMALT
 70
     0
  9
$DIMALTD
 70
     2
  9
$DIMALTF
 40
0.0393701
  9
$DIMLFAC
 40
1.0
  9
$DIMTOFL
 70
     1
  9
$DIMTVP
 40
0.0
  9
$DIMTIX
 70
     0
  9
$DIMSOXD
 70
     0
  9
$DIMSAH
 70
     0
  9
$DIMBLK1
  1

  9
$DIMBLK2
  1

  9
$DIMSTYLE
  2
AM_ISO
  9
$DIMCLRD
 70
   256
  9
$DIMCLRE
 70
   256
  9
$DIMCLRT
 70
     4
  9
$DIMTFAC
 40
0.71
  9
$DIMGAP
 40
0.8
  9
$LUNITS
 70
     2
  9
$LUPREC
 70
     2
  9
$SKETCHINC
 40
1.0
  9
$FILLETRAD
 40
25.0
  9
$AUNITS
 70
     0
  9
$AUPREC
 70
     0
  9
$MENU
  1
.
  9
$ELEVATION
 40
0.0
  9
$PELEVATION
 40
0.0
  9
$THICKNESS
 40
0.0
  9
$LIMCHECK
 70
     0
  9
$BLIPMODE
 70
     0
  9
$CHAMFERA
 40
10.0
  9
$CHAMFERB
 40
5.0
  9
$SKPOLY
 70
     0
  9
$TDCREATE
 40
2452066.4240539931
  9
$TDUPDATE
 40
2458541.414455452
  9
$TDINDWG
 40
0.1825123148
  9
$TDUSRTIMER
 40
0.1825121181
  9
$USRTIMER
 70
     1
  9
$ANGBASE
 50
0.0
  9
$ANGDIR
 70
     0
  9
$PDMODE
 70
     0
  9
$PDSIZE
 40
0.0
  9
$PLINEWID
 40
0.0
  9
$COORDS
 70
     1
  9
$SPLFRAME
 70
     0
  9
$SPLINETYPE
 70
     6
  9
$SPLINESEGS
 70
     8
  9
$ATTDIA
 70
     1
  9
$ATTREQ
 70
     1
  9
$HANDLING
 70
     1
  9
$HANDSEED
  5
2F48
  9
$SURFTAB1
 70
     6
  9
$SURFTAB2
 70
     6
  9
$SURFTYPE
 70
     6
  9
$SURFU
 70
     6
  9
$SURFV
 70
     6
  9
$UCSNAME
  2

  9
$UCSORG
 10
0.0
 20
0.0
 30
0.0
  9
$UCSXDIR
 10
1.0
 20
0.0
 30
0.0
  9
$UCSYDIR
 10
0.0
 20
1.0
 30
0.0
  9
$PUCSNAME
  2

  9
$PUCSORG
 10
0.0
 20
0.0
 30
0.0
  9
$PUCSXDIR
 10
1.0
 20
0.0
 30
0.0
  9
$PUCSYDIR
 10
0.0
 20
1.0
 30
0.0
  9
$USERI1
 70
     0
  9
$USERI2
 70
     0
  9
$USERI3
 70
     0
  9
$USERI4
 70
     0
  9
$USERI5
 70
     0
  9
$USERR1
 40
0.0
  9
$USERR2
 40
0.0
  9
$USERR3
 40
0.0
  9
$USERR4
 40
0.0
  9
$USERR5
 40
0.0
  9
$WORLDVIEW
 70
     1
  9
$SHADEDGE
 70
     3
  9
$SHADEDIF
 70
    70
  9
$TILEMODE
 70
     1
  9
$MAXACTVP
 70
    64
  9
$PLIMCHECK
 70
     0
  9
$PEXTMIN
 10
1.0000000000000000E+020
 20
1.0000000000000000E+020
 30
1.0000000000000000E+020
  9
$PEXTMAX
 10
-1.0000000000000000E+020
 20
-1.0000000000000000E+020
 30
-1.0000000000000000E+020
  9
$PLIMMIN
 10
0.0
 20
0.0
  9
$PLIMMAX
 10
420.0
 20
297.0
  9
$UNITMODE
 70
     0
  9
$VISRETAIN
 70
     1
  9
$PLINEGEN
 70
     0
  9
$PSLTSCALE
 70
     1
  0
ENDSEC
  0
SECTION
  2
TABLES
  0
TABLE
  2
VPORT
 70
     1
  0
VPORT
  2
*ACTIVE
 70
     0
 10
0.0
 20
0.0
 11
1.0
 21
1.0
 12
695.02504678067601
 22
687.98607029553079
 13
0.0
 23
0.0
 14
12.5
 24
12.5
 15
50.0
 25
50.0
 16
0.0
 26
0.0
 36
1.0
 17
0.0
 27
0.0
 37
0.0
 40
841.86168855828782
 41
1.7571592210767459
 42
50.0
 43
0.0
 44
0.0
 50
0.0
 51
0.0
 71
     0
 72
   100
 73
     1
 74
     3
 75
     0
 76
     0
 77
     0
 78
     0
  0
ENDTAB
  0
TABLE
  2
LTYPE
 70
    27
  0
LTYPE
  2
CONTINUOUS
 70
     0
  3
Solid line
 72
    65
 73
     0
 40
0.0
  0
LTYPE
  2
AM_ISO02W050
 70
     0
  3
__ __ __ __ __ __ __ __ __ __ __ __ __ __ __
 72
    65
 73
     2
 40
7.5
 49
6.0
 49
-1.5
  0
LTYPE
  2
AM_ISO08W050
 70
     0
  3
____ . ____ . ____ . ____ . ____ . ____ . ____
 72
    65
 73
     4
 40
18.0
 49
12.0
 49
-1.5
 49
3.0
 49
-1.5
  0
LTYPE
  2
AM_ISO09W050
 70
     0
  3
_____ . . _____ . . _____ . . ____ .. ____
 72
    65
 73
     6
 40
22.5
 49
12.0
 49
-1.5
 49
3.0
 49
-1.5
 49
3.0
 49
-1.5
  0
LTYPE
  2
AMCONSTR
 70
     0
  3
_______________________
 72
    65
 73
     2
 40
9999.0
 49
9999.0
 49
0.0
  0
LTYPE
  2
AM_ISO08W050X2
 70
     0
  3
__ . __ . __ . __ . __ . __
 72
    65
 73
     4
 40
9.0
 49
6.0
 49
-0.75
 49
1.5
 49
-0.75
  0
LTYPE
  2
AM_ISO02W050X2
 70
     0
  3
 _ _ _ _ _ _ _ _ _ _ _ _
 72
    65
 73
     2
 40
3.75
 49
3.0
 49
-0.75
  0
LTYPE
  2
AMZIGZAG
 70
     0
  3
/\/-/\/-/\/-/\/-/\/-/\/
 72
    65
 73
     2
 40
11.000099999999991
 49
0.0001
 49
-11.0
  0
LTYPE
  2
ACISOWELD
 70
     0
  3
_ _ _ _ _
 72
    65
 73
     2
 40
2.0
 49
2.0
 49
-1.0
  0
LTYPE
  2
ACISOTGB
 70
     0
  3
__ . . __ . .
 72
    65
 73
     6
 40
9.0
 49
4.0
 49
-1.0
 49
1.0
 49
-1.0
 49
1.0
 49
-1.0
  0
LTYPE
  2
ACISOTGL
 70
     0
  3
_ _ _ _ _
 72
    65
 73
     2
 40
3.0
 49
2.0
 49
-1.0
  0
LTYPE
  2
CENTER
 70
     0
  3
__ . __
 72
    65
 73
     4
 40
7.0
 49
4.0
 49
-1.0
 49
1.0
 49
-1.0
  0
LTYPE
  2
PHANTOM2
 70
     0
  3
Phantom (.5x) ___ _ _ ___ _ _ ___ _ _ ___ _ _
 72
    65
 73
     6
 40
31.75
 49
15.875
 49
-3.174999999999998
 49
3.174999999999998
 49
-3.174999999999998
 49
3.174999999999998
 49
-3.174999999999998
  0
LTYPE
  2
ACANSTGBM
 70
     0
  3
__ . . __ . .
 72
    65
 73
     6
 40
9.0
 49
4.0
 49
-1.0
 49
1.0
 49
-1.0
 49
1.0
 49
-1.0
  0
LTYPE
  2
ACANSTGLM
 70
     0
  3
_ _ _ _ _
 72
    65
 73
     2
 40
3.0
 49
2.0
 49
-1.0
  0
LTYPE
  2
GEN7
 70
     0
  3
____ . ____ . ____ . ____ . ____ . ____ . ____
 72
    65
 73
     4
 40
14.25
 49
9.75
 49
-1.5
 49
1.5
 49
-1.5
  0
LTYPE
  2
GEN3B
 70
     0
  3
 - - - - -
 72
    65
 73
     2
 40
1.0
 49
0.5
 49
-0.5
  0
LTYPE
  2
GEN7A
 70
     0
  3
__ . __ . __
 72
    65
 73
     4
 40
7.375
 49
4.75
 49
-0.875
 49
0.875
 49
-0.875
  0
LTYPE
  2
ACJISTGB
 70
     0
  3
__ . . __ . .
 72
    65
 73
     6
 40
9.0
 49
4.0
 49
-1.0
 49
1.0
 49
-1.0
 49
1.0
 49
-1.0
  0
LTYPE
  2
ACJISTGL
 70
     0
  3
_ _ _ _ _
 72
    65
 73
     2
 40
3.0
 49
2.0
 49
-1.0
  0
LTYPE
  2
HIDDEN
 70
     0
  3
Hidden __ __ __ __ __ __ __ __ __ __ __ __ __ _
 72
    65
 73
     2
 40
0.375
 49
0.25
 49
-0.125
  0
LTYPE
  2
CENTER2
 70
     0
  3
Center (.5x) ___ _ ___ _ ___ _ ___ _ ___ _ ___
 72
    65
 73
     4
 40
1.125
 49
0.75
 49
-0.125
 49
0.125
 49
-0.125
  0
LTYPE
  2
HIDDEN2
 70
     0
  3
Hidden (.5x) _ _ _ _ _ _ _ _ _ _ _ _ _ _ _ _ _
 72
    65
 73
     2
 40
0.1875
 49
0.125
 49
-0.0625
  0
LTYPE
  2
AMZIGZAG2
 70
     0
  3
/\/-/\/-/\/-/\/-/\/-/\/
 72
    65
 73
     2
 40
0.4401
 49
0.0001
 49
-0.4400000000000002
  0
LTYPE
  2
ACANSTGB
 70
     0
  3
__ . . __ . .
 72
    65
 73
     6
 40
0.35433070866
 49
0.15748031496
 49
-0.03937007874
 49
0.03937007874
 49
-0.03937007874
 49
0.03937007874
 49
-0.03937007874
  0
LTYPE
  2
ACANSTGL
 70
     0
  3
_ _ _ _ _
 72
    65
 73
     2
 40
0.11811023622
 49
0.07874015748
 49
-0.03937007874
  0
ENDTAB
  0
TABLE
  2
LAYER
 70
     7
  0
LAYER
  2
0
 70
     0
 62
     7
  6
CONTINUOUS
  0
LAYER
  2
AM_0
 70
     0
 62
     7
  6
CONTINUOUS
  0
LAYER
  2
AM_5
 70
     0
 62
     2
  6
CONTINUOUS
  0
LAYER
  2
DEFPOINTS
 70
     0
 62
     7
  6
CONTINUOUS
  0
LAYER
  2
ｶｸﾚｾﾝ2
 70
     0
 62
     3
  6
GEN3B
  0
LAYER
  2
ﾁｭｳｼﾝｾﾝ
 70
     0
 62
     1
  6
GEN7
  0
LAYER
  2
ﾁｭｳｼﾝｾﾝ1
 70
     0
 62
     1
  6
GEN7A
  0
ENDTAB
  0
TABLE
  2
STYLE
 70
     9
  0
STYLE
  2
STANDARD
 70
     0
 40
0.0
 41
0.8299999999999999
 50
0.0
 71
     0
 42
2.5
  3
txt.shx
  4
bigfont.shx
  0
STYLE
  2
ANNOTATIVE
 70
     0
 40
0.0
 41
1.0
 50
0.0
 71
     0
 42
0.2
  3
txt
  4

  0
STYLE
  2

 70
     1
 40
0.0
 41
1.0
 50
0.0
 71
     0
 42
2.5
  3
ltypeshp.shx
  4

  0
STYLE
  2
ACISOTS
 70
     0
 40
1.0
 41
1.0
 50
0.0
 71
     0
 42
2.5
  3
isocp.shx
  4
extfont.shx
  0
STYLE
  2
ACISOGDT
 70
     0
 40
0.0
 41
1.0
 50
0.0
 71
     0
 42
2.5
  3
amgdt.shx
  4

  0
STYLE
  2
ACANSTS
 70
     0
 40
1.0
 41
1.0
 50
0.0
 71
     0
 42
2.5
  3
romans.shx
  4
bigfont.shx
  0
STYLE
  2
ACANSGDT
 70
     0
 40
0.0
 41
1.0
 50
0.0
 71
     0
 42
2.5
  3
amgdt.shx
  4

  0
STYLE
  2
ACJISTS
 70
     0
 40
1.0
 41
1.0
 50
0.0
 71
     0
 42
2.5
  3
isocp.shx
  4
bigfont.shx
  0
STYLE
  2
ACJISGDT
 70
     0
 40
0.0
 41
1.0
 50
0.0
 71
     0
 42
2.5
  3
amgdt.shx
  4

  0
ENDTAB
  0
TABLE
  2
VIEW
 70
     6
  0
VIEW
  2
AM_VIEW1
 70
     0
 40
462.5
 10
416.07965009208078
 20
693.75
 41
832.15930018416213
 11
0.0
 21
0.0
 31
1.0
 12
0.0
 22
0.0
 32
0.0
 42
50.0
 43
0.0
 44
0.0
 50
0.0
 71
     0
  0
VIEW
  2
AM_VIEW2
 70
     0
 40
462.5
 10
1006.420349907918
 20
693.75
 41
832.15930018416213
 11
0.0
 21
0.0
 31
1.0
 12
0.0
 22
0.0
 32
0.0
 42
50.0
 43
0.0
 44
0.0
 50
0.0
 71
     0
  0
VIEW
  2
AM_VIEW3
 70
     0
 40
462.5
 10
416.07965009208078
 20
231.25
 41
832.15930018416213
 11
0.0
 21
0.0
 31
1.0
 12
0.0
 22
0.0
 32
0.0
 42
50.0
 43
0.0
 44
0.0
 50
0.0
 71
     0
  0
VIEW
  2
AM_VIEW4
 70
     0
 40
462.5
 10
1006.420349907918
 20
231.25
 41
832.15930018416213
 11
0.0
 21
0.0
 31
1.0
 12
0.0
 22
0.0
 32
0.0
 42
50.0
 43
0.0
 44
0.0
 50
0.0
 71
     0
  0
VIEW
  2
AM_VIEW5
 70
     0
 40
462.5
 10
711.24999999999966
 20
462.5
 41
832.15930018416179
 11
0.0
 21
0.0
 31
1.0
 12
0.0
 22
0.0
 32
0.0
 42
50.0
 43
0.0
 44
0.0
 50
0.0
 71
     0
  0
VIEW
  2
AM_VIEW6
 70
     0
 40
924.99075000000005
 10
711.24999999999966
 20
462.5
 41
1664.3019571823199
 11
0.0
 21
0.0
 31
1.0
 12
0.0
 22
0.0
 32
0.0
 42
50.0
 43
0.0
 44
0.0
 50
0.0
 71
     0
  0
ENDTAB
  0
TABLE
  2
UCS
 70
     0
  0
ENDTAB
  0
TABLE
  2
APPID
 70
    95
  0
APPID
  2
ACAD
 70
     0
  0
APPID
  2
ACADANNOTATIVE
 70
     0
  0
APPID
  2
MCAD_NO_VIS
 70
     0
  0
APPID
  2
ACAD_TEMP_GRAPHIC
 70
     0
  0
APPID
  2
ACATTRIBSERVICES
 70
     0
  0
APPID
  2
GENIUS_GENREC_14
 70
     0
  0
APPID
  2
GENIUS_GENOBJ-N-REC_13
 70
     0
  0
APPID
  2
GENIUS_GENODEF_13
 70
     0
  0
APPID
  2
GENIUS_GENOLIS_13
 70
     0
  0
APPID
  2
GENIUS_GENOBJ-N-TIT_13
 70
     0
  0
APPID
  2
GENIUS_GENOENT_13
 70
     0
  0
APPID
  2
GENIUS_GENTITLE_13
 70
     0
  0
APPID
  2
GENIUS_GENOREF_13
 70
     0
  0
APPID
  2
GENIUS_GENSCREG_15
 70
     0
  0
APPID
  2
GENIUS_GENOBJ-N-SDF_13
 70
     0
  0
APPID
  2
GENIUS_GENFIL_13
 70
     0
  0
APPID
  2
GENIUS_GENOBJ-N-CHA_13
 70
     0
  0
APPID
  2
GENIUS_GENDTOL_13
 70
     0
  0
APPID
  2
GENIUS_GENOBJ-N-FIL_13
 70
     0
  0
APPID
  2
AD_DRAW
 70
     0
  0
APPID
  2
DESIGNERASSEMBLIES
 70
     0
  0
APPID
  2
ASURF_PCURVE_APPNAME
 70
     0
  0
APPID
  2
GENIUS_GE3SECT_13
 70
     0
  0
APPID
  2
GENIUS_GENCFG_13
 70
     0
  0
APPID
  2
GENIUS_GE3CFG0_13
 70
     0
  0
APPID
  2
GENIUS_GENCFG0_13
 70
     0
  0
APPID
  2
GENIUS_GENCFG1_13
 70
     0
  0
APPID
  2
GENIUS_GENCFG2_13
 70
     0
  0
APPID
  2
GENIUS_GENCFG3_13
 70
     0
  0
APPID
  2
GENIUS_GENCFG4_13
 70
     0
  0
APPID
  2
GENIUS_GEVCFG0_13
 70
     0
  0
APPID
  2
GENIUS_GENHINW_13
 70
     0
  0
APPID
  2
GENIUS_FIRSTVISTXT_14
 70
     0
  0
APPID
  2
GENIUS_GENOBJ-N-LEADER_13
 70
     0
  0
APPID
  2
GEV_VCCNULL_SWITCH_OFF
 70
     0
  0
APPID
  2
GENIUS_GEFCFG0_13
 70
     0
  0
APPID
  2
GENIUS_GENZVEED_13
 70
     0
  0
APPID
  2
GENIUS_GENSCREG_13
 70
     0
  0
APPID
  2
GENIUS_DUMCFG0_13
 70
     0
  0
APPID
  2
GEVID936201362
 70
     0
  0
APPID
  2
GEVDC
 70
     0
  0
APPID
  2
GEVCON
 70
     0
  0
APPID
  2
VCC
 70
     0
  0
APPID
  2
GEVPT
 70
     0
  0
APPID
  2
GEVIT
 70
     0
  0
APPID
  2
GENBH
 70
     0
  0
APPID
  2
GEVMK
 70
     0
  0
APPID
  2
GENIUS_GENBH_13
 70
     0
  0
APPID
  2
GENIUS_GENOBJ-NBEHI-BHF_13
 70
     0
  0
APPID
  2
GENIUS_GENOBJ-NBEHI-BHB_13
 70
     0
  0
APPID
  2
GENIUS_GENOBJ-F-DESC_13
 70
     0
  0
APPID
  2
GENIUS_GEFDESC_14
 70
     0
  0
APPID
  2
GENIUS_GENOBJ-F-PART_13
 70
     0
  0
APPID
  2
GENIUS_GEFSTDP_13
 70
     0
  0
APPID
  2
GENIUS_GEFPARTINS_13
 70
     0
  0
APPID
  2
GENIUS_GENTRA_14
 70
     0
  0
APPID
  2
GENIUS_GENINF13_13
 70
     0
  0
APPID
  2
GENIUS_GENOBJ-N-INFOPT_13
 70
     0
  0
APPID
  2
GENIUS_GENOBJ-N-RSSYM_13
 70
     0
  0
APPID
  2
GENIUS_GENSYMENT_13
 70
     0
  0
APPID
  2
GENIUS_GENSCSYM_13
 70
     0
  0
APPID
  2
GENIUS_GEFINFNAM_13
 70
     0
  0
APPID
  2
GENIUS_GENOBJ-N-CEN_13
 70
     0
  0
APPID
  2
GENIUS_GENOBJ-N-CRS_13
 70
     0
  0
APPID
  2
GENIUS_GENOBJ-N-CRC_13
 70
     0
  0
APPID
  2
GENIUS_GENCRC_14
 70
     0
  0
APPID
  2
GEVID942827039
 70
     0
  0
APPID
  2
GEVID942827040
 70
     0
  0
APPID
  2
GEVID942827041
 70
     0
  0
APPID
  2
GENIUS_GENOBJ-F-SCPASSM_13
 70
     0
  0
APPID
  2
GENIUS_GENDIMSH_14
 70
     0
  0
APPID
  2
GEVID942827042
 70
     0
  0
APPID
  2
GEVID946020473
 70
     0
  0
APPID
  2
GEVID946020474
 70
     0
  0
APPID
  2
GEVID946020475
 70
     0
  0
APPID
  2
GENIUS_GENOBJ-N-HTC_13
 70
     0
  0
APPID
  2
GENIUS_GENHATCH_13
 70
     0
  0
APPID
  2
GEVID948854295
 70
     0
  0
APPID
  2
GEVID939402019
 70
     0
  0
APPID
  2
GEVID952919491
 70
     0
  0
APPID
  2
GEVID952919492
 70
     0
  0
APPID
  2
GENIUS_GEFWELD_13
 70
     0
  0
APPID
  2
GENIUS_GENOBJ-F-WELS_13
 70
     0
  0
APPID
  2
GEVID952919493
 70
     0
  0
APPID
  2
GENIUS_GENOBJ-N-RSBK_13
 70
     0
  0
APPID
  2
GENIUS_GENOBJ-N-LIB_13
 70
     0
  0
APPID
  2
GENIUS_GENSCALE_13
 70
     0
  0
APPID
  2
GEVID986376691
 70
     0
  0
APPID
  2
DCO15
 70
     0
  0
APPID
  2
ACAD_DSTYLE_DIMBREAK
 70
     0
  0
APPID
  2
ACAD_DSTYLE_DIMJAG
 70
     0
  0
APPID
  2
ACAD_NAV_VCDISPLAY
 70
     0
  0
APPID
  2
ACADANNOPO
 70
     0
  0
APPID
  2
ACAD_EXEMPT_FROM_CAD_STANDARDS
 70
     0
  0
APPID
  2
ACAD_MLEADERVER
 70
     0
  0
ENDTAB
  0
TABLE
  2
DIMSTYLE
 70
    22
  0
DIMSTYLE
  2
STANDARD
 70
     0
  3

  4

  5

  6

  7

 40
1.0
 41
0.18
 42
0.0625
 43
0.38
 44
0.18
 45
0.0
 46
0.0
 47
0.0
 48
0.0
140
0.18
141
0.09
142
0.0
143
25.399999999999999
144
1.0
145
0.0
146
1.0
147
0.09
 71
     0
 72
     0
 73
     1
 74
     1
 75
     0
 76
     0
 77
     0
 78
     0
170
     0
171
     2
172
     0
173
     0
174
     0
175
     0
176
     0
177
     0
178
     0
  0
DIMSTYLE
  2
ANNOTATIVE
 70
     0
  3

  4

  5

  6

  7

 40
1.0
 41
0.18
 42
0.0625
 43
0.38
 44
0.18
 45
0.0
 46
0.0
 47
0.0
 48
0.0
140
0.18
141
0.09
142
0.0
143
25.399999999999999
144
1.0
145
0.0
146
1.0
147
0.09
 71
     0
 72
     0
 73
     1
 74
     1
 75
     0
 76
     0
 77
     0
 78
     0
170
     0
171
     2
172
     0
173
     0
174
     0
175
     0
176
     0
177
     0
178
     0
  0
DIMSTYLE
  2
AM_ISO
 70
     0
  3

  4
"
  5

  6

  7

 40
1.0
 41
2.5
 42
1.0
 43
8.0
 44
0.6
 45
0.0
 46
0.0
 47
0.1
 48
0.1
140
2.5
141
0.0
142
0.0
143
0.0393701
144
1.0
145
0.0
146
0.71
147
0.8
 71
     0
 72
     0
 73
     0
 74
     0
 75
     0
 76
     0
 77
     1
 78
     8
170
     0
171
     2
172
     1
173
     0
174
     0
175
     0
176
   256
177
   256
178
     4
  0
DIMSTYLE
  2
AM_ISO$3
 70
     0
  3

  4
"
  5

  6

  7

 40
1.0
 41
2.5
 42
1.0
 43
8.0
 44
0.6
 45
0.0
 46
0.0
 47
0.1
 48
0.1
140
2.5
141
0.0
142
0.0
143
0.0393701
144
1.0
145
0.0
146
0.71
147
0.8
 71
     0
 72
     0
 73
     0
 74
     1
 75
     0
 76
     0
 77
     1
 78
     8
170
     0
171
     2
172
     0
173
     0
174
     0
175
     0
176
   256
177
   256
178
     4
  0
DIMSTYLE
  2
AM_ISO$4
 70
     0
  3

  4
"
  5

  6

  7

 40
1.0
 41
2.5
 42
1.0
 43
8.0
 44
0.6
 45
0.0
 46
0.0
 47
0.1
 48
0.1
140
2.5
141
0.0
142
0.0
143
0.0393701
144
1.0
145
0.0
146
0.71
147
0.8
 71
     0
 72
     0
 73
     0
 74
     1
 75
     0
 76
     0
 77
     1
 78
     8
170
     0
171
     2
172
     0
173
     0
174
     0
175
     0
176
   256
177
   256
178
     4
  0
DIMSTYLE
  2
AM_ISO$6
 70
     0
  3

  4
"
  5

  6

  7

 40
1.0
 41
2.5
 42
1.0
 43
8.0
 44
0.6
 45
0.0
 46
0.0
 47
0.1
 48
0.1
140
2.5
141
0.0
142
0.0
143
0.0393701
144
1.0
145
0.0
146
0.71
147
0.8
 71
     0
 72
     0
 73
     0
 74
     0
 75
     0
 76
     0
 77
     0
 78
     8
170
     0
171
     2
172
     1
173
     0
174
     0
175
     0
176
   256
177
   256
178
     4
  0
DIMSTYLE
  2
AM_ISO$7
 70
     0
  3

  4
"
  5

  6

  7

 40
1.0
 41
2.5
 42
1.0
 43
8.0
 44
0.6
 45
0.0
 46
0.0
 47
0.1
 48
0.1
140
2.5
141
0.0
142
0.0
143
0.0393701
144
1.0
145
0.0
146
0.71
147
0.8
 71
     0
 72
     0
 73
     0
 74
     0
 75
     0
 76
     0
 77
     1
 78
     8
170
     0
171
     2
172
     1
173
     0
174
     0
175
     0
176
   256
177
   256
178
     4
  0
DIMSTYLE
  2
AM_ISO$SF
 70
     0
  3

  4
"
  5

  6

  7

 40
1.0
 41
2.5
 42
1.0
 43
10.0
 44
1.0
 45
0.0
 46
0.0
 47
0.1
 48
0.1
140
3.5
141
0.0
142
0.0
143
0.0393701
144
1.0
145
0.0
146
0.71
147
1.5
 71
     0
 72
     0
 73
     0
 74
     0
 75
     1
 76
     1
 77
     1
 78
     8
170
     0
171
     2
172
     1
173
     0
174
     0
175
     0
176
   256
177
   256
178
     2
  0
DIMSTYLE
  2
AM_ISO$SH
 70
     0
  3

  4
"
  5

  6

  7

 40
1.0
 41
2.5
 42
1.0
 43
10.0
 44
1.0
 45
0.0
 46
0.0
 47
0.1
 48
0.1
140
3.5
141
0.0
142
0.0
143
0.0393701
144
2.0
145
0.0
146
0.71
147
1.5
 71
     0
 72
     0
 73
     0
 74
     0
 75
     1
 76
     1
 77
     1
 78
     8
170
     0
171
     2
172
     1
173
     1
174
     0
175
     0
176
   256
177
   256
178
     2
  0
DIMSTYLE
  2
AM_JIS
 70
     0
  3

  4
"
  5

  6

  7

 40
1.0
 41
2.5
 42
1.0
 43
7.0
 44
1.0
 45
0.0
 46
0.0
 47
0.1
 48
0.1000000001
140
2.5
141
0.0
142
0.0
143
0.0393701
144
1.0
145
0.0
146
0.71
147
1.0
 71
     0
 72
     0
 73
     0
 74
     0
 75
     0
 76
     0
 77
     3
 78
     8
170
     0
171
     2
172
     1
173
     0
174
     0
175
     0
176
   256
177
   256
178
     4
  0
DIMSTYLE
  2
AM_JIS$3
 70
     0
  3

  4
"
  5

  6

  7

 40
1.0
 41
2.5
 42
1.0
 43
7.0
 44
1.0
 45
0.0
 46
0.0
 47
0.1
 48
0.1000000001
140
2.5
141
0.0
142
0.0
143
0.0393701
144
1.0
145
0.0
146
0.71
147
1.0
 71
     0
 72
     0
 73
     0
 74
     1
 75
     0
 76
     0
 77
     3
 78
     8
170
     0
171
     2
172
     0
173
     0
174
     0
175
     0
176
   256
177
   256
178
     4
  0
DIMSTYLE
  2
AM_JIS$4
 70
     0
  3

  4
"
  5

  6

  7

 40
1.0
 41
2.5
 42
1.0
 43
7.0
 44
1.0
 45
0.0
 46
0.0
 47
0.1
 48
0.1000000001
140
2.5
141
0.0
142
0.0
143
0.0393701
144
1.0
145
0.0
146
0.71
147
1.0
 71
     0
 72
     0
 73
     0
 74
     0
 75
     0
 76
     0
 77
     3
 78
     8
170
     0
171
     2
172
     0
173
     0
174
     0
175
     0
176
   256
177
   256
178
     4
  0
DIMSTYLE
  2
AM_JIS$6
 70
     0
  3

  4
"
  5

  6

  7

 40
1.0
 41
2.5
 42
1.0
 43
7.0
 44
1.0
 45
0.0
 46
0.0
 47
0.1
 48
0.1000000001
140
2.5
141
0.0
142
0.0
143
0.0393701
144
1.0
145
0.0
146
0.71
147
1.0
 71
     0
 72
     0
 73
     0
 74
     0
 75
     0
 76
     0
 77
     0
 78
     8
170
     0
171
     2
172
     1
173
     0
174
     0
175
     0
176
   256
177
   256
178
     4
  0
DIMSTYLE
  2
AM_JIS$7
 70
     0
  3

  4
"
  5

  6

  7

 40
1.0
 41
2.5
 42
1.0
 43
7.0
 44
1.0
 45
0.0
 46
0.0
 47
0.1
 48
0.1000000001
140
2.5
141
0.0
142
0.0
143
0.0393701
144
1.0
145
0.0
146
0.71
147
1.0
 71
     0
 72
     0
 73
     0
 74
     0
 75
     0
 76
     0
 77
     3
 78
     8
170
     0
171
     2
172
     1
173
     0
174
     0
175
     0
176
   256
177
   256
178
     4
  0
DIMSTYLE
  2
AM_JIS$SF
 70
     0
  3

  4
"
  5

  6

  7

 40
1.0
 41
2.5
 42
1.0
 43
10.0
 44
1.0
 45
0.0
 46
0.0
 47
0.1
 48
0.1
140
3.5
141
0.0
142
0.0
143
0.0393701
144
1.0
145
0.0
146
0.71
147
1.5
 71
     0
 72
     0
 73
     0
 74
     0
 75
     1
 76
     1
 77
     3
 78
     8
170
     0
171
     2
172
     1
173
     0
174
     0
175
     0
176
   256
177
   256
178
     4
  0
DIMSTYLE
  2
AM_JIS$SH
 70
     0
  3

  4
"
  5

  6

  7

 40
1.0
 41
2.5
 42
1.0
 43
10.0
 44
1.0
 45
0.0
 46
0.0
 47
0.1
 48
0.1
140
3.5
141
0.0
142
0.0
143
0.0393701
144
1.0
145
0.0
146
0.71
147
1.5
 71
     0
 72
     0
 73
     0
 74
     0
 75
     1
 76
     0
 77
     3
 78
     8
170
     0
171
     2
172
     1
173
     1
174
     0
175
     0
176
   256
177
   256
178
     4
  0
DIMSTYLE
  2
AM_ANSI
 70
     0
  3

  4
mm
  5

  6

  7

 40
1.0
 41
0.1
 42
0.05
 43
0.5
 44
0.1
 45
0.0
 46
0.0
 47
0.1
 48
0.1
140
0.12
141
0.0
142
0.0
143
25.399999999999999
144
1.0
145
0.0
146
0.71
147
0.06
 71
     0
 72
     0
 73
     1
 74
     1
 75
     0
 76
     0
 77
     0
 78
     7
170
     0
171
     2
172
     0
173
     0
174
     0
175
     0
176
   256
177
   256
178
     2
  0
DIMSTYLE
  2
AM_ANSI$3
 70
     0
  3

  4
mm
  5

  6

  7

 40
1.0
 41
0.1
 42
0.05
 43
0.5
 44
0.1
 45
0.0
 46
0.0
 47
0.1
 48
0.1
140
0.12
141
0.0
142
0.0
143
25.399999999999999
144
1.0
145
0.0
146
0.71
147
0.06
 71
     0
 72
     0
 73
     1
 74
     1
 75
     0
 76
     0
 77
     0
 78
     7
170
     0
171
     2
172
     0
173
     0
174
     0
175
     0
176
   256
177
   256
178
     2
  0
DIMSTYLE
  2
AM_ANSI$4
 70
     0
  3

  4
mm
  5

  6

  7

 40
1.0
 41
0.1
 42
0.05
 43
0.5
 44
0.1
 45
0.0
 46
0.0
 47
0.1
 48
0.1
140
0.12
141
0.0
142
0.0
143
25.399999999999999
144
1.0
145
0.0
146
0.71
147
0.06
 71
     0
 72
     0
 73
     1
 74
     1
 75
     0
 76
     0
 77
     0
 78
     7
170
     0
171
     2
172
     0
173
     0
174
     0
175
     0
176
   256
177
   256
178
     2
  0
DIMSTYLE
  2
AM_ANSI$7
 70
     0
  3

  4
mm
  5

  6

  7

 40
1.0
 41
0.1
 42
0.05
 43
0.5
 44
0.1
 45
0.0
 46
0.0
 47
0.1
 48
0.1
140
0.24
141
0.0
142
0.0
143
25.399999999999999
144
1.0
145
0.0
146
0.71
147
0.06
 71
     0
 72
     0
 73
     1
 74
     1
 75
     0
 76
     0
 77
     0
 78
     7
170
     0
171
     2
172
     0
173
     0
174
     0
175
     0
176
   256
177
   256
178
     2
  0
DIMSTYLE
  2
AM_ANSI$SF
 70
     0
  3

  4
mm
  5

  6

  7

 40
1.0
 41
0.1
 42
0.05
 43
0.5
 44
0.1
 45
0.0
 46
0.0
 47
0.1
 48
0.1
140
0.12
141
0.0
142
0.0
143
25.399999999999999
144
1.0
145
0.0
146
0.71
147
0.06
 71
     0
 72
     0
 73
     1
 74
     1
 75
     1
 76
     1
 77
     0
 78
     7
170
     0
171
     2
172
     0
173
     0
174
     0
175
     0
176
   256
177
   256
178
     2
  0
DIMSTYLE
  2
AM_ANSI$SH
 70
     0
  3

  4
mm
  5

  6

  7

 40
1.0
 41
0.1
 42
0.05
 43
0.5
 44
0.1
 45
0.0
 46
0.0
 47
0.1
 48
0.1
140
0.12
141
0.0
142
0.0
143
25.399999999999999
144
1.0
145
0.0
146
0.71
147
0.06
 71
     0
 72
     0
 73
     1
 74
     1
 75
     1
 76
     1
 77
     0
 78
     7
170
     0
171
     2
172
     0
173
     1
174
     0
175
     0
176
   256
177
   256
178
     2
  0
ENDTAB
  0
ENDSEC
  0
SECTION
  2
BLOCKS
  0
BLOCK
  8
0
  2
$MODEL_SPACE
 70
     0
 10
0.0
 20
0.0
 30
0.0
  3
$MODEL_SPACE
  1

  0
ENDBLK
  5
2DB8
  8
0
  0
BLOCK
 67
     1
  8
0
  2
$PAPER_SPACE
 70
     0
 10
0.0
 20
0.0
 30
0.0
  3
$PAPER_SPACE
  1

  0
ENDBLK
  5
2DB4
 67
     1
  8
0
  0
BLOCK
  8
0
  2
GENAXEH
 70
     0
 10
0.0
 20
0.0
 30
0.0
  3
GENAXEH
  1

  0
LINE
  5
2B30
  8
0
 10
-1.0
 20
0.0
 30
0.0
 11
1.0
 21
0.0
 31
0.0
  0
ENDBLK
  5
2B31
  8
0
  0
BLOCK
  8
0
  2
_OPEN30
 70
     0
 10
0.0
 20
0.0
 30
0.0
  3
_OPEN30
  1

  0
LINE
  5
2B34
  8
0
 62
     0
 10
-1.0
 20
0.26794919
 30
0.0
 11
0.0
 21
0.0
 31
0.0
  0
LINE
  5
2B35
  8
0
 62
     0
 10
0.0
 20
0.0
 30
0.0
 11
-1.0
 21
-0.26794919
 31
0.0
  0
LINE
  5
2B36
  8
0
 62
     0
 10
0.0
 20
0.0
 30
0.0
 11
-1.0
 21
0.0
 31
0.0
  0
ENDBLK
  5
2B37
  8
0
  0
BLOCK
  8
0
  2
_NONE
 70
     0
 10
0.0
 20
0.0
 30
0.0
  3
_NONE
  1

  0
ENDBLK
  5
2B3A
  8
0
  0
BLOCK
  8
0
  2
_ACMFILLEDHALF
 70
     0
 10
0.0
 20
0.0
 30
0.0
  3
_ACMFILLEDHALF
  1

  0
TRACE
  5
2EB0
  8
AM_0
 62
     0
 10
-0.8
 20
0.0
 30
0.0
 11
-1.0
 21
0.166666666
 31
0.0
 12
0.0
 22
0.0
 32
0.0
 13
0.0
 23
0.0
 33
0.0
  0
LINE
  5
2EB1
  8
AM_0
 62
     0
 10
-1.0
 20
0.0
 30
0.0
 11
-0.8
 21
0.0
 31
0.0
  0
ENDBLK
  5
2EAF
  8
0
  0
ENDSEC
  0
SECTION
  2
ENTITIES
  0
LINE
  5
2B3B
  8
AM_0
 10
633.37897243683665
 20
503.48746547549189
 30
0.0
 11
715.3789724368371
 21
503.48746547549189
 31
0.0
  0
LINE
  5
2B3C
  8
AM_0
 10
653.37897243683665
 20
507.48746547549189
 30
0.0
 11
715.3789724368371
 21
507.48746547549189
 31
0.0
  0
LINE
  5
2B3D
  8
ﾁｭｳｼﾝｾﾝ
 10
467.67290983913421
 20
475.98746547549212
 30
0.0
 11
720.80782243683655
 21
475.98746547549212
 31
0.0
  0
LINE
  5
2B3E
  8
AM_0
 10
633.37897243683665
 20
448.487465475492
 30
0.0
 11
715.3789724368371
 21
448.487465475492
 31
0.0
  0
LINE
  5
2B3F
  8
AM_0
 10
633.37897243683665
 20
505.987465475492
 30
0.0
 11
633.37897243683665
 21
445.98746547549212
 31
0.0
  0
LINE
  5
2B40
  8
AM_0
 10
385.2605724368367
 20
477.86902547549209
 30
0.0
 11
385.2605724368367
 21
446.27747047549178
 31
0.0
  0
ARC
  5
2B41
  8
AM_0
 10
326.37902243683669
 20
464.12970547549207
 30
0.0
 40
5.0
 50
272.0
 51
0.0
  0
LINE
  5
2B42
  8
AM_0
 10
331.37902243683669
 20
492.75864547549202
 30
0.0
 11
331.37902243683669
 21
449.27747047549201
 31
0.0
  0
LINE
  5
2B43
  8
AM_0
 10
406.37902243683669
 20
360.06516047549189
 30
0.0
 11
406.37902243683669
 21
501.73383047549203
 31
0.0
  0
LINE
  5
2B44
  8
AM_0
 10
416.37902243683669
 20
356.98746047549201
 30
0.0
 11
416.37902243683669
 21
504.987465475492
 31
0.0
  0
LINE
  5
2B45
  8
AM_0
 10
452.37897243683648
 20
595.08875047549213
 30
0.0
 11
452.37897243683648
 21
307.12131047549201
 31
0.0
  0
LINE
  5
2B46
  8
AM_0
 10
431.87897243683648
 20
535.65325047549209
 30
0.0
 11
431.87897243683648
 21
327.09323547549201
 31
0.0
  0
LINE
  5
2B47
  8
AM_0
 10
480.37897243683682
 20
597.9874504754921
 30
0.0
 11
480.37897243683682
 21
365.38138047549211
 31
0.0
  0
LINE
  5
2B48
  8
AM_0
 10
562.37897243683665
 20
512.94510547549214
 30
0.0
 11
562.37897243683665
 21
315.98746047549213
 31
0.0
  0
LINE
  5
2B49
  8
AM_0
 10
595.3789724368371
 20
580.31465047549204
 30
0.0
 11
595.3789724368371
 21
332.29447047549201
 31
0.0
  0
LINE
  5
2B4A
  8
AM_0
 10
627.37897243683665
 20
534.05610047549203
 30
0.0
 11
627.37897243683665
 21
417.91886047549173
 31
0.0
  0
LINE
  5
2B4B
  8
AM_0
 10
622.37897243683665
 20
556.40575047549214
 30
0.0
 11
622.37897243683665
 21
309.64771047549192
 31
0.0
  0
LINE
  5
2B4C
  8
AM_0
 10
485.37897243683659
 20
468.09345047549209
 30
0.0
 11
485.37897243683659
 21
378.22644547549203
 31
0.0
  0
LINE
  5
2B4D
  8
AM_0
 10
252.87903459618431
 20
421.77744047549203
 30
0.0
 11
271.73689444250027
 21
421.77744047549203
 31
0.0
  0
LINE
  5
2B4E
  8
AM_0
 10
252.87903459618431
 20
367.77744047549209
 30
0.0
 11
271.73689444250027
 21
367.77744047549209
 31
0.0
  0
LINE
  5
2B4F
  8
ﾁｭｳｼﾝｾﾝ
 10
483.0218607131473
 20
394.77744047549209
 30
0.0
 11
213.607041587167
 21
394.77744047549209
 31
0.0
  0
LINE
  5
2B50
  8
AM_0
 10
246.8790345961842
 20
403.27744047549203
 30
0.0
 11
246.8790345961842
 21
386.27744047549209
 31
0.0
  0
LINE
  5
2B51
  8
AM_0
 10
218.87903459618411
 20
404.77744047549203
 30
0.0
 11
218.87903459618411
 21
386.77744047549203
 31
0.0
  0
LINE
  5
2B52
  8
AM_0
 10
248.87903459618431
 20
411.86322691311892
 30
0.0
 11
248.87903459618431
 21
377.69165403786491
 31
0.0
  0
LINE
  5
2B53
  8
AM_0
 10
250.87903459618431
 20
369.77744047549209
 30
0.0
 11
250.87903459618431
 21
419.77744047549209
 31
0.0
  0
LINE
  5
2B54
  8
AM_0
 10
218.87903459618411
 20
386.77744047549203
 30
0.0
 11
246.8790345961842
 21
386.77744047549203
 31
0.0
  0
ARC
  5
2B55
  8
AM_0
 10
252.87903459618431
 20
369.77744047549209
 30
0.0
 40
2.0
 50
180.0
 51
270.0
1001
GENIUS_GENOBJ-N-FIL_13
1002
{
1000
OWNER
1000
GEN
1002
}
1001
GENIUS_GENODEF_13
1002
{
1000
HIER
1070
     0
1002
}
1002
{
1000
MANEDIT
1070
     0
1002
}
1002
{
1000
NOSEL
1070
     0
1002
}
1002
{
1000
BEHIND
1070
     0
1002
}
1002
{
1000
OTHER
1070
     0
1002
}
1002
{
1000
REACTOR
1002
}
  0
ARC
  5
2B56
  8
AM_0
 10
249.87903459618411
 20
377.69165403786491
 30
0.0
 40
1.0
 50
180.0
 51
225.00000000000421
1001
GENIUS_GENODEF_13
1002
{
1000
HIER
1070
     0
1002
}
1002
{
1000
MANEDIT
1070
     0
1002
}
1002
{
1000
NOSEL
1070
     0
1002
}
1002
{
1000
BEHIND
1070
     0
1002
}
1002
{
1000
OTHER
1070
     0
1002
}
1002
{
1000
REACTOR
1002
}
1001
GENIUS_GENOBJ-N-FIL_13
1002
{
1000
OWNER
1000
GEN
1002
}
  0
ARC
  5
2B57
  8
AM_0
 10
249.87903459618411
 20
374.86322691311892
 30
0.0
 40
1.0
 50
0.0
 51
45.000000000004363
1001
GENIUS_GENODEF_13
1002
{
1000
HIER
1070
     0
1002
}
1002
{
1000
MANEDIT
1070
     0
1002
}
1002
{
1000
NOSEL
1070
     0
1002
}
1002
{
1000
BEHIND
1070
     0
1002
}
1002
{
1000
OTHER
1070
     0
1002
}
1002
{
1000
REACTOR
1002
}
1001
GENIUS_GENOBJ-N-FIL_13
1002
{
1000
OWNER
1000
GEN
1002
}
  0
LINE
  5
2B58
  8
AM_0
 10
249.1719278149977
 20
376.98454725667852
 30
0.0
 11
250.58614137737069
 21
375.57033369430542
 31
0.0
  0
LINE
  5
2B59
  8
AM_0
 10
246.8790345961842
 20
386.2774458085421
 30
0.0
 11
248.87903459618431
 21
386.27744474193202
 31
0.0
  0
LINE
  5
2B5A
  8
AM_0
 10
218.87903459618411
 20
404.77744047549203
 30
0.0
 11
240.8790345961842
 21
404.77744047549203
 31
0.0
  0
LINE
  5
2B5B
  8
AM_0
 10
218.87903459618411
 20
402.77744047549209
 30
0.0
 11
246.8790345961842
 21
402.77744047549209
 31
0.0
  0
LINE
  5
2B5C
  8
AM_0
 10
246.8790345961842
 20
403.27744047549203
 30
0.0
 11
248.87903459618431
 21
403.27744047549203
 31
0.0
  0
LINE
  5
2B5D
  8
AM_0
 10
240.8790345961842
 20
402.77744047549209
 30
0.0
 11
240.8790345961842
 21
404.77744047549203
 31
0.0
  0
ARC
  5
2B5E
  8
AM_0
 10
252.87903459618431
 20
419.77744047549209
 30
0.0
 40
2.0
 50
90.0
 51
180.0
1001
GENIUS_GENOBJ-N-FIL_13
1002
{
1000
OWNER
1000
GEN
1002
}
1001
GENIUS_GENODEF_13
1002
{
1000
HIER
1070
     0
1002
}
1002
{
1000
MANEDIT
1070
     0
1002
}
1002
{
1000
NOSEL
1070
     0
1002
}
1002
{
1000
BEHIND
1070
     0
1002
}
1002
{
1000
OTHER
1070
     0
1002
}
1002
{
1000
REACTOR
1002
}
  0
ARC
  5
2B5F
  8
AM_0
 10
249.87903459618411
 20
414.69165403786519
 30
0.0
 40
1.0
 50
314.99999999999562
 51
0.0
1001
GENIUS_GENODEF_13
1002
{
1000
HIER
1070
     0
1002
}
1002
{
1000
MANEDIT
1070
     0
1002
}
1002
{
1000
NOSEL
1070
     0
1002
}
1002
{
1000
BEHIND
1070
     0
1002
}
1002
{
1000
OTHER
1070
     0
1002
}
1002
{
1000
REACTOR
1002
}
1001
GENIUS_GENOBJ-N-FIL_13
1002
{
1000
OWNER
1000
GEN
1002
}
  0
ARC
  5
2B60
  8
AM_0
 10
249.87903459618411
 20
411.86322691311892
 30
0.0
 40
1.0
 50
134.99999999999551
 51
180.0
1001
GENIUS_GENODEF_13
1002
{
1000
HIER
1070
     0
1002
}
1002
{
1000
MANEDIT
1070
     0
1002
}
1002
{
1000
NOSEL
1070
     0
1002
}
1002
{
1000
BEHIND
1070
     0
1002
}
1002
{
1000
OTHER
1070
     0
1002
}
1002
{
1000
REACTOR
1002
}
1001
GENIUS_GENOBJ-N-FIL_13
1002
{
1000
OWNER
1000
GEN
1002
}
  0
LINE
  5
2B61
  8
AM_0
 10
249.1719278149977
 20
412.57033369430542
 30
0.0
 11
250.58614137737069
 21
413.98454725667852
 31
0.0
  0
LINE
  5
2B62
  8
AM_0
 10
397.37897243683648
 20
275.9874604754919
 30
0.0
 11
627.37897243683665
 21
275.9874604754919
 31
0.0
  0
LINE
  5
2B63
  8
AM_0
 10
445.58502243683688
 20
305.98746047549213
 30
0.0
 11
433.97497243683688
 21
320.96729047549201
 31
0.0
  0
LINE
  5
2B64
  8
AM_0
 10
453.73102243683678
 20
308.855350475492
 30
0.0
 11
484.42427243683687
 21
373.96225547549199
 31
0.0
  0
LINE
  5
2B65
  8
AM_0
 10
402.37897243683648
 20
305.98746047549213
 30
0.0
 11
449.20837243683678
 21
305.98746047549213
 31
0.0
  0
LINE
  5
2B66
  8
AM_0
 10
397.37897243683648
 20
300.98746047549213
 30
0.0
 11
397.37897243683648
 21
275.9874604754919
 31
0.0
  0
LINE
  5
2B67
  8
ｶｸﾚｾﾝ2
 10
417.87897243683682
 20
305.98746047549213
 30
0.0
 11
417.87897243683682
 21
275.9874604754919
 31
0.0
  0
LINE
  5
2B68
  8
ﾁｭｳｼﾝｾﾝ1
 10
427.37897243683648
 20
309.89533047549202
 30
0.0
 11
427.37897243683648
 21
272.9874604754919
 31
0.0
  0
ARC
  5
2B69
  8
AM_0
 10
402.37897243683648
 20
300.98746047549213
 30
0.0
 40
5.0
 50
90.000003000000007
 51
180.00001
  0
LINE
  5
2B6A
  8
ｶｸﾚｾﾝ2
 10
436.87897243683642
 20
305.98746047549213
 30
0.0
 11
436.87897243683642
 21
275.9874604754919
 31
0.0
  0
ARC
  5
2B6B
  8
AM_0
 10
449.20837243683678
 20
310.98746047549213
 30
0.0
 40
5.0
 50
270.0
 51
334.75947000000002
  0
LINE
  5
2B6C
  8
AM_0
 10
316.37902243683669
 20
446.27747047549178
 30
0.0
 11
396.11662243683662
 21
446.27747047549178
 31
0.0
  0
LINE
  5
2B6D
  8
AM_0
 10
341.55347243683673
 20
363.7370654754921
 30
0.0
 11
403.38402243683669
 21
361.57788547549188
 31
0.0
  0
LINE
  5
2B6E
  8
AM_0
 10
316.37902243683669
 20
432.77378047549212
 30
0.0
 11
392.26982243683682
 21
432.77378047549212
 31
0.0
  0
LINE
  5
2B6F
  8
AM_0
 10
341.37902243683669
 20
401.78055547549201
 30
0.0
 11
406.37902243683669
 21
401.78055547549201
 31
0.0
  0
LINE
  5
2B70
  8
AM_0
 10
338.61022243683669
 20
336.175145475492
 30
0.0
 11
405.72842243683669
 21
357.13358047549212
 31
0.0
  0
LINE
  5
2B71
  8
AM_0
 10
275.87903006623111
 20
421.77744047549203
 30
0.0
 11
275.87903006623111
 21
367.77744047549203
 31
0.0
  0
LINE
  5
2B72
  8
AM_0
 10
336.37902243683652
 20
396.78055547549212
 30
0.0
 11
336.37902243683652
 21
335.33862547549188
 31
0.0
  0
LINE
  5
2B73
  8
AM_0
 10
316.37902243683669
 20
330.7774704754919
 30
0.0
 11
316.37902243683669
 21
458.77747047549178
 31
0.0
  0
LINE
  5
2B74
  8
AM_0
 10
306.37902243683669
 20
457.77744047549203
 30
0.0
 11
306.37902243683669
 21
331.77744047549209
 31
0.0
  0
LINE
  5
2B75
  8
AM_0
 10
316.37902243683669
 20
330.77744047549209
 30
0.0
 11
332.51857243683668
 21
331.34104047549192
 31
0.0
  0
LINE
  5
2B76
  8
AM_0
 10
316.37902243683669
 20
343.2774704754919
 30
0.0
 11
336.37902243683652
 21
343.2774704754919
 31
0.0
  0
LINE
  5
2B77
  8
AM_0
 10
316.37902243683669
 20
356.78116547549189
 30
0.0
 11
336.37902243683652
 21
356.78116547549189
 31
0.0
  0
LINE
  5
2B78
  8
AM_0
 10
304.9145563427694
 20
338.74191419895368
 30
0.0
 11
278.80796225436558
 21
364.84850828735762
 31
0.0
  0
ARC
  5
2B79
  8
AM_0
 10
301.37902243683669
 20
335.20638029302108
 30
0.0
 40
5.0
 50
0.0
 51
45.000000000004363
1001
GENIUS_GENODEF_13
1002
{
1000
HIER
1070
     0
1002
}
1002
{
1000
MANEDIT
1070
     0
1002
}
1002
{
1000
NOSEL
1070
     0
1002
}
1002
{
1000
BEHIND
1070
     0
1002
}
1002
{
1000
OTHER
1070
     0
1002
}
1002
{
1000
REACTOR
1002
}
1001
GENIUS_GENOBJ-N-FIL_13
1002
{
1000
OWNER
1000
GEN
1002
}
  0
LINE
  5
2B7A
  8
AM_0
 10
316.37902243683669
 20
330.77744047549209
 30
0.0
 11
307.37902243683652
 21
330.77744047549209
 31
0.0
  0
ARC
  5
2B7B
  8
AM_0
 10
307.37902243683652
 20
331.77744047549209
 30
0.0
 40
1.0
 50
180.0
 51
270.0
1001
GENIUS_GENODEF_13
1002
{
1000
HIER
1070
     0
1002
}
1002
{
1000
MANEDIT
1070
     0
1002
}
1002
{
1000
NOSEL
1070
     0
1002
}
1002
{
1000
BEHIND
1070
     0
1002
}
1002
{
1000
OTHER
1070
     0
1002
}
1002
{
1000
REACTOR
1002
}
1001
GENIUS_GENOBJ-N-FIL_13
1002
{
1000
OWNER
1000
GEN
1002
}
  0
ARC
  5
2B7C
  8
AM_0
 10
271.73689444250027
 20
357.77744047549209
 30
0.0
 40
10.0
 50
45.000000000004363
 51
90.0
1001
GENIUS_GENODEF_13
1002
{
1000
HIER
1070
     0
1002
}
1002
{
1000
MANEDIT
1070
     0
1002
}
1002
{
1000
NOSEL
1070
     0
1002
}
1002
{
1000
BEHIND
1070
     0
1002
}
1002
{
1000
OTHER
1070
     0
1002
}
1002
{
1000
REACTOR
1002
}
1001
GENIUS_GENOBJ-N-FIL_13
1002
{
1000
OWNER
1000
GEN
1002
}
  0
ARC
  5
2B7D
  8
AM_0
 10
339.80262243683683
 20
332.35687547549179
 30
0.0
 40
4.000000049999997
 50
107.3416099999999
 51
158.11661000000001
  0
ARC
  5
2B7E
  8
AM_0
 10
332.37902243683652
 20
335.33862547549188
 30
0.0
 40
4.000000049999997
 50
272.0
 51
0.0
  0
ARC
  5
2B7F
  8
AM_0
 10
341.37902243683669
 20
358.74011547549202
 30
0.0
 40
5.0
 50
88.0
 51
180.00001
  0
LINE
  5
2B80
  8
AM_0
 10
316.37902243683669
 20
458.77744047549203
 30
0.0
 11
326.55347243683673
 21
459.1327254754919
 31
0.0
  0
LINE
  5
2B81
  8
AM_0
 10
304.9145563427694
 20
450.81296675203032
 30
0.0
 11
278.80796225436558
 21
424.70637266362638
 31
0.0
  0
ARC
  5
2B82
  8
AM_0
 10
271.73689444250027
 20
431.77744047549209
 30
0.0
 40
10.0
 50
270.0
 51
314.99999999999562
1001
GENIUS_GENODEF_13
1002
{
1000
HIER
1070
     0
1002
}
1002
{
1000
MANEDIT
1070
     0
1002
}
1002
{
1000
NOSEL
1070
     0
1002
}
1002
{
1000
BEHIND
1070
     0
1002
}
1002
{
1000
OTHER
1070
     0
1002
}
1002
{
1000
REACTOR
1002
}
1001
GENIUS_GENOBJ-N-FIL_13
1002
{
1000
OWNER
1000
GEN
1002
}
  0
POINT
  5
2B83
  8
AM_0
 10
316.37902243683669
 20
394.77744047549209
 30
0.0
  0
LINE
  5
2B84
  8
AM_0
 10
316.37902243683669
 20
458.77744047549203
 30
0.0
 11
307.37902243683652
 21
458.77744047549203
 31
0.0
  0
ARC
  5
2B85
  8
AM_0
 10
301.37902243683669
 20
454.3485006579628
 30
0.0
 40
5.0
 50
314.99999999999562
 51
0.0
1001
GENIUS_GENODEF_13
1002
{
1000
HIER
1070
     0
1002
}
1002
{
1000
MANEDIT
1070
     0
1002
}
1002
{
1000
NOSEL
1070
     0
1002
}
1002
{
1000
BEHIND
1070
     0
1002
}
1002
{
1000
OTHER
1070
     0
1002
}
1002
{
1000
REACTOR
1002
}
1001
GENIUS_GENOBJ-N-FIL_13
1002
{
1000
OWNER
1000
GEN
1002
}
  0
ARC
  5
2B86
  8
AM_0
 10
307.37902243683652
 20
457.77744047549203
 30
0.0
 40
1.0
 50
90.0
 51
180.0
1001
GENIUS_GENODEF_13
1002
{
1000
HIER
1070
     0
1002
}
1002
{
1000
MANEDIT
1070
     0
1002
}
1002
{
1000
NOSEL
1070
     0
1002
}
1002
{
1000
BEHIND
1070
     0
1002
}
1002
{
1000
OTHER
1070
     0
1002
}
1002
{
1000
REACTOR
1002
}
1001
GENIUS_GENOBJ-N-FIL_13
1002
{
1000
OWNER
1000
GEN
1002
}
  0
ARC
  5
2B87
  8
AM_0
 10
341.37902243683669
 20
396.78055547549212
 30
0.0
 40
5.0
 50
90.000003000000007
 51
180.00001
  0
ARC
  5
2B88
  8
AM_0
 10
328.37902243683669
 20
449.27747047549201
 30
0.0
 40
3.0000000500000001
 50
270.0
 51
0.0
  0
ARC
  5
2B89
  8
AM_0
 10
441.87897243683642
 20
327.09323547549201
 30
0.0
 40
10.0
 50
179.99998999999991
 51
217.77722999999989
  0
ARC
  5
2B8A
  8
AM_0
 10
426.8789724368367
 20
352.11774047549198
 30
0.0
 40
5.0
 50
0.0
 51
88.0
  0
ARC
  5
2B8B
  8
AM_0
 10
403.24437243683673
 20
357.58032547549197
 30
0.0
 40
4.000000049999997
 50
26.896937000000001
 51
88.0
  0
LINE
  5
2B8C
  8
AM_0
 10
416.37897243683642
 20
357.48746047549201
 30
0.0
 11
427.05347243683673
 21
357.11469047549201
 31
0.0
  0
LINE
  5
2B8D
  8
AM_0
 10
406.37902243683669
 20
367.98743047549209
 30
0.0
 11
431.87897243683648
 21
367.98743047549209
 31
0.0
  0
ARC
  5
2B8E
  8
AM_0
 10
406.92062243683671
 20
353.31531047549208
 30
0.0
 40
4.000000049999997
 50
88.0
 51
107.3416099999999
  0
LINE
  5
2B8F
  8
AM_0
 10
407.06017243683669
 20
357.31290047549209
 30
0.0
 11
416.37902243683669
 21
356.98746047549201
 31
0.0
  0
ARC
  5
2B90
  8
AM_0
 10
410.37897243683659
 20
361.19940547549197
 30
0.0
 40
4.000000049999997
 50
206.8969399999998
 51
268.0
  0
ARC
  5
2B91
  8
AM_0
 10
475.37897243683688
 20
378.22644547549203
 30
0.0
 40
10.0
 50
334.75947000000002
 51
0.0
  0
LINE
  5
2B92
  8
AM_0
 10
392.26992243683679
 20
432.77375047549202
 30
0.0
 11
406.37902243683669
 21
405.59168047549201
 31
0.0
  0
LINE
  5
2B93
  8
AM_0
 10
406.37902243683669
 20
392.16736547549209
 30
0.0
 11
431.87897243683648
 21
392.16736547549209
 31
0.0
  0
ARC
  5
2B94
  8
AM_0
 10
396.11662243683662
 20
442.27744047549203
 30
0.0
 40
4.000000049999997
 50
315.0
 51
90.000003000000007
  0
LINE
  5
2B95
  8
AM_0
 10
392.26982243683682
 20
432.77378047549212
 30
0.0
 11
398.94507243683688
 21
439.4490404754921
 31
0.0
  0
LINE
  5
2B96
  8
AM_0
 10
572.37897243683665
 20
305.98746047549213
 30
0.0
 11
622.37897243683665
 21
305.98746047549213
 31
0.0
  0
LINE
  5
2B97
  8
ﾁｭｳｼﾝｾﾝ1
 10
597.37897243683665
 20
309.89533047549202
 30
0.0
 11
597.37897243683665
 21
272.9874604754919
 31
0.0
  0
LINE
  5
2B98
  8
ｶｸﾚｾﾝ2
 10
587.87897243683688
 20
305.98746047549213
 30
0.0
 11
587.87897243683688
 21
275.9874604754919
 31
0.0
  0
ARC
  5
2B99
  8
AM_0
 10
572.37897243683665
 20
315.98746047549213
 30
0.0
 40
10.0
 50
179.99998999999991
 51
270.0
  0
LINE
  5
2B9A
  8
AM_0
 10
627.37897243683665
 20
300.98746047549213
 30
0.0
 11
627.37897243683665
 21
275.9874604754919
 31
0.0
  0
LINE
  5
2B9B
  8
ｶｸﾚｾﾝ2
 10
606.87897243683665
 20
305.98746047549213
 30
0.0
 11
606.87897243683665
 21
275.9874604754919
 31
0.0
  0
ARC
  5
2B9C
  8
AM_0
 10
622.37897243683665
 20
300.98746047549213
 30
0.0
 40
5.0
 50
0.0
 51
90.000003000000007
  0
ARC
  5
2B9D
  8
AM_0
 10
627.37897243683665
 20
309.64771047549192
 30
0.0
 40
5.0
 50
179.99998999999991
 51
240.00001
  0
LINE
  5
2B9E
  8
AM_0
 10
562.37897243683665
 20
322.29447047549201
 30
0.0
 11
585.3789724368371
 21
322.29447047549201
 31
0.0
  0
ARC
  5
2B9F
  8
AM_0
 10
585.3789724368371
 20
332.29447047549201
 30
0.0
 40
10.0
 50
270.0
 51
0.0
  0
ARC
  5
2BA0
  8
AM_0
 10
625.37897243683688
 20
417.91886047549173
 30
0.0
 40
2.0000000500000001
 50
272.0
 51
0.0
  0
ARC
  5
2BA1
  8
AM_0
 10
624.37897243683665
 20
413.88150547549191
 30
0.0
 40
2.0000000500000001
 50
91.999997999999948
 51
180.00001
  0
LINE
  5
2BA2
  8
AM_0
 10
624.30922243683642
 20
415.88022547549178
 30
0.0
 11
625.44882243683685
 21
415.92002047549198
 31
0.0
  0
LINE
  5
2BA3
  8
AM_0
 10
627.37897243683665
 20
445.98746547549212
 30
0.0
 11
633.37897243683665
 21
445.98746547549212
 31
0.0
  0
LINE
  5
2BA4
  8
AM_0
 10
485.37897243683659
 20
468.09345047549209
 30
0.0
 11
505.37897243683682
 21
468.09345047549209
 31
0.0
  0
LINE
  5
2BA5
  8
AM_0
 10
480.37902243683669
 20
597.9874504754921
 30
0.0
 11
500.55347243683661
 21
597.28295047549204
 31
0.0
  0
ARC
  5
2BA6
  8
AM_0
 10
471.66262243683678
 20
606.12755047549194
 30
0.0
 40
1.0
 50
15.0
 51
78.786709999999999
  0
ARC
  5
2BA7
  8
AM_0
 10
453.095422436837
 20
606.12755047549194
 30
0.0
 40
1.0
 50
101.21329
 51
164.99999
  0
ARC
  5
2BA8
  8
AM_0
 10
462.37897243683642
 20
623.98745047549198
 30
0.0
 40
25.000000499999999
 50
306.46672000000001
 51
233.53328999999999
  0
LINE
  5
2BA9
  8
AM_0
 10
334.27427243683672
 20
495.7568104754921
 30
0.0
 11
402.51862243683678
 21
498.1399604754921
 31
0.0
  0
LINE
  5
2BAA
  8
AM_0
 10
336.20447243683668
 20
476.15595047549198
 30
0.0
 11
383.68597243683678
 21
477.81403047549202
 31
0.0
  0
ARC
  5
2BAB
  8
AM_0
 10
336.37902243683652
 20
471.15903547549198
 30
0.0
 40
5.0
 50
91.999997999999948
 51
180.00001
  0
ARC
  5
2BAC
  8
AM_0
 10
334.37902243683652
 20
492.75864547549202
 30
0.0
 40
3.0000000500000001
 50
91.999997999999948
 51
180.00001
  0
ARC
  5
2BAD
  8
AM_0
 10
402.37897243683648
 20
502.13752047549212
 30
0.0
 40
4.000000049999997
 50
272.0
 51
350.16761000000002
  0
ARC
  5
2BAE
  8
AM_0
 10
402.37897243683648
 20
500.64429547549207
 30
0.0
 40
4.000000049999997
 50
315.0
 51
0.0
  0
LINE
  5
2BAF
  8
AM_0
 10
386.37477243683679
 20
478.98316047549213
 30
0.0
 11
405.20747243683678
 21
497.8158654754921
 31
0.0
  0
ARC
  5
2BB0
  8
AM_0
 10
383.54627243683677
 20
481.81165047549212
 30
0.0
 40
4.000000049999997
 50
272.0
 51
315.0
  0
LINE
  5
2BB1
  8
AM_0
 10
406.37902243683669
 20
469.80756047549198
 30
0.0
 11
431.87897243683648
 21
469.80756047549198
 31
0.0
  0
LINE
  5
2BB2
  8
AM_0
 10
406.37902243683669
 20
493.98746547549212
 30
0.0
 11
431.87897243683648
 21
493.98746547549212
 31
0.0
  0
LINE
  5
2BB3
  8
AM_0
 10
416.37902243683669
 20
504.48746547549189
 30
0.0
 11
427.05352243683677
 21
504.86020547549208
 31
0.0
  0
LINE
  5
2BB4
  8
AM_0
 10
410.12187243683678
 20
504.76892547549198
 30
0.0
 11
416.37902243683669
 21
504.98743547549202
 31
0.0
  0
ARC
  5
2BB5
  8
AM_0
 10
410.2614724368367
 20
500.77140047549199
 30
0.0
 40
4.000000049999997
 50
91.999997999999948
 51
170.16762
  0
ARC
  5
2BB6
  8
AM_0
 10
426.8789724368367
 20
509.85718547549197
 30
0.0
 40
5.0
 50
272.0
 51
0.0
  0
LINE
  5
2BB7
  8
AM_0
 10
433.27607243683678
 20
540.75130047549214
 30
0.0
 11
446.68042243683669
 21
563.37115047549196
 31
0.0
  0
ARC
  5
2BB8
  8
AM_0
 10
441.87897243683642
 20
535.65325047549209
 30
0.0
 40
10.0
 50
149.34933000000001
 51
180.00001
  0
LINE
  5
2BB9
  8
AM_0
 10
446.68042243683669
 20
563.37115047549196
 30
0.0
 11
451.68042243683669
 21
571.80865047549196
 31
0.0
  0
LINE
  5
2BBA
  8
AM_0
 10
447.37897243683648
 20
595.9875004754922
 30
0.0
 11
447.37897243683648
 21
565.92015047549205
 31
0.0
  0
ARC
  5
2BBB
  8
AM_0
 10
442.37897243683642
 20
565.92015047549205
 30
0.0
 40
5.0
 50
329.34933000000001
 51
0.0
  0
LINE
  5
2BBC
  8
AM_0
 10
452.58492243683679
 20
606.98745047549198
 30
0.0
 11
472.17297243683669
 21
606.98745047549198
 31
0.0
  0
LINE
  5
2BBD
  8
AM_0
 10
454.30922243683682
 20
597.08755047549198
 30
0.0
 11
480.07897243683669
 21
597.9874504754921
 31
0.0
  0
LINE
  5
2BBE
  8
AM_0
 10
449.37897243683642
 20
597.9874504754921
 30
0.0
 11
480.37897243683682
 21
597.9874504754921
 31
0.0
  0
ARC
  5
2BBF
  8
AM_0
 10
447.37897243683648
 20
574.35765047549205
 30
0.0
 40
5.0
 50
329.34933000000001
 51
0.0
  0
ARC
  5
2BC0
  8
AM_0
 10
449.37897243683642
 20
595.9875004754922
 30
0.0
 40
2.0000000500000001
 50
90.000003000000007
 51
180.00001
  0
ARC
  5
2BC1
  8
AM_0
 10
454.37897243683642
 20
595.08875047549213
 30
0.0
 40
2.0000000500000001
 50
91.999997999999948
 51
180.00001
  0
ARC
  5
2BC2
  8
AM_0
 10
443.95392243683671
 20
599.05715047549211
 30
0.0
 40
6.0
 50
349.72994999999997
 51
53.533291000000013
  0
LINE
  5
2BC3
  8
AM_0
 10
449.87897243683642
 20
597.9874504754921
 30
0.0
 11
452.12947243683669
 21
606.38635047549201
 31
0.0
  0
ARC
  5
2BC4
  8
AM_0
 10
480.80397243683672
 20
599.05715047549211
 30
0.0
 40
6.0
 50
126.4666999999999
 51
190.27006
  0
LINE
  5
2BC5
  8
AM_0
 10
474.87902243683669
 20
597.9875004754922
 30
0.0
 11
472.62852243683642
 21
606.38640047549211
 31
0.0
  0
LINE
  5
2BC6
  8
AM_0
 10
452.90092243683671
 20
607.10840047549186
 30
0.0
 11
462.37892243683672
 21
608.98735047549212
 31
0.0
  0
CIRCLE
  5
2BC7
  8
AM_0
 10
462.37897243683642
 20
623.98745047549198
 30
0.0
 40
15.0
  0
LINE
  5
2BC8
  8
AM_0
 10
462.37902243683669
 20
608.9874504754921
 30
0.0
 11
471.85712243683679
 21
607.10845047549208
 31
0.0
  0
ARC
  5
2BC9
  8
AM_0
 10
605.3789724368371
 20
572.51295047549195
 30
0.0
 40
10.0
 50
179.99998999999991
 51
265.0
  0
LINE
  5
2BCA
  8
AM_0
 10
505.37897243683682
 20
592.28600047549196
 30
0.0
 11
505.37897243683682
 21
468.09345047549209
 31
0.0
  0
ARC
  5
2BCB
  8
AM_0
 10
577.37897243683665
 20
512.94510547549214
 30
0.0
 40
15.0
 50
90.000003000000007
 51
180.00001
  0
LINE
  5
2BCC
  8
AM_0
 10
577.37897243683665
 20
527.94510047549215
 30
0.0
 11
595.3789724368371
 21
527.94510047549215
 31
0.0
  0
LINE
  5
2BCD
  8
AM_0
 10
508.40727243683671
 20
593.00875047549187
 30
0.0
 11
585.72802243683691
 21
590.30860047549197
 31
0.0
  0
ARC
  5
2BCE
  8
AM_0
 10
500.37897243683688
 20
592.28600047549196
 30
0.0
 40
5.0
 50
34.887349999999998
 51
88.0
  0
ARC
  5
2BCF
  8
AM_0
 10
508.58177243683662
 20
598.00570047549195
 30
0.0
 40
5.0
 50
214.88733999999991
 51
268.0
  0
ARC
  5
2BD0
  8
AM_0
 10
585.3789724368371
 20
580.31465047549204
 30
0.0
 40
10.0
 50
0.0
 51
88.0
  0
ARC
  5
2BD1
  8
AM_0
 10
625.37897243683688
 20
534.05610047549203
 30
0.0
 40
2.0000000500000001
 50
0.0
 51
88.0
  0
LINE
  5
2BD2
  8
AM_0
 10
627.37897243683665
 20
505.987465475492
 30
0.0
 11
633.37897243683665
 21
505.987465475492
 31
0.0
  0
LINE
  5
2BD3
  8
AM_0
 10
653.37897243683665
 20
507.48746547549189
 30
0.0
 11
653.37897243683665
 21
503.48746547549189
 31
0.0
  0
ARC
  5
2BD4
  8
AM_0
 10
624.37897243683665
 20
538.09345047549209
 30
0.0
 40
2.0000000500000001
 50
179.99998999999991
 51
268.00000999999992
  0
LINE
  5
2BD5
  8
AM_0
 10
624.30922243683642
 20
536.09465047549213
 30
0.0
 11
625.44887243683661
 21
536.0549004754921
 31
0.0
  0
LINE
  5
2BD6
  8
AM_0
 10
604.50747243683691
 20
562.55105047549205
 30
0.0
 11
617.81477243683685
 21
561.38680047549201
 31
0.0
  0
ARC
  5
2BD7
  8
AM_0
 10
617.37897243683676
 20
556.40575047549214
 30
0.0
 40
5.0
 50
0.0
 51
84.999996999999979
  0
ARC
  5
2BD8
  8
AM_0
 10
1011.478742436835
 20
475.98746547549212
 30
0.0
 40
27.500000499999999
 50
106.91239
 51
73.087597000000002
  0
ARC
  5
2BD9
  8
AM_0
 10
1011.478742436835
 20
460.987465475492
 30
0.0
 40
100.0
 50
0.0
 51
90.000003000000007
  0
LINE
  5
2BDA
  8
AM_0
 10
715.3789724368371
 20
507.48746547549189
 30
0.0
 11
715.3789724368371
 21
448.487465475492
 31
0.0
  0
ARC
  5
2BDB
  8
AM_0
 10
1011.478742436835
 20
460.987465475492
 30
0.0
 40
100.0
 50
90.000003000000007
 51
180.00001
  0
ARC
  5
2BDC
  8
AM_0
 10
1011.478742436835
 20
475.98746547549212
 30
0.0
 40
60.0
 50
270.0
 51
90.000003000000007
  0
ARC
  5
2BDD
  8
AM_0
 10
1011.478742436835
 20
475.98746547549212
 30
0.0
 40
60.0
 50
90.000003000000007
 51
270.0
  0
LINE
  5
2BDE
  8
AM_0
 10
1176.478717436836
 20
305.98746047549213
 30
0.0
 11
1138.281372436837
 21
502.49579547549212
 31
0.0
  0
LINE
  5
2BDF
  8
AM_0
 10
1128.4787124368349
 20
382.95136047549198
 30
0.0
 11
1128.4787124368349
 21
526.921250475492
 31
0.0
  0
LINE
  5
2BE0
  8
AM_0
 10
846.47872243683696
 20
305.98746047549213
 30
0.0
 11
884.676067436837
 21
502.49576547549202
 31
0.0
  0
LINE
  5
2BE1
  8
AM_0
 10
894.47871243683664
 20
382.95136047549198
 30
0.0
 11
894.47871243683664
 21
526.921250475492
 31
0.0
  0
LINE
  5
2BE2
  8
ﾁｭｳｼﾝｾﾝ
 10
1011.478742436835
 20
269.98744547549211
 30
0.0
 11
1011.478742436835
 21
651.98675047549204
 31
0.0
  0
LINE
  5
2BE3
  8
AM_0
 10
1106.478712436834
 20
275.9874604754919
 30
0.0
 11
1176.478717436836
 21
275.9874604754919
 31
0.0
  0
LINE
  5
2BE4
  8
AM_0
 10
1111.478712436834
 20
305.98746047549213
 30
0.0
 11
1171.478717436835
 21
305.98746047549213
 31
0.0
  0
ARC
  5
2BE5
  8
AM_0
 10
934.66920243683671
 20
290.03577047549192
 30
0.0
 40
10.0
 50
54.999999000000003
 51
135.0
  0
LINE
  5
2BE6
  8
AM_0
 10
1011.478742436835
 20
282.98743047549198
 30
0.0
 11
921.47874243683668
 21
282.98743047549198
 31
0.0
  0
ARC
  5
2BE7
  8
AM_0
 10
899.47871243683664
 20
317.98743047549198
 30
0.0
 40
12.0
 50
270.0
 51
0.0
  0
LINE
  5
2BE8
  8
AM_0
 10
911.47874243683668
 20
305.98746047549213
 30
0.0
 11
851.47872243683673
 21
305.98746047549213
 31
0.0
  0
LINE
  5
2BE9
  8
AM_0
 10
916.47874243683657
 20
275.9874604754919
 30
0.0
 11
846.47872243683696
 21
275.9874604754919
 31
0.0
  0
LINE
  5
2BEA
  8
AM_0
 10
846.47872243683696
 20
305.98746047549213
 30
0.0
 11
846.47872243683696
 21
275.9874604754919
 31
0.0
  0
LINE
  5
2BEB
  8
ｶｸﾚｾﾝ2
 10
869.47872243683673
 20
305.98746047549213
 30
0.0
 11
869.47872243683673
 21
275.9874604754919
 31
0.0
  0
ARC
  5
2BEC
  8
AM_0
 10
851.47872243683673
 20
300.98746047549213
 30
0.0
 40
5.0
 50
90.000003000000007
 51
180.00001
  0
ARC
  5
2BED
  8
AM_0
 10
921.47874243683668
 20
277.98743047549192
 30
0.0
 40
5.0
 50
90.000003000000007
 51
180.00001
  0
LINE
  5
2BEE
  8
AM_0
 10
916.47874243683657
 20
300.98746047549213
 30
0.0
 11
916.47874243683657
 21
275.9874604754919
 31
0.0
  0
LINE
  5
2BEF
  8
ﾁｭｳｼﾝｾﾝ1
 10
878.97872243683673
 20
310.648715475492
 30
0.0
 11
878.97872243683673
 21
272.9874604754919
 31
0.0
  0
LINE
  5
2BF0
  8
ｶｸﾚｾﾝ2
 10
888.47871243683664
 20
305.98746047549213
 30
0.0
 11
888.47871243683664
 21
275.9874604754919
 31
0.0
  0
LINE
  5
2BF1
  8
AM_0
 10
919.40763743683658
 20
288.91638547549201
 30
0.0
 11
927.59812743683665
 21
297.10687547549179
 31
0.0
  0
ARC
  5
2BF2
  8
AM_0
 10
926.47874243683657
 20
281.845310475492
 30
0.0
 40
10.0
 50
135.0
 51
180.00001
  0
ARC
  5
2BF3
  8
AM_0
 10
911.47874243683668
 20
300.98746047549213
 30
0.0
 40
5.0
 50
0.0
 51
90.000003000000007
  0
LINE
  5
2BF4
  8
AM_0
 10
911.47874243683668
 20
317.98743047549198
 30
0.0
 11
911.47874243683668
 21
460.987465475492
 31
0.0
  0
ARC
  5
2BF5
  8
AM_0
 10
1011.478742436835
 20
382.98743047549209
 30
0.0
 40
117.0
 50
179.99998999999991
 51
211.27329999999989
  0
ARC
  5
2BF6
  8
AM_0
 10
1123.4787124368349
 20
317.98743047549198
 30
0.0
 40
12.0
 50
180.00001
 51
270.0
  0
LINE
  5
2BF7
  8
AM_0
 10
1011.478742436835
 20
291.9874604754919
 30
0.0
 11
1070.4880524368359
 21
291.9874604754919
 31
0.0
  0
LINE
  5
2BF8
  8
AM_0
 10
1011.478742436835
 20
282.98743047549198
 30
0.0
 11
1101.4787124368349
 21
282.98743047549198
 31
0.0
  0
LINE
  5
2BF9
  8
AM_0
 10
1011.478742436835
 20
291.9874604754919
 30
0.0
 11
952.46940243683673
 21
291.9874604754919
 31
0.0
  0
ARC
  5
2BFA
  8
AM_0
 10
952.46940243683673
 20
301.98746047549179
 30
0.0
 40
10.0
 50
235.0
 51
270.0
  0
LINE
  5
2BFB
  8
AM_0
 10
946.73362743683674
 20
293.7959654754921
 30
0.0
 11
940.40495243683665
 21
298.22733047549178
 31
0.0
  0
LINE
  5
2BFC
  8
AM_0
 10
1103.549787436835
 20
288.91638547549201
 30
0.0
 11
1095.359297436836
 21
297.10687547549179
 31
0.0
  0
ARC
  5
2BFD
  8
AM_0
 10
1070.4880524368359
 20
301.98746047549179
 30
0.0
 40
10.0
 50
270.0
 51
305.0
  0
ARC
  5
2BFE
  8
AM_0
 10
1088.288222436835
 20
290.03577047549192
 30
0.0
 40
10.0
 50
45.00000099999999
 51
125.0
  0
LINE
  5
2BFF
  8
AM_0
 10
1076.2238024368371
 20
293.7959654754921
 30
0.0
 11
1082.5524724368349
 21
298.22736047549199
 31
0.0
  0
ARC
  5
2C00
  8
AM_0
 10
1101.4787124368349
 20
277.98743047549192
 30
0.0
 40
5.0
 50
0.0
 51
90.000003000000007
  0
LINE
  5
2C01
  8
ﾁｭｳｼﾝｾﾝ1
 10
1143.9787124368349
 20
310.648715475492
 30
0.0
 11
1143.9787124368349
 21
272.9874604754919
 31
0.0
  0
LINE
  5
2C02
  8
AM_0
 10
1106.478712436834
 20
300.98746047549213
 30
0.0
 11
1106.478712436834
 21
275.9874604754919
 31
0.0
  0
LINE
  5
2C03
  8
ｶｸﾚｾﾝ2
 10
1153.4787124368349
 20
305.98746047549213
 30
0.0
 11
1153.4787124368349
 21
275.9874604754919
 31
0.0
  0
LINE
  5
2C04
  8
ｶｸﾚｾﾝ2
 10
1134.478727436835
 20
305.98746047549213
 30
0.0
 11
1134.478727436835
 21
275.9874604754919
 31
0.0
  0
ARC
  5
2C05
  8
AM_0
 10
1096.4787124368349
 20
281.845310475492
 30
0.0
 40
10.0
 50
0.0
 51
45.00000099999999
  0
ARC
  5
2C06
  8
AM_0
 10
1111.478712436834
 20
300.98746047549213
 30
0.0
 40
5.0
 50
90.000003000000007
 51
180.00001
  0
LINE
  5
2C07
  8
AM_0
 10
1111.478712436834
 20
317.98743047549198
 30
0.0
 11
1111.478712436834
 21
460.987465475492
 31
0.0
  0
ARC
  5
2C08
  8
AM_0
 10
1011.478742436835
 20
382.98743047549209
 30
0.0
 40
117.0
 50
328.72669999999988
 51
0.0
  0
LINE
  5
2C09
  8
AM_0
 10
1176.478717436836
 20
305.98746047549213
 30
0.0
 11
1176.478717436836
 21
275.9874604754919
 31
0.0
  0
ARC
  5
2C0A
  8
AM_0
 10
1171.478717436835
 20
300.98746047549213
 30
0.0
 40
5.0
 50
0.0
 51
90.000003000000007
  0
ARC
  5
2C0B
  8
AM_0
 10
1011.478742436835
 20
450.98746547549212
 30
0.0
 40
142.0
 50
90.000003000000007
 51
136.44563999999991
  0
ARC
  5
2C0C
  8
AM_0
 10
1011.478742436835
 20
450.98746547549212
 30
0.0
 40
147.0
 50
90.000003000000007
 51
134.5979599999998
  0
LINE
  5
2C0D
  8
ﾁｭｳｼﾝｾﾝ
 10
1089.1597797773791
 20
475.98746547549217
 30
0.0
 11
933.79764509629445
 21
475.98746547549217
 31
0.0
  0
ARC
  5
2C0E
  8
AM_0
 10
978.47871243683653
 20
484.45386547549202
 30
0.0
 40
100.0
 50
134.5979599999998
 51
180.00001
  0
ARC
  5
2C0F
  8
AM_0
 10
975.96742243683673
 20
484.75055547549209
 30
0.0
 40
93.0
 50
136.44563999999991
 51
169.0
  0
LINE
  5
2C10
  8
AM_0
 10
878.47872243683696
 20
484.45386547549202
 30
0.0
 11
878.47872243683696
 21
470.61316547549211
 31
0.0
  0
ARC
  5
2C11
  8
AM_0
 10
904.47871243683664
 20
526.921250475492
 30
0.0
 40
10.0
 50
149.4639199999998
 51
180.00001
  0
ARC
  5
2C12
  8
AM_0
 10
1020.762282436835
 20
606.12755047549194
 30
0.0
 40
1.0
 50
15.0
 51
78.786709999999999
  0
ARC
  5
2C13
  8
AM_0
 10
1002.195142436835
 20
606.12755047549194
 30
0.0
 40
1.0
 50
101.21329
 51
164.99999
  0
LINE
  5
2C14
  8
AM_0
 10
1006.478742436835
 20
643.9874504754921
 30
0.0
 11
1006.478742436835
 21
601.9874504754921
 31
0.0
  0
LINE
  5
2C15
  8
AM_0
 10
1016.478742436836
 20
643.9874504754921
 30
0.0
 11
1016.478742436836
 21
601.9874504754921
 31
0.0
  0
ARC
  5
2C16
  8
AM_0
 10
1011.478742436835
 20
450.98746547549212
 30
0.0
 40
147.0
 50
45.402042999999992
 51
90.000003000000007
  0
ARC
  5
2C17
  8
AM_0
 10
1011.478742436835
 20
450.98746547549212
 30
0.0
 40
142.0
 50
43.554364
 51
90.000003000000007
  0
LINE
  5
2C18
  8
AM_0
 10
1019.4787124368351
 20
497.487465475492
 30
0.0
 11
1019.4787124368351
 21
507.48746547549189
 31
0.0
  0
LINE
  5
2C19
  8
AM_0
 10
1003.478712436836
 20
497.487465475492
 30
0.0
 11
1003.478712436836
 21
507.48746547549189
 31
0.0
  0
LINE
  5
2C1A
  8
AM_0
 10
1003.478712436836
 20
497.487465475492
 30
0.0
 11
1019.4787124368351
 21
497.487465475492
 31
0.0
  0
CIRCLE
  5
2C1B
  8
AM_5
 10
1011.478742436835
 20
475.98746547549212
 30
0.0
 40
6.0
  0
CIRCLE
  5
2C1C
  8
AM_0
 10
1011.478742436835
 20
475.98746547549212
 30
0.0
 40
4.500000049999997
  0
LINE
  5
2C1D
  8
AM_0
 10
1003.478712436836
 20
507.48746547549189
 30
0.0
 11
1019.4787124368351
 21
507.48746547549189
 31
0.0
  0
ARC
  5
2C1E
  8
AM_0
 10
1018.4787124368351
 20
601.9874504754921
 30
0.0
 40
2.0000000500000001
 50
179.99998999999991
 51
270.0
  0
LINE
  5
2C1F
  8
AM_0
 10
998.83268743683664
 20
597.44250047549201
 30
0.0
 11
1001.229202436837
 21
606.38635047549201
 31
0.0
  0
ARC
  5
2C20
  8
AM_0
 10
1004.478712436836
 20
601.9874504754921
 30
0.0
 40
2.0000000500000001
 50
270.0
 51
0.0
  0
LINE
  5
2C21
  8
AM_0
 10
1024.124737436834
 20
597.44250047549201
 30
0.0
 11
1021.7282224368359
 21
606.38640047549211
 31
0.0
  0
ARC
  5
2C22
  8
AM_0
 10
1044.478712436834
 20
484.45386547549202
 30
0.0
 40
100.0
 50
0.0
 51
45.402042999999992
  0
ARC
  5
2C23
  8
AM_0
 10
1046.990002436836
 20
484.75055547549209
 30
0.0
 40
93.0
 50
11.0
 51
43.554364
  0
LINE
  5
2C24
  8
AM_0
 10
1144.478732436836
 20
484.45386547549202
 30
0.0
 11
1144.478732436836
 21
470.61316547549211
 31
0.0
  0
ARC
  5
2C25
  8
AM_0
 10
1118.4787124368361
 20
526.921250475492
 30
0.0
 40
10.0
 50
0.0
 51
30.536084999999989
  0
ARC
  5
2C26
  8
AM_0
 10
1011.478742436835
 20
643.9874504754921
 30
0.0
 40
5.0
 50
359.99998999999991
 51
179.99998999999991
  0
LINE
  5
2C27
  8
AM_0
 10
1016.478742436836
 20
607.99620047549195
 30
0.0
 11
1020.956772436836
 21
607.10845047549208
 31
0.0
  0
LINE
  5
2C28
  8
AM_0
 10
1002.000652436835
 20
607.10840047549186
 30
0.0
 11
1006.4787124368351
 21
607.99615047549196
 31
0.0
  0
LINE
  5
2C29
  8
AM_0
 10
316.37902243683669
 20
432.77375047549202
 30
0.0
 11
306.37902243683692
 21
432.77375047549202
 31
0.0
  0
LINE
  5
2C2A
  8
AM_0
 10
316.37902243683669
 20
446.27744047549203
 30
0.0
 11
306.37902243683692
 21
446.27744047549203
 31
0.0
  0
LINE
  5
2C2B
  8
AM_0
 10
316.37902243683669
 20
343.27744047549209
 30
0.0
 11
306.37902243683692
 21
343.27744047549209
 31
0.0
  0
LINE
  5
2C2C
  8
AM_0
 10
316.37902243683669
 20
356.78113547549202
 30
0.0
 11
306.37902243683692
 21
356.78113547549202
 31
0.0
  0
LINE
  5
2C2D
  8
AM_0
 10
275.8791000662315
 20
968.03004920084015
 30
0.0
 11
275.8791000662315
 21
914.03004920084004
 31
0.0
  0
LINE
  5
2C2E
  8
AM_0
 10
306.37909243683703
 20
1004.03004920084
 30
0.0
 11
306.37909243683703
 21
878.03004920084015
 31
0.0
  0
LINE
  5
2C2F
  8
AM_0
 10
250.87910459618439
 20
916.03004920084015
 30
0.0
 11
250.87910459618439
 21
966.03004920084015
 31
0.0
  0
LINE
  5
2C30
  8
AM_0
 10
248.87910459618439
 20
958.11583563846693
 30
0.0
 11
248.87910459618439
 21
923.94426276321315
 31
0.0
  0
LINE
  5
2C31
  8
AM_0
 10
252.8791045961845
 20
914.03004920084004
 30
0.0
 11
271.73696444250049
 21
914.03004920084004
 31
0.0
  0
ARC
  5
2C32
  8
AM_0
 10
252.8791045961845
 20
916.03004920084015
 30
0.0
 40
2.0
 50
180.0
 51
270.0
1001
GENIUS_GENOBJ-N-FIL_13
1002
{
1000
OWNER
1000
GEN
1002
}
1001
GENIUS_GENODEF_13
1002
{
1000
HIER
1070
     0
1002
}
1002
{
1000
MANEDIT
1070
     0
1002
}
1002
{
1000
NOSEL
1070
     0
1002
}
1002
{
1000
BEHIND
1070
     0
1002
}
1002
{
1000
OTHER
1070
     0
1002
}
1002
{
1000
REACTOR
1002
}
  0
ARC
  5
2C33
  8
AM_0
 10
249.8791045961845
 20
923.94426276321315
 30
0.0
 40
1.0
 50
180.0
 51
224.9999999999952
1001
GENIUS_GENODEF_13
1002
{
1000
HIER
1070
     0
1002
}
1002
{
1000
MANEDIT
1070
     0
1002
}
1002
{
1000
NOSEL
1070
     0
1002
}
1002
{
1000
BEHIND
1070
     0
1002
}
1002
{
1000
OTHER
1070
     0
1002
}
1002
{
1000
REACTOR
1002
}
1001
GENIUS_GENOBJ-N-FIL_13
1002
{
1000
OWNER
1000
GEN
1002
}
  0
ARC
  5
2C34
  8
AM_0
 10
249.8791045961845
 20
921.11583563846716
 30
0.0
 40
1.0
 50
0.0
 51
44.999999999995367
1001
GENIUS_GENODEF_13
1002
{
1000
HIER
1070
     0
1002
}
1002
{
1000
MANEDIT
1070
     0
1002
}
1002
{
1000
NOSEL
1070
     0
1002
}
1002
{
1000
BEHIND
1070
     0
1002
}
1002
{
1000
OTHER
1070
     0
1002
}
1002
{
1000
REACTOR
1002
}
1001
GENIUS_GENOBJ-N-FIL_13
1002
{
1000
OWNER
1000
GEN
1002
}
  0
LINE
  5
2C35
  8
AM_0
 10
249.17199781499789
 20
923.23715598202682
 30
0.0
 11
250.586211377371
 21
921.82294241965383
 31
0.0
  0
LINE
  5
2C36
  8
AM_0
 10
304.91462634276962
 20
884.99452292430203
 30
0.0
 11
278.80803225436603
 21
911.10111701270557
 31
0.0
  0
ARC
  5
2C37
  8
AM_0
 10
307.37909243683703
 20
878.03004920084015
 30
0.0
 40
1.0
 50
180.0
 51
270.0
1001
GENIUS_GENODEF_13
1002
{
1000
HIER
1070
     0
1002
}
1002
{
1000
MANEDIT
1070
     0
1002
}
1002
{
1000
NOSEL
1070
     0
1002
}
1002
{
1000
BEHIND
1070
     0
1002
}
1002
{
1000
OTHER
1070
     0
1002
}
1002
{
1000
REACTOR
1002
}
1001
GENIUS_GENOBJ-N-FIL_13
1002
{
1000
OWNER
1000
GEN
1002
}
  0
ARC
  5
2C38
  8
AM_0
 10
301.37909243683703
 20
881.45898901836927
 30
0.0
 40
5.0
 50
0.0
 51
44.999999999995367
1001
GENIUS_GENODEF_13
1002
{
1000
HIER
1070
     0
1002
}
1002
{
1000
MANEDIT
1070
     0
1002
}
1002
{
1000
NOSEL
1070
     0
1002
}
1002
{
1000
BEHIND
1070
     0
1002
}
1002
{
1000
OTHER
1070
     0
1002
}
1002
{
1000
REACTOR
1002
}
1001
GENIUS_GENOBJ-N-FIL_13
1002
{
1000
OWNER
1000
GEN
1002
}
  0
LINE
  5
2C39
  8
AM_0
 10
316.37909243683703
 20
877.03004920084004
 30
0.0
 11
307.37909243683703
 21
877.03004920084004
 31
0.0
  0
ARC
  5
2C3A
  8
AM_0
 10
271.73696444250049
 20
904.03004920084004
 30
0.0
 40
10.0
 50
44.999999999995367
 51
90.0
1001
GENIUS_GENODEF_13
1002
{
1000
HIER
1070
     0
1002
}
1002
{
1000
MANEDIT
1070
     0
1002
}
1002
{
1000
NOSEL
1070
     0
1002
}
1002
{
1000
BEHIND
1070
     0
1002
}
1002
{
1000
OTHER
1070
     0
1002
}
1002
{
1000
REACTOR
1002
}
1001
GENIUS_GENOBJ-N-FIL_13
1002
{
1000
OWNER
1000
GEN
1002
}
  0
LINE
  5
2C3B
  8
AM_0
 10
316.37909243683703
 20
889.53004920084004
 30
0.0
 11
306.3790924368372
 21
889.53004920084004
 31
0.0
  0
LINE
  5
2C3C
  8
AM_0
 10
316.37909243683703
 20
903.03374420084003
 30
0.0
 11
306.3790924368372
 21
903.03374420084003
 31
0.0
  0
LINE
  5
2C3D
  8
AM_0
 10
252.8791045961845
 20
968.03004920084015
 30
0.0
 11
271.73696444250049
 21
968.03004920084015
 31
0.0
  0
LINE
  5
2C3E
  8
AM_0
 10
218.8791045961845
 20
943.53004920084004
 30
0.0
 11
240.87910459618439
 21
943.53004920084004
 31
0.0
  0
LINE
  5
2C3F
  8
AM_0
 10
218.8791045961845
 20
938.53004920084015
 30
0.0
 11
240.87910459618439
 21
938.53004920084015
 31
0.0
  0
LINE
  5
2C40
  8
AM_0
 10
218.8791045961845
 20
933.03004920084015
 30
0.0
 11
246.87910459618439
 21
933.03004920084015
 31
0.0
  0
LINE
  5
2C41
  8
AM_0
 10
218.8791045961845
 20
949.03004920083993
 30
0.0
 11
246.87910459618439
 21
949.03004920083993
 31
0.0
  0
LINE
  5
2C42
  8
AM_0
 10
218.8791045961845
 20
949.03004920083993
 30
0.0
 11
218.8791045961845
 21
933.03004920084015
 31
0.0
  0
ARC
  5
2C43
  8
AM_0
 10
240.87910459618439
 20
941.03004920084015
 30
0.0
 40
2.5
 50
270.0
 51
90.0
  0
LINE
  5
2C44
  8
AM_0
 10
240.87910459618439
 20
943.53004920084004
 30
0.0
 11
240.87910459618439
 21
938.53004920084015
 31
0.0
  0
LINE
  5
2C45
  8
AM_0
 10
246.87910459618439
 20
949.53004920084004
 30
0.0
 11
246.87910459618439
 21
932.53004920084004
 31
0.0
  0
LINE
  5
2C46
  8
AM_0
 10
246.87910459618439
 20
932.53005453389028
 30
0.0
 11
248.87910459618439
 21
932.53005346728037
 31
0.0
  0
LINE
  5
2C47
  8
AM_0
 10
246.87910459618439
 20
949.53004920084004
 30
0.0
 11
248.87910459618439
 21
949.53004920084004
 31
0.0
  0
LINE
  5
2C48
  8
AM_0
 10
249.17199781499789
 20
958.82294241965405
 30
0.0
 11
250.586211377371
 21
960.23715598202682
 31
0.0
  0
ARC
  5
2C49
  8
AM_0
 10
249.8791045961845
 20
960.94426276321315
 30
0.0
 40
1.0
 50
315.0000000000046
 51
0.0
1001
GENIUS_GENODEF_13
1002
{
1000
HIER
1070
     0
1002
}
1002
{
1000
MANEDIT
1070
     0
1002
}
1002
{
1000
NOSEL
1070
     0
1002
}
1002
{
1000
BEHIND
1070
     0
1002
}
1002
{
1000
OTHER
1070
     0
1002
}
1002
{
1000
REACTOR
1002
}
1001
GENIUS_GENOBJ-N-FIL_13
1002
{
1000
OWNER
1000
GEN
1002
}
  0
ARC
  5
2C4A
  8
AM_0
 10
249.8791045961845
 20
958.11583563846693
 30
0.0
 40
1.0
 50
135.0000000000046
 51
180.0
1001
GENIUS_GENODEF_13
1002
{
1000
HIER
1070
     0
1002
}
1002
{
1000
MANEDIT
1070
     0
1002
}
1002
{
1000
NOSEL
1070
     0
1002
}
1002
{
1000
BEHIND
1070
     0
1002
}
1002
{
1000
OTHER
1070
     0
1002
}
1002
{
1000
REACTOR
1002
}
1001
GENIUS_GENOBJ-N-FIL_13
1002
{
1000
OWNER
1000
GEN
1002
}
  0
ARC
  5
2C4B
  8
AM_0
 10
252.8791045961845
 20
966.03004920084015
 30
0.0
 40
2.0
 50
90.0
 51
180.0
1001
GENIUS_GENOBJ-N-FIL_13
1002
{
1000
OWNER
1000
GEN
1002
}
1001
GENIUS_GENODEF_13
1002
{
1000
HIER
1070
     0
1002
}
1002
{
1000
MANEDIT
1070
     0
1002
}
1002
{
1000
NOSEL
1070
     0
1002
}
1002
{
1000
BEHIND
1070
     0
1002
}
1002
{
1000
OTHER
1070
     0
1002
}
1002
{
1000
REACTOR
1002
}
  0
LINE
  5
2C4C
  8
AM_0
 10
304.91462634276962
 20
997.06557547737827
 30
0.0
 11
278.80803225436568
 21
970.95898138897473
 31
0.0
  0
ARC
  5
2C4D
  8
AM_0
 10
271.73696444250049
 20
978.03004920084004
 30
0.0
 40
10.0
 50
270.0
 51
315.0000000000046
1001
GENIUS_GENODEF_13
1002
{
1000
HIER
1070
     0
1002
}
1002
{
1000
MANEDIT
1070
     0
1002
}
1002
{
1000
NOSEL
1070
     0
1002
}
1002
{
1000
BEHIND
1070
     0
1002
}
1002
{
1000
OTHER
1070
     0
1002
}
1002
{
1000
REACTOR
1002
}
1001
GENIUS_GENOBJ-N-FIL_13
1002
{
1000
OWNER
1000
GEN
1002
}
  0
LINE
  5
2C4E
  8
AM_0
 10
316.37909243683703
 20
979.02635920084003
 30
0.0
 11
306.3790924368372
 21
979.02635920084003
 31
0.0
  0
LINE
  5
2C4F
  8
AM_0
 10
316.37909243683703
 20
992.53004920084004
 30
0.0
 11
306.3790924368372
 21
992.53004920084004
 31
0.0
  0
ARC
  5
2C50
  8
AM_0
 10
307.37909243683703
 20
1004.03004920084
 30
0.0
 40
1.0
 50
90.0
 51
180.0
1001
GENIUS_GENODEF_13
1002
{
1000
HIER
1070
     0
1002
}
1002
{
1000
MANEDIT
1070
     0
1002
}
1002
{
1000
NOSEL
1070
     0
1002
}
1002
{
1000
BEHIND
1070
     0
1002
}
1002
{
1000
OTHER
1070
     0
1002
}
1002
{
1000
REACTOR
1002
}
1001
GENIUS_GENOBJ-N-FIL_13
1002
{
1000
OWNER
1000
GEN
1002
}
  0
ARC
  5
2C51
  8
AM_0
 10
301.37909243683703
 20
1000.601109383311
 30
0.0
 40
5.0
 50
315.0000000000046
 51
0.0
1001
GENIUS_GENODEF_13
1002
{
1000
HIER
1070
     0
1002
}
1002
{
1000
MANEDIT
1070
     0
1002
}
1002
{
1000
NOSEL
1070
     0
1002
}
1002
{
1000
BEHIND
1070
     0
1002
}
1002
{
1000
OTHER
1070
     0
1002
}
1002
{
1000
REACTOR
1002
}
1001
GENIUS_GENOBJ-N-FIL_13
1002
{
1000
OWNER
1000
GEN
1002
}
  0
LINE
  5
2C52
  8
AM_0
 10
316.37909243683703
 20
1005.03004920084
 30
0.0
 11
307.37909243683703
 21
1005.03004920084
 31
0.0
  0
LINE
  5
2C54
  8
AM_0
 10
653.37903243683695
 20
949.03004920083993
 30
0.0
 11
715.3789724368371
 21
949.03004920083993
 31
0.0
  0
LINE
  5
2C55
  8
AM_0
 10
653.37903243683695
 20
933.02998920083974
 30
0.0
 11
715.3789724368371
 21
933.02998920083974
 31
0.0
  0
LINE
  5
2C56
  8
AM_0
 10
633.37897243683699
 20
968.53004920084004
 30
0.0
 11
715.3789724368371
 21
968.53004920084004
 31
0.0
  0
LINE
  5
2C57
  8
AM_0
 10
633.37897243683699
 20
913.53004920084015
 30
0.0
 11
715.3789724368371
 21
913.53004920084015
 31
0.0
  0
LINE
  5
2C58
  8
ﾁｭｳｼﾝｾﾝ
 10
213.607041587167
 20
941.03004920084015
 30
0.0
 11
738.09735243683701
 21
941.03004920084015
 31
0.0
  0
LINE
  5
2C59
  8
AM_0
 10
331.37909243683703
 20
983.88862920084
 30
0.0
 11
393.77270243683688
 21
983.88862920084
 31
0.0
  0
LINE
  5
2C5A
  8
AM_0
 10
331.37909243683703
 20
898.70728920084002
 30
0.0
 11
393.5661024368369
 21
898.70728920084002
 31
0.0
  0
LINE
  5
2C5B
  8
AM_0
 10
316.37909243683703
 20
889.52973920084014
 30
0.0
 11
397.45367243683722
 21
889.52973920084014
 31
0.0
  0
LINE
  5
2C5C
  8
AM_0
 10
316.37909243683703
 20
992.53004920084004
 30
0.0
 11
397.453492436837
 21
992.53004920084004
 31
0.0
  0
LINE
  5
2C5D
  8
AM_0
 10
403.48376243683691
 20
873.98823920083998
 30
0.0
 11
316.37909243683703
 21
877.02998920084019
 31
0.0
  0
LINE
  5
2C5E
  8
AM_0
 10
403.48382243683682
 20
1008.07178920084
 30
0.0
 11
316.37915243683682
 21
1005.03004920084
 31
0.0
  0
LINE
  5
2C5F
  8
AM_0
 10
403.48376243683691
 20
958.54798920083999
 30
0.0
 11
334.27441243683688
 21
956.13111920084009
 31
0.0
  0
LINE
  5
2C60
  8
AM_0
 10
403.48382243683682
 20
923.51203920084015
 30
0.0
 11
334.27441243683688
 21
925.92890920083994
 31
0.0
  0
LINE
  5
2C61
  8
AM_0
 10
331.37909243683703
 20
898.70728920084002
 30
0.0
 11
331.37909243683703
 21
983.88862920084
 31
0.0
  0
LINE
  5
2C62
  8
AM_0
 10
316.37909243683703
 20
877.03004920084004
 30
0.0
 11
316.37909243683703
 21
1005.03004920084
 31
0.0
  0
ARC
  5
2C63
  8
AM_0
 10
334.37909243683703
 20
928.92707920084024
 30
0.0
 40
3.0
 50
180.00001000000091
 51
268.00000000000261
  0
LINE
  5
2C64
  8
AM_0
 10
316.37909243683703
 20
902.97517920083988
 30
0.0
 11
331.37909243683703
 21
902.97517920083988
 31
0.0
  0
ARC
  5
2C65
  8
AM_0
 10
334.37909243683703
 20
953.1329492008399
 30
0.0
 40
3.0
 50
91.999998000000545
 51
180.00001000000091
  0
LINE
  5
2C66
  8
AM_0
 10
316.37909243683703
 20
979.88929920084013
 30
0.0
 11
331.37909243683703
 21
979.88929920084013
 31
0.0
  0
ARC
  5
2C67
  8
AM_0
 10
462.37903243683701
 20
941.03004920084015
 30
0.0
 40
12.5
 50
203.5781799999973
 51
336.42183000000068
  0
ARC
  5
2C68
  8
AM_0
 10
447.37903243683678
 20
927.80128920083985
 30
0.0
 40
5.0
 50
0.0
 51
41.409624000000257
  0
LINE
  5
2C69
  8
AM_0
 10
406.3790924368368
 20
870.77625920084017
 30
0.0
 11
406.3790924368368
 21
1011.28376920084
 31
0.0
  0
LINE
  5
2C6A
  8
AM_0
 10
480.37903243683678
 20
936.03004920084004
 30
0.0
 11
480.37903243683678
 21
808.03004920084015
 31
0.0
  0
LINE
  5
2C6B
  8
AM_0
 10
431.8789724368371
 20
834.57435920084015
 30
0.0
 11
431.8789724368371
 21
1047.48573920084
 31
0.0
  0
LINE
  5
2C6C
  8
AM_0
 10
505.37897243683682
 20
808.90302920084002
 30
0.0
 11
505.37897243683682
 21
1073.1569992008399
 31
0.0
  0
LINE
  5
2C6D
  8
AM_0
 10
595.37903243683695
 20
832.9079192008403
 30
0.0
 11
595.37903243683695
 21
1049.152119200839
 31
0.0
  0
LINE
  5
2C6E
  8
AM_0
 10
622.37903243683695
 20
1038.40101920084
 30
0.0
 11
622.37903243683695
 21
843.65907920083987
 31
0.0
  0
LINE
  5
2C6F
  8
AM_0
 10
627.37903243683695
 20
999.09864920083987
 30
0.0
 11
627.37903243683695
 21
882.96143920084023
 31
0.0
  0
LINE
  5
2C70
  8
AM_0
 10
633.37897243683699
 20
971.03004920084004
 30
0.0
 11
633.37897243683699
 21
911.03004920084004
 31
0.0
  0
LINE
  5
2C71
  8
AM_0
 10
416.37903243683678
 20
867.53004920084015
 30
0.0
 11
416.37903243683678
 21
1014.53004920084
 31
0.0
  0
LINE
  5
2C72
  8
AM_0
 10
509.52374243683681
 20
813.04780920083988
 30
0.0
 11
559.21899243683686
 21
814.78315920084015
 31
0.0
  0
LINE
  5
2C73
  8
AM_0
 10
485.3789724368371
 20
776.02998920084019
 30
0.0
 11
622.55347243683696
 21
780.82026920084013
 31
0.0
  0
ARC
  5
2C74
  8
AM_0
 10
402.37903243683678
 20
783.93153920084012
 30
0.0
 40
5.0
 50
180.00001000000091
 51
268.00000000000261
  0
LINE
  5
2C75
  8
AM_0
 10
452.91528243683678
 20
777.3720292008403
 30
0.0
 11
483.37903243683678
 21
788.14307920084013
 31
0.0
  0
LINE
  5
2C76
  8
AM_0
 10
485.37903243683678
 20
776.02998920084019
 30
0.0
 11
402.20453243683681
 21
778.9345292008403
 31
0.0
  0
LINE
  5
2C77
  8
AM_0
 10
447.55353243683709
 20
829.19849920084005
 30
0.0
 11
436.70447243683668
 21
829.57734920083999
 31
0.0
  0
LINE
  5
2C78
  8
AM_0
 10
397.37903243683678
 20
783.93153920084012
 30
0.0
 11
397.37903243683678
 21
826.31776920083973
 31
0.0
  0
CIRCLE
  5
2C79
  8
AM_0
 10
427.37903243683678
 20
808.53004920084015
 30
0.0
 40
9.5
  0
LINE
  5
2C7A
  8
AM_0
 10
401.5108024368368
 20
831.24177920084014
 30
0.0
 11
431.8789724368371
 21
836.59650920084005
 31
0.0
  0
ARC
  5
2C7B
  8
AM_0
 10
402.37903243683678
 20
826.31776920083973
 30
0.0
 40
5.0
 50
99.999999999998593
 51
180.00001000000091
  0
ARC
  5
2C7C
  8
AM_0
 10
436.8789724368371
 20
834.57435920084015
 30
0.0
 40
5.0
 50
180.00001000000091
 51
268.00000000000261
  0
POLYLINE
  5
2C7D
  8
AM_0
 66
     1
 10
0.0
 20
0.0
 30
0.0
  0
VERTEX
  5
2C7E
  8
AM_0
 10
406.3790924368368
 20
873.03004920084015
 30
0.0
  0
VERTEX
  5
2C7F
  8
AM_0
 10
386.64272243683718
 20
924.10003920084
 30
0.0
 42
-1.0
  0
SEQEND
  5
2C80
  8
AM_0
  0
LINE
  5
2C81
  8
AM_0
 10
416.3789724368371
 20
867.5299892008403
 30
0.0
 11
427.05353243683709
 21
867.15723920084031
 31
0.0
  0
LINE
  5
2C82
  8
AM_0
 10
416.37903243683678
 20
879.45008920084001
 30
0.0
 11
431.8789724368371
 21
879.45008920084001
 31
0.0
  0
ARC
  5
2C83
  8
AM_0
 10
409.37909243683669
 20
870.77625920084017
 30
0.0
 40
3.0
 50
180.00001000000091
 51
268.00000000000261
  0
ARC
  5
2C84
  8
AM_0
 10
403.3790924368368
 20
870.99006920084014
 30
0.0
 40
3.0
 50
0.0
 51
88.000000000002785
  0
LINE
  5
2C85
  8
AM_0
 10
416.37903243683678
 20
867.5299892008403
 30
0.0
 11
409.27441243683711
 21
867.7780892008401
 31
0.0
  0
LINE
  5
2C86
  8
AM_0
 10
416.37909243683691
 20
879.45136920084019
 30
0.0
 11
406.3790924368368
 21
879.45136920084019
 31
0.0
  0
ARC
  5
2C87
  8
AM_0
 10
426.8789724368371
 20
862.16029920084009
 30
0.0
 40
5.0
 50
0.0
 51
88.000000000002785
  0
LINE
  5
2C88
  8
AM_0
 10
416.37903243683678
 20
901.55531920084002
 30
0.0
 11
431.8789724368371
 21
901.55531920084002
 31
0.0
  0
LINE
  5
2C89
  8
AM_0
 10
416.37909243683691
 20
901.55537920083998
 30
0.0
 11
406.3790924368368
 21
901.55537920083998
 31
0.0
  0
ARC
  5
2C8A
  8
AM_0
 10
403.3790924368368
 20
920.51392920084004
 30
0.0
 40
3.0
 50
0.0
 51
88.000000000002785
  0
LINE
  5
2C8B
  8
AM_0
 10
452.37903243683678
 20
813.83625920084023
 30
0.0
 11
452.37903243683678
 21
927.80128920083985
 31
0.0
  0
LINE
  5
2C8C
  8
AM_0
 10
456.37903243683678
 20
789.20338920083998
 30
0.0
 11
483.37903243683678
 21
798.74970920084013
 31
0.0
  0
LINE
  5
2C8D
  8
AM_0
 10
480.37897243683682
 20
808.03004920084015
 30
0.0
 11
505.37897243683682
 21
808.90302920084002
 31
0.0
  0
LINE
  5
2C8E
  8
AM_0
 10
480.37903243683678
 20
808.03004920084015
 30
0.0
 11
457.2045324368371
 21
808.83930920084003
 31
0.0
  0
ARC
  5
2C8F
  8
AM_0
 10
455.37903243683678
 20
792.03175920084016
 30
0.0
 40
3.0
 50
180.00001000000091
 51
289.47202999999712
  0
ARC
  5
2C90
  8
AM_0
 10
457.37903243683712
 20
813.83625920084023
 30
0.0
 40
5.0
 50
180.00001000000091
 51
268.00000000000261
  0
ARC
  5
2C91
  8
AM_0
 10
447.37903243683678
 20
824.20155920083982
 30
0.0
 40
5.0
 50
0.0
 51
88.000000000002785
  0
LINE
  5
2C92
  8
AM_0
 10
485.37903243683678
 20
790.97144920084031
 30
0.0
 11
485.37903243683678
 21
808.2046092008402
 31
0.0
  0
ARC
  5
2C93
  8
AM_0
 10
482.37903243683712
 20
801.57813920084016
 30
0.0
 40
3.0
 50
289.47202000000181
 51
0.0
  0
ARC
  5
2C94
  8
AM_0
 10
482.37903243683712
 20
790.97144920084031
 30
0.0
 40
3.0
 50
289.47202000000181
 51
0.0
  0
LINE
  5
2C95
  8
AM_0
 10
505.37897243683682
 20
808.90302920084002
 30
0.0
 11
509.52374243683681
 21
813.04780920083988
 31
0.0
  0
ARC
  5
2C96
  8
AM_0
 10
567.37903243683695
 20
783.8965592008401
 30
0.0
 40
5.0
 50
180.00001000000091
 51
271.99999000000139
  0
ARC
  5
2C97
  8
AM_0
 10
622.37903243683695
 20
785.81721920083999
 30
0.0
 40
5.0
 50
271.9999999999971
 51
0.0
  0
LINE
  5
2C98
  8
AM_0
 10
603.09985243683695
 20
841.29963920084015
 30
0.0
 11
614.65820243683686
 21
841.70325920084031
 31
0.0
  0
ARC
  5
2C99
  8
AM_0
 10
574.37903243683695
 20
812.44178920084016
 30
0.0
 40
12.0
 50
91.999998000000545
 51
180.00001000000091
  0
LINE
  5
2C9A
  8
AM_0
 10
562.37903243683695
 20
783.8965592008401
 30
0.0
 11
562.37903243683695
 21
812.44178920084016
 31
0.0
  0
ARC
  5
2C9B
  8
AM_0
 10
559.04443243683716
 20
819.78016920084019
 30
0.0
 40
5.0
 50
271.9999999999971
 51
334.42648000000293
  0
CIRCLE
  5
2C9C
  8
AM_0
 10
597.37903243683695
 20
808.53004920084015
 30
0.0
 40
9.5
  0
ARC
  5
2C9D
  8
AM_0
 10
587.37903243683695
 20
832.9079192008403
 30
0.0
 40
8.0
 50
271.9999999999971
 51
0.0
  0
LINE
  5
2C9E
  8
AM_0
 10
573.96020243683699
 20
824.43446920084
 30
0.0
 11
587.65820243683675
 21
824.91279920084025
 31
0.0
  0
ARC
  5
2C9F
  8
AM_0
 10
603.37903243683695
 20
833.30451920083999
 30
0.0
 40
8.0
 50
91.999998000000545
 51
180.00001000000091
  0
LINE
  5
2CA0
  8
AM_0
 10
627.37903243683695
 20
785.81721920083999
 30
0.0
 11
627.37903243683695
 21
836.24281920084013
 31
0.0
  0
ARC
  5
2CA1
  8
AM_0
 10
622.37903243683695
 20
836.24281920084013
 30
0.0
 40
5.0
 50
0.0
 51
67.975688999996393
  0
ARC
  5
2CA2
  8
AM_0
 10
614.37903243683695
 20
849.69837920084024
 30
0.0
 40
8.0
 50
271.9999999999971
 51
0.0
  0
ARC
  5
2CA3
  8
AM_0
 10
625.37903243683695
 20
843.65907920083987
 30
0.0
 40
3.0
 50
180.00001000000091
 51
247.97569000000061
  0
ARC
  5
2CA4
  8
AM_0
 10
624.37903243683695
 20
878.92408920084017
 30
0.0
 40
2.0
 50
91.999998000000545
 51
180.00001000000091
  0
ARC
  5
2CA5
  8
AM_0
 10
625.37903243683695
 20
882.96143920084023
 30
0.0
 40
2.0
 50
271.9999999999971
 51
0.0
  0
LINE
  5
2CA6
  8
AM_0
 10
624.30920243683704
 20
880.92286920083984
 30
0.0
 11
625.448852436837
 21
880.96265920084011
 31
0.0
  0
LINE
  5
2CA7
  8
AM_0
 10
627.37903243683695
 20
911.03004920084004
 30
0.0
 11
633.37897243683699
 21
911.03004920084004
 31
0.0
  0
LINE
  5
2CA8
  8
AM_0
 10
485.37903243683678
 20
1106.03004920084
 30
0.0
 11
622.55353243683714
 21
1101.2398192008391
 31
0.0
  0
LINE
  5
2CA9
  8
AM_0
 10
509.52374243683681
 20
1069.0122892008401
 30
0.0
 11
559.21899243683686
 21
1067.276869200839
 31
0.0
  0
CIRCLE
  5
2CAA
  8
AM_0
 10
427.37903243683678
 20
1073.53004920084
 30
0.0
 40
9.5
  0
LINE
  5
2CAB
  8
AM_0
 10
397.37903243683678
 20
1098.1285592008401
 30
0.0
 11
397.37903243683678
 21
1055.74232920084
 31
0.0
  0
LINE
  5
2CAC
  8
AM_0
 10
485.37903243683678
 20
1091.0885792008401
 30
0.0
 11
485.37903243683678
 21
1073.855429200838
 31
0.0
  0
ARC
  5
2CAD
  8
AM_0
 10
442.37903243683678
 20
941.03004920084015
 30
0.0
 40
5.0
 50
90.00000299999769
 51
270.0
  0
LINE
  5
2CAE
  8
AM_0
 10
447.55347243683718
 20
1052.8615292008401
 30
0.0
 11
436.70447243683668
 21
1052.48267920084
 31
0.0
  0
POLYLINE
  5
2CAF
  8
AM_0
 66
     1
 10
0.0
 20
0.0
 30
0.0
  0
VERTEX
  5
2CB0
  8
AM_0
 10
386.64267243683707
 20
957.95976920084024
 30
0.0
 42
-0.03710785
  0
VERTEX
  5
2CB1
  8
AM_0
 10
390.92085243683692
 20
975.80598920084003
 30
0.0
 42
-0.032389942
  0
VERTEX
  5
2CB2
  8
AM_0
 10
397.62331243683678
 20
992.89450920084005
 30
0.0
 42
-0.029578822
  0
VERTEX
  5
2CB3
  8
AM_0
 10
406.3790924368368
 20
1009.03004920084
 30
0.0
  0
SEQEND
  5
2CB4
  8
AM_0
  0
ARC
  5
2CB5
  8
AM_0
 10
403.3790924368368
 20
961.54615920083995
 30
0.0
 40
3.0
 50
271.9999999999971
 51
0.0
  0
LINE
  5
2CB6
  8
AM_0
 10
416.37903243683678
 20
980.50471920083999
 30
0.0
 11
431.8789724368371
 21
980.50471920083999
 31
0.0
  0
LINE
  5
2CB7
  8
AM_0
 10
416.37903243683678
 20
1002.6100592008401
 30
0.0
 11
431.8789724368371
 21
1002.6100592008401
 31
0.0
  0
LINE
  5
2CB8
  8
AM_0
 10
416.37909243683691
 20
980.50471920083999
 30
0.0
 11
406.3790924368368
 21
980.50471920083999
 31
0.0
  0
LINE
  5
2CB9
  8
AM_0
 10
416.37909243683691
 20
1002.608659200839
 30
0.0
 11
406.3790924368368
 21
1002.608659200839
 31
0.0
  0
LINE
  5
2CBA
  8
AM_0
 10
416.3789724368371
 20
1014.5299892008391
 30
0.0
 11
427.05347243683718
 21
1014.90272920084
 31
0.0
  0
ARC
  5
2CBB
  8
AM_0
 10
409.37909243683669
 20
1011.28376920084
 30
0.0
 40
3.0
 50
91.999998000000545
 51
180.00001000000091
  0
ARC
  5
2CBC
  8
AM_0
 10
403.3790924368368
 20
1011.06995920084
 30
0.0
 40
3.0
 50
271.9999999999971
 51
0.0
  0
LINE
  5
2CBD
  8
AM_0
 10
416.37903243683678
 20
1014.53004920084
 30
0.0
 11
409.27441243683711
 21
1014.281939200839
 31
0.0
  0
ARC
  5
2CBE
  8
AM_0
 10
426.8789724368371
 20
1019.89973920084
 30
0.0
 40
5.0
 50
271.9999999999971
 51
0.0
  0
LINE
  5
2CBF
  8
AM_0
 10
401.5108024368368
 20
1050.8182492008391
 30
0.0
 11
431.8789724368371
 21
1045.46351920084
 31
0.0
  0
ARC
  5
2CC0
  8
AM_0
 10
402.37903243683678
 20
1055.74232920084
 30
0.0
 40
5.0
 50
180.00001000000091
 51
259.99998999999872
  0
ARC
  5
2CC1
  8
AM_0
 10
436.8789724368371
 20
1047.48573920084
 30
0.0
 40
5.0
 50
91.999998000000545
 51
180.00001000000091
  0
LINE
  5
2CC2
  8
AM_0
 10
452.37903243683678
 20
954.25880920083989
 30
0.0
 11
452.37903243683678
 21
1068.22376920084
 31
0.0
  0
LINE
  5
2CC3
  8
AM_0
 10
480.37903243683678
 20
1074.03004920084
 30
0.0
 11
480.37903243683678
 21
946.03004920084004
 31
0.0
  0
ARC
  5
2CC4
  8
AM_0
 10
482.37903243683712
 20
941.03004920084015
 30
0.0
 40
5.0
 50
270.0
 51
90.00000299999769
  0
LINE
  5
2CC5
  8
AM_0
 10
442.37903243683678
 20
946.03004920084004
 30
0.0
 11
482.37903243683712
 21
946.03004920084004
 31
0.0
  0
LINE
  5
2CC6
  8
AM_0
 10
442.37903243683678
 20
936.03004920084004
 30
0.0
 11
482.37903243683712
 21
936.03004920084004
 31
0.0
  0
ARC
  5
2CC7
  8
AM_0
 10
462.37903243683701
 20
941.03004920084015
 30
0.0
 40
12.5
 50
23.578179999997531
 51
156.42182000000241
  0
ARC
  5
2CC8
  8
AM_0
 10
462.37903243683701
 20
941.03004920084015
 30
0.0
 40
15.0
 50
138.590370000001
 51
160.52876999999901
  0
ARC
  5
2CC9
  8
AM_0
 10
462.37903243683701
 20
941.03004920084015
 30
0.0
 40
15.0
 50
199.4712300000005
 51
221.4096299999988
  0
ARC
  5
2CCA
  8
AM_0
 10
447.37903243683678
 20
954.25880920083989
 30
0.0
 40
5.0
 50
318.59037000000097
 51
0.0
  0
LINE
  5
2CCB
  8
AM_0
 10
480.37903243683678
 20
1074.02998920084
 30
0.0
 11
505.37903243683678
 21
1073.1569992008399
 31
0.0
  0
LINE
  5
2CCC
  8
AM_0
 10
480.37897243683682
 20
1074.03004920084
 30
0.0
 11
457.20447243683668
 21
1073.2207792008401
 31
0.0
  0
ARC
  5
2CCD
  8
AM_0
 10
447.37903243683678
 20
1057.8584792008401
 30
0.0
 40
5.0
 50
271.9999999999971
 51
0.0
  0
ARC
  5
2CCE
  8
AM_0
 10
457.37903243683712
 20
1068.22376920084
 30
0.0
 40
5.0
 50
91.999998000000545
 51
180.00001000000091
  0
LINE
  5
2CCF
  8
AM_0
 10
505.37897243683682
 20
1073.1570592008391
 30
0.0
 11
509.52374243683681
 21
1069.0122892008401
 31
0.0
  0
LINE
  5
2CD0
  8
AM_0
 10
485.37903243683678
 20
1106.03004920084
 30
0.0
 11
402.20447243683691
 21
1103.12550920084
 31
0.0
  0
ARC
  5
2CD1
  8
AM_0
 10
402.37903243683678
 20
1098.1285592008401
 30
0.0
 40
5.0
 50
91.999998000000545
 51
180.00001000000091
  0
LINE
  5
2CD2
  8
AM_0
 10
452.91528243683678
 20
1104.68800920084
 30
0.0
 11
483.3790924368368
 21
1093.91694920084
 31
0.0
  0
LINE
  5
2CD3
  8
AM_0
 10
456.3790924368368
 20
1092.85670920084
 30
0.0
 11
483.3790924368368
 21
1083.3103192008391
 31
0.0
  0
ARC
  5
2CD4
  8
AM_0
 10
455.37903243683678
 20
1090.02827920084
 30
0.0
 40
3.0
 50
70.527972999999633
 51
180.00001000000091
  0
ARC
  5
2CD5
  8
AM_0
 10
482.37903243683712
 20
1091.0885792008401
 30
0.0
 40
3.0
 50
0.0
 51
70.527972999999633
  0
ARC
  5
2CD6
  8
AM_0
 10
482.37903243683712
 20
1080.48188920084
 30
0.0
 40
3.0
 50
0.0
 51
70.527972999999633
  0
CIRCLE
  5
2CD7
  8
AM_0
 10
597.37903243683695
 20
1073.53004920084
 30
0.0
 40
9.5
  0
LINE
  5
2CD8
  8
ﾁｭｳｼﾝｾﾝ1
 10
597.37903243683695
 20
1091.03004920084
 30
0.0
 11
597.37903243683695
 21
1055.91444920084
 31
0.0
  0
LINE
  5
2CD9
  8
AM_0
 10
627.37903243683695
 20
1096.242819200839
 30
0.0
 11
627.37903243683695
 21
1045.8172192008401
 31
0.0
  0
LINE
  5
2CDA
  8
AM_0
 10
562.37903243683695
 20
1098.163469200839
 30
0.0
 11
562.37903243683695
 21
1069.6182992008401
 31
0.0
  0
LINE
  5
2CDB
  8
ﾁｭｳｼﾝｾﾝ1
 10
579.87903243683695
 20
1073.53004920084
 30
0.0
 11
614.87903243683695
 21
1073.53004920084
 31
0.0
  0
LINE
  5
2CDC
  8
AM_0
 10
603.09985243683695
 20
1040.7603892008401
 30
0.0
 11
614.65826243683705
 21
1040.3567692008401
 31
0.0
  0
ARC
  5
2CDD
  8
AM_0
 10
574.37903243683695
 20
1069.6182992008401
 30
0.0
 40
12.0
 50
180.00001000000091
 51
268.00000000000261
  0
ARC
  5
2CDE
  8
AM_0
 10
559.04443243683716
 20
1062.279919200839
 30
0.0
 40
5.0
 50
25.5735169999985
 51
88.000000000002785
  0
ARC
  5
2CDF
  8
AM_0
 10
603.37903243683695
 20
1048.7555092008399
 30
0.0
 40
8.0
 50
180.00001000000091
 51
268.00000000000261
  0
ARC
  5
2CE0
  8
AM_0
 10
587.37903243683695
 20
1049.152119200839
 30
0.0
 40
8.0
 50
0.0
 51
88.000000000002785
  0
LINE
  5
2CE1
  8
AM_0
 10
573.96027243683704
 20
1057.62562920084
 30
0.0
 11
587.65826243683705
 21
1057.1472292008391
 31
0.0
  0
ARC
  5
2CE2
  8
AM_0
 10
653.37903243683695
 20
941.02998920083985
 30
0.0
 40
8.0000113999999982
 50
90.00000299999769
 51
270.0
  0
LINE
  5
2CE3
  8
AM_0
 10
653.3789724368371
 20
949.03004920083993
 30
0.0
 11
653.3789724368371
 21
933.02998920083974
 31
0.0
  0
LINE
  5
2CE4
  8
AM_0
 10
627.37903243683695
 20
971.03004920084004
 30
0.0
 11
633.37897243683699
 21
971.03004920084004
 31
0.0
  0
ARC
  5
2CE5
  8
AM_0
 10
624.37903243683695
 20
1003.13599920084
 30
0.0
 40
2.0
 50
180.00001000000091
 51
268.00000000000261
  0
ARC
  5
2CE6
  8
AM_0
 10
625.37903243683695
 20
999.09864920083987
 30
0.0
 40
2.0
 50
0.0
 51
88.000000000002785
  0
LINE
  5
2CE7
  8
AM_0
 10
624.30920243683704
 20
1001.13721920084
 30
0.0
 11
625.448852436837
 21
1001.09742920084
 31
0.0
  0
ARC
  5
2CE8
  8
AM_0
 10
625.37903243683695
 20
1038.40101920084
 30
0.0
 40
3.0
 50
112.0243099999992
 51
180.00001000000091
  0
ARC
  5
2CE9
  8
AM_0
 10
614.37903243683695
 20
1032.36164920084
 30
0.0
 40
8.0
 50
0.0
 51
88.000000000002785
  0
ARC
  5
2CEA
  8
AM_0
 10
622.37903243683695
 20
1045.8172192008401
 30
0.0
 40
5.0
 50
292.02430999999922
 51
0.0
  0
ARC
  5
2CEB
  8
AM_0
 10
567.37903243683695
 20
1098.163469200839
 30
0.0
 40
5.0
 50
88.000000000002785
 51
180.00001000000091
  0
ARC
  5
2CEC
  8
AM_0
 10
622.37903243683695
 20
1096.242819200839
 30
0.0
 40
5.0
 50
0.0
 51
88.000000000002785
  0
LINE
  5
2CED
  8
AM_0
 10
715.3789724368371
 20
968.53004920084004
 30
0.0
 11
715.3789724368371
 21
913.53004920084015
 31
0.0
  0
LINE
  5
2CEE
  8
ﾁｭｳｼﾝｾﾝ
 10
878.97872243683673
 20
394.77744047549209
 30
0.0
 11
1143.9787124368349
 21
394.77744047549209
 31
0.0
  0
LINE
  5
2CEF
  8
ﾁｭｳｼﾝｾﾝ1
 10
409.87903243683678
 20
1073.53004920084
 30
0.0
 11
444.87903243683712
 21
1073.53004920084
 31
0.0
  0
LINE
  5
2CF0
  8
ﾁｭｳｼﾝｾﾝ1
 10
427.37903243683678
 20
1091.03004920084
 30
0.0
 11
427.37903243683678
 21
1055.91444920084
 31
0.0
  0
LINE
  5
2CF1
  8
ﾁｭｳｼﾝｾﾝ1
 10
409.87903243683678
 20
808.53004920084015
 30
0.0
 11
444.87903243683712
 21
808.53004920084015
 31
0.0
  0
LINE
  5
2CF2
  8
ﾁｭｳｼﾝｾﾝ1
 10
427.37903243683678
 20
826.03004920084015
 30
0.0
 11
427.37903243683678
 21
790.91444920084029
 31
0.0
  0
LINE
  5
2CF3
  8
ﾁｭｳｼﾝｾﾝ1
 10
579.87903243683695
 20
808.53004920084015
 30
0.0
 11
614.87903243683695
 21
808.53004920084015
 31
0.0
  0
LINE
  5
2CF4
  8
ﾁｭｳｼﾝｾﾝ1
 10
597.37903243683695
 20
826.03004920084015
 30
0.0
 11
597.37903243683695
 21
790.91444920084029
 31
0.0
  0
TEXT
  5
2ED7
  8
AM_0
 10
887.72081431222239
 20
933.58432230467145
 30
0.0
 40
15.0
  1
VX04-800G~VX04-K20G
  0
ENDSEC
  0
EOF
