  0
SECTION
  2
HEADER
  9
$ACADVER
  1
AC1009
  9
$INSBASE
 10
0.0
 20
0.0
 30
0.0
  9
$EXTMIN
 10
136.78452515670159
 20
185.42585287377591
 30
-0.0000000000112498
  9
$EXTMAX
 10
715.73872558171695
 20
624.81973655706224
 30
0.0000000000002956
  9
$LIMMIN
 10
0.0
 20
0.0
  9
$LIMMAX
 10
853.5
 20
555.00000000000011
  9
$ORTHOMODE
 70
     0
  9
$REGENMODE
 70
     1
  9
$FILLMODE
 70
     1
  9
$QTEXTMODE
 70
     0
  9
$MIRRTEXT
 70
     1
  9
$DRAGMODE
 70
     2
  9
$LTSCALE
 40
3.0
  9
$OSMODE
 70
   551
  9
$ATTMODE
 70
     1
  9
$TEXTSIZE
 40
2.5
  9
$TRACEWID
 40
1.0
  9
$TEXTSTYLE
  7
STANDARD
  9
$CLAYER
  8
AM_0
  9
$CELTYPE
  6
BYLAYER
  9
$CECOLOR
 62
   256
  9
$DIMSCALE
 40
1.0
  9
$DIMASZ
 40
2.5
  9
$DIMEXO
 40
1.0
  9
$DIMDLI
 40
8.0
  9
$DIMRND
 40
0.0
  9
$DIMDLE
 40
0.0
  9
$DIMEXE
 40
0.6
  9
$DIMTP
 40
0.1
  9
$DIMTM
 40
0.1
  9
$DIMTXT
 40
2.5
  9
$DIMCEN
 40
0.0
  9
$DIMTSZ
 40
0.0
  9
$DIMTOL
 70
     0
  9
$DIMLIM
 70
     0
  9
$DIMTIH
 70
     0
  9
$DIMTOH
 70
     0
  9
$DIMSE1
 70
     0
  9
$DIMSE2
 70
     0
  9
$DIMTAD
 70
     1
  9
$DIMZIN
 70
     8
  9
$DIMBLK
  1

  9
$DIMASO
 70
     1
  9
$DIMSHO
 70
     1
  9
$DIMPOST
  1

  9
$DIMAPOST
  1
"
  9
$DIMALT
 70
     0
  9
$DIMALTD
 70
     2
  9
$DIMALTF
 40
0.0393701
  9
$DIMLFAC
 40
1.0
  9
$DIMTOFL
 70
     1
  9
$DIMTVP
 40
0.0
  9
$DIMTIX
 70
     0
  9
$DIMSOXD
 70
     0
  9
$DIMSAH
 70
     0
  9
$DIMBLK1
  1

  9
$DIMBLK2
  1

  9
$DIMSTYLE
  2
AM_ISO
  9
$DIMCLRD
 70
   256
  9
$DIMCLRE
 70
   256
  9
$DIMCLRT
 70
     4
  9
$DIMTFAC
 40
0.71
  9
$DIMGAP
 40
0.8
  9
$LUNITS
 70
     2
  9
$LUPREC
 70
     2
  9
$SKETCHINC
 40
1.0
  9
$FILLETRAD
 40
15.0
  9
$AUNITS
 70
     0
  9
$AUPREC
 70
     0
  9
$MENU
  1
.
  9
$ELEVATION
 40
0.0
  9
$PELEVATION
 40
0.0
  9
$THICKNESS
 40
0.0
  9
$LIMCHECK
 70
     0
  9
$BLIPMODE
 70
     0
  9
$CHAMFERA
 40
6.0
  9
$CHAMFERB
 40
3.0
  9
$SKPOLY
 70
     0
  9
$TDCREATE
 40
2452066.4465576159
  9
$TDUPDATE
 40
2458541.4150036341
  9
$TDINDWG
 40
0.0816273032
  9
$TDUSRTIMER
 40
0.0816272917
  9
$USRTIMER
 70
     1
  9
$ANGBASE
 50
0.0
  9
$ANGDIR
 70
     0
  9
$PDMODE
 70
     0
  9
$PDSIZE
 40
0.0
  9
$PLINEWID
 40
0.0
  9
$COORDS
 70
     1
  9
$SPLFRAME
 70
     0
  9
$SPLINETYPE
 70
     6
  9
$SPLINESEGS
 70
     8
  9
$ATTDIA
 70
     1
  9
$ATTREQ
 70
     1
  9
$HANDLING
 70
     1
  9
$HANDSEED
  5
2CE7
  9
$SURFTAB1
 70
     6
  9
$SURFTAB2
 70
     6
  9
$SURFTYPE
 70
     6
  9
$SURFU
 70
     6
  9
$SURFV
 70
     6
  9
$UCSNAME
  2

  9
$UCSORG
 10
0.0
 20
0.0
 30
0.0
  9
$UCSXDIR
 10
1.0
 20
0.0
 30
0.0
  9
$UCSYDIR
 10
0.0
 20
1.0
 30
0.0
  9
$PUCSNAME
  2

  9
$PUCSORG
 10
0.0
 20
0.0
 30
0.0
  9
$PUCSXDIR
 10
1.0
 20
0.0
 30
0.0
  9
$PUCSYDIR
 10
0.0
 20
1.0
 30
0.0
  9
$USERI1
 70
     0
  9
$USERI2
 70
     0
  9
$USERI3
 70
     0
  9
$USERI4
 70
     0
  9
$USERI5
 70
     0
  9
$USERR1
 40
0.0
  9
$USERR2
 40
0.0
  9
$USERR3
 40
0.0
  9
$USERR4
 40
0.0
  9
$USERR5
 40
0.0
  9
$WORLDVIEW
 70
     1
  9
$SHADEDGE
 70
     3
  9
$SHADEDIF
 70
    70
  9
$TILEMODE
 70
     1
  9
$MAXACTVP
 70
    64
  9
$PLIMCHECK
 70
     0
  9
$PEXTMIN
 10
1.0000000000000000E+020
 20
1.0000000000000000E+020
 30
1.0000000000000000E+020
  9
$PEXTMAX
 10
-1.0000000000000000E+020
 20
-1.0000000000000000E+020
 30
-1.0000000000000000E+020
  9
$PLIMMIN
 10
0.0
 20
0.0
  9
$PLIMMAX
 10
420.0
 20
297.0
  9
$UNITMODE
 70
     0
  9
$VISRETAIN
 70
     1
  9
$PLINEGEN
 70
     0
  9
$PSLTSCALE
 70
     1
  0
ENDSEC
  0
SECTION
  2
TABLES
  0
TABLE
  2
VPORT
 70
     1
  0
VPORT
  2
*ACTIVE
 70
     0
 10
0.0
 20
0.0
 11
1.0
 21
1.0
 12
426.2616253692093
 22
405.1227947154191
 13
0.0
 23
0.0
 14
7.5
 24
7.5
 15
30.0
 25
30.0
 16
0.0
 26
0.0
 36
1.0
 17
0.0
 27
0.0
 37
0.0
 40
442.41031766738212
 41
1.7571592210767459
 42
50.0
 43
0.0
 44
0.0
 50
0.0
 51
0.0
 71
     0
 72
   100
 73
     1
 74
     3
 75
     0
 76
     0
 77
     0
 78
     0
  0
ENDTAB
  0
TABLE
  2
LTYPE
 70
    27
  0
LTYPE
  2
CONTINUOUS
 70
     0
  3
Solid line
 72
    65
 73
     0
 40
0.0
  0
LTYPE
  2
AM_ISO02W050
 70
     0
  3
__ __ __ __ __ __ __ __ __ __ __ __ __ __ __
 72
    65
 73
     2
 40
7.5
 49
6.0
 49
-1.5
  0
LTYPE
  2
AM_ISO08W050
 70
     0
  3
____ . ____ . ____ . ____ . ____ . ____ . ____
 72
    65
 73
     4
 40
18.0
 49
12.0
 49
-1.5
 49
3.0
 49
-1.5
  0
LTYPE
  2
AM_ISO09W050
 70
     0
  3
_____ . . _____ . . _____ . . ____ .. ____
 72
    65
 73
     6
 40
22.5
 49
12.0
 49
-1.5
 49
3.0
 49
-1.5
 49
3.0
 49
-1.5
  0
LTYPE
  2
AMCONSTR
 70
     0
  3
_______________________
 72
    65
 73
     2
 40
9999.0
 49
9999.0
 49
0.0
  0
LTYPE
  2
AM_ISO08W050X2
 70
     0
  3
__ . __ . __ . __ . __ . __
 72
    65
 73
     4
 40
9.0
 49
6.0
 49
-0.75
 49
1.5
 49
-0.75
  0
LTYPE
  2
AM_ISO02W050X2
 70
     0
  3
 _ _ _ _ _ _ _ _ _ _ _ _
 72
    65
 73
     2
 40
3.75
 49
3.0
 49
-0.75
  0
LTYPE
  2
AMZIGZAG
 70
     0
  3
/\/-/\/-/\/-/\/-/\/-/\/
 72
    65
 73
     2
 40
11.000099999999991
 49
0.0001
 49
-11.0
  0
LTYPE
  2
ACISOWELD
 70
     0
  3
_ _ _ _ _
 72
    65
 73
     2
 40
2.0
 49
2.0
 49
-1.0
  0
LTYPE
  2
ACISOTGB
 70
     0
  3
__ . . __ . .
 72
    65
 73
     6
 40
9.0
 49
4.0
 49
-1.0
 49
1.0
 49
-1.0
 49
1.0
 49
-1.0
  0
LTYPE
  2
ACISOTGL
 70
     0
  3
_ _ _ _ _
 72
    65
 73
     2
 40
3.0
 49
2.0
 49
-1.0
  0
LTYPE
  2
CENTER
 70
     0
  3
__ . __
 72
    65
 73
     4
 40
7.0
 49
4.0
 49
-1.0
 49
1.0
 49
-1.0
  0
LTYPE
  2
PHANTOM2
 70
     0
  3
Phantom (.5x) ___ _ _ ___ _ _ ___ _ _ ___ _ _
 72
    65
 73
     6
 40
31.75
 49
15.875
 49
-3.174999999999998
 49
3.174999999999998
 49
-3.174999999999998
 49
3.174999999999998
 49
-3.174999999999998
  0
LTYPE
  2
ACANSTGBM
 70
     0
  3
__ . . __ . .
 72
    65
 73
     6
 40
9.0
 49
4.0
 49
-1.0
 49
1.0
 49
-1.0
 49
1.0
 49
-1.0
  0
LTYPE
  2
ACANSTGLM
 70
     0
  3
_ _ _ _ _
 72
    65
 73
     2
 40
3.0
 49
2.0
 49
-1.0
  0
LTYPE
  2
GEN7
 70
     0
  3
____ . ____ . ____ . ____ . ____ . ____ . ____
 72
    65
 73
     4
 40
14.25
 49
9.75
 49
-1.5
 49
1.5
 49
-1.5
  0
LTYPE
  2
GEN3B
 70
     0
  3
 - - - - -
 72
    65
 73
     2
 40
1.0
 49
0.5
 49
-0.5
  0
LTYPE
  2
GEN7A
 70
     0
  3
__ . __ . __
 72
    65
 73
     4
 40
7.375
 49
4.75
 49
-0.875
 49
0.875
 49
-0.875
  0
LTYPE
  2
ACJISTGB
 70
     0
  3
__ . . __ . .
 72
    65
 73
     6
 40
9.0
 49
4.0
 49
-1.0
 49
1.0
 49
-1.0
 49
1.0
 49
-1.0
  0
LTYPE
  2
ACJISTGL
 70
     0
  3
_ _ _ _ _
 72
    65
 73
     2
 40
3.0
 49
2.0
 49
-1.0
  0
LTYPE
  2
HIDDEN
 70
     0
  3
Hidden __ __ __ __ __ __ __ __ __ __ __ __ __ _
 72
    65
 73
     2
 40
0.375
 49
0.25
 49
-0.125
  0
LTYPE
  2
CENTER2
 70
     0
  3
Center (.5x) ___ _ ___ _ ___ _ ___ _ ___ _ ___
 72
    65
 73
     4
 40
1.125
 49
0.75
 49
-0.125
 49
0.125
 49
-0.125
  0
LTYPE
  2
HIDDEN2
 70
     0
  3
Hidden (.5x) _ _ _ _ _ _ _ _ _ _ _ _ _ _ _ _ _
 72
    65
 73
     2
 40
0.1875
 49
0.125
 49
-0.0625
  0
LTYPE
  2
AMZIGZAG2
 70
     0
  3
/\/-/\/-/\/-/\/-/\/-/\/
 72
    65
 73
     2
 40
0.4401
 49
0.0001
 49
-0.4400000000000002
  0
LTYPE
  2
ACANSTGB
 70
     0
  3
__ . . __ . .
 72
    65
 73
     6
 40
0.35433070866
 49
0.15748031496
 49
-0.03937007874
 49
0.03937007874
 49
-0.03937007874
 49
0.03937007874
 49
-0.03937007874
  0
LTYPE
  2
ACANSTGL
 70
     0
  3
_ _ _ _ _
 72
    65
 73
     2
 40
0.11811023622
 49
0.07874015748
 49
-0.03937007874
  0
ENDTAB
  0
TABLE
  2
LAYER
 70
     7
  0
LAYER
  2
0
 70
     0
 62
     7
  6
CONTINUOUS
  0
LAYER
  2
AM_0
 70
     0
 62
     7
  6
CONTINUOUS
  0
LAYER
  2
AM_5
 70
     0
 62
     2
  6
CONTINUOUS
  0
LAYER
  2
DEFPOINTS
 70
     0
 62
     7
  6
CONTINUOUS
  0
LAYER
  2
ｶｸﾚｾﾝ2
 70
     0
 62
     3
  6
GEN3B
  0
LAYER
  2
ﾁｭｳｼﾝｾﾝ
 70
     0
 62
     1
  6
GEN7
  0
LAYER
  2
ﾁｭｳｼﾝｾﾝ1
 70
     0
 62
     1
  6
GEN7A
  0
ENDTAB
  0
TABLE
  2
STYLE
 70
     9
  0
STYLE
  2
STANDARD
 70
     0
 40
0.0
 41
0.8299999999999999
 50
0.0
 71
     0
 42
2.5
  3
txt.shx
  4
bigfont.shx
  0
STYLE
  2
ANNOTATIVE
 70
     0
 40
0.0
 41
1.0
 50
0.0
 71
     0
 42
0.2
  3
txt
  4

  0
STYLE
  2

 70
     1
 40
0.0
 41
1.0
 50
0.0
 71
     0
 42
2.5
  3
ltypeshp.shx
  4

  0
STYLE
  2
ACISOTS
 70
     0
 40
1.0
 41
1.0
 50
0.0
 71
     0
 42
2.5
  3
isocp.shx
  4
extfont.shx
  0
STYLE
  2
ACISOGDT
 70
     0
 40
0.0
 41
1.0
 50
0.0
 71
     0
 42
2.5
  3
amgdt.shx
  4

  0
STYLE
  2
ACANSTS
 70
     0
 40
1.0
 41
1.0
 50
0.0
 71
     0
 42
2.5
  3
romans.shx
  4
bigfont.shx
  0
STYLE
  2
ACANSGDT
 70
     0
 40
0.0
 41
1.0
 50
0.0
 71
     0
 42
2.5
  3
amgdt.shx
  4

  0
STYLE
  2
ACJISTS
 70
     0
 40
1.0
 41
1.0
 50
0.0
 71
     0
 42
2.5
  3
isocp.shx
  4
bigfont.shx
  0
STYLE
  2
ACJISGDT
 70
     0
 40
0.0
 41
1.0
 50
0.0
 71
     0
 42
2.5
  3
amgdt.shx
  4

  0
ENDTAB
  0
TABLE
  2
VIEW
 70
     6
  0
VIEW
  2
AM_VIEW1
 70
     0
 40
277.49999999999989
 10
249.64779005524849
 20
416.24999999999989
 41
499.2955801104971
 11
0.0
 21
0.0
 31
1.0
 12
0.0
 22
0.0
 32
0.0
 42
50.0
 43
0.0
 44
0.0
 50
0.0
 71
     0
  0
VIEW
  2
AM_VIEW2
 70
     0
 40
277.49999999999989
 10
603.85220994475117
 20
416.24999999999989
 41
499.2955801104971
 11
0.0
 21
0.0
 31
1.0
 12
0.0
 22
0.0
 32
0.0
 42
50.0
 43
0.0
 44
0.0
 50
0.0
 71
     0
  0
VIEW
  2
AM_VIEW3
 70
     0
 40
277.49999999999989
 10
249.64779005524849
 20
138.7499999999998
 41
499.2955801104971
 11
0.0
 21
0.0
 31
1.0
 12
0.0
 22
0.0
 32
0.0
 42
50.0
 43
0.0
 44
0.0
 50
0.0
 71
     0
  0
VIEW
  2
AM_VIEW4
 70
     0
 40
277.49999999999989
 10
603.85220994475117
 20
138.7499999999998
 41
499.2955801104971
 11
0.0
 21
0.0
 31
1.0
 12
0.0
 22
0.0
 32
0.0
 42
50.0
 43
0.0
 44
0.0
 50
0.0
 71
     0
  0
VIEW
  2
AM_VIEW5
 70
     0
 40
277.5
 10
426.75
 20
277.49999999999989
 41
499.2955801104971
 11
0.0
 21
0.0
 31
1.0
 12
0.0
 22
0.0
 32
0.0
 42
50.0
 43
0.0
 44
0.0
 50
0.0
 71
     0
  0
VIEW
  2
AM_VIEW6
 70
     0
 40
554.99445000000014
 10
426.75
 20
277.49999999999989
 41
998.5811743093924
 11
0.0
 21
0.0
 31
1.0
 12
0.0
 22
0.0
 32
0.0
 42
50.0
 43
0.0
 44
0.0
 50
0.0
 71
     0
  0
ENDTAB
  0
TABLE
  2
UCS
 70
     0
  0
ENDTAB
  0
TABLE
  2
APPID
 70
    95
  0
APPID
  2
ACAD
 70
     0
  0
APPID
  2
ACADANNOTATIVE
 70
     0
  0
APPID
  2
MCAD_NO_VIS
 70
     0
  0
APPID
  2
ACAD_TEMP_GRAPHIC
 70
     0
  0
APPID
  2
ACATTRIBSERVICES
 70
     0
  0
APPID
  2
GENIUS_GENREC_14
 70
     0
  0
APPID
  2
GENIUS_GENOBJ-N-REC_13
 70
     0
  0
APPID
  2
GENIUS_GENODEF_13
 70
     0
  0
APPID
  2
GENIUS_GENOLIS_13
 70
     0
  0
APPID
  2
GENIUS_GENOBJ-N-TIT_13
 70
     0
  0
APPID
  2
GENIUS_GENOENT_13
 70
     0
  0
APPID
  2
GENIUS_GENTITLE_13
 70
     0
  0
APPID
  2
GENIUS_GENOREF_13
 70
     0
  0
APPID
  2
GENIUS_GENSCREG_15
 70
     0
  0
APPID
  2
GENIUS_GENOBJ-N-SDF_13
 70
     0
  0
APPID
  2
GENIUS_GENFIL_13
 70
     0
  0
APPID
  2
GENIUS_GENOBJ-N-CHA_13
 70
     0
  0
APPID
  2
GENIUS_GENDTOL_13
 70
     0
  0
APPID
  2
GENIUS_GENOBJ-N-FIL_13
 70
     0
  0
APPID
  2
AD_DRAW
 70
     0
  0
APPID
  2
DESIGNERASSEMBLIES
 70
     0
  0
APPID
  2
ASURF_PCURVE_APPNAME
 70
     0
  0
APPID
  2
GENIUS_GE3SECT_13
 70
     0
  0
APPID
  2
GENIUS_GENCFG_13
 70
     0
  0
APPID
  2
GENIUS_GE3CFG0_13
 70
     0
  0
APPID
  2
GENIUS_GENCFG0_13
 70
     0
  0
APPID
  2
GENIUS_GENCFG1_13
 70
     0
  0
APPID
  2
GENIUS_GENCFG2_13
 70
     0
  0
APPID
  2
GENIUS_GENCFG3_13
 70
     0
  0
APPID
  2
GENIUS_GENCFG4_13
 70
     0
  0
APPID
  2
GENIUS_GEVCFG0_13
 70
     0
  0
APPID
  2
GENIUS_GENHINW_13
 70
     0
  0
APPID
  2
GENIUS_FIRSTVISTXT_14
 70
     0
  0
APPID
  2
GENIUS_GENOBJ-N-LEADER_13
 70
     0
  0
APPID
  2
GEV_VCCNULL_SWITCH_OFF
 70
     0
  0
APPID
  2
GENIUS_GEFCFG0_13
 70
     0
  0
APPID
  2
GENIUS_GENZVEED_13
 70
     0
  0
APPID
  2
GENIUS_GENSCREG_13
 70
     0
  0
APPID
  2
GENIUS_DUMCFG0_13
 70
     0
  0
APPID
  2
GEVID936201362
 70
     0
  0
APPID
  2
GEVDC
 70
     0
  0
APPID
  2
GEVCON
 70
     0
  0
APPID
  2
VCC
 70
     0
  0
APPID
  2
GEVPT
 70
     0
  0
APPID
  2
GEVIT
 70
     0
  0
APPID
  2
GENBH
 70
     0
  0
APPID
  2
GEVMK
 70
     0
  0
APPID
  2
GENIUS_GENBH_13
 70
     0
  0
APPID
  2
GENIUS_GENOBJ-NBEHI-BHF_13
 70
     0
  0
APPID
  2
GENIUS_GENOBJ-NBEHI-BHB_13
 70
     0
  0
APPID
  2
GENIUS_GENOBJ-F-DESC_13
 70
     0
  0
APPID
  2
GENIUS_GEFDESC_14
 70
     0
  0
APPID
  2
GENIUS_GENOBJ-F-PART_13
 70
     0
  0
APPID
  2
GENIUS_GEFSTDP_13
 70
     0
  0
APPID
  2
GENIUS_GEFPARTINS_13
 70
     0
  0
APPID
  2
GENIUS_GENTRA_14
 70
     0
  0
APPID
  2
GENIUS_GENINF13_13
 70
     0
  0
APPID
  2
GENIUS_GENOBJ-N-INFOPT_13
 70
     0
  0
APPID
  2
GENIUS_GENOBJ-N-RSSYM_13
 70
     0
  0
APPID
  2
GENIUS_GENSYMENT_13
 70
     0
  0
APPID
  2
GENIUS_GENSCSYM_13
 70
     0
  0
APPID
  2
GENIUS_GEFINFNAM_13
 70
     0
  0
APPID
  2
GENIUS_GENOBJ-N-CEN_13
 70
     0
  0
APPID
  2
GENIUS_GENOBJ-N-CRS_13
 70
     0
  0
APPID
  2
GENIUS_GENOBJ-N-CRC_13
 70
     0
  0
APPID
  2
GENIUS_GENCRC_14
 70
     0
  0
APPID
  2
GEVID942827039
 70
     0
  0
APPID
  2
GEVID942827040
 70
     0
  0
APPID
  2
GEVID942827041
 70
     0
  0
APPID
  2
GENIUS_GENOBJ-F-SCPASSM_13
 70
     0
  0
APPID
  2
GENIUS_GENDIMSH_14
 70
     0
  0
APPID
  2
GEVID942827042
 70
     0
  0
APPID
  2
GEVID946020473
 70
     0
  0
APPID
  2
GEVID946020474
 70
     0
  0
APPID
  2
GEVID946020475
 70
     0
  0
APPID
  2
GENIUS_GENOBJ-N-HTC_13
 70
     0
  0
APPID
  2
GENIUS_GENHATCH_13
 70
     0
  0
APPID
  2
GEVID948854295
 70
     0
  0
APPID
  2
GEVID939402019
 70
     0
  0
APPID
  2
GEVID952919491
 70
     0
  0
APPID
  2
GEVID952919492
 70
     0
  0
APPID
  2
GENIUS_GEFWELD_13
 70
     0
  0
APPID
  2
GENIUS_GENOBJ-F-WELS_13
 70
     0
  0
APPID
  2
GEVID952919493
 70
     0
  0
APPID
  2
GENIUS_GENOBJ-N-RSBK_13
 70
     0
  0
APPID
  2
GENIUS_GENOBJ-N-LIB_13
 70
     0
  0
APPID
  2
GENIUS_GENSCALE_13
 70
     0
  0
APPID
  2
GEVID986376691
 70
     0
  0
APPID
  2
DCO15
 70
     0
  0
APPID
  2
ACAD_DSTYLE_DIMBREAK
 70
     0
  0
APPID
  2
ACAD_DSTYLE_DIMJAG
 70
     0
  0
APPID
  2
ACAD_NAV_VCDISPLAY
 70
     0
  0
APPID
  2
ACADANNOPO
 70
     0
  0
APPID
  2
ACAD_EXEMPT_FROM_CAD_STANDARDS
 70
     0
  0
APPID
  2
ACAD_MLEADERVER
 70
     0
  0
ENDTAB
  0
TABLE
  2
DIMSTYLE
 70
    22
  0
DIMSTYLE
  2
STANDARD
 70
     0
  3

  4

  5

  6

  7

 40
1.0
 41
0.18
 42
0.0625
 43
0.38
 44
0.18
 45
0.0
 46
0.0
 47
0.0
 48
0.0
140
0.18
141
0.09
142
0.0
143
25.399999999999999
144
1.0
145
0.0
146
1.0
147
0.09
 71
     0
 72
     0
 73
     1
 74
     1
 75
     0
 76
     0
 77
     0
 78
     0
170
     0
171
     2
172
     0
173
     0
174
     0
175
     0
176
     0
177
     0
178
     0
  0
DIMSTYLE
  2
ANNOTATIVE
 70
     0
  3

  4

  5

  6

  7

 40
1.0
 41
0.18
 42
0.0625
 43
0.38
 44
0.18
 45
0.0
 46
0.0
 47
0.0
 48
0.0
140
0.18
141
0.09
142
0.0
143
25.399999999999999
144
1.0
145
0.0
146
1.0
147
0.09
 71
     0
 72
     0
 73
     1
 74
     1
 75
     0
 76
     0
 77
     0
 78
     0
170
     0
171
     2
172
     0
173
     0
174
     0
175
     0
176
     0
177
     0
178
     0
  0
DIMSTYLE
  2
AM_ISO
 70
     0
  3

  4
"
  5

  6

  7

 40
1.0
 41
2.5
 42
1.0
 43
8.0
 44
0.6
 45
0.0
 46
0.0
 47
0.1
 48
0.1
140
2.5
141
0.0
142
0.0
143
0.0393701
144
1.0
145
0.0
146
0.71
147
0.8
 71
     0
 72
     0
 73
     0
 74
     0
 75
     0
 76
     0
 77
     1
 78
     8
170
     0
171
     2
172
     1
173
     0
174
     0
175
     0
176
   256
177
   256
178
     4
  0
DIMSTYLE
  2
AM_ISO$3
 70
     0
  3

  4
"
  5

  6

  7

 40
1.0
 41
2.5
 42
1.0
 43
8.0
 44
0.6
 45
0.0
 46
0.0
 47
0.1
 48
0.1
140
2.5
141
0.0
142
0.0
143
0.0393701
144
1.0
145
0.0
146
0.71
147
0.8
 71
     0
 72
     0
 73
     0
 74
     1
 75
     0
 76
     0
 77
     1
 78
     8
170
     0
171
     2
172
     0
173
     0
174
     0
175
     0
176
   256
177
   256
178
     4
  0
DIMSTYLE
  2
AM_ISO$4
 70
     0
  3

  4
"
  5

  6

  7

 40
1.0
 41
2.5
 42
1.0
 43
8.0
 44
0.6
 45
0.0
 46
0.0
 47
0.1
 48
0.1
140
2.5
141
0.0
142
0.0
143
0.0393701
144
1.0
145
0.0
146
0.71
147
0.8
 71
     0
 72
     0
 73
     0
 74
     1
 75
     0
 76
     0
 77
     1
 78
     8
170
     0
171
     2
172
     0
173
     0
174
     0
175
     0
176
   256
177
   256
178
     4
  0
DIMSTYLE
  2
AM_ISO$6
 70
     0
  3

  4
"
  5

  6

  7

 40
1.0
 41
2.5
 42
1.0
 43
8.0
 44
0.6
 45
0.0
 46
0.0
 47
0.1
 48
0.1
140
2.5
141
0.0
142
0.0
143
0.0393701
144
1.0
145
0.0
146
0.71
147
0.8
 71
     0
 72
     0
 73
     0
 74
     0
 75
     0
 76
     0
 77
     0
 78
     8
170
     0
171
     2
172
     1
173
     0
174
     0
175
     0
176
   256
177
   256
178
     4
  0
DIMSTYLE
  2
AM_ISO$7
 70
     0
  3

  4
"
  5

  6

  7

 40
1.0
 41
2.5
 42
1.0
 43
8.0
 44
0.6
 45
0.0
 46
0.0
 47
0.1
 48
0.1
140
2.5
141
0.0
142
0.0
143
0.0393701
144
1.0
145
0.0
146
0.71
147
0.8
 71
     0
 72
     0
 73
     0
 74
     0
 75
     0
 76
     0
 77
     1
 78
     8
170
     0
171
     2
172
     1
173
     0
174
     0
175
     0
176
   256
177
   256
178
     4
  0
DIMSTYLE
  2
AM_ISO$SF
 70
     0
  3

  4
"
  5

  6

  7

 40
1.0
 41
2.5
 42
1.0
 43
10.0
 44
1.0
 45
0.0
 46
0.0
 47
0.1
 48
0.1
140
3.5
141
0.0
142
0.0
143
0.0393701
144
1.0
145
0.0
146
0.71
147
1.5
 71
     0
 72
     0
 73
     0
 74
     0
 75
     1
 76
     1
 77
     1
 78
     8
170
     0
171
     2
172
     1
173
     0
174
     0
175
     0
176
   256
177
   256
178
     2
  0
DIMSTYLE
  2
AM_ISO$SH
 70
     0
  3

  4
"
  5

  6

  7

 40
1.0
 41
2.5
 42
1.0
 43
10.0
 44
1.0
 45
0.0
 46
0.0
 47
0.1
 48
0.1
140
3.5
141
0.0
142
0.0
143
0.0393701
144
2.0
145
0.0
146
0.71
147
1.5
 71
     0
 72
     0
 73
     0
 74
     0
 75
     1
 76
     1
 77
     1
 78
     8
170
     0
171
     2
172
     1
173
     1
174
     0
175
     0
176
   256
177
   256
178
     2
  0
DIMSTYLE
  2
AM_JIS
 70
     0
  3

  4
"
  5

  6

  7

 40
1.0
 41
2.5
 42
1.0
 43
7.0
 44
1.0
 45
0.0
 46
0.0
 47
0.1
 48
0.1000000001
140
2.5
141
0.0
142
0.0
143
0.0393701
144
1.0
145
0.0
146
0.71
147
1.0
 71
     0
 72
     0
 73
     0
 74
     0
 75
     0
 76
     0
 77
     3
 78
     8
170
     0
171
     2
172
     1
173
     0
174
     0
175
     0
176
   256
177
   256
178
     4
  0
DIMSTYLE
  2
AM_JIS$3
 70
     0
  3

  4
"
  5

  6

  7

 40
1.0
 41
2.5
 42
1.0
 43
7.0
 44
1.0
 45
0.0
 46
0.0
 47
0.1
 48
0.1000000001
140
2.5
141
0.0
142
0.0
143
0.0393701
144
1.0
145
0.0
146
0.71
147
1.0
 71
     0
 72
     0
 73
     0
 74
     1
 75
     0
 76
     0
 77
     3
 78
     8
170
     0
171
     2
172
     0
173
     0
174
     0
175
     0
176
   256
177
   256
178
     4
  0
DIMSTYLE
  2
AM_JIS$4
 70
     0
  3

  4
"
  5

  6

  7

 40
1.0
 41
2.5
 42
1.0
 43
7.0
 44
1.0
 45
0.0
 46
0.0
 47
0.1
 48
0.1000000001
140
2.5
141
0.0
142
0.0
143
0.0393701
144
1.0
145
0.0
146
0.71
147
1.0
 71
     0
 72
     0
 73
     0
 74
     0
 75
     0
 76
     0
 77
     3
 78
     8
170
     0
171
     2
172
     0
173
     0
174
     0
175
     0
176
   256
177
   256
178
     4
  0
DIMSTYLE
  2
AM_JIS$6
 70
     0
  3

  4
"
  5

  6

  7

 40
1.0
 41
2.5
 42
1.0
 43
7.0
 44
1.0
 45
0.0
 46
0.0
 47
0.1
 48
0.1000000001
140
2.5
141
0.0
142
0.0
143
0.0393701
144
1.0
145
0.0
146
0.71
147
1.0
 71
     0
 72
     0
 73
     0
 74
     0
 75
     0
 76
     0
 77
     0
 78
     8
170
     0
171
     2
172
     1
173
     0
174
     0
175
     0
176
   256
177
   256
178
     4
  0
DIMSTYLE
  2
AM_JIS$7
 70
     0
  3

  4
"
  5

  6

  7

 40
1.0
 41
2.5
 42
1.0
 43
7.0
 44
1.0
 45
0.0
 46
0.0
 47
0.1
 48
0.1000000001
140
2.5
141
0.0
142
0.0
143
0.0393701
144
1.0
145
0.0
146
0.71
147
1.0
 71
     0
 72
     0
 73
     0
 74
     0
 75
     0
 76
     0
 77
     3
 78
     8
170
     0
171
     2
172
     1
173
     0
174
     0
175
     0
176
   256
177
   256
178
     4
  0
DIMSTYLE
  2
AM_JIS$SF
 70
     0
  3

  4
"
  5

  6

  7

 40
1.0
 41
2.5
 42
1.0
 43
10.0
 44
1.0
 45
0.0
 46
0.0
 47
0.1
 48
0.1
140
3.5
141
0.0
142
0.0
143
0.0393701
144
1.0
145
0.0
146
0.71
147
1.5
 71
     0
 72
     0
 73
     0
 74
     0
 75
     1
 76
     1
 77
     3
 78
     8
170
     0
171
     2
172
     1
173
     0
174
     0
175
     0
176
   256
177
   256
178
     4
  0
DIMSTYLE
  2
AM_JIS$SH
 70
     0
  3

  4
"
  5

  6

  7

 40
1.0
 41
2.5
 42
1.0
 43
10.0
 44
1.0
 45
0.0
 46
0.0
 47
0.1
 48
0.1
140
3.5
141
0.0
142
0.0
143
0.0393701
144
1.0
145
0.0
146
0.71
147
1.5
 71
     0
 72
     0
 73
     0
 74
     0
 75
     1
 76
     0
 77
     3
 78
     8
170
     0
171
     2
172
     1
173
     1
174
     0
175
     0
176
   256
177
   256
178
     4
  0
DIMSTYLE
  2
AM_ANSI
 70
     0
  3

  4
mm
  5

  6

  7

 40
1.0
 41
0.1
 42
0.05
 43
0.5
 44
0.1
 45
0.0
 46
0.0
 47
0.1
 48
0.1
140
0.12
141
0.0
142
0.0
143
25.399999999999999
144
1.0
145
0.0
146
0.71
147
0.06
 71
     0
 72
     0
 73
     1
 74
     1
 75
     0
 76
     0
 77
     0
 78
     7
170
     0
171
     2
172
     0
173
     0
174
     0
175
     0
176
   256
177
   256
178
     2
  0
DIMSTYLE
  2
AM_ANSI$3
 70
     0
  3

  4
mm
  5

  6

  7

 40
1.0
 41
0.1
 42
0.05
 43
0.5
 44
0.1
 45
0.0
 46
0.0
 47
0.1
 48
0.1
140
0.12
141
0.0
142
0.0
143
25.399999999999999
144
1.0
145
0.0
146
0.71
147
0.06
 71
     0
 72
     0
 73
     1
 74
     1
 75
     0
 76
     0
 77
     0
 78
     7
170
     0
171
     2
172
     0
173
     0
174
     0
175
     0
176
   256
177
   256
178
     2
  0
DIMSTYLE
  2
AM_ANSI$4
 70
     0
  3

  4
mm
  5

  6

  7

 40
1.0
 41
0.1
 42
0.05
 43
0.5
 44
0.1
 45
0.0
 46
0.0
 47
0.1
 48
0.1
140
0.12
141
0.0
142
0.0
143
25.399999999999999
144
1.0
145
0.0
146
0.71
147
0.06
 71
     0
 72
     0
 73
     1
 74
     1
 75
     0
 76
     0
 77
     0
 78
     7
170
     0
171
     2
172
     0
173
     0
174
     0
175
     0
176
   256
177
   256
178
     2
  0
DIMSTYLE
  2
AM_ANSI$7
 70
     0
  3

  4
mm
  5

  6

  7

 40
1.0
 41
0.1
 42
0.05
 43
0.5
 44
0.1
 45
0.0
 46
0.0
 47
0.1
 48
0.1
140
0.24
141
0.0
142
0.0
143
25.399999999999999
144
1.0
145
0.0
146
0.71
147
0.06
 71
     0
 72
     0
 73
     1
 74
     1
 75
     0
 76
     0
 77
     0
 78
     7
170
     0
171
     2
172
     0
173
     0
174
     0
175
     0
176
   256
177
   256
178
     2
  0
DIMSTYLE
  2
AM_ANSI$SF
 70
     0
  3

  4
mm
  5

  6

  7

 40
1.0
 41
0.1
 42
0.05
 43
0.5
 44
0.1
 45
0.0
 46
0.0
 47
0.1
 48
0.1
140
0.12
141
0.0
142
0.0
143
25.399999999999999
144
1.0
145
0.0
146
0.71
147
0.06
 71
     0
 72
     0
 73
     1
 74
     1
 75
     1
 76
     1
 77
     0
 78
     7
170
     0
171
     2
172
     0
173
     0
174
     0
175
     0
176
   256
177
   256
178
     2
  0
DIMSTYLE
  2
AM_ANSI$SH
 70
     0
  3

  4
mm
  5

  6

  7

 40
1.0
 41
0.1
 42
0.05
 43
0.5
 44
0.1
 45
0.0
 46
0.0
 47
0.1
 48
0.1
140
0.12
141
0.0
142
0.0
143
25.399999999999999
144
1.0
145
0.0
146
0.71
147
0.06
 71
     0
 72
     0
 73
     1
 74
     1
 75
     1
 76
     1
 77
     0
 78
     7
170
     0
171
     2
172
     0
173
     1
174
     0
175
     0
176
   256
177
   256
178
     2
  0
ENDTAB
  0
ENDSEC
  0
SECTION
  2
BLOCKS
  0
BLOCK
  8
0
  2
$MODEL_SPACE
 70
     0
 10
0.0
 20
0.0
 30
0.0
  3
$MODEL_SPACE
  1

  0
ENDBLK
  5
2B55
  8
0
  0
BLOCK
 67
     1
  8
0
  2
$PAPER_SPACE
 70
     0
 10
0.0
 20
0.0
 30
0.0
  3
$PAPER_SPACE
  1

  0
ENDBLK
  5
2B51
 67
     1
  8
0
  0
BLOCK
  8
0
  2
GENAXEH
 70
     0
 10
0.0
 20
0.0
 30
0.0
  3
GENAXEH
  1

  0
LINE
  5
28D7
  8
0
 10
-1.0
 20
0.0
 30
0.0
 11
1.0
 21
0.0
 31
0.0
  0
ENDBLK
  5
28D8
  8
0
  0
BLOCK
  8
0
  2
_OPEN30
 70
     0
 10
0.0
 20
0.0
 30
0.0
  3
_OPEN30
  1

  0
LINE
  5
28DB
  8
0
 62
     0
 10
-1.0
 20
0.26794919
 30
0.0
 11
0.0
 21
0.0
 31
0.0
  0
LINE
  5
28DC
  8
0
 62
     0
 10
0.0
 20
0.0
 30
0.0
 11
-1.0
 21
-0.26794919
 31
0.0
  0
LINE
  5
28DD
  8
0
 62
     0
 10
0.0
 20
0.0
 30
0.0
 11
-1.0
 21
0.0
 31
0.0
  0
ENDBLK
  5
28DE
  8
0
  0
BLOCK
  8
0
  2
_NONE
 70
     0
 10
0.0
 20
0.0
 30
0.0
  3
_NONE
  1

  0
ENDBLK
  5
28E1
  8
0
  0
BLOCK
  8
0
  2
*U5
 70
     1
 10
0.0
 20
0.0
 30
0.0
  3
*U5
  1

  0
TEXT
  5
28E4
  8
AM_0
 62
     4
 10
758.01483986976973
 20
227.93902538794461
 30
0.0
 40
7.5
  1
106
 50
90.0
 41
0.8299999999999999
  0
TEXT
  5
28E5
  8
AM_0
 62
     3
 10
750.91483986976993
 20
243.50152538794481
 30
0.0
 40
5.3249999999999993
  1
 0
 50
90.0
 41
0.8299999999999999
  0
TEXT
  5
28E6
  8
AM_0
 62
     3
 10
758.01483986976973
 20
243.50152538794481
 30
0.0
 40
5.3249999999999993
  1
-0.5
 50
90.0
 41
0.8299999999999999
  0
ENDBLK
  5
28E7
  8
0
  0
BLOCK
  8
0
  2
_ACMFILLEDHALF
 70
     0
 10
0.0
 20
0.0
 30
0.0
  3
_ACMFILLEDHALF
  1

  0
TRACE
  5
2C4F
  8
AM_0
 62
     0
 10
-0.8
 20
0.0
 30
0.0
 11
-1.0
 21
0.166666666
 31
0.0
 12
0.0
 22
0.0
 32
0.0
 13
0.0
 23
0.0
 33
0.0
  0
LINE
  5
2C50
  8
AM_0
 62
     0
 10
-1.0
 20
0.0
 30
0.0
 11
-0.8
 21
0.0
 31
0.0
  0
ENDBLK
  5
2C4E
  8
0
  0
ENDSEC
  0
SECTION
  2
ENTITIES
  0
LINE
  5
28E8
  8
ﾁｭｳｼﾝｾﾝ
 10
284.11461120995909
 20
294.98157388794459
 30
0.0
 11
429.5037912099591
 21
294.98157388794459
 31
0.0
  0
LINE
  5
28E9
  8
AM_0
 10
267.05595120995901
 20
198.28160488794461
 30
0.0
 11
267.05595120995901
 21
345.28160788794469
 31
0.0
  0
LINE
  5
28EA
  8
AM_0
 10
376.5559812099591
 20
205.85455888794439
 30
0.0
 11
376.5559812099591
 21
331.23257788794461
 31
0.0
  0
LINE
  5
28EB
  8
AM_0
 10
346.55598120995887
 20
208.98157288794471
 30
0.0
 11
346.55598120995887
 21
316.21487788794462
 31
0.0
  0
LINE
  5
28EC
  8
AM_0
 10
364.5559812099591
 20
221.59488388794449
 30
0.0
 11
364.5559812099591
 21
346.31345788794471
 31
0.0
  0
LINE
  5
28ED
  8
AM_0
 10
379.5559812099591
 20
266.95574188794478
 30
0.0
 11
379.5559812099591
 21
323.00741788794483
 31
0.0
  0
LINE
  5
28EE
  8
AM_0
 10
303.55602120995911
 20
352.78160788794469
 30
0.0
 11
303.55602120995911
 21
225.1244408879445
 31
0.0
  0
LINE
  5
28EF
  8
AM_0
 10
296.55600120995888
 20
350.64995788794471
 30
0.0
 11
296.55600120995888
 21
203.9815868879445
 31
0.0
  0
POLYLINE
  5
28F0
  8
AM_0
 66
     1
 10
0.0
 20
0.0
 30
0.0
  0
VERTEX
  5
28F1
  8
AM_0
  6
CONTINUOUS
 10
306.55596120995898
 20
203.9815838879444
 30
0.0
 42
0.1279115
  0
VERTEX
  5
28F2
  8
AM_0
  6
CONTINUOUS
 10
312.65007120995898
 20
205.64700088794461
 30
0.0
 42
0.075873118
  0
VERTEX
  5
28F3
  8
AM_0
  6
CONTINUOUS
 10
317.63145120995898
 20
209.6058998879445
 30
0.0
 42
0.043913378
  0
VERTEX
  5
28F4
  8
AM_0
  6
CONTINUOUS
 10
321.57222120995908
 20
214.62301288794461
 30
0.0
 42
0.028464656
  0
VERTEX
  5
28F5
  8
AM_0
  6
CONTINUOUS
 10
324.76437120995911
 20
220.14963688794461
 30
0.0
 42
0.020370663
  0
VERTEX
  5
28F6
  8
AM_0
  6
CONTINUOUS
 10
327.41112120995911
 20
225.96198388794471
 30
0.0
 42
0.015656254
  0
VERTEX
  5
28F7
  8
AM_0
  6
CONTINUOUS
 10
329.6361312099591
 20
231.94860088794451
 30
0.0
 42
0.012688911
  0
VERTEX
  5
28F8
  8
AM_0
  6
CONTINUOUS
 10
331.52052120995887
 20
238.05170188794469
 30
0.0
 42
0.010707698
  0
VERTEX
  5
28F9
  8
AM_0
  6
CONTINUOUS
 10
333.11883120995918
 20
244.2371258879445
 30
0.0
 42
0.0093245508
  0
VERTEX
  5
28FA
  8
AM_0
  6
CONTINUOUS
 10
334.46877120995907
 20
250.4810408879446
 30
0.0
 42
0.0083349492
  0
VERTEX
  5
28FB
  8
AM_0
  6
CONTINUOUS
 10
335.59812120995912
 20
256.77004588794472
 30
0.0
 42
0.0076122078
  0
VERTEX
  5
28FC
  8
AM_0
  6
CONTINUOUS
 10
336.5268012099591
 20
263.09221588794458
 30
0.0
 42
0.0070829657
  0
VERTEX
  5
28FD
  8
AM_0
  6
CONTINUOUS
 10
337.26954120995907
 20
269.43897688794459
 30
0.0
 42
0.0067007819
  0
VERTEX
  5
28FE
  8
AM_0
  6
CONTINUOUS
 10
337.8373212099591
 20
275.8040258879447
 30
0.0
 42
0.0064353088
  0
VERTEX
  5
28FF
  8
AM_0
  6
CONTINUOUS
 10
338.23785120995888
 20
282.18201388794478
 30
0.0
 42
0.0062673646
  0
VERTEX
  5
2900
  8
AM_0
  6
CONTINUOUS
 10
338.47641120995911
 20
288.5681648879447
 30
0.0
 42
0.0061857301
  0
VERTEX
  5
2901
  8
AM_0
  6
CONTINUOUS
 10
338.55597120995918
 20
294.95815588794483
 30
0.0
  0
SEQEND
  5
2902
  8
AM_0
  0
LINE
  5
2903
  8
AM_0
 10
140.05595120995901
 20
262.28159288794478
 30
0.0
 11
140.05595120995901
 21
281.28159288794478
 31
0.0
  0
LINE
  5
2904
  8
AM_0
 10
168.05595120995889
 20
261.78159288794478
 30
0.0
 11
168.05595120995889
 21
281.78159288794478
 31
0.0
  0
LINE
  5
2905
  8
AM_0
 10
170.05595120995889
 20
247.78159288794461
 30
0.0
 11
170.05595120995889
 21
295.78159288794478
 31
0.0
  0
LINE
  5
2906
  8
AM_0
 10
172.05595120995901
 20
242.51364388794471
 30
0.0
 11
172.05595120995901
 21
301.04954188794483
 31
0.0
  0
LINE
  5
2907
  8
AM_0
 10
255.05595120995901
 20
203.22314188794471
 30
0.0
 11
255.05595120995901
 21
340.34004388794477
 31
0.0
  0
LINE
  5
2908
  8
AM_0
 10
202.9855002099589
 20
239.24201988794471
 30
0.0
 11
202.9855002099589
 21
304.32116488794458
 31
0.0
  0
LINE
  5
2909
  8
AM_0
 10
177.4140972099591
 20
239.68837088794459
 30
0.0
 11
177.4140972099591
 21
303.87481488794452
 31
0.0
  0
LINE
  5
290A
  8
AM_0
 10
140.05595120995901
 20
262.28159288794478
 30
0.0
 11
168.05595120995889
 21
262.28159288794478
 31
0.0
  0
LINE
  5
290B
  8
ﾁｭｳｼﾝｾﾝ
 10
136.81904176855051
 20
271.78159288794478
 30
0.0
 11
290.16444327360398
 21
271.78159288794478
 31
0.0
  0
LINE
  5
290C
  8
AM_0
 10
267.05601120995902
 20
210.20294488794451
 30
0.0
 11
296.55600120995888
 21
210.20294488794451
 31
0.0
  0
LINE
  5
290D
  8
AM_0
 10
271.55601120995902
 20
203.9815868879445
 30
0.0
 11
297.0703212099591
 21
203.9815868879445
 31
0.0
  0
LINE
  5
290E
  8
AM_0
 10
267.05601120995902
 20
232.30692088794461
 30
0.0
 11
296.55600120995888
 21
232.30692088794461
 31
0.0
  0
LINE
  5
290F
  8
AM_0
 10
269.55600120995888
 20
188.9815868879445
 30
0.0
 11
296.55600120995888
 21
188.9815868879445
 31
0.0
  0
LINE
  5
2910
  8
ｶｸﾚｾﾝ2
 10
278.55603120995892
 20
203.9815868879445
 30
0.0
 11
278.55603120995892
 21
188.9815868879445
 31
0.0
  0
LINE
  5
2911
  8
ｶｸﾚｾﾝ2
 10
290.55600120995888
 20
203.9815868879445
 30
0.0
 11
290.55600120995888
 21
188.9815868879445
 31
0.0
  0
LINE
  5
2912
  8
AM_0
 10
269.55600120995888
 20
201.98158588794459
 30
0.0
 11
269.55600120995888
 21
188.9815868879445
 31
0.0
  0
LINE
  5
2913
  8
ﾁｭｳｼﾝｾﾝ1
 10
284.55597120995918
 20
206.0784766537611
 30
0.0
 11
284.55597120995918
 21
186.66589993010959
 31
0.0
  0
LINE
  5
2914
  8
AM_0
 10
254.243880209959
 20
201.35021088794471
 30
0.0
 11
205.48989920995891
 21
235.48811588794459
 31
0.0
  0
LINE
  5
2915
  8
AM_0
 10
178.18983220995881
 20
237.67452588794461
 30
0.0
 11
199.92865920995879
 21
237.29507288794471
 31
0.0
  0
LINE
  5
2916
  8
AM_0
 10
173.55595120995901
 20
239.91556688794461
 30
0.0
 11
176.74218920995881
 21
238.07599188794461
 31
0.0
  0
ARC
  5
2917
  8
AM_0
 10
175.05595120995901
 20
242.51364388794471
 30
0.0
 40
3.0
 50
180.0
 51
239.99999999999949
  0
LINE
  5
2918
  8
AM_0
 10
170.05595120995889
 20
247.78159288794461
 30
0.0
 11
172.05595120995901
 21
245.78159288794461
 31
0.0
  0
ARC
  5
2919
  8
AM_0
 10
178.24218920995881
 20
240.67406888794471
 30
0.0
 40
3.0
 50
239.99999999999949
 51
269.00000000000148
  0
LINE
  5
291A
  8
AM_0
 10
168.05595120995889
 20
261.78159288794478
 30
0.0
 11
170.05595120995889
 21
261.78159288794478
 31
0.0
  0
ARC
  5
291B
  8
AM_0
 10
199.754135209959
 20
227.29659588794459
 30
0.0
 40
10.0
 50
55.000000000001307
 51
89.000000000001506
  0
LINE
  5
291C
  8
AM_0
 10
257.05595120995901
 20
232.30691688794471
 30
0.0
 11
265.05595120995901
 21
232.30691688794471
 31
0.0
  0
LINE
  5
291D
  8
AM_0
 10
257.05595120995901
 20
198.28159288794461
 30
0.0
 11
267.05595120995901
 21
198.28159288794461
 31
0.0
  0
LINE
  5
291E
  8
AM_0
 10
257.05595120995901
 20
208.2723678879446
 30
0.0
 11
263.05595120995901
 21
208.2723678879446
 31
0.0
  0
ARC
  5
291F
  8
AM_0
 10
257.05595120995901
 20
200.28159288794461
 30
0.0
 40
2.0
 50
188.187984
 51
270.0
  0
ARC
  5
2920
  8
AM_0
 10
253.09672720995911
 20
199.71190688794471
 30
0.0
 40
2.0
 50
8.1879840000002062
 51
55.000000000001307
  0
ARC
  5
2921
  8
AM_0
 10
257.05595120995901
 20
210.27236788794471
 30
0.0
 40
2.0
 50
180.0
 51
270.0
  0
LINE
  5
2922
  8
AM_0
 10
265.05595120995901
 20
210.27236788794471
 30
0.0
 11
265.05595120995901
 21
230.30691688794471
 31
0.0
  0
LINE
  5
2923
  8
AM_0
 10
267.05601120995902
 20
198.28157488794471
 30
0.0
 11
269.55600120995888
 21
198.21611488794471
 31
0.0
  0
ARC
  5
2924
  8
AM_0
 10
263.05595120995901
 20
210.27236788794471
 30
0.0
 40
2.0
 50
270.0
 51
0.0
  0
ARC
  5
2925
  8
AM_0
 10
271.55601120995902
 20
201.98158588794459
 30
0.0
 40
2.00000007
 50
90.000003000000007
 51
180.00001
  0
ARC
  5
2926
  8
AM_0
 10
267.05595120995901
 20
230.30691688794471
 30
0.0
 40
2.0
 50
120.0000000000005
 51
180.0
  0
LINE
  5
2927
  8
AM_0
 10
379.5559812099591
 20
201.98158588794459
 30
0.0
 11
379.5559812099591
 21
188.9815868879445
 31
0.0
  0
LINE
  5
2928
  8
ｶｸﾚｾﾝ2
 10
370.5559812099591
 20
203.9815868879445
 30
0.0
 11
370.5559812099591
 21
188.9815868879445
 31
0.0
  0
LINE
  5
2929
  8
ｶｸﾚｾﾝ2
 10
358.5559812099591
 20
203.9815868879445
 30
0.0
 11
358.5559812099591
 21
188.9815868879445
 31
0.0
  0
LINE
  5
292A
  8
ﾁｭｳｼﾝｾﾝ1
 10
364.55595120995901
 20
206.0784766537611
 30
0.0
 11
364.55595120995901
 21
186.66589993010959
 31
0.0
  0
LINE
  5
292B
  8
AM_0
 10
352.5559812099591
 20
188.9815868879445
 30
0.0
 11
379.5559812099591
 21
188.9815868879445
 31
0.0
  0
LINE
  5
292C
  8
AM_0
 10
297.556021209959
 20
189.9815858879445
 30
0.0
 11
351.55602120995911
 21
189.9815858879445
 31
0.0
  0
LINE
  5
292D
  8
AM_0
 10
296.55600120995888
 20
188.9815868879445
 30
0.0
 11
296.55600120995888
 21
188.9815868879445
 31
0.0
  0
ARC
  5
292E
  8
AM_0
 10
297.556021209959
 20
188.9815868879445
 30
0.0
 40
1.0000000199999981
 50
90.000003000000007
 51
180.00001
  0
ARC
  5
292F
  8
AM_0
 10
351.55602120995911
 20
188.9815868879445
 30
0.0
 40
1.0000000199999981
 50
0.0
 51
90.000003000000007
  0
LINE
  5
2930
  8
AM_0
 10
352.5559812099591
 20
188.9815868879445
 30
0.0
 11
352.5559812099591
 21
188.9815868879445
 31
0.0
  0
ARC
  5
2931
  8
AM_0
 10
359.55600120995888
 20
221.59488388794449
 30
0.0
 40
5.0000001000000003
 50
270.0
 51
0.0
  0
LINE
  5
2932
  8
AM_0
 10
351.55602120995911
 20
203.9815868879445
 30
0.0
 11
377.55600120995888
 21
203.9815868879445
 31
0.0
  0
LINE
  5
2933
  8
AM_0
 10
306.4688712099591
 20
240.5209418879445
 30
0.0
 11
300.01806120995911
 21
206.42390788794461
 31
0.0
  0
LINE
  5
2934
  8
AM_0
 10
297.25008120995898
 20
206.27298388794449
 30
0.0
 11
299.98950120995892
 21
206.27298388794449
 31
0.0
  0
ARC
  5
2935
  8
AM_0
 10
297.0703212099591
 20
206.98157188794451
 30
0.0
 40
3.0
 50
270.0
 51
349.28688
  0
ARC
  5
2936
  8
AM_0
 10
351.55602120995911
 20
208.98157288794471
 30
0.0
 40
5.0000001000000003
 50
179.99998999999991
 51
270.0
  0
LINE
  5
2937
  8
AM_0
 10
346.55598120995887
 20
216.59486788794459
 30
0.0
 11
359.55600120995888
 21
216.59486788794459
 31
0.0
  0
LINE
  5
2938
  8
AM_0
 10
306.55602120995911
 20
241.45039888794469
 30
0.0
 11
306.55602120995911
 21
276.7702388879444
 31
0.0
  0
ARC
  5
2939
  8
AM_0
 10
301.5559812099591
 20
241.45039888794469
 30
0.0
 40
5.0000001000000003
 50
349.28688
 51
0.0
  0
ARC
  5
293A
  8
AM_0
 10
378.55602120995911
 20
205.85455888794439
 30
0.0
 40
2.00000007
 50
179.99998999999991
 51
255.52249
  0
ARC
  5
293B
  8
AM_0
 10
377.55600120995888
 20
201.98158588794459
 30
0.0
 40
2.00000007
 50
0.0
 51
90.000003000000007
  0
ARC
  5
293C
  8
AM_0
 10
377.55600120995888
 20
264.92885488794462
 30
0.0
 40
1.0000000199999981
 50
91.500000999999969
 51
180.00001
  0
ARC
  5
293D
  8
AM_0
 10
378.55602120995911
 20
266.95574188794478
 30
0.0
 40
1.0000000199999981
 50
271.49999999999972
 51
0.0
  0
LINE
  5
293E
  8
AM_0
 10
377.52981120995912
 20
265.92853288794458
 30
0.0
 11
378.58218120995912
 21
265.9560908879447
 31
0.0
  0
LINE
  5
293F
  8
AM_0
 10
140.05595120995901
 20
281.28159288794478
 30
0.0
 11
168.05595120995889
 21
281.28159288794478
 31
0.0
  0
LINE
  5
2940
  8
AM_0
 10
140.05595120995901
 20
283.78159288794478
 30
0.0
 11
162.05595120995901
 21
283.78159288794478
 31
0.0
  0
LINE
  5
2941
  8
AM_0
 10
140.05595120995901
 20
281.28159288794478
 30
0.0
 11
140.05595120995901
 21
283.78159288794478
 31
0.0
  0
LINE
  5
2942
  8
AM_0
 10
267.05601120995902
 20
333.36023788794472
 30
0.0
 11
296.55600120995888
 21
333.36023788794472
 31
0.0
  0
LINE
  5
2943
  8
AM_0
 10
267.05601120995902
 20
345.28163788794473
 30
0.0
 11
293.63454120995908
 21
345.97760788794471
 31
0.0
  0
LINE
  5
2944
  8
AM_0
 10
287.3559612099591
 20
320.03156788794462
 30
0.0
 11
294.55596120995898
 21
320.03156788794462
 31
0.0
  0
LINE
  5
2945
  8
AM_0
 10
287.3559612099591
 20
307.03159288794478
 30
0.0
 11
294.55596120995898
 21
307.03159288794478
 31
0.0
  0
LINE
  5
2946
  8
AM_0
 10
254.243880209959
 20
342.21297388794483
 30
0.0
 11
205.48989920995891
 21
308.07506888794478
 31
0.0
  0
LINE
  5
2947
  8
AM_0
 10
199.92865920995879
 20
306.26811288794471
 30
0.0
 11
178.18983220995881
 21
305.8886598879447
 31
0.0
  0
LINE
  5
2948
  8
AM_0
 10
168.05595120995889
 20
281.78159288794478
 30
0.0
 11
170.05595120995889
 21
281.78159288794478
 31
0.0
  0
LINE
  5
2949
  8
AM_0
 10
162.05595120995901
 20
281.28159288794478
 30
0.0
 11
162.05595120995901
 21
283.78159288794478
 31
0.0
  0
LINE
  5
294A
  8
AM_0
 10
172.05595120995901
 20
297.78159288794478
 30
0.0
 11
170.05595120995889
 21
295.78159288794478
 31
0.0
  0
LINE
  5
294B
  8
AM_0
 10
176.74218920995881
 20
305.48719288794462
 30
0.0
 11
173.55595120995901
 21
303.6476178879447
 31
0.0
  0
ARC
  5
294C
  8
AM_0
 10
175.05595120995901
 20
301.04954188794483
 30
0.0
 40
3.0
 50
120.0000000000005
 51
180.0
  0
ARC
  5
294D
  8
AM_0
 10
178.24218920995881
 20
302.88911688794468
 30
0.0
 40
3.0
 50
90.999999999998494
 51
120.0000000000005
  0
ARC
  5
294E
  8
AM_0
 10
199.754135209959
 20
316.26658988794458
 30
0.0
 40
10.0
 50
270.99999999999841
 51
304.99999999999852
  0
LINE
  5
294F
  8
AM_0
 10
265.05595120995901
 20
333.29081788794468
 30
0.0
 11
265.05595120995901
 21
313.25626788794477
 31
0.0
  0
LINE
  5
2950
  8
AM_0
 10
257.05595120995901
 20
311.25626788794477
 30
0.0
 11
265.05595120995901
 21
311.25626788794477
 31
0.0
  0
LINE
  5
2951
  8
AM_0
 10
267.05601120995902
 20
311.25626488794478
 30
0.0
 11
286.55598120995887
 21
311.25626488794478
 31
0.0
  0
ARC
  5
2952
  8
AM_0
 10
267.05595120995901
 20
313.25626788794477
 30
0.0
 40
2.0
 50
180.0
 51
239.99999999999949
  0
LINE
  5
2953
  8
AM_0
 10
287.3559612099591
 20
307.03159288794478
 30
0.0
 11
287.3559612099591
 21
320.03156788794462
 31
0.0
  0
LINE
  5
2954
  8
AM_0
 10
286.55598120995887
 20
307.83158188794482
 30
0.0
 11
286.55598120995887
 21
319.23158788794461
 31
0.0
  0
LINE
  5
2955
  8
AM_0
 10
286.55598120995887
 20
307.83158188794482
 30
0.0
 11
287.35602120995912
 21
307.03156288794469
 31
0.0
  0
LINE
  5
2956
  8
AM_0
 10
286.55601120995908
 20
319.23158788794461
 30
0.0
 11
287.35599120995897
 21
320.03159788794483
 31
0.0
  0
LINE
  5
2957
  8
AM_0
 10
257.05595120995901
 20
345.28159288794473
 30
0.0
 11
267.05595120995901
 21
345.28159288794473
 31
0.0
  0
LINE
  5
2958
  8
AM_0
 10
257.05595120995901
 20
335.29081788794468
 30
0.0
 11
263.05595120995901
 21
335.29081788794468
 31
0.0
  0
ARC
  5
2959
  8
AM_0
 10
253.09672720995911
 20
343.85127788794472
 30
0.0
 40
2.0
 50
304.99999999999852
 51
351.81201599999991
  0
ARC
  5
295A
  8
AM_0
 10
257.05595120995901
 20
333.29081788794468
 30
0.0
 40
2.0
 50
90.0
 51
180.0
  0
ARC
  5
295B
  8
AM_0
 10
257.05595120995901
 20
343.28159288794478
 30
0.0
 40
2.0
 50
90.0
 51
171.8120159999998
  0
ARC
  5
295C
  8
AM_0
 10
263.05595120995901
 20
333.29081788794468
 30
0.0
 40
2.0
 50
0.0
 51
90.0
  0
ARC
  5
295D
  8
AM_0
 10
359.55600120995888
 20
346.31345788794471
 30
0.0
 40
5.0000001000000003
 50
0.0
 51
88.499996999999965
  0
LINE
  5
295E
  8
AM_0
 10
356.55600120995888
 20
326.21483788794473
 30
0.0
 11
364.5559812099591
 21
326.21483788794473
 31
0.0
  0
ARC
  5
295F
  8
AM_0
 10
356.55600120995888
 20
316.21487788794462
 30
0.0
 40
10.000000200000001
 50
90.000003000000007
 51
180.00001
  0
LINE
  5
2960
  8
AM_0
 10
294.55596120995898
 20
305.03156188794469
 30
0.0
 11
294.55596120995898
 21
322.03157788794459
 31
0.0
  0
POLYLINE
  5
2961
  8
AM_0
 66
     1
 10
0.0
 20
0.0
 30
0.0
  0
VERTEX
  5
2962
  8
AM_0
  6
CONTINUOUS
 10
338.55597120995918
 20
312.28159288794478
 30
0.0
 42
0.029628731
  0
VERTEX
  5
2963
  8
AM_0
  6
CONTINUOUS
 10
338.3643612099591
 20
315.51089788794468
 30
0.0
 42
0.029327543
  0
VERTEX
  5
2964
  8
AM_0
  6
CONTINUOUS
 10
337.79466120995909
 20
318.69182788794478
 30
0.0
 42
0.028837186
  0
VERTEX
  5
2965
  8
AM_0
  6
CONTINUOUS
 10
336.85878120995898
 20
321.78755788794462
 30
0.0
 42
0.028139479
  0
VERTEX
  5
2966
  8
AM_0
  6
CONTINUOUS
 10
335.57640120995887
 20
324.75809788794459
 30
0.0
 42
0.027280614
  0
VERTEX
  5
2967
  8
AM_0
  6
CONTINUOUS
 10
333.97392120995909
 20
327.56747788794462
 30
0.0
 42
0.026363464
  0
VERTEX
  5
2968
  8
AM_0
  6
CONTINUOUS
 10
332.07930120995911
 20
330.1898978879446
 30
0.0
 42
0.025439158
  0
VERTEX
  5
2969
  8
AM_0
  6
CONTINUOUS
 10
329.92173120995909
 20
332.60453788794462
 30
0.0
 42
0.024503424
  0
VERTEX
  5
296A
  8
AM_0
  6
CONTINUOUS
 10
327.53532120995908
 20
334.7910578879447
 30
0.0
 42
0.023638789
  0
VERTEX
  5
296B
  8
AM_0
  6
CONTINUOUS
 10
324.94977120995912
 20
336.73817788794469
 30
0.0
 42
0.022857682
  0
VERTEX
  5
296C
  8
AM_0
  6
CONTINUOUS
 10
322.1945112099591
 20
338.43695788794469
 30
0.0
 42
0.022175457
  0
VERTEX
  5
296D
  8
AM_0
  6
CONTINUOUS
 10
319.29744120995889
 20
339.88130788794462
 30
0.0
 42
0.021601125
  0
VERTEX
  5
296E
  8
AM_0
  6
CONTINUOUS
 10
316.28502120995893
 20
341.06699788794452
 30
0.0
 42
0.021139333
  0
VERTEX
  5
296F
  8
AM_0
  6
CONTINUOUS
 10
313.18218120995908
 20
341.99135788794462
 30
0.0
 42
0.020791974
  0
VERTEX
  5
2970
  8
AM_0
  6
CONTINUOUS
 10
310.01277120995911
 20
342.6527078879447
 30
0.0
 42
0.020559394
  0
VERTEX
  5
2971
  8
AM_0
  6
CONTINUOUS
 10
306.79965120995888
 20
343.05008788794453
 30
0.0
 42
0.020441745
  0
VERTEX
  5
2972
  8
AM_0
  6
CONTINUOUS
 10
303.56502120995918
 20
343.18307788794482
 30
0.0
  0
SEQEND
  5
2973
  8
AM_0
  0
POLYLINE
  5
2974
  8
AM_0
 66
     1
 10
0.0
 20
0.0
 30
0.0
  0
VERTEX
  5
2975
  8
AM_0
  6
CONTINUOUS
 10
336.63504120995901
 20
314.16032788794467
 30
0.0
 42
0.032705737
  0
VERTEX
  5
2976
  8
AM_0
  6
CONTINUOUS
 10
334.68888120995888
 20
314.9088278879446
 30
0.0
 42
0.016814103
  0
VERTEX
  5
2977
  8
AM_0
  6
CONTINUOUS
 10
332.67807120995911
 20
315.47102788794462
 30
0.0
 42
0.010836057
  0
VERTEX
  5
2978
  8
AM_0
  6
CONTINUOUS
 10
330.63864120995908
 20
315.92387788794463
 30
0.0
 42
0.007863161
  0
VERTEX
  5
2979
  8
AM_0
  6
CONTINUOUS
 10
328.58427120995918
 20
316.30100788794482
 30
0.0
 42
0.0061455438
  0
VERTEX
  5
297A
  8
AM_0
  6
CONTINUOUS
 10
326.5200012099591
 20
316.62089788794458
 30
0.0
 42
0.0050541015
  0
VERTEX
  5
297B
  8
AM_0
  6
CONTINUOUS
 10
324.448381209959
 20
316.89479788794478
 30
0.0
 42
0.0043145835
  0
VERTEX
  5
297C
  8
AM_0
  6
CONTINUOUS
 10
322.3706412099591
 20
317.13011788794478
 30
0.0
 42
0.0037842963
  0
VERTEX
  5
297D
  8
AM_0
  6
CONTINUOUS
 10
320.29146120995898
 20
317.33165788794452
 30
0.0
 42
0.003403486
  0
VERTEX
  5
297E
  8
AM_0
  6
CONTINUOUS
 10
318.20742120995919
 20
317.50352788794459
 30
0.0
 42
0.0031173927
  0
VERTEX
  5
297F
  8
AM_0
  6
CONTINUOUS
 10
316.12092120995908
 20
317.64827788794452
 30
0.0
 42
0.0029018743
  0
VERTEX
  5
2980
  8
AM_0
  6
CONTINUOUS
 10
314.03283120995911
 20
317.76791788794469
 30
0.0
 42
0.0027404553
  0
VERTEX
  5
2981
  8
AM_0
  6
CONTINUOUS
 10
311.94351120995918
 20
317.86403788794462
 30
0.0
 42
0.0026217012
  0
VERTEX
  5
2982
  8
AM_0
  6
CONTINUOUS
 10
309.85320120995908
 20
317.93774788794462
 30
0.0
 42
0.0025380412
  0
VERTEX
  5
2983
  8
AM_0
  6
CONTINUOUS
 10
307.762231209959
 20
317.98991788794473
 30
0.0
 42
0.0024845601
  0
VERTEX
  5
2984
  8
AM_0
  6
CONTINUOUS
 10
305.67081120995908
 20
318.02108788794447
 30
0.0
 42
0.002458447
  0
VERTEX
  5
2985
  8
AM_0
  6
CONTINUOUS
 10
303.57912120995911
 20
318.03158788794462
 30
0.0
  0
SEQEND
  5
2986
  8
AM_0
  0
LINE
  5
2987
  8
AM_0
 10
294.55596120995898
 20
305.03156188794469
 30
0.0
 11
296.55600120995888
 21
305.03156188794469
 31
0.0
  0
LINE
  5
2988
  8
AM_0
 10
338.55600120995888
 20
312.28159288794478
 30
0.0
 11
338.55600120995888
 21
294.98157388794459
 31
0.0
  0
LINE
  5
2989
  8
AM_0
 10
303.55605120995892
 20
352.78163788794461
 30
0.0
 11
359.68692120995911
 21
351.31178788794472
 31
0.0
  0
LINE
  5
298A
  8
AM_0
 10
294.55596120995898
 20
322.03157788794459
 30
0.0
 11
296.55600120995888
 21
322.03157788794459
 31
0.0
  0
LINE
  5
298B
  8
AM_0
 10
298.50366120995909
 20
352.6493078879447
 30
0.0
 11
303.55599120995907
 21
352.78160788794469
 31
0.0
  0
ARC
  5
298C
  8
AM_0
 10
298.5559812099591
 20
350.64995788794471
 30
0.0
 40
2.00000007
 50
91.500000999999969
 51
180.00001
  0
ARC
  5
298D
  8
AM_0
 10
293.55600120995888
 20
348.97652788794471
 30
0.0
 40
3.0
 50
271.49999999999972
 51
0.0
  0
LINE
  5
298E
  8
AM_0
 10
382.5559812099591
 20
308.98160488794468
 30
0.0
 11
424.55601120995908
 21
308.98160488794468
 31
0.0
  0
LINE
  5
298F
  8
AM_0
 10
382.5559812099591
 20
280.98157288794442
 30
0.0
 11
424.55601120995908
 21
280.98157288794442
 31
0.0
  0
LINE
  5
2990
  8
AM_0
 10
392.55600120995888
 20
311.98160488794463
 30
0.0
 11
424.55601120995908
 21
311.98160488794463
 31
0.0
  0
LINE
  5
2991
  8
AM_0
 10
382.5559812099591
 20
309.98157388794459
 30
0.0
 11
382.5559812099591
 21
279.98157388794448
 31
0.0
  0
LINE
  5
2992
  8
AM_0
 10
379.5559812099591
 20
279.98157388794448
 30
0.0
 11
382.5559812099591
 21
279.98157388794448
 31
0.0
  0
LINE
  5
2993
  8
AM_0
 10
392.55600120995888
 20
311.98160488794463
 30
0.0
 11
392.55600120995888
 21
308.98160488794468
 31
0.0
  0
LINE
  5
2994
  8
AM_0
 10
379.5559812099591
 20
309.98157388794459
 30
0.0
 11
382.5559812099591
 21
309.98157388794459
 31
0.0
  0
LINE
  5
2995
  8
AM_0
 10
424.55601120995908
 20
311.98160488794463
 30
0.0
 11
424.55601120995908
 21
280.98157288794442
 31
0.0
  0
ARC
  5
2996
  8
AM_0
 10
377.55600120995888
 20
325.03427788794482
 30
0.0
 40
1.0000000199999981
 50
179.99998999999991
 51
268.50000999999992
  0
ARC
  5
2997
  8
AM_0
 10
373.55598120995887
 20
331.23257788794461
 30
0.0
 40
3.0
 50
0.0
 51
84.999996999999979
  0
ARC
  5
2998
  8
AM_0
 10
369.55602120995911
 20
339.61310788794452
 30
0.0
 40
5.0000001000000003
 50
179.99998999999991
 51
265.0
  0
LINE
  5
2999
  8
AM_0
 10
369.12027120995913
 20
334.63211788794462
 30
0.0
 11
373.81749120995897
 21
334.22117788794452
 31
0.0
  0
LINE
  5
299A
  8
AM_0
 10
377.5298412099591
 20
324.03464788794457
 30
0.0
 11
378.58218120995912
 21
324.00707788794477
 31
0.0
  0
ARC
  5
299B
  8
AM_0
 10
378.55602120995911
 20
323.00741788794483
 30
0.0
 40
1.0000000199999981
 50
0.0
 51
88.499996999999965
  0
LINE
  5
299C
  8
AM_0
 10
715.73232570992775
 20
203.9815868879445
 30
0.0
 11
706.12015770992787
 21
281.72122888794462
 31
0.0
  0
LINE
  5
299D
  8
AM_0
 10
535.73229870992793
 20
203.9815868879445
 30
0.0
 11
545.34444870992797
 21
281.72119888794452
 31
0.0
  0
LINE
  5
299E
  8
AM_0
 10
679.73233170992785
 20
208.98158788794461
 30
0.0
 11
679.73233170992785
 21
279.98157388794448
 31
0.0
  0
LINE
  5
299F
  8
AM_0
 10
565.73232870992797
 20
242.78157688794471
 30
0.0
 11
565.73232870992797
 21
324.23153788794463
 31
0.0
  0
LINE
  5
29A0
  8
AM_0
 10
685.73232570992775
 20
242.78157688794471
 30
0.0
 11
685.73232570992775
 21
324.23153788794463
 31
0.0
  0
LINE
  5
29A1
  8
AM_0
 10
571.73232870992786
 20
208.98158788794461
 30
0.0
 11
571.73232870992786
 21
279.98157388794448
 31
0.0
  0
LINE
  5
29A2
  8
ﾁｭｳｼﾝｾﾝ
 10
625.73233170992785
 20
185.44684288794471
 30
0.0
 11
625.73233170992785
 21
356.87043374490452
 31
0.0
  0
LINE
  5
29A3
  8
AM_0
 10
715.73233470992795
 20
203.9815868879445
 30
0.0
 11
707.9411877099277
 21
311.19129088794477
 31
0.0
  0
LINE
  5
29A4
  8
AM_0
 10
535.73232870992786
 20
203.9815868879445
 30
0.0
 11
543.5234667099279
 21
311.19129088794477
 31
0.0
  0
ARC
  5
29A5
  8
AM_0
 10
625.73233170992785
 20
279.98157388794448
 30
0.0
 40
54.000003000000007
 50
0.0
 51
180.00001
  0
CIRCLE
  5
29A6
  8
AM_0
 10
625.73233170992785
 20
294.98157388794459
 30
0.0
 40
29.000001000000001
  0
LINE
  5
29A7
  8
AM_0
 10
682.73233170992785
 20
203.9815868879445
 30
0.0
 11
713.73233370992784
 21
203.9815868879445
 31
0.0
  0
LINE
  5
29A8
  8
AM_0
 10
680.73233070992785
 20
188.98160188794469
 30
0.0
 11
715.73232570992775
 21
188.98160188794469
 31
0.0
  0
LINE
  5
29A9
  8
ﾁｭｳｼﾝｾﾝ
 10
539.37560670992775
 20
271.78159288794478
 30
0.0
 11
713.24237370992785
 21
271.78159288794478
 31
0.0
  0
LINE
  5
29AA
  8
AM_0
 10
568.73232870992786
 20
203.9815868879445
 30
0.0
 11
537.73232670992797
 21
203.9815868879445
 31
0.0
  0
LINE
  5
29AB
  8
AM_0
 10
570.73232970992785
 20
188.98160188794469
 30
0.0
 11
535.73232870992786
 21
188.98160188794469
 31
0.0
  0
LINE
  5
29AC
  8
AM_0
 10
535.73232870992786
 20
188.98160188794469
 30
0.0
 11
535.73232870992786
 21
203.9815868879445
 31
0.0
  0
LINE
  5
29AD
  8
ｶｸﾚｾﾝ2
 10
556.73232870992786
 20
203.9815868879445
 30
0.0
 11
556.73232870992786
 21
188.98160188794469
 31
0.0
  0
LINE
  5
29AE
  8
ｶｸﾚｾﾝ2
 10
544.73232870992786
 20
203.9815868879445
 30
0.0
 11
544.73232870992786
 21
188.98160188794469
 31
0.0
  0
LINE
  5
29AF
  8
ﾁｭｳｼﾝｾﾝ1
 10
550.73232870992786
 20
186.66589993010959
 30
0.0
 11
550.73232870992786
 21
206.0784766537611
 31
0.0
  0
ARC
  5
29B0
  8
AM_0
 10
537.73232670992797
 20
201.98158588794459
 30
0.0
 40
2.00000007
 50
90.000003000000007
 51
180.00001
  0
LINE
  5
29B1
  8
AM_0
 10
680.73233070992785
 20
188.98160188794469
 30
0.0
 11
680.73233070992785
 21
201.98158588794459
 31
0.0
  0
ARC
  5
29B2
  8
AM_0
 10
672.73233270992785
 20
195.98158588794439
 30
0.0
 40
5.0000001000000003
 50
179.99998999999991
 51
270.0
  0
ARC
  5
29B3
  8
AM_0
 10
678.73233270992785
 20
188.98160188794469
 30
0.0
 40
2.00000007
 50
0.0
 51
90.000003000000007
  0
LINE
  5
29B4
  8
AM_0
 10
570.73232970992785
 20
188.98160188794469
 30
0.0
 11
570.73232970992785
 21
201.98158588794459
 31
0.0
  0
ARC
  5
29B5
  8
AM_0
 10
572.73234270992805
 20
188.98160188794469
 30
0.0
 40
2.00000007
 50
90.000003000000007
 51
180.00001
  0
ARC
  5
29B6
  8
AM_0
 10
578.73234570992793
 20
195.98158588794439
 30
0.0
 40
5.0000001000000003
 50
270.0
 51
0.0
  0
ARC
  5
29B7
  8
AM_0
 10
625.73233170992785
 20
271.78156288794469
 30
0.0
 40
81.000003000000007
 50
265.97275000000002
 51
274.02724999999992
  0
LINE
  5
29B8
  8
AM_0
 10
588.73232970992785
 20
201.98158588794459
 30
0.0
 11
662.73231570992778
 21
201.98158588794459
 31
0.0
  0
LINE
  5
29B9
  8
AM_0
 10
678.73233270992785
 20
190.98158788794461
 30
0.0
 11
572.73234270992805
 21
190.98158788794461
 31
0.0
  0
ARC
  5
29BA
  8
AM_0
 10
625.73233170992785
 20
242.78157688794471
 30
0.0
 40
60.000002999999992
 50
180.00001
 51
205.84192999999991
  0
ARC
  5
29BB
  8
AM_0
 10
566.73234270992805
 20
208.98158788794461
 30
0.0
 40
5.0000001000000003
 50
270.0
 51
0.0
  0
ARC
  5
29BC
  8
AM_0
 10
568.73232870992786
 20
201.98158588794459
 30
0.0
 40
2.00000007
 50
0.0
 51
90.000003000000007
  0
ARC
  5
29BD
  8
AM_0
 10
588.73232970992785
 20
196.9816028879446
 30
0.0
 40
5.0000001000000003
 50
90.000003000000007
 51
180.00001
  0
LINE
  5
29BE
  8
AM_0
 10
583.73232870992786
 20
195.98158588794439
 30
0.0
 11
583.73232870992786
 21
196.9816028879446
 31
0.0
  0
ARC
  5
29BF
  8
AM_0
 10
625.73233170992785
 20
242.78157688794471
 30
0.0
 40
60.000002999999992
 50
334.15807000000001
 51
0.0
  0
ARC
  5
29C0
  8
AM_0
 10
662.73231570992778
 20
196.9816028879446
 30
0.0
 40
5.0000001000000003
 50
0.0
 51
90.000003000000007
  0
LINE
  5
29C1
  8
AM_0
 10
667.73233170992785
 20
195.98158588794439
 30
0.0
 11
667.73233170992785
 21
196.9816028879446
 31
0.0
  0
ARC
  5
29C2
  8
AM_0
 10
682.73233170992785
 20
201.98158588794459
 30
0.0
 40
2.00000007
 50
90.000003000000007
 51
180.00001
  0
ARC
  5
29C3
  8
AM_0
 10
684.73232370992798
 20
208.98158788794461
 30
0.0
 40
5.0000001000000003
 50
179.99998999999991
 51
270.0
  0
LINE
  5
29C4
  8
AM_0
 10
715.73232570992775
 20
188.98160188794469
 30
0.0
 11
715.73232570992775
 21
203.9815868879445
 31
0.0
  0
LINE
  5
29C5
  8
ﾁｭｳｼﾝｾﾝ1
 10
700.73231070992802
 20
186.66589993010959
 30
0.0
 11
700.73231070992802
 21
206.0784766537609
 31
0.0
  0
LINE
  5
29C6
  8
ｶｸﾚｾﾝ2
 10
694.73232570992775
 20
203.9815868879445
 30
0.0
 11
694.73232570992775
 21
188.98160188794469
 31
0.0
  0
LINE
  5
29C7
  8
ｶｸﾚｾﾝ2
 10
706.73232570992775
 20
203.9815868879445
 30
0.0
 11
706.73232570992775
 21
188.98160188794469
 31
0.0
  0
ARC
  5
29C8
  8
AM_0
 10
713.73233370992784
 20
201.98158588794459
 30
0.0
 40
2.00000007
 50
0.0
 51
90.000003000000007
  0
LINE
  5
29C9
  8
AM_0
 10
699.53821170992785
 20
324.1355978879447
 30
0.0
 11
663.97918770992794
 21
343.18310788794457
 31
0.0
  0
ARC
  5
29CA
  8
AM_0
 10
625.73233170992785
 20
271.78159288794478
 30
0.0
 40
81.000003000000007
 50
7.0485985999999992
 51
172.95139999999981
  0
LINE
  5
29CB
  8
AM_0
 10
551.92641870992793
 20
324.13562788794462
 30
0.0
 11
587.48542770992799
 21
343.18313788794472
 31
0.0
  0
ARC
  5
29CC
  8
AM_0
 10
559.48138170992797
 20
310.03159288794478
 30
0.0
 40
16.000000499999999
 50
118.1761399999998
 51
175.8435099999999
  0
LINE
  5
29CD
  8
AM_0
 10
621.73231470992778
 20
311.98160488794463
 30
0.0
 11
629.73231570992778
 21
311.98160488794463
 31
0.0
  0
LINE
  5
29CE
  8
AM_0
 10
621.73231470992778
 20
304.9815758879447
 30
0.0
 11
629.73231570992778
 21
304.9815758879447
 31
0.0
  0
CIRCLE
  5
29CF
  8
AM_0
 10
625.73233170992785
 20
294.98157388794459
 30
0.0
 40
3.0
  0
CIRCLE
  5
29D0
  8
AM_5
 10
625.73233170992785
 20
294.98157388794459
 30
0.0
 40
4.000000199999997
  0
ARC
  5
29D1
  8
AM_0
 10
625.73233170992785
 20
294.98157388794459
 30
0.0
 40
14.000001299999999
 50
106.6015399999999
 51
73.398452000000006
  0
LINE
  5
29D2
  8
ﾁｭｳｼﾝｾﾝ
 10
582.26787968657118
 20
294.98157388794459
 30
0.0
 11
667.73233170992785
 21
294.98157388794459
 31
0.0
  0
LINE
  5
29D3
  8
AM_0
 10
621.73231470992778
 20
304.9815758879447
 30
0.0
 11
621.73231470992778
 21
311.98160488794463
 31
0.0
  0
ARC
  5
29D4
  8
AM_0
 10
570.73232970992785
 20
324.23153788794463
 30
0.0
 40
5.0000001000000003
 50
136.35948999999999
 51
180.00001
  0
LINE
  5
29D5
  8
AM_0
 10
629.73231570992778
 20
304.9815758879447
 30
0.0
 11
629.73231570992778
 21
311.98160488794463
 31
0.0
  0
ARC
  5
29D6
  8
AM_0
 10
680.73233070992785
 20
324.23153788794463
 30
0.0
 40
5.0000001000000003
 50
0.0
 51
43.64050000000001
  0
ARC
  5
29D7
  8
AM_0
 10
691.98326970992798
 20
310.03159288794478
 30
0.0
 40
16.000000499999999
 50
4.1564915999999981
 51
61.823859999999989
  0
LINE
  5
29D8
  8
AM_0
 10
392.55601120995902
 20
538.78027163083902
 30
0.0
 11
424.55601120995908
 21
538.78027163083902
 31
0.0
  0
LINE
  5
29D9
  8
AM_0
 10
392.55601120995902
 20
530.78030163083895
 30
0.0
 11
424.55601120995908
 21
530.78030163083895
 31
0.0
  0
LINE
  5
29DA
  8
AM_0
 10
382.55604120995912
 20
520.7803316308391
 30
0.0
 11
424.55601120995908
 21
520.7803316308391
 31
0.0
  0
LINE
  5
29DB
  8
AM_0
 10
382.55604120995912
 20
548.7803316308391
 30
0.0
 11
424.55601120995908
 21
548.7803316308391
 31
0.0
  0
LINE
  5
29DC
  8
ﾁｭｳｼﾝｾﾝ
 10
136.81904176855051
 20
534.78030163083895
 30
0.0
 11
429.263041209959
 21
534.78030163083895
 31
0.0
  0
LINE
  5
29DD
  8
AM_0
 10
267.0559812099591
 20
461.2803316308391
 30
0.0
 11
267.0559812099591
 21
608.28030163083895
 31
0.0
  0
LINE
  5
29DE
  8
AM_0
 10
296.55601120995908
 20
454.70520163083893
 30
0.0
 11
296.55601120995908
 21
614.85540163083897
 31
0.0
  0
LINE
  5
29DF
  8
AM_0
 10
364.55604120995912
 20
479.60876163083901
 30
0.0
 11
364.55604120995912
 21
589.951841630839
 31
0.0
  0
LINE
  5
29E0
  8
AM_0
 10
379.55604120995912
 20
562.80615163083905
 30
0.0
 11
379.55604120995912
 21
506.75445163083901
 31
0.0
  0
LINE
  5
29E1
  8
AM_0
 10
376.55604120995912
 20
480.6532816308391
 30
0.0
 11
376.55604120995912
 21
588.9073116308391
 31
0.0
  0
LINE
  5
29E2
  8
AM_0
 10
303.55604120995912
 20
452.52935163083907
 30
0.0
 11
303.55604120995912
 21
617.03125163083905
 31
0.0
  0
LINE
  5
29E3
  8
AM_0
 10
382.55604120995912
 20
549.78030163083895
 30
0.0
 11
382.55604120995912
 21
519.78030163083895
 31
0.0
  0
ARC
  5
29E4
  8
AM_0
 10
284.55604120995912
 20
459.78030163083901
 30
0.0
 40
6.0
 50
168.5051000000046
 51
320.54157000000077
  0
ARC
  5
29E5
  8
ｶｸﾚｾﾝ2
 10
284.55604120995912
 20
459.78030163083901
 30
0.0
 40
6.0
 50
320.54155000000191
 51
168.5051000000046
  0
LINE
  5
29E6
  8
AM_0
 10
267.05604120995912
 20
495.305631630839
 30
0.0
 11
296.55601120995908
 21
495.305631630839
 31
0.0
  0
LINE
  5
29E7
  8
AM_0
 10
267.05604120995912
 20
473.20166163083883
 30
0.0
 11
296.55601120995908
 21
473.20166163083883
 31
0.0
  0
LINE
  5
29E8
  8
AM_0
 10
287.35603120995893
 20
468.9671616308388
 30
0.0
 11
294.55601120995908
 21
468.9671616308388
 31
0.0
  0
LINE
  5
29E9
  8
AM_0
 10
287.35603120995893
 20
455.96719163083901
 30
0.0
 11
294.55601120995908
 21
455.96719163083901
 31
0.0
  0
LINE
  5
29EA
  8
AM_0
 10
272.477491209959
 20
445.67266163083877
 30
0.0
 11
306.55604120995912
 21
444.78030163083901
 31
0.0
  0
LINE
  5
29EB
  8
AM_0
 10
287.35603120995893
 20
455.96719163083901
 30
0.0
 11
287.35603120995893
 21
468.9671616308388
 31
0.0
  0
LINE
  5
29EC
  8
AM_0
 10
286.55604120995912
 20
456.7671816308391
 30
0.0
 11
286.55604120995912
 21
468.16717163083888
 31
0.0
  0
LINE
  5
29ED
  8
AM_0
 10
267.05601120995902
 20
461.28027163083902
 30
0.0
 11
286.55601120995908
 21
460.76965163083901
 31
0.0
  0
LINE
  5
29EE
  8
AM_0
 10
269.55604120995912
 20
448.6716316308391
 30
0.0
 11
269.55604120995912
 21
461.21481163083882
 31
0.0
  0
ARC
  5
29EF
  8
AM_0
 10
272.55604120995912
 20
448.6716316308391
 30
0.0
 40
3.0
 50
180.00001000000091
 51
268.50000000000063
  0
LINE
  5
29F0
  8
AM_0
 10
286.55601120995908
 20
456.7671816308391
 30
0.0
 11
287.35606120995908
 21
455.96716163083892
 31
0.0
  0
LINE
  5
29F1
  8
AM_0
 10
286.55604120995912
 20
468.16714163083913
 30
0.0
 11
287.35606120995908
 21
468.9671616308388
 31
0.0
  0
POLYLINE
  5
29F2
  8
AM_0
 66
     1
 10
0.0
 20
0.0
 30
0.0
  0
VERTEX
  5
29F3
  8
AM_0
 10
304.81958120995893
 20
454.8513216308391
 30
0.0
 42
0.021277534
  0
VERTEX
  5
29F4
  8
AM_0
 10
315.64972120995901
 20
456.90784163083902
 30
0.0
 42
0.020622971
  0
VERTEX
  5
29F5
  8
AM_0
 10
325.77448120995911
 20
459.72488163083909
 30
0.0
 42
0.022709
  0
VERTEX
  5
29F6
  8
AM_0
 10
336.58140120995893
 20
463.77044163083912
 30
0.0
  0
SEQEND
  5
29F7
  8
AM_0
  0
POLYLINE
  5
29F8
  8
AM_0
 66
     1
 10
0.0
 20
0.0
 30
0.0
  0
VERTEX
  5
29F9
  8
AM_0
 10
303.55604120995912
 20
496.50521163083909
 30
0.0
 42
-0.059991193
  0
VERTEX
  5
29FA
  8
AM_0
 10
329.14485120995909
 20
480.5730016308388
 30
0.0
 42
-0.30883796
  0
VERTEX
  5
29FB
  8
AM_0
 10
338.55601120995908
 20
464.63226163083903
 30
0.0
 42
-0.25905842
  0
VERTEX
  5
29FC
  8
AM_0
 10
304.10634120995911
 20
444.844201630839
 30
0.0
  0
SEQEND
  5
29FD
  8
AM_0
  0
CIRCLE
  5
29FE
  8
AM_0
 10
364.55604120995912
 20
459.78030163083901
 30
0.0
 40
6.0
  0
LINE
  5
29FF
  8
AM_0
 10
294.55601120995908
 20
453.96716163083909
 30
0.0
 11
294.55601120995908
 21
470.96716163083909
 31
0.0
  0
LINE
  5
2A00
  8
AM_0
 10
346.55604120995912
 20
450.96038163083892
 30
0.0
 11
346.55604120995912
 21
466.42620163083888
 31
0.0
  0
LINE
  5
2A01
  8
AM_0
 10
379.55604120995912
 20
449.61434163083908
 30
0.0
 11
379.55604120995912
 21
476.78030163083901
 31
0.0
  0
ARC
  5
2A02
  8
AM_0
 10
351.55604120995912
 20
450.96038163083892
 30
0.0
 40
5.0
 50
180.00001000000091
 51
271.4999999999992
  0
LINE
  5
2A03
  8
AM_0
 10
306.55604120995912
 20
444.78030163083901
 30
0.0
 11
376.63453120995911
 21
446.6153516308388
 31
0.0
  0
ARC
  5
2A04
  8
AM_0
 10
303.55604120995912
 20
449.256101630839
 30
0.0
 40
1.0
 50
109.47121999999951
 51
180.00001000000091
  0
ARC
  5
2A05
  8
AM_0
 10
301.55604120995912
 20
449.91296163083888
 30
0.0
 40
5.0
 50
268.50000000000063
 51
0.0000006832495047
  0
LINE
  5
2A06
  8
AM_0
 10
303.55604120995912
 20
454.67294163083909
 30
0.0
 11
296.55601120995908
 21
454.67294163083909
 31
0.0
  0
LINE
  5
2A07
  8
AM_0
 10
303.55604120995912
 20
452.52935163083907
 30
0.0
 11
298.48622120995901
 21
452.70639163083911
 31
0.0
  0
ARC
  5
2A08
  8
AM_0
 10
301.55604120995912
 20
445.91296163083888
 30
0.0
 40
1.0
 50
270.0
 51
0.0
  0
LINE
  5
2A09
  8
AM_0
 10
302.55604120995912
 20
445.91296163083888
 30
0.0
 11
302.55604120995912
 21
449.256101630839
 31
0.0
  0
LINE
  5
2A0A
  8
AM_0
 10
294.55601120995908
 20
453.96716163083909
 30
0.0
 11
296.55601120995908
 21
453.96716163083909
 31
0.0
  0
ARC
  5
2A0B
  8
AM_0
 10
298.55601120995908
 20
454.70520163083893
 30
0.0
 40
2.0
 50
180.00001000000091
 51
267.99999999999932
  0
ARC
  5
2A0C
  8
AM_0
 10
301.55604120995912
 20
454.91296163083882
 30
0.0
 40
5.0
 50
289.47123000000062
 51
331.5287600000031
  0
LINE
  5
2A0D
  8
AM_0
 10
306.55604120995912
 20
449.91296163083888
 30
0.0
 11
306.55604120995912
 21
452.52935163083907
 31
0.0
  0
LINE
  5
2A0E
  8
AM_0
 10
303.55604120995912
 20
452.52935163083907
 30
0.0
 11
306.55604120995912
 21
452.52935163083907
 31
0.0
  0
ARC
  5
2A0F
  8
AM_0
 10
376.55604120995912
 20
449.61434163083908
 30
0.0
 40
3.0
 50
271.4999999999992
 51
0.0
  0
ARC
  5
2A10
  8
AM_0
 10
354.55604120995912
 20
466.42620163083888
 30
0.0
 40
8.0
 50
91.999998000000545
 51
180.00001000000091
  0
LINE
  5
2A11
  8
AM_0
 10
294.55601120995908
 20
470.96716163083909
 30
0.0
 11
296.55601120995908
 21
470.96716163083909
 31
0.0
  0
LINE
  5
2A12
  8
AM_0
 10
303.55604120995912
 20
496.50521163083909
 30
0.0
 11
296.55601120995908
 21
496.50521163083909
 31
0.0
  0
ARC
  5
2A13
  8
AM_0
 10
373.55604120995912
 20
483.52929163083883
 30
0.0
 40
3.0
 50
275.0
 51
0.0
  0
ARC
  5
2A14
  8
AM_0
 10
359.55604120995912
 20
479.60876163083901
 30
0.0
 40
5.0
 50
272.0000000000004
 51
0.0
  0
LINE
  5
2A15
  8
AM_0
 10
359.73054120995897
 20
474.61181163083882
 30
0.0
 11
354.27683120995903
 21
474.42135163083901
 31
0.0
  0
ARC
  5
2A16
  8
AM_0
 10
368.45786120995911
 20
475.05270163083912
 30
0.0
 40
5.0
 50
95.00000199999856
 51
152.89619000000181
  0
LINE
  5
2A17
  8
AM_0
 10
373.81748120995911
 20
480.54071163083881
 30
0.0
 11
368.02207120995911
 21
480.03369163083869
 31
0.0
  0
ARC
  5
2A18
  8
AM_0
 10
377.55604120995912
 20
480.6532816308391
 30
0.0
 40
1.0
 50
180.00001000000091
 51
255.5224900000002
  0
ARC
  5
2A19
  8
AM_0
 10
376.55604120995912
 20
476.78030163083901
 30
0.0
 40
3.0
 50
0.0
 51
75.522487999999072
  0
ARC
  5
2A1A
  8
AM_0
 10
378.55604120995912
 20
506.75445163083901
 30
0.0
 40
1.0
 50
271.4999999999992
 51
0.0
  0
ARC
  5
2A1B
  8
AM_0
 10
377.55604120995912
 20
504.72760163083882
 30
0.0
 40
1.0
 50
91.500001000001546
 51
180.00001000000091
  0
LINE
  5
2A1C
  8
AM_0
 10
377.52983120995913
 20
505.727261630839
 30
0.0
 11
378.58219120995892
 21
505.75482163083882
 31
0.0
  0
LINE
  5
2A1D
  8
AM_0
 10
379.55604120995912
 20
519.78030163083895
 30
0.0
 11
382.55604120995912
 21
519.78030163083895
 31
0.0
  0
ARC
  5
2A1E
  8
AM_0
 10
392.55601120995902
 20
534.78027163083902
 30
0.0
 40
3.9999962
 50
90.000003000000945
 51
270.0
  0
LINE
  5
2A1F
  8
AM_0
 10
392.55601120995902
 20
538.78027163083902
 30
0.0
 11
392.55601120995902
 21
530.78030163083895
 31
0.0
  0
ARC
  5
2A20
  8
ｶｸﾚｾﾝ2
 10
284.55604120995912
 20
609.78030163083895
 30
0.0
 40
6.0
 50
191.4949199999983
 51
39.458439999999598
  0
ARC
  5
2A21
  8
AM_0
 10
284.55604120995912
 20
609.78030163083895
 30
0.0
 40
6.0
 50
39.458443000000081
 51
191.49490999999961
  0
LINE
  5
2A22
  8
AM_0
 10
287.35603120995893
 20
613.59341163083911
 30
0.0
 11
294.55601120995908
 21
613.59341163083911
 31
0.0
  0
LINE
  5
2A23
  8
AM_0
 10
287.35603120995893
 20
600.59344163083915
 30
0.0
 11
294.55601120995908
 21
600.59344163083915
 31
0.0
  0
LINE
  5
2A24
  8
AM_0
 10
267.05604120995912
 20
596.35894163083913
 30
0.0
 11
296.55601120995908
 21
596.35894163083913
 31
0.0
  0
LINE
  5
2A25
  8
AM_0
 10
267.05604120995912
 20
574.25497163083878
 30
0.0
 11
296.55601120995908
 21
574.25497163083878
 31
0.0
  0
LINE
  5
2A26
  8
AM_0
 10
272.477491209959
 20
623.887901630839
 30
0.0
 11
306.55604120995912
 21
624.78030163083895
 31
0.0
  0
ARC
  5
2A27
  8
AM_0
 10
272.55604120995912
 20
620.88894163083921
 30
0.0
 40
3.0
 50
91.500001000001546
 51
180.00001000000091
  0
LINE
  5
2A28
  8
AM_0
 10
287.35603120995893
 20
600.59344163083915
 30
0.0
 11
287.35603120995893
 21
613.59341163083911
 31
0.0
  0
LINE
  5
2A29
  8
AM_0
 10
286.55604120995912
 20
601.39343163083902
 30
0.0
 11
286.55604120995912
 21
612.79342163083902
 31
0.0
  0
LINE
  5
2A2A
  8
AM_0
 10
286.55604120995912
 20
601.39340163083898
 30
0.0
 11
287.35606120995908
 21
600.59338163083919
 31
0.0
  0
LINE
  5
2A2B
  8
AM_0
 10
267.05601120995902
 20
608.2803316308391
 30
0.0
 11
286.55601120995908
 21
608.79095163083912
 31
0.0
  0
LINE
  5
2A2C
  8
AM_0
 10
269.55604120995912
 20
620.88894163083921
 30
0.0
 11
269.55604120995912
 21
608.34579163083913
 31
0.0
  0
LINE
  5
2A2D
  8
AM_0
 10
286.55604120995912
 20
612.79342163083902
 30
0.0
 11
287.35603120995893
 21
613.59344163083915
 31
0.0
  0
POLYLINE
  5
2A2E
  8
AM_0
 66
     1
 10
0.0
 20
0.0
 30
0.0
  0
VERTEX
  5
2A2F
  8
AM_0
 10
303.55604120995912
 20
573.05538163083918
 30
0.0
 42
0.059991175
  0
VERTEX
  5
2A30
  8
AM_0
 10
329.14485120995909
 20
588.98759163083901
 30
0.0
 42
0.30883786
  0
VERTEX
  5
2A31
  8
AM_0
 10
338.55601120995908
 20
604.92834163083921
 30
0.0
 42
0.25905849
  0
VERTEX
  5
2A32
  8
AM_0
 10
304.10636120995912
 20
624.71639163083921
 30
0.0
  0
SEQEND
  5
2A33
  8
AM_0
  0
ARC
  5
2A34
  8
AM_0
 10
351.55604120995912
 20
618.60021163083911
 30
0.0
 40
5.0
 50
88.499997000000647
 51
180.00001000000091
  0
ARC
  5
2A35
  8
AM_0
 10
301.55604120995912
 20
619.64764163083896
 30
0.0
 40
5.0
 50
0.0
 51
91.500001000001546
  0
ARC
  5
2A36
  8
AM_0
 10
376.55604120995912
 20
619.94625163083901
 30
0.0
 40
3.0
 50
0.0
 51
88.499997000000647
  0
LINE
  5
2A37
  8
AM_0
 10
302.55604120995912
 20
623.64764163083908
 30
0.0
 11
302.55604120995912
 21
620.30450163083901
 31
0.0
  0
ARC
  5
2A38
  8
AM_0
 10
354.55604120995912
 20
603.1343916308391
 30
0.0
 40
8.0
 50
180.00001000000091
 51
267.99999999999932
  0
LINE
  5
2A39
  8
AM_0
 10
303.55604120995912
 20
573.05538163083918
 30
0.0
 11
296.55601120995908
 21
573.05538163083918
 31
0.0
  0
POLYLINE
  5
2A3A
  8
AM_0
 66
     1
 10
0.0
 20
0.0
 30
0.0
  0
VERTEX
  5
2A3B
  8
AM_0
 10
304.81958120995893
 20
614.7092816308392
 30
0.0
 42
-0.021277534
  0
VERTEX
  5
2A3C
  8
AM_0
 10
315.64972120995901
 20
612.65276163083911
 30
0.0
 42
-0.020622971
  0
VERTEX
  5
2A3D
  8
AM_0
 10
325.77448120995911
 20
609.83572163083886
 30
0.0
 42
-0.022709
  0
VERTEX
  5
2A3E
  8
AM_0
 10
336.58140120995893
 20
605.79016163083918
 30
0.0
  0
SEQEND
  5
2A3F
  8
AM_0
  0
LINE
  5
2A40
  8
AM_0
 10
294.55601120995908
 20
598.59341163083911
 30
0.0
 11
294.55601120995908
 21
615.59341163083911
 31
0.0
  0
LINE
  5
2A41
  8
AM_0
 10
294.55601120995908
 20
598.59341163083911
 30
0.0
 11
296.55601120995908
 21
598.59341163083911
 31
0.0
  0
ARC
  5
2A42
  8
AM_0
 10
303.55604120995912
 20
620.30450163083901
 30
0.0
 40
1.0
 50
180.00001000000091
 51
250.52876999999941
  0
LINE
  5
2A43
  8
AM_0
 10
303.55604120995912
 20
617.03125163083905
 30
0.0
 11
298.48622120995901
 21
616.85421163083913
 31
0.0
  0
LINE
  5
2A44
  8
AM_0
 10
294.55601120995908
 20
615.59341163083911
 30
0.0
 11
296.55601120995908
 21
615.59341163083911
 31
0.0
  0
ARC
  5
2A45
  8
AM_0
 10
298.55601120995908
 20
614.85540163083897
 30
0.0
 40
2.0
 50
91.999998000000545
 51
180.00001000000091
  0
ARC
  5
2A46
  8
AM_0
 10
301.55604120995912
 20
614.64764163083919
 30
0.0
 40
5.0
 50
28.471238999999571
 51
70.528778999998195
  0
LINE
  5
2A47
  8
AM_0
 10
303.55604120995912
 20
617.03125163083905
 30
0.0
 11
306.55604120995912
 21
617.03125163083905
 31
0.0
  0
LINE
  5
2A48
  8
AM_0
 10
306.55604120995912
 20
619.64764163083896
 30
0.0
 11
306.55604120995912
 21
617.03125163083905
 31
0.0
  0
LINE
  5
2A49
  8
AM_0
 10
379.55604120995912
 20
549.78030163083895
 30
0.0
 11
382.55604120995912
 21
549.78030163083895
 31
0.0
  0
ARC
  5
2A4A
  8
AM_0
 10
378.55604120995912
 20
562.80615163083905
 30
0.0
 40
1.0
 50
0.0
 51
88.499997000000647
  0
ARC
  5
2A4B
  8
AM_0
 10
377.55604120995912
 20
564.83300163083925
 30
0.0
 40
1.0
 50
180.00001000000091
 51
268.50000000000063
  0
LINE
  5
2A4C
  8
AM_0
 10
377.52986120995911
 20
563.83337163083911
 30
0.0
 11
378.58219120995892
 21
563.80581163083912
 31
0.0
  0
ARC
  5
2A4D
  8
AM_0
 10
373.55604120995912
 20
586.03131163083913
 30
0.0
 40
3.0
 50
0.0
 51
85.000004000000885
  0
LINE
  5
2A4E
  8
ﾁｭｳｼﾝｾﾝ1
 10
364.55604120995912
 20
620.78030163083895
 30
0.0
 11
364.55604120995912
 21
598.78030163083895
 31
0.0
  0
ARC
  5
2A4F
  8
AM_0
 10
359.55604120995912
 20
589.951841630839
 30
0.0
 40
5.0
 50
0.0
 51
87.999999999999503
  0
LINE
  5
2A50
  8
AM_0
 10
359.73051120995899
 20
594.94882163083912
 30
0.0
 11
354.27683120995903
 21
595.139251630839
 31
0.0
  0
ARC
  5
2A51
  8
AM_0
 10
368.45786120995911
 20
594.50790163083889
 30
0.0
 40
5.0
 50
207.10380999999799
 51
265.00001000000032
  0
LINE
  5
2A52
  8
AM_0
 10
373.81748120995911
 20
589.01986163083905
 30
0.0
 11
368.02207120995911
 21
589.52691163083921
 31
0.0
  0
CIRCLE
  5
2A53
  8
AM_0
 10
364.55604120995912
 20
609.78030163083895
 30
0.0
 40
6.0
  0
LINE
  5
2A54
  8
ﾁｭｳｼﾝｾﾝ1
 10
353.55604120995912
 20
609.78030163083895
 30
0.0
 11
375.55604120995912
 21
609.78030163083895
 31
0.0
  0
LINE
  5
2A55
  8
AM_0
 10
346.55604120995912
 20
603.1343916308391
 30
0.0
 11
346.55604120995912
 21
618.60021163083911
 31
0.0
  0
LINE
  5
2A56
  8
AM_0
 10
379.55604120995912
 20
619.94625163083901
 30
0.0
 11
379.55604120995912
 21
592.78030163083906
 31
0.0
  0
ARC
  5
2A57
  8
AM_0
 10
376.55604120995912
 20
592.78030163083906
 30
0.0
 40
3.0
 50
284.47750999999971
 51
0.0
  0
ARC
  5
2A58
  8
AM_0
 10
377.55604120995912
 20
588.9073116308391
 30
0.0
 40
1.0
 50
104.4775099999998
 51
180.00001000000091
  0
LINE
  5
2A59
  8
AM_0
 10
306.55604120995912
 20
624.78030163083895
 30
0.0
 11
376.63453120995911
 21
622.94525163083904
 31
0.0
  0
ARC
  5
2A5A
  8
AM_0
 10
301.55604120995912
 20
623.64764163083908
 30
0.0
 40
1.0
 50
0.0
 51
90.000003000000945
  0
LINE
  5
2A5B
  8
AM_0
 10
424.55601120995908
 20
548.7803316308391
 30
0.0
 11
424.55601120995908
 21
520.7803316308391
 31
0.0
  0
LINE
  5
2A5C
  8
AM_0
 10
177.4141272099591
 20
502.68707963083881
 30
0.0
 11
177.4141272099591
 21
566.87352363083903
 31
0.0
  0
LINE
  5
2A5D
  8
AM_0
 10
202.98553020995911
 20
502.2407286308391
 30
0.0
 11
202.98553020995911
 21
567.3198736308392
 31
0.0
  0
LINE
  5
2A5E
  8
AM_0
 10
255.05598120995899
 20
466.22185063083901
 30
0.0
 11
255.05598120995899
 21
603.33875263083905
 31
0.0
  0
LINE
  5
2A5F
  8
AM_0
 10
172.0559812099591
 20
505.51235263083902
 30
0.0
 11
172.0559812099591
 21
564.04825063083899
 31
0.0
  0
LINE
  5
2A60
  8
AM_0
 10
170.0559812099591
 20
510.78030163083901
 30
0.0
 11
170.0559812099591
 21
558.78030163083918
 31
0.0
  0
LINE
  5
2A61
  8
AM_0
 10
168.05598120995899
 20
524.78030163083895
 30
0.0
 11
168.05598120995899
 21
544.78030163083895
 31
0.0
  0
LINE
  5
2A62
  8
AM_0
 10
140.0559812099591
 20
525.28030163083895
 30
0.0
 11
140.0559812099591
 21
544.28030163083895
 31
0.0
  0
LINE
  5
2A63
  8
AM_0
 10
140.0559812099591
 20
525.28030163083895
 30
0.0
 11
168.05598120995899
 21
525.28030163083895
 31
0.0
  0
LINE
  5
2A64
  8
AM_0
 10
254.24391020995901
 20
464.34891963083902
 30
0.0
 11
205.489929209959
 21
498.48682463083912
 31
0.0
  0
LINE
  5
2A65
  8
AM_0
 10
178.1898622099591
 20
500.67323463083909
 30
0.0
 11
199.92868920995909
 21
500.29378163083902
 31
0.0
  0
LINE
  5
2A66
  8
AM_0
 10
173.55598120995899
 20
502.91427563083909
 30
0.0
 11
176.7422192099591
 21
501.074700630839
 31
0.0
  0
ARC
  5
2A67
  8
AM_0
 10
175.0559812099591
 20
505.51235263083902
 30
0.0
 40
3.0
 50
180.0
 51
239.99999999999949
  0
LINE
  5
2A68
  8
AM_0
 10
170.0559812099591
 20
510.78030163083901
 30
0.0
 11
172.0559812099591
 21
508.78030163083918
 31
0.0
  0
ARC
  5
2A69
  8
AM_0
 10
178.2422192099591
 20
503.67277763083888
 30
0.0
 40
3.0
 50
239.99999999999949
 51
269.00000000000148
  0
LINE
  5
2A6A
  8
AM_0
 10
168.05598120995899
 20
524.78030163083895
 30
0.0
 11
170.0559812099591
 21
524.78030163083895
 31
0.0
  0
ARC
  5
2A6B
  8
AM_0
 10
199.7541652099591
 20
490.29530463083893
 30
0.0
 40
10.0
 50
55.000000000001307
 51
89.000000000001506
  0
LINE
  5
2A6C
  8
AM_0
 10
257.05598120995887
 20
471.27107663083882
 30
0.0
 11
263.05598120995887
 21
471.27107663083882
 31
0.0
  0
LINE
  5
2A6D
  8
AM_0
 10
257.05598120995887
 20
461.28030163083901
 30
0.0
 11
267.0559812099591
 21
461.28030163083901
 31
0.0
  0
LINE
  5
2A6E
  8
AM_0
 10
257.05598120995887
 20
495.30562563083902
 30
0.0
 11
265.0559812099591
 21
495.30562563083902
 31
0.0
  0
ARC
  5
2A6F
  8
AM_0
 10
253.09675720995909
 20
462.71061563083907
 30
0.0
 40
2.0
 50
8.1879840000002062
 51
55.000000000001307
  0
ARC
  5
2A70
  8
AM_0
 10
257.05598120995887
 20
463.28030163083912
 30
0.0
 40
2.0
 50
188.187984
 51
270.0
  0
ARC
  5
2A71
  8
AM_0
 10
257.05598120995887
 20
473.27107663083888
 30
0.0
 40
2.0
 50
180.0
 51
270.0
  0
LINE
  5
2A72
  8
AM_0
 10
265.0559812099591
 20
473.27107663083888
 30
0.0
 11
265.0559812099591
 21
493.30562563083907
 31
0.0
  0
ARC
  5
2A73
  8
AM_0
 10
263.05598120995887
 20
473.27107663083888
 30
0.0
 40
2.0
 50
270.0
 51
0.0
  0
ARC
  5
2A74
  8
AM_0
 10
267.0559812099591
 20
493.30562563083907
 30
0.0
 40
2.0
 50
120.0000000000005
 51
180.0
  0
LINE
  5
2A75
  8
AM_0
 10
140.0559812099591
 20
544.28030163083895
 30
0.0
 11
168.05598120995899
 21
544.28030163083895
 31
0.0
  0
LINE
  5
2A76
  8
AM_0
 10
254.24391020995901
 20
605.21168263083928
 30
0.0
 11
205.489929209959
 21
571.07377763083889
 31
0.0
  0
LINE
  5
2A77
  8
AM_0
 10
199.92868920995909
 20
569.2668216308391
 30
0.0
 11
178.1898622099591
 21
568.88736863083875
 31
0.0
  0
LINE
  5
2A78
  8
AM_0
 10
168.05598120995899
 20
544.78030163083895
 30
0.0
 11
170.0559812099591
 21
544.78030163083895
 31
0.0
  0
LINE
  5
2A79
  8
AM_0
 10
162.0559812099591
 20
531.78030163083895
 30
0.0
 11
162.0559812099591
 21
537.78030163083895
 31
0.0
  0
LINE
  5
2A7A
  8
AM_0
 10
172.0559812099591
 20
560.78030163083895
 30
0.0
 11
170.0559812099591
 21
558.78030163083918
 31
0.0
  0
LINE
  5
2A7B
  8
AM_0
 10
176.7422192099591
 20
568.48590163083895
 30
0.0
 11
173.55598120995899
 21
566.64632663083876
 31
0.0
  0
ARC
  5
2A7C
  8
AM_0
 10
175.0559812099591
 20
564.04825063083899
 30
0.0
 40
3.0
 50
120.0000000000005
 51
180.0
  0
ARC
  5
2A7D
  8
AM_0
 10
178.2422192099591
 20
565.88782563083907
 30
0.0
 40
3.0
 50
90.999999999998494
 51
120.0000000000005
  0
ARC
  5
2A7E
  8
AM_0
 10
199.7541652099591
 20
579.26529863083886
 30
0.0
 40
10.0
 50
270.99999999999841
 51
304.99999999999852
  0
LINE
  5
2A7F
  8
AM_0
 10
265.0559812099591
 20
596.28952663083896
 30
0.0
 11
265.0559812099591
 21
576.25497663083888
 31
0.0
  0
LINE
  5
2A80
  8
AM_0
 10
257.05598120995887
 20
574.25497663083911
 30
0.0
 11
265.0559812099591
 21
574.25497663083911
 31
0.0
  0
ARC
  5
2A81
  8
AM_0
 10
267.0559812099591
 20
576.25497663083888
 30
0.0
 40
2.0
 50
180.0
 51
239.99999999999949
  0
LINE
  5
2A82
  8
AM_0
 10
257.05598120995887
 20
598.28952663083885
 30
0.0
 11
263.05598120995887
 21
598.28952663083885
 31
0.0
  0
LINE
  5
2A83
  8
AM_0
 10
257.05598120995887
 20
608.28030163083895
 30
0.0
 11
267.0559812099591
 21
608.28030163083895
 31
0.0
  0
ARC
  5
2A84
  8
AM_0
 10
253.09675720995909
 20
606.84998663083911
 30
0.0
 40
2.0
 50
304.99999999999852
 51
351.81201599999991
  0
ARC
  5
2A85
  8
AM_0
 10
257.05598120995887
 20
596.28952663083896
 30
0.0
 40
2.0
 50
90.0
 51
180.0
  0
ARC
  5
2A86
  8
AM_0
 10
257.05598120995887
 20
606.28030163083895
 30
0.0
 40
2.0
 50
90.0
 51
171.8120159999998
  0
ARC
  5
2A87
  8
AM_0
 10
263.05598120995887
 20
596.28952663083896
 30
0.0
 40
2.0
 50
0.0
 51
90.0
  0
LINE
  5
2A88
  8
AM_0
 10
140.0559812099591
 20
537.78030163083895
 30
0.0
 11
162.0559812099591
 21
537.78030163083895
 31
0.0
  0
LINE
  5
2A89
  8
AM_0
 10
140.0559812099591
 20
531.78030163083895
 30
0.0
 11
162.0559812099591
 21
531.78030163083895
 31
0.0
  0
ARC
  5
2A8A
  8
AM_0
 10
162.0559812099591
 20
534.78030163083895
 30
0.0
 40
3.0
 50
270.0
 51
90.0
  0
LINE
  5
2A8B
  8
ﾁｭｳｼﾝｾﾝ1
 10
353.55604120995912
 20
459.78030163083901
 30
0.0
 11
375.55604120995912
 21
459.78030163083901
 31
0.0
  0
LINE
  5
2A8C
  8
ﾁｭｳｼﾝｾﾝ1
 10
364.55604120995912
 20
470.78030163083901
 30
0.0
 11
364.55604120995912
 21
448.78030163083901
 31
0.0
  0
LINE
  5
2A8D
  8
ﾁｭｳｼﾝｾﾝ1
 10
273.55604120995912
 20
459.78030163083901
 30
0.0
 11
295.55604120995912
 21
459.78030163083901
 31
0.0
  0
LINE
  5
2A8E
  8
ﾁｭｳｼﾝｾﾝ1
 10
284.55604120995912
 20
470.78030163083901
 30
0.0
 11
284.55604120995912
 21
448.78030163083901
 31
0.0
  0
LINE
  5
2A8F
  8
ﾁｭｳｼﾝｾﾝ1
 10
273.55604120995912
 20
609.78030163083895
 30
0.0
 11
295.55604120995912
 21
609.78030163083895
 31
0.0
  0
LINE
  5
2A90
  8
ﾁｭｳｼﾝｾﾝ1
 10
284.55604120995912
 20
620.78030163083895
 30
0.0
 11
284.55604120995912
 21
598.78030163083895
 31
0.0
  0
TEXT
  5
2C76
  8
AM_0
 10
520.75112163211895
 20
530.07940671621225
 30
0.0
 40
10.0
  1
VX08-003G~VX08-030G
  0
ENDSEC
  0
EOF
