  0
SECTION
  2
HEADER
  9
$ACADVER
  1
AC1009
  9
$INSBASE
 10
0.0
 20
0.0
 30
0.0
  9
$EXTMIN
 10
110.54242154949149
 20
166.44944686019261
 30
-0.0000000000112498
  9
$EXTMAX
 10
829.69326978176059
 20
702.83782784372829
 30
0.0000000000002956
  9
$LIMMIN
 10
0.0
 20
0.0
  9
$LIMMAX
 10
853.5
 20
555.00000000000011
  9
$ORTHOMODE
 70
     0
  9
$REGENMODE
 70
     1
  9
$FILLMODE
 70
     1
  9
$QTEXTMODE
 70
     0
  9
$MIRRTEXT
 70
     1
  9
$DRAGMODE
 70
     2
  9
$LTSCALE
 40
3.0
  9
$OSMODE
 70
   551
  9
$ATTMODE
 70
     1
  9
$TEXTSIZE
 40
2.5
  9
$TRACEWID
 40
1.0
  9
$TEXTSTYLE
  7
STANDARD
  9
$CLAYER
  8
AM_0
  9
$CELTYPE
  6
BYLAYER
  9
$CECOLOR
 62
   256
  9
$DIMSCALE
 40
1.0
  9
$DIMASZ
 40
2.5
  9
$DIMEXO
 40
1.0
  9
$DIMDLI
 40
8.0
  9
$DIMRND
 40
0.0
  9
$DIMDLE
 40
0.0
  9
$DIMEXE
 40
0.6
  9
$DIMTP
 40
0.1
  9
$DIMTM
 40
0.1
  9
$DIMTXT
 40
2.5
  9
$DIMCEN
 40
0.0
  9
$DIMTSZ
 40
0.0
  9
$DIMTOL
 70
     0
  9
$DIMLIM
 70
     0
  9
$DIMTIH
 70
     0
  9
$DIMTOH
 70
     0
  9
$DIMSE1
 70
     0
  9
$DIMSE2
 70
     0
  9
$DIMTAD
 70
     1
  9
$DIMZIN
 70
     8
  9
$DIMBLK
  1

  9
$DIMASO
 70
     1
  9
$DIMSHO
 70
     1
  9
$DIMPOST
  1

  9
$DIMAPOST
  1
"
  9
$DIMALT
 70
     0
  9
$DIMALTD
 70
     2
  9
$DIMALTF
 40
0.0393701
  9
$DIMLFAC
 40
1.0
  9
$DIMTOFL
 70
     1
  9
$DIMTVP
 40
0.0
  9
$DIMTIX
 70
     0
  9
$DIMSOXD
 70
     0
  9
$DIMSAH
 70
     0
  9
$DIMBLK1
  1

  9
$DIMBLK2
  1

  9
$DIMSTYLE
  2
AM_ISO
  9
$DIMCLRD
 70
   256
  9
$DIMCLRE
 70
   256
  9
$DIMCLRT
 70
     4
  9
$DIMTFAC
 40
0.71
  9
$DIMGAP
 40
0.8
  9
$LUNITS
 70
     2
  9
$LUPREC
 70
     2
  9
$SKETCHINC
 40
1.0
  9
$FILLETRAD
 40
15.0
  9
$AUNITS
 70
     0
  9
$AUPREC
 70
     0
  9
$MENU
  1
.
  9
$ELEVATION
 40
0.0
  9
$PELEVATION
 40
0.0
  9
$THICKNESS
 40
0.0
  9
$LIMCHECK
 70
     0
  9
$BLIPMODE
 70
     0
  9
$CHAMFERA
 40
6.0
  9
$CHAMFERB
 40
3.0
  9
$SKPOLY
 70
     0
  9
$TDCREATE
 40
2452066.4583244682
  9
$TDUPDATE
 40
2458541.4154814351
  9
$TDINDWG
 40
0.1028296528
  9
$TDUSRTIMER
 40
0.102829456
  9
$USRTIMER
 70
     1
  9
$ANGBASE
 50
0.0
  9
$ANGDIR
 70
     0
  9
$PDMODE
 70
     0
  9
$PDSIZE
 40
0.0
  9
$PLINEWID
 40
0.0
  9
$COORDS
 70
     1
  9
$SPLFRAME
 70
     0
  9
$SPLINETYPE
 70
     6
  9
$SPLINESEGS
 70
     8
  9
$ATTDIA
 70
     1
  9
$ATTREQ
 70
     1
  9
$HANDLING
 70
     1
  9
$HANDSEED
  5
2BFE
  9
$SURFTAB1
 70
     6
  9
$SURFTAB2
 70
     6
  9
$SURFTYPE
 70
     6
  9
$SURFU
 70
     6
  9
$SURFV
 70
     6
  9
$UCSNAME
  2

  9
$UCSORG
 10
0.0
 20
0.0
 30
0.0
  9
$UCSXDIR
 10
1.0
 20
0.0
 30
0.0
  9
$UCSYDIR
 10
0.0
 20
1.0
 30
0.0
  9
$PUCSNAME
  2

  9
$PUCSORG
 10
0.0
 20
0.0
 30
0.0
  9
$PUCSXDIR
 10
1.0
 20
0.0
 30
0.0
  9
$PUCSYDIR
 10
0.0
 20
1.0
 30
0.0
  9
$USERI1
 70
     0
  9
$USERI2
 70
     0
  9
$USERI3
 70
     0
  9
$USERI4
 70
     0
  9
$USERI5
 70
     0
  9
$USERR1
 40
0.0
  9
$USERR2
 40
0.0
  9
$USERR3
 40
0.0
  9
$USERR4
 40
0.0
  9
$USERR5
 40
0.0
  9
$WORLDVIEW
 70
     1
  9
$SHADEDGE
 70
     3
  9
$SHADEDIF
 70
    70
  9
$TILEMODE
 70
     1
  9
$MAXACTVP
 70
    64
  9
$PLIMCHECK
 70
     0
  9
$PEXTMIN
 10
1.0000000000000000E+020
 20
1.0000000000000000E+020
 30
1.0000000000000000E+020
  9
$PEXTMAX
 10
-1.0000000000000000E+020
 20
-1.0000000000000000E+020
 30
-1.0000000000000000E+020
  9
$PLIMMIN
 10
0.0
 20
0.0
  9
$PLIMMAX
 10
420.0
 20
297.0
  9
$UNITMODE
 70
     0
  9
$VISRETAIN
 70
     1
  9
$PLINEGEN
 70
     0
  9
$PSLTSCALE
 70
     1
  0
ENDSEC
  0
SECTION
  2
TABLES
  0
TABLE
  2
VPORT
 70
     1
  0
VPORT
  2
*ACTIVE
 70
     0
 10
0.0
 20
0.0
 11
1.0
 21
1.0
 12
470.11784566562602
 22
434.64363735196048
 13
0.0
 23
0.0
 14
7.5
 24
7.5
 15
30.0
 25
30.0
 16
0.0
 26
0.0
 36
1.0
 17
0.0
 27
0.0
 37
0.0
 40
540.07068108182068
 41
1.7571592210767459
 42
50.0
 43
0.0
 44
0.0
 50
0.0
 51
0.0
 71
     0
 72
   100
 73
     1
 74
     3
 75
     0
 76
     0
 77
     0
 78
     0
  0
ENDTAB
  0
TABLE
  2
LTYPE
 70
    27
  0
LTYPE
  2
CONTINUOUS
 70
     0
  3
Solid line
 72
    65
 73
     0
 40
0.0
  0
LTYPE
  2
AM_ISO02W050
 70
     0
  3
__ __ __ __ __ __ __ __ __ __ __ __ __ __ __
 72
    65
 73
     2
 40
7.5
 49
6.0
 49
-1.5
  0
LTYPE
  2
AM_ISO08W050
 70
     0
  3
____ . ____ . ____ . ____ . ____ . ____ . ____
 72
    65
 73
     4
 40
18.0
 49
12.0
 49
-1.5
 49
3.0
 49
-1.5
  0
LTYPE
  2
AM_ISO09W050
 70
     0
  3
_____ . . _____ . . _____ . . ____ .. ____
 72
    65
 73
     6
 40
22.5
 49
12.0
 49
-1.5
 49
3.0
 49
-1.5
 49
3.0
 49
-1.5
  0
LTYPE
  2
AMCONSTR
 70
     0
  3
_______________________
 72
    65
 73
     2
 40
9999.0
 49
9999.0
 49
0.0
  0
LTYPE
  2
AM_ISO08W050X2
 70
     0
  3
__ . __ . __ . __ . __ . __
 72
    65
 73
     4
 40
9.0
 49
6.0
 49
-0.75
 49
1.5
 49
-0.75
  0
LTYPE
  2
AM_ISO02W050X2
 70
     0
  3
 _ _ _ _ _ _ _ _ _ _ _ _
 72
    65
 73
     2
 40
3.75
 49
3.0
 49
-0.75
  0
LTYPE
  2
AMZIGZAG
 70
     0
  3
/\/-/\/-/\/-/\/-/\/-/\/
 72
    65
 73
     2
 40
11.000099999999991
 49
0.0001
 49
-11.0
  0
LTYPE
  2
ACISOWELD
 70
     0
  3
_ _ _ _ _
 72
    65
 73
     2
 40
2.0
 49
2.0
 49
-1.0
  0
LTYPE
  2
ACISOTGB
 70
     0
  3
__ . . __ . .
 72
    65
 73
     6
 40
9.0
 49
4.0
 49
-1.0
 49
1.0
 49
-1.0
 49
1.0
 49
-1.0
  0
LTYPE
  2
ACISOTGL
 70
     0
  3
_ _ _ _ _
 72
    65
 73
     2
 40
3.0
 49
2.0
 49
-1.0
  0
LTYPE
  2
CENTER
 70
     0
  3
__ . __
 72
    65
 73
     4
 40
7.0
 49
4.0
 49
-1.0
 49
1.0
 49
-1.0
  0
LTYPE
  2
PHANTOM2
 70
     0
  3
Phantom (.5x) ___ _ _ ___ _ _ ___ _ _ ___ _ _
 72
    65
 73
     6
 40
31.75
 49
15.875
 49
-3.174999999999998
 49
3.174999999999998
 49
-3.174999999999998
 49
3.174999999999998
 49
-3.174999999999998
  0
LTYPE
  2
ACANSTGBM
 70
     0
  3
__ . . __ . .
 72
    65
 73
     6
 40
9.0
 49
4.0
 49
-1.0
 49
1.0
 49
-1.0
 49
1.0
 49
-1.0
  0
LTYPE
  2
ACANSTGLM
 70
     0
  3
_ _ _ _ _
 72
    65
 73
     2
 40
3.0
 49
2.0
 49
-1.0
  0
LTYPE
  2
GEN7
 70
     0
  3
____ . ____ . ____ . ____ . ____ . ____ . ____
 72
    65
 73
     4
 40
14.25
 49
9.75
 49
-1.5
 49
1.5
 49
-1.5
  0
LTYPE
  2
GEN3B
 70
     0
  3
 - - - - -
 72
    65
 73
     2
 40
1.0
 49
0.5
 49
-0.5
  0
LTYPE
  2
GEN7A
 70
     0
  3
__ . __ . __
 72
    65
 73
     4
 40
7.375
 49
4.75
 49
-0.875
 49
0.875
 49
-0.875
  0
LTYPE
  2
ACJISTGB
 70
     0
  3
__ . . __ . .
 72
    65
 73
     6
 40
9.0
 49
4.0
 49
-1.0
 49
1.0
 49
-1.0
 49
1.0
 49
-1.0
  0
LTYPE
  2
ACJISTGL
 70
     0
  3
_ _ _ _ _
 72
    65
 73
     2
 40
3.0
 49
2.0
 49
-1.0
  0
LTYPE
  2
HIDDEN
 70
     0
  3
Hidden __ __ __ __ __ __ __ __ __ __ __ __ __ _
 72
    65
 73
     2
 40
0.375
 49
0.25
 49
-0.125
  0
LTYPE
  2
CENTER2
 70
     0
  3
Center (.5x) ___ _ ___ _ ___ _ ___ _ ___ _ ___
 72
    65
 73
     4
 40
1.125
 49
0.75
 49
-0.125
 49
0.125
 49
-0.125
  0
LTYPE
  2
HIDDEN2
 70
     0
  3
Hidden (.5x) _ _ _ _ _ _ _ _ _ _ _ _ _ _ _ _ _
 72
    65
 73
     2
 40
0.1875
 49
0.125
 49
-0.0625
  0
LTYPE
  2
AMZIGZAG2
 70
     0
  3
/\/-/\/-/\/-/\/-/\/-/\/
 72
    65
 73
     2
 40
0.4401
 49
0.0001
 49
-0.4400000000000002
  0
LTYPE
  2
ACANSTGB
 70
     0
  3
__ . . __ . .
 72
    65
 73
     6
 40
0.35433070866
 49
0.15748031496
 49
-0.03937007874
 49
0.03937007874
 49
-0.03937007874
 49
0.03937007874
 49
-0.03937007874
  0
LTYPE
  2
ACANSTGL
 70
     0
  3
_ _ _ _ _
 72
    65
 73
     2
 40
0.11811023622
 49
0.07874015748
 49
-0.03937007874
  0
ENDTAB
  0
TABLE
  2
LAYER
 70
     7
  0
LAYER
  2
0
 70
     0
 62
     7
  6
CONTINUOUS
  0
LAYER
  2
AM_0
 70
     0
 62
     7
  6
CONTINUOUS
  0
LAYER
  2
AM_5
 70
     0
 62
     2
  6
CONTINUOUS
  0
LAYER
  2
DEFPOINTS
 70
     0
 62
     7
  6
CONTINUOUS
  0
LAYER
  2
ｶｸﾚｾﾝ2
 70
     0
 62
     3
  6
GEN3B
  0
LAYER
  2
ﾁｭｳｼﾝｾﾝ
 70
     0
 62
     1
  6
GEN7
  0
LAYER
  2
ﾁｭｳｼﾝｾﾝ1
 70
     0
 62
     1
  6
GEN7A
  0
ENDTAB
  0
TABLE
  2
STYLE
 70
     8
  0
STYLE
  2
STANDARD
 70
     0
 40
0.0
 41
0.8299999999999999
 50
0.0
 71
     0
 42
2.5
  3
txt.shx
  4
bigfont.shx
  0
STYLE
  2

 70
     1
 40
0.0
 41
1.0
 50
0.0
 71
     0
 42
2.5
  3
ltypeshp.shx
  4

  0
STYLE
  2
ACISOTS
 70
     0
 40
1.0
 41
1.0
 50
0.0
 71
     0
 42
2.5
  3
isocp.shx
  4
extfont.shx
  0
STYLE
  2
ACISOGDT
 70
     0
 40
0.0
 41
1.0
 50
0.0
 71
     0
 42
2.5
  3
amgdt.shx
  4

  0
STYLE
  2
ACANSTS
 70
     0
 40
1.0
 41
1.0
 50
0.0
 71
     0
 42
2.5
  3
romans.shx
  4
bigfont.shx
  0
STYLE
  2
ACANSGDT
 70
     0
 40
0.0
 41
1.0
 50
0.0
 71
     0
 42
2.5
  3
amgdt.shx
  4

  0
STYLE
  2
ACJISTS
 70
     0
 40
1.0
 41
1.0
 50
0.0
 71
     0
 42
2.5
  3
isocp.shx
  4
bigfont.shx
  0
STYLE
  2
ACJISGDT
 70
     0
 40
0.0
 41
1.0
 50
0.0
 71
     0
 42
2.5
  3
amgdt.shx
  4

  0
ENDTAB
  0
TABLE
  2
VIEW
 70
     6
  0
VIEW
  2
AM_VIEW1
 70
     0
 40
277.49999999999989
 10
249.64779005524849
 20
416.24999999999989
 41
499.2955801104971
 11
0.0
 21
0.0
 31
1.0
 12
0.0
 22
0.0
 32
0.0
 42
50.0
 43
0.0
 44
0.0
 50
0.0
 71
     0
  0
VIEW
  2
AM_VIEW2
 70
     0
 40
277.49999999999989
 10
603.85220994475117
 20
416.24999999999989
 41
499.2955801104971
 11
0.0
 21
0.0
 31
1.0
 12
0.0
 22
0.0
 32
0.0
 42
50.0
 43
0.0
 44
0.0
 50
0.0
 71
     0
  0
VIEW
  2
AM_VIEW3
 70
     0
 40
277.49999999999989
 10
249.64779005524849
 20
138.74999999999989
 41
499.2955801104971
 11
0.0
 21
0.0
 31
1.0
 12
0.0
 22
0.0
 32
0.0
 42
50.0
 43
0.0
 44
0.0
 50
0.0
 71
     0
  0
VIEW
  2
AM_VIEW4
 70
     0
 40
277.49999999999989
 10
603.85220994475117
 20
138.74999999999989
 41
499.2955801104971
 11
0.0
 21
0.0
 31
1.0
 12
0.0
 22
0.0
 32
0.0
 42
50.0
 43
0.0
 44
0.0
 50
0.0
 71
     0
  0
VIEW
  2
AM_VIEW5
 70
     0
 40
277.5
 10
426.75
 20
277.49999999999989
 41
499.2955801104971
 11
0.0
 21
0.0
 31
1.0
 12
0.0
 22
0.0
 32
0.0
 42
50.0
 43
0.0
 44
0.0
 50
0.0
 71
     0
  0
VIEW
  2
AM_VIEW6
 70
     0
 40
554.99445000000014
 10
426.75
 20
277.49999999999989
 41
998.5811743093924
 11
0.0
 21
0.0
 31
1.0
 12
0.0
 22
0.0
 32
0.0
 42
50.0
 43
0.0
 44
0.0
 50
0.0
 71
     0
  0
ENDTAB
  0
TABLE
  2
UCS
 70
     0
  0
ENDTAB
  0
TABLE
  2
APPID
 70
    94
  0
APPID
  2
ACAD
 70
     0
  0
APPID
  2
MCAD_NO_VIS
 70
     0
  0
APPID
  2
ACAD_TEMP_GRAPHIC
 70
     0
  0
APPID
  2
ACATTRIBSERVICES
 70
     0
  0
APPID
  2
GENIUS_GENREC_14
 70
     0
  0
APPID
  2
GENIUS_GENOBJ-N-REC_13
 70
     0
  0
APPID
  2
GENIUS_GENODEF_13
 70
     0
  0
APPID
  2
GENIUS_GENOLIS_13
 70
     0
  0
APPID
  2
GENIUS_GENOBJ-N-TIT_13
 70
     0
  0
APPID
  2
GENIUS_GENOENT_13
 70
     0
  0
APPID
  2
GENIUS_GENTITLE_13
 70
     0
  0
APPID
  2
GENIUS_GENOREF_13
 70
     0
  0
APPID
  2
GENIUS_GENSCREG_15
 70
     0
  0
APPID
  2
GENIUS_GENOBJ-N-SDF_13
 70
     0
  0
APPID
  2
GENIUS_GENFIL_13
 70
     0
  0
APPID
  2
GENIUS_GENOBJ-N-CHA_13
 70
     0
  0
APPID
  2
GENIUS_GENDTOL_13
 70
     0
  0
APPID
  2
GENIUS_GENOBJ-N-FIL_13
 70
     0
  0
APPID
  2
AD_DRAW
 70
     0
  0
APPID
  2
DESIGNERASSEMBLIES
 70
     0
  0
APPID
  2
ASURF_PCURVE_APPNAME
 70
     0
  0
APPID
  2
GENIUS_GE3SECT_13
 70
     0
  0
APPID
  2
GENIUS_GENCFG_13
 70
     0
  0
APPID
  2
GENIUS_GE3CFG0_13
 70
     0
  0
APPID
  2
GENIUS_GENCFG0_13
 70
     0
  0
APPID
  2
GENIUS_GENCFG1_13
 70
     0
  0
APPID
  2
GENIUS_GENCFG2_13
 70
     0
  0
APPID
  2
GENIUS_GENCFG3_13
 70
     0
  0
APPID
  2
GENIUS_GENCFG4_13
 70
     0
  0
APPID
  2
GENIUS_GEVCFG0_13
 70
     0
  0
APPID
  2
GENIUS_GENHINW_13
 70
     0
  0
APPID
  2
GENIUS_FIRSTVISTXT_14
 70
     0
  0
APPID
  2
GENIUS_GENOBJ-N-LEADER_13
 70
     0
  0
APPID
  2
GEV_VCCNULL_SWITCH_OFF
 70
     0
  0
APPID
  2
GENIUS_GEFCFG0_13
 70
     0
  0
APPID
  2
GENIUS_GENZVEED_13
 70
     0
  0
APPID
  2
GENIUS_GENSCREG_13
 70
     0
  0
APPID
  2
GENIUS_DUMCFG0_13
 70
     0
  0
APPID
  2
GEVID936201362
 70
     0
  0
APPID
  2
GEVDC
 70
     0
  0
APPID
  2
GEVCON
 70
     0
  0
APPID
  2
VCC
 70
     0
  0
APPID
  2
GEVPT
 70
     0
  0
APPID
  2
GEVIT
 70
     0
  0
APPID
  2
GENBH
 70
     0
  0
APPID
  2
GEVMK
 70
     0
  0
APPID
  2
GENIUS_GENBH_13
 70
     0
  0
APPID
  2
GENIUS_GENOBJ-NBEHI-BHF_13
 70
     0
  0
APPID
  2
GENIUS_GENOBJ-NBEHI-BHB_13
 70
     0
  0
APPID
  2
GENIUS_GENOBJ-F-DESC_13
 70
     0
  0
APPID
  2
GENIUS_GEFDESC_14
 70
     0
  0
APPID
  2
GENIUS_GENOBJ-F-PART_13
 70
     0
  0
APPID
  2
GENIUS_GEFSTDP_13
 70
     0
  0
APPID
  2
GENIUS_GEFPARTINS_13
 70
     0
  0
APPID
  2
GENIUS_GENTRA_14
 70
     0
  0
APPID
  2
GENIUS_GENINF13_13
 70
     0
  0
APPID
  2
GENIUS_GENOBJ-N-INFOPT_13
 70
     0
  0
APPID
  2
GENIUS_GENOBJ-N-RSSYM_13
 70
     0
  0
APPID
  2
GENIUS_GENSYMENT_13
 70
     0
  0
APPID
  2
GENIUS_GENSCSYM_13
 70
     0
  0
APPID
  2
GENIUS_GEFINFNAM_13
 70
     0
  0
APPID
  2
GENIUS_GENOBJ-N-CEN_13
 70
     0
  0
APPID
  2
GENIUS_GENOBJ-N-CRS_13
 70
     0
  0
APPID
  2
GENIUS_GENOBJ-N-CRC_13
 70
     0
  0
APPID
  2
GENIUS_GENCRC_14
 70
     0
  0
APPID
  2
GEVID942827039
 70
     0
  0
APPID
  2
GEVID942827040
 70
     0
  0
APPID
  2
GEVID942827041
 70
     0
  0
APPID
  2
GENIUS_GENOBJ-F-SCPASSM_13
 70
     0
  0
APPID
  2
GENIUS_GENDIMSH_14
 70
     0
  0
APPID
  2
GEVID942827042
 70
     0
  0
APPID
  2
GEVID946020473
 70
     0
  0
APPID
  2
GEVID946020474
 70
     0
  0
APPID
  2
GEVID946020475
 70
     0
  0
APPID
  2
GENIUS_GENOBJ-N-HTC_13
 70
     0
  0
APPID
  2
GENIUS_GENHATCH_13
 70
     0
  0
APPID
  2
GEVID948854295
 70
     0
  0
APPID
  2
GEVID939402019
 70
     0
  0
APPID
  2
GEVID952919491
 70
     0
  0
APPID
  2
GEVID952919492
 70
     0
  0
APPID
  2
GENIUS_GEFWELD_13
 70
     0
  0
APPID
  2
GENIUS_GENOBJ-F-WELS_13
 70
     0
  0
APPID
  2
GEVID952919493
 70
     0
  0
APPID
  2
GENIUS_GENOBJ-N-RSBK_13
 70
     0
  0
APPID
  2
GENIUS_GENOBJ-N-LIB_13
 70
     0
  0
APPID
  2
GENIUS_GENSCALE_13
 70
     0
  0
APPID
  2
GEVID986376691
 70
     0
  0
APPID
  2
DCO15
 70
     0
  0
APPID
  2
ACAD_DSTYLE_DIMBREAK
 70
     0
  0
APPID
  2
ACAD_DSTYLE_DIMJAG
 70
     0
  0
APPID
  2
ACAD_NAV_VCDISPLAY
 70
     0
  0
APPID
  2
ACADANNOPO
 70
     0
  0
APPID
  2
ACAD_EXEMPT_FROM_CAD_STANDARDS
 70
     0
  0
APPID
  2
ACAD_MLEADERVER
 70
     0
  0
ENDTAB
  0
TABLE
  2
DIMSTYLE
 70
    21
  0
DIMSTYLE
  2
AM_ISO
 70
     0
  3

  4
"
  5

  6

  7

 40
1.0
 41
2.5
 42
1.0
 43
8.0
 44
0.6
 45
0.0
 46
0.0
 47
0.1
 48
0.1
140
2.5
141
0.0
142
0.0
143
0.0393701
144
1.0
145
0.0
146
0.71
147
0.8
 71
     0
 72
     0
 73
     0
 74
     0
 75
     0
 76
     0
 77
     1
 78
     8
170
     0
171
     2
172
     1
173
     0
174
     0
175
     0
176
   256
177
   256
178
     4
  0
DIMSTYLE
  2
AM_ISO$3
 70
     0
  3

  4
"
  5

  6

  7

 40
1.0
 41
2.5
 42
1.0
 43
8.0
 44
0.6
 45
0.0
 46
0.0
 47
0.1
 48
0.1
140
2.5
141
0.0
142
0.0
143
0.0393701
144
1.0
145
0.0
146
0.71
147
0.8
 71
     0
 72
     0
 73
     0
 74
     1
 75
     0
 76
     0
 77
     1
 78
     8
170
     0
171
     2
172
     0
173
     0
174
     0
175
     0
176
   256
177
   256
178
     4
  0
DIMSTYLE
  2
AM_ISO$4
 70
     0
  3

  4
"
  5

  6

  7

 40
1.0
 41
2.5
 42
1.0
 43
8.0
 44
0.6
 45
0.0
 46
0.0
 47
0.1
 48
0.1
140
2.5
141
0.0
142
0.0
143
0.0393701
144
1.0
145
0.0
146
0.71
147
0.8
 71
     0
 72
     0
 73
     0
 74
     1
 75
     0
 76
     0
 77
     1
 78
     8
170
     0
171
     2
172
     0
173
     0
174
     0
175
     0
176
   256
177
   256
178
     4
  0
DIMSTYLE
  2
AM_ISO$6
 70
     0
  3

  4
"
  5

  6

  7

 40
1.0
 41
2.5
 42
1.0
 43
8.0
 44
0.6
 45
0.0
 46
0.0
 47
0.1
 48
0.1
140
2.5
141
0.0
142
0.0
143
0.0393701
144
1.0
145
0.0
146
0.71
147
0.8
 71
     0
 72
     0
 73
     0
 74
     0
 75
     0
 76
     0
 77
     0
 78
     8
170
     0
171
     2
172
     1
173
     0
174
     0
175
     0
176
   256
177
   256
178
     4
  0
DIMSTYLE
  2
AM_ISO$7
 70
     0
  3

  4
"
  5

  6

  7

 40
1.0
 41
2.5
 42
1.0
 43
8.0
 44
0.6
 45
0.0
 46
0.0
 47
0.1
 48
0.1
140
2.5
141
0.0
142
0.0
143
0.0393701
144
1.0
145
0.0
146
0.71
147
0.8
 71
     0
 72
     0
 73
     0
 74
     0
 75
     0
 76
     0
 77
     1
 78
     8
170
     0
171
     2
172
     1
173
     0
174
     0
175
     0
176
   256
177
   256
178
     4
  0
DIMSTYLE
  2
AM_ISO$SF
 70
     0
  3

  4
"
  5

  6

  7

 40
1.0
 41
2.5
 42
1.0
 43
10.0
 44
1.0
 45
0.0
 46
0.0
 47
0.1
 48
0.1
140
3.5
141
0.0
142
0.0
143
0.0393701
144
1.0
145
0.0
146
0.71
147
1.5
 71
     0
 72
     0
 73
     0
 74
     0
 75
     1
 76
     1
 77
     1
 78
     8
170
     0
171
     2
172
     1
173
     0
174
     0
175
     0
176
   256
177
   256
178
     2
  0
DIMSTYLE
  2
AM_ISO$SH
 70
     0
  3

  4
"
  5

  6

  7

 40
1.0
 41
2.5
 42
1.0
 43
10.0
 44
1.0
 45
0.0
 46
0.0
 47
0.1
 48
0.1
140
3.5
141
0.0
142
0.0
143
0.0393701
144
2.0
145
0.0
146
0.71
147
1.5
 71
     0
 72
     0
 73
     0
 74
     0
 75
     1
 76
     1
 77
     1
 78
     8
170
     0
171
     2
172
     1
173
     1
174
     0
175
     0
176
   256
177
   256
178
     2
  0
DIMSTYLE
  2
STANDARD
 70
     0
  3

  4

  5

  6

  7

 40
1.0
 41
0.18
 42
0.0625
 43
0.38
 44
0.18
 45
0.0
 46
0.0
 47
0.0
 48
0.0
140
0.18
141
0.09
142
0.0
143
25.399999999999999
144
1.0
145
0.0
146
1.0
147
0.09
 71
     0
 72
     0
 73
     1
 74
     1
 75
     0
 76
     0
 77
     0
 78
     0
170
     0
171
     2
172
     0
173
     0
174
     0
175
     0
176
     0
177
     0
178
     0
  0
DIMSTYLE
  2
AM_JIS
 70
     0
  3

  4
"
  5

  6

  7

 40
1.0
 41
2.5
 42
1.0
 43
7.0
 44
1.0
 45
0.0
 46
0.0
 47
0.1
 48
0.1000000001
140
2.5
141
0.0
142
0.0
143
0.0393701
144
1.0
145
0.0
146
0.71
147
1.0
 71
     0
 72
     0
 73
     0
 74
     0
 75
     0
 76
     0
 77
     3
 78
     8
170
     0
171
     2
172
     1
173
     0
174
     0
175
     0
176
   256
177
   256
178
     4
  0
DIMSTYLE
  2
AM_JIS$3
 70
     0
  3

  4
"
  5

  6

  7

 40
1.0
 41
2.5
 42
1.0
 43
7.0
 44
1.0
 45
0.0
 46
0.0
 47
0.1
 48
0.1000000001
140
2.5
141
0.0
142
0.0
143
0.0393701
144
1.0
145
0.0
146
0.71
147
1.0
 71
     0
 72
     0
 73
     0
 74
     1
 75
     0
 76
     0
 77
     3
 78
     8
170
     0
171
     2
172
     0
173
     0
174
     0
175
     0
176
   256
177
   256
178
     4
  0
DIMSTYLE
  2
AM_JIS$4
 70
     0
  3

  4
"
  5

  6

  7

 40
1.0
 41
2.5
 42
1.0
 43
7.0
 44
1.0
 45
0.0
 46
0.0
 47
0.1
 48
0.1000000001
140
2.5
141
0.0
142
0.0
143
0.0393701
144
1.0
145
0.0
146
0.71
147
1.0
 71
     0
 72
     0
 73
     0
 74
     0
 75
     0
 76
     0
 77
     3
 78
     8
170
     0
171
     2
172
     0
173
     0
174
     0
175
     0
176
   256
177
   256
178
     4
  0
DIMSTYLE
  2
AM_JIS$6
 70
     0
  3

  4
"
  5

  6

  7

 40
1.0
 41
2.5
 42
1.0
 43
7.0
 44
1.0
 45
0.0
 46
0.0
 47
0.1
 48
0.1000000001
140
2.5
141
0.0
142
0.0
143
0.0393701
144
1.0
145
0.0
146
0.71
147
1.0
 71
     0
 72
     0
 73
     0
 74
     0
 75
     0
 76
     0
 77
     0
 78
     8
170
     0
171
     2
172
     1
173
     0
174
     0
175
     0
176
   256
177
   256
178
     4
  0
DIMSTYLE
  2
AM_JIS$7
 70
     0
  3

  4
"
  5

  6

  7

 40
1.0
 41
2.5
 42
1.0
 43
7.0
 44
1.0
 45
0.0
 46
0.0
 47
0.1
 48
0.1000000001
140
2.5
141
0.0
142
0.0
143
0.0393701
144
1.0
145
0.0
146
0.71
147
1.0
 71
     0
 72
     0
 73
     0
 74
     0
 75
     0
 76
     0
 77
     3
 78
     8
170
     0
171
     2
172
     1
173
     0
174
     0
175
     0
176
   256
177
   256
178
     4
  0
DIMSTYLE
  2
AM_JIS$SF
 70
     0
  3

  4
"
  5

  6

  7

 40
1.0
 41
2.5
 42
1.0
 43
10.0
 44
1.0
 45
0.0
 46
0.0
 47
0.1
 48
0.1
140
3.5
141
0.0
142
0.0
143
0.0393701
144
1.0
145
0.0
146
0.71
147
1.5
 71
     0
 72
     0
 73
     0
 74
     0
 75
     1
 76
     1
 77
     3
 78
     8
170
     0
171
     2
172
     1
173
     0
174
     0
175
     0
176
   256
177
   256
178
     4
  0
DIMSTYLE
  2
AM_JIS$SH
 70
     0
  3

  4
"
  5

  6

  7

 40
1.0
 41
2.5
 42
1.0
 43
10.0
 44
1.0
 45
0.0
 46
0.0
 47
0.1
 48
0.1
140
3.5
141
0.0
142
0.0
143
0.0393701
144
1.0
145
0.0
146
0.71
147
1.5
 71
     0
 72
     0
 73
     0
 74
     0
 75
     1
 76
     0
 77
     3
 78
     8
170
     0
171
     2
172
     1
173
     1
174
     0
175
     0
176
   256
177
   256
178
     4
  0
DIMSTYLE
  2
AM_ANSI
 70
     0
  3

  4
mm
  5

  6

  7

 40
1.0
 41
0.1
 42
0.05
 43
0.5
 44
0.1
 45
0.0
 46
0.0
 47
0.1
 48
0.1
140
0.12
141
0.0
142
0.0
143
25.399999999999999
144
1.0
145
0.0
146
0.71
147
0.06
 71
     0
 72
     0
 73
     1
 74
     1
 75
     0
 76
     0
 77
     0
 78
     7
170
     0
171
     2
172
     0
173
     0
174
     0
175
     0
176
   256
177
   256
178
     2
  0
DIMSTYLE
  2
AM_ANSI$3
 70
     0
  3

  4
mm
  5

  6

  7

 40
1.0
 41
0.1
 42
0.05
 43
0.5
 44
0.1
 45
0.0
 46
0.0
 47
0.1
 48
0.1
140
0.12
141
0.0
142
0.0
143
25.399999999999999
144
1.0
145
0.0
146
0.71
147
0.06
 71
     0
 72
     0
 73
     1
 74
     1
 75
     0
 76
     0
 77
     0
 78
     7
170
     0
171
     2
172
     0
173
     0
174
     0
175
     0
176
   256
177
   256
178
     2
  0
DIMSTYLE
  2
AM_ANSI$4
 70
     0
  3

  4
mm
  5

  6

  7

 40
1.0
 41
0.1
 42
0.05
 43
0.5
 44
0.1
 45
0.0
 46
0.0
 47
0.1
 48
0.1
140
0.12
141
0.0
142
0.0
143
25.399999999999999
144
1.0
145
0.0
146
0.71
147
0.06
 71
     0
 72
     0
 73
     1
 74
     1
 75
     0
 76
     0
 77
     0
 78
     7
170
     0
171
     2
172
     0
173
     0
174
     0
175
     0
176
   256
177
   256
178
     2
  0
DIMSTYLE
  2
AM_ANSI$7
 70
     0
  3

  4
mm
  5

  6

  7

 40
1.0
 41
0.1
 42
0.05
 43
0.5
 44
0.1
 45
0.0
 46
0.0
 47
0.1
 48
0.1
140
0.24
141
0.0
142
0.0
143
25.399999999999999
144
1.0
145
0.0
146
0.71
147
0.06
 71
     0
 72
     0
 73
     1
 74
     1
 75
     0
 76
     0
 77
     0
 78
     7
170
     0
171
     2
172
     0
173
     0
174
     0
175
     0
176
   256
177
   256
178
     2
  0
DIMSTYLE
  2
AM_ANSI$SF
 70
     0
  3

  4
mm
  5

  6

  7

 40
1.0
 41
0.1
 42
0.05
 43
0.5
 44
0.1
 45
0.0
 46
0.0
 47
0.1
 48
0.1
140
0.12
141
0.0
142
0.0
143
25.399999999999999
144
1.0
145
0.0
146
0.71
147
0.06
 71
     0
 72
     0
 73
     1
 74
     1
 75
     1
 76
     1
 77
     0
 78
     7
170
     0
171
     2
172
     0
173
     0
174
     0
175
     0
176
   256
177
   256
178
     2
  0
DIMSTYLE
  2
AM_ANSI$SH
 70
     0
  3

  4
mm
  5

  6
GENAXEH
  7

 40
1.0
 41
0.1
 42
0.05
 43
0.5
 44
0.1
 45
0.0
 46
0.0
 47
0.1
 48
0.1
140
0.12
141
0.0
142
0.0
143
25.399999999999999
144
1.0
145
0.0
146
0.71
147
0.06
 71
     0
 72
     0
 73
     1
 74
     1
 75
     1
 76
     1
 77
     0
 78
     7
170
     0
171
     2
172
     0
173
     1
174
     0
175
     0
176
   256
177
   256
178
     2
  0
ENDTAB
  0
ENDSEC
  0
SECTION
  2
BLOCKS
  0
BLOCK
  8
0
  2
$MODEL_SPACE
 70
     0
 10
0.0
 20
0.0
 30
0.0
  3
$MODEL_SPACE
  1

  0
ENDBLK
  5
2822
  8
0
  0
BLOCK
 67
     1
  8
0
  2
$PAPER_SPACE
 70
     0
 10
0.0
 20
0.0
 30
0.0
  3
$PAPER_SPACE
  1

  0
ENDBLK
  5
281E
 67
     1
  8
0
  0
BLOCK
  8
0
  2
GENAXEH
 70
     0
 10
0.0
 20
0.0
 30
0.0
  3
GENAXEH
  1

  0
LINE
  5
28C1
  8
0
 10
-1.0
 20
0.0
 30
0.0
 11
1.0
 21
0.0
 31
0.0
  0
ENDBLK
  5
28C2
  8
0
  0
BLOCK
  8
0
  2
_OPEN30
 70
     0
 10
0.0
 20
0.0
 30
0.0
  3
_OPEN30
  1

  0
LINE
  5
28C5
  8
0
 62
     0
 10
-1.0
 20
0.26794919
 30
0.0
 11
0.0
 21
0.0
 31
0.0
  0
LINE
  5
28C6
  8
0
 62
     0
 10
0.0
 20
0.0
 30
0.0
 11
-1.0
 21
-0.26794919
 31
0.0
  0
LINE
  5
28C7
  8
0
 62
     0
 10
0.0
 20
0.0
 30
0.0
 11
-1.0
 21
0.0
 31
0.0
  0
ENDBLK
  5
28C8
  8
0
  0
BLOCK
  8
0
  2
_NONE
 70
     0
 10
0.0
 20
0.0
 30
0.0
  3
_NONE
  1

  0
ENDBLK
  5
28CB
  8
0
  0
BLOCK
  8
0
  2
_ACMFILLEDHALF
 70
     0
 10
0.0
 20
0.0
 30
0.0
  3
_ACMFILLEDHALF
  1

  0
TRACE
  5
2B6E
  8
AM_0
 62
     0
 10
-0.8
 20
0.0
 30
0.0
 11
-1.0
 21
0.166666666
 31
0.0
 12
0.0
 22
0.0
 32
0.0
 13
0.0
 23
0.0
 33
0.0
  0
LINE
  5
2B6F
  8
AM_0
 62
     0
 10
-1.0
 20
0.0
 30
0.0
 11
-0.8
 21
0.0
 31
0.0
  0
ENDBLK
  5
2B6D
  8
0
  0
ENDSEC
  0
SECTION
  2
ENTITIES
  0
LINE
  5
28CC
  8
ﾁｭｳｼﾝｾﾝ
 10
265.7694632243531
 20
313.19863316592262
 30
0.0
 11
478.78293322435297
 21
313.19863316592262
 31
0.0
  0
LINE
  5
28CD
  8
AM_0
 10
476.0037032243531
 20
297.19866416592248
 30
0.0
 11
418.00368322435332
 21
297.19866416592248
 31
0.0
  0
LINE
  5
28CE
  8
AM_0
 10
476.0037032243531
 20
329.19862016592248
 30
0.0
 11
418.00368322435332
 21
329.19862016592248
 31
0.0
  0
LINE
  5
28CF
  8
AM_0
 10
301.00371322435319
 20
384.69868016592272
 30
0.0
 11
301.00371322435319
 21
228.69864716592261
 31
0.0
  0
LINE
  5
28D0
  8
AM_0
 10
407.0037032243531
 20
198.7380431659227
 30
0.0
 11
407.0037032243531
 21
357.19867016592269
 31
0.0
  0
LINE
  5
28D1
  8
AM_0
 10
366.00372322435311
 20
206.19866216592271
 30
0.0
 11
366.00372322435311
 21
344.64139016592247
 31
0.0
  0
LINE
  5
28D2
  8
AM_0
 10
386.00370322435322
 20
213.65638016592271
 30
0.0
 11
386.00370322435322
 21
374.67958016592257
 31
0.0
  0
LINE
  5
28D3
  8
AM_0
 10
305.0037032243531
 20
241.8230531659226
 30
0.0
 11
305.0037032243531
 21
299.84639816592272
 31
0.0
  0
LINE
  5
28D4
  8
AM_0
 10
244.50372322435311
 20
211.69866116592269
 30
0.0
 11
244.50372322435311
 21
358.69867016592269
 31
0.0
  0
LINE
  5
28D5
  8
AM_0
 10
279.00372322435311
 20
376.22272016592262
 30
0.0
 11
279.00372322435311
 21
194.1752081659227
 31
0.0
  0
LINE
  5
28D6
  8
AM_0
 10
291.00372322435311
 20
223.33927016592261
 30
0.0
 11
291.00372322435311
 21
349.53076016592257
 31
0.0
  0
LINE
  5
28D7
  8
AM_0
 10
154.86186922435331
 20
253.10544216592251
 30
0.0
 11
154.86186922435331
 21
317.29188616592262
 31
0.0
  0
LINE
  5
28D8
  8
AM_0
 10
180.43327222435329
 20
252.6590911659226
 30
0.0
 11
180.43327222435329
 21
317.73823616592261
 31
0.0
  0
LINE
  5
28D9
  8
AM_0
 10
232.50372322435311
 20
216.64021316592249
 30
0.0
 11
232.50372322435311
 21
353.75711516592253
 31
0.0
  0
LINE
  5
28DA
  8
AM_0
 10
149.50372322435311
 20
255.93071516592249
 30
0.0
 11
149.50372322435311
 21
314.46661316592252
 31
0.0
  0
LINE
  5
28DB
  8
AM_0
 10
147.50372322435311
 20
261.19866416592248
 30
0.0
 11
147.50372322435311
 21
309.19866416592248
 31
0.0
  0
LINE
  5
28DC
  8
AM_0
 10
117.50372322435319
 20
275.69866416592248
 30
0.0
 11
117.50372322435319
 21
294.69866416592248
 31
0.0
  0
LINE
  5
28DD
  8
AM_0
 10
145.503723224353
 20
275.19866416592248
 30
0.0
 11
145.503723224353
 21
295.19866416592248
 31
0.0
  0
LINE
  5
28DE
  8
AM_0
 10
155.63760422435311
 20
251.09159716592251
 30
0.0
 11
177.3764312243531
 21
250.7121441659225
 31
0.0
  0
LINE
  5
28DF
  8
AM_0
 10
117.50372322435319
 20
275.69866416592248
 30
0.0
 11
145.503723224353
 21
275.69866416592248
 31
0.0
  0
ARC
  5
28E0
  8
AM_0
 10
152.50372322435311
 20
255.93071516592249
 30
0.0
 40
3.0
 50
180.0
 51
239.99999999999949
  0
LINE
  5
28E1
  8
AM_0
 10
151.00372322435311
 20
253.3326381659225
 30
0.0
 11
154.18996122435311
 21
251.49306316592251
 31
0.0
  0
ARC
  5
28E2
  8
AM_0
 10
155.68996122435311
 20
254.0911401659225
 30
0.0
 40
3.0
 50
239.99999999999949
 51
269.00000000000148
  0
LINE
  5
28E3
  8
AM_0
 10
147.50372322435311
 20
261.19866416592248
 30
0.0
 11
149.50372322435311
 21
259.19866416592248
 31
0.0
  0
LINE
  5
28E4
  8
AM_0
 10
145.503723224353
 20
275.19866416592248
 30
0.0
 11
147.50372322435311
 21
275.19866416592248
 31
0.0
  0
LINE
  5
28E5
  8
AM_0
 10
291.00372322435311
 20
175.1986451659225
 30
0.0
 11
376.0036832243531
 21
175.1986451659225
 31
0.0
  0
LINE
  5
28E6
  8
AM_0
 10
289.89360322435323
 20
193.9795451659227
 30
0.0
 11
304.81341322435321
 21
240.6039371659227
 31
0.0
  0
LINE
  5
28E7
  8
AM_0
 10
291.00372322435311
 20
221.33927216592261
 30
0.0
 11
298.6487432243531
 21
221.33927216592261
 31
0.0
  0
LINE
  5
28E8
  8
ｶｸﾚｾﾝ2
 10
278.50371322435319
 20
191.1986441659227
 30
0.0
 11
278.50371322435319
 21
173.1986441659225
 31
0.0
  0
LINE
  5
28E9
  8
ｶｸﾚｾﾝ2
 10
263.50371322435291
 20
191.1986441659227
 30
0.0
 11
263.50371322435291
 21
173.1986441659225
 31
0.0
  0
LINE
  5
28EA
  8
ﾁｭｳｼﾝｾﾝ1
 10
271.00371322435308
 20
169.86734516592259
 30
0.0
 11
271.00371322435308
 21
195.44797316592249
 31
0.0
  0
ARC
  5
28EB
  8
AM_0
 10
255.00372322435311
 20
189.19866116592269
 30
0.0
 40
2.00000007
 50
90.000003000000007
 51
180.00001
  0
ARC
  5
28EC
  8
AM_0
 10
282.00372322435322
 20
194.1752081659227
 30
0.0
 40
3.0
 50
179.99998999999991
 51
268.00000999999992
  0
ARC
  5
28ED
  8
AM_0
 10
286.08390322435321
 20
195.19866116592249
 30
0.0
 40
4.000000199999997
 50
270.0
 51
342.2553299999999
  0
LINE
  5
28EE
  8
AM_0
 10
253.00371322435311
 20
173.1986441659225
 30
0.0
 11
289.00371322435319
 21
173.1986441659225
 31
0.0
  0
LINE
  5
28EF
  8
AM_0
 10
253.00371322435311
 20
173.1986441659225
 30
0.0
 11
253.00371322435311
 21
189.19866116592269
 31
0.0
  0
ARC
  5
28F0
  8
AM_0
 10
291.00372322435311
 20
173.1986441659225
 30
0.0
 40
2.00000007
 50
90.000003000000007
 51
180.00001
  0
LINE
  5
28F1
  8
AM_0
 10
231.69165222435311
 20
214.76728216592261
 30
0.0
 11
182.9376712243531
 21
248.9051871659226
 31
0.0
  0
ARC
  5
28F2
  8
AM_0
 10
177.20190722435331
 20
240.71366716592249
 30
0.0
 40
10.0
 50
55.000000000002622
 51
89.000000000001506
  0
LINE
  5
28F3
  8
AM_0
 10
242.50372322435311
 20
223.68943916592249
 30
0.0
 11
242.50372322435311
 21
243.72398816592261
 31
0.0
  0
LINE
  5
28F4
  8
AM_0
 10
244.50372322435311
 20
211.6986461659227
 30
0.0
 11
276.5735432243531
 21
210.5787431659225
 31
0.0
  0
LINE
  5
28F5
  8
AM_0
 10
244.50372322435311
 20
223.62001916592271
 30
0.0
 11
279.00372322435311
 21
223.62001916592271
 31
0.0
  0
LINE
  5
28F6
  8
AM_0
 10
255.00372322435311
 20
191.1986441659227
 30
0.0
 11
286.08390322435321
 21
191.1986441659227
 31
0.0
  0
ARC
  5
28F7
  8
AM_0
 10
234.50372322435311
 20
213.69866416592251
 30
0.0
 40
2.0
 50
188.187984
 51
270.0
  0
LINE
  5
28F8
  8
AM_0
 10
234.50372322435311
 20
211.69866416592251
 30
0.0
 11
244.50372322435311
 21
211.69866416592251
 31
0.0
  0
ARC
  5
28F9
  8
AM_0
 10
234.50372322435311
 20
223.68943916592249
 30
0.0
 40
2.0
 50
180.0
 51
270.0
  0
ARC
  5
28FA
  8
AM_0
 10
240.50372322435311
 20
223.68943916592249
 30
0.0
 40
2.0
 50
270.0
 51
0.0
  0
LINE
  5
28FB
  8
AM_0
 10
234.50372322435311
 20
221.68943916592249
 30
0.0
 11
240.50372322435311
 21
221.68943916592249
 31
0.0
  0
ARC
  5
28FC
  8
AM_0
 10
230.5444992243533
 20
213.1289781659226
 30
0.0
 40
2.0
 50
8.1879840000002062
 51
55.000000000002622
  0
ARC
  5
28FD
  8
AM_0
 10
276.00372322435311
 20
207.5968241659225
 30
0.0
 40
3.0
 50
0.0
 51
88.0
  0
LINE
  5
28FE
  8
AM_0
 10
291.00372322435311
 20
197.44866116592269
 30
0.0
 11
291.00372322435311
 21
202.78087616592271
 31
0.0
  0
LINE
  5
28FF
  8
AM_0
 10
281.00370322435322
 20
204.78087416592271
 30
0.0
 11
289.00371322435319
 21
204.78087416592271
 31
0.0
  0
ARC
  5
2900
  8
AM_0
 10
281.00370322435322
 20
206.7808601659226
 30
0.0
 40
2.00000007
 50
179.99998999999991
 51
270.0
  0
ARC
  5
2901
  8
AM_0
 10
289.00371322435319
 20
202.78087616592271
 30
0.0
 40
2.00000007
 50
0.0
 51
90.000003000000007
  0
ARC
  5
2902
  8
AM_0
 10
289.00371322435319
 20
223.33927016592261
 30
0.0
 40
2.00000007
 50
270.0
 51
0.0
  0
LINE
  5
2903
  8
AM_0
 10
281.00370322435322
 20
225.4559711659227
 30
0.0
 11
289.00371322435319
 21
225.4559711659227
 31
0.0
  0
ARC
  5
2904
  8
AM_0
 10
281.00370322435322
 20
227.45598716592269
 30
0.0
 40
2.00000007
 50
179.99998999999991
 51
270.0
  0
ARC
  5
2905
  8
AM_0
 10
289.00371322435319
 20
227.45598716592269
 30
0.0
 40
2.00000007
 50
270.0
 51
0.0
  0
LINE
  5
2906
  8
AM_0
 10
244.50372322435311
 20
245.72397716592249
 30
0.0
 11
279.00372322435311
 21
245.72397716592249
 31
0.0
  0
ARC
  5
2907
  8
AM_0
 10
244.50372322435311
 20
243.72398816592261
 30
0.0
 40
2.0
 50
120.0000000000005
 51
180.0
  0
LINE
  5
2908
  8
AM_0
 10
234.50372322435311
 20
245.72398816592261
 30
0.0
 11
242.50372322435311
 21
245.72398816592261
 31
0.0
  0
LINE
  5
2909
  8
ｶｸﾚｾﾝ2
 10
403.50372322435311
 20
191.1986441659227
 30
0.0
 11
403.50372322435311
 21
173.1986441659225
 31
0.0
  0
LINE
  5
290A
  8
ｶｸﾚｾﾝ2
 10
388.50372322435328
 20
191.1986441659227
 30
0.0
 11
388.50372322435328
 21
173.1986441659225
 31
0.0
  0
LINE
  5
290B
  8
ｶｸﾚｾﾝ2
 10
388.50372322435328
 20
191.1986441659227
 30
0.0
 11
388.50372322435328
 21
173.1986441659225
 31
0.0
  0
LINE
  5
290C
  8
ﾁｭｳｼﾝｾﾝ1
 10
396.00372322435339
 20
169.86734516592259
 30
0.0
 11
396.00372322435339
 21
195.44797316592249
 31
0.0
  0
ARC
  5
290D
  8
AM_0
 10
381.00372322435311
 20
206.19866216592271
 30
0.0
 40
15.00000029999998
 50
179.99998999999991
 51
270.0
  0
ARC
  5
290E
  8
AM_0
 10
415.0036832243531
 20
198.7380431659227
 30
0.0
 40
8.0000000999999976
 50
179.99998999999991
 51
252.54239000000001
  0
ARC
  5
290F
  8
AM_0
 10
412.00368322435298
 20
189.19866116592269
 30
0.0
 40
2.00000007
 50
0.0
 51
90.000003000000007
  0
LINE
  5
2910
  8
AM_0
 10
378.00372322435311
 20
173.1986441659225
 30
0.0
 11
414.00372322435328
 21
173.1986441659225
 31
0.0
  0
ARC
  5
2911
  8
AM_0
 10
376.0036832243531
 20
173.1986441659225
 30
0.0
 40
2.00000007
 50
0.0
 51
90.000003000000007
  0
LINE
  5
2912
  8
AM_0
 10
378.00372322435311
 20
173.1986441659225
 30
0.0
 11
378.00372322435311
 21
173.1986441659225
 31
0.0
  0
LINE
  5
2913
  8
AM_0
 10
414.00372322435328
 20
173.1986441659225
 30
0.0
 11
414.00372322435328
 21
189.19866116592269
 31
0.0
  0
ARC
  5
2914
  8
AM_0
 10
301.00371322435319
 20
241.8230531659226
 30
0.0
 40
4.000000199999997
 50
342.2553299999999
 51
0.0
  0
LINE
  5
2915
  8
AM_0
 10
381.00372322435311
 20
191.1986441659227
 30
0.0
 11
412.00368322435298
 21
191.1986441659227
 31
0.0
  0
ARC
  5
2916
  8
AM_0
 10
378.00372322435311
 20
213.65638016592271
 30
0.0
 40
8.0000000999999976
 50
270.0
 51
0.0
  0
LINE
  5
2917
  8
AM_0
 10
371.07870322435321
 20
205.65639416592251
 30
0.0
 11
378.00372322435311
 21
205.65639416592251
 31
0.0
  0
LINE
  5
2918
  8
AM_0
 10
177.3764312243531
 20
319.68518416592252
 30
0.0
 11
155.63760422435311
 21
319.30573116592262
 31
0.0
  0
LINE
  5
2919
  8
ﾁｭｳｼﾝｾﾝ
 10
110.5967171409693
 20
285.19866416592248
 30
0.0
 11
273.35074277679502
 21
285.19866416592248
 31
0.0
  0
LINE
  5
291A
  8
AM_0
 10
117.50372322435319
 20
297.19866416592248
 30
0.0
 11
139.50372322435319
 21
297.19866416592248
 31
0.0
  0
LINE
  5
291B
  8
AM_0
 10
117.50372322435319
 20
294.69866416592248
 30
0.0
 11
145.503723224353
 21
294.69866416592248
 31
0.0
  0
LINE
  5
291C
  8
AM_0
 10
117.50372322435319
 20
294.69866416592248
 30
0.0
 11
117.50372322435319
 21
297.19866416592248
 31
0.0
  0
LINE
  5
291D
  8
AM_0
 10
139.50372322435319
 20
294.69866416592248
 30
0.0
 11
139.50372322435319
 21
297.19866416592248
 31
0.0
  0
LINE
  5
291E
  8
AM_0
 10
145.503723224353
 20
295.19866416592248
 30
0.0
 11
147.50372322435311
 21
295.19866416592248
 31
0.0
  0
LINE
  5
291F
  8
AM_0
 10
149.50372322435311
 20
311.19866416592248
 30
0.0
 11
147.50372322435311
 21
309.19866416592248
 31
0.0
  0
LINE
  5
2920
  8
AM_0
 10
154.18996122435311
 20
318.90426416592248
 30
0.0
 11
151.00372322435311
 21
317.06468916592252
 31
0.0
  0
ARC
  5
2921
  8
AM_0
 10
152.50372322435311
 20
314.46661316592252
 30
0.0
 40
3.0
 50
120.0000000000005
 51
180.0
  0
ARC
  5
2922
  8
AM_0
 10
155.68996122435311
 20
316.30618816592249
 30
0.0
 40
3.0
 50
90.999999999998451
 51
120.0000000000005
  0
LINE
  5
2923
  8
AM_0
 10
280.6249232243531
 20
363.33394016592263
 30
0.0
 11
301.00371322435319
 21
363.33394016592263
 31
0.0
  0
LINE
  5
2924
  8
AM_0
 10
292.9338932243532
 20
384.41683016592248
 30
0.0
 11
301.00371322435319
 21
384.69868016592272
 31
0.0
  0
LINE
  5
2925
  8
AM_0
 10
231.69165222435311
 20
355.6300451659227
 30
0.0
 11
182.9376712243531
 21
321.49214016592248
 31
0.0
  0
ARC
  5
2926
  8
AM_0
 10
177.20190722435331
 20
329.68366116592262
 30
0.0
 40
10.0
 50
270.99999999999841
 51
304.99999999999739
  0
LINE
  5
2927
  8
AM_0
 10
244.50372322435311
 20
346.77730016592278
 30
0.0
 11
279.00372322435311
 21
346.77730016592278
 31
0.0
  0
LINE
  5
2928
  8
AM_0
 10
244.50372322435311
 20
324.67333016592272
 30
0.0
 11
279.00372322435311
 21
324.67333016592272
 31
0.0
  0
LINE
  5
2929
  8
AM_0
 10
244.50372322435311
 20
358.69864016592271
 30
0.0
 11
276.10839322435311
 21
359.80231016592262
 31
0.0
  0
LINE
  5
292A
  8
AM_0
 10
242.50372322435311
 20
346.70788916592261
 30
0.0
 11
242.50372322435311
 21
326.6733391659227
 31
0.0
  0
ARC
  5
292B
  8
AM_0
 10
244.50372322435311
 20
326.6733391659227
 30
0.0
 40
2.0
 50
180.0
 51
239.99999999999949
  0
LINE
  5
292C
  8
AM_0
 10
234.50372322435311
 20
324.6733391659227
 30
0.0
 11
242.50372322435311
 21
324.6733391659227
 31
0.0
  0
LINE
  5
292D
  8
AM_0
 10
234.50372322435311
 20
358.69866416592248
 30
0.0
 11
244.50372322435311
 21
358.69866416592248
 31
0.0
  0
LINE
  5
292E
  8
AM_0
 10
234.50372322435311
 20
348.70788916592261
 30
0.0
 11
240.50372322435311
 21
348.70788916592261
 31
0.0
  0
ARC
  5
292F
  8
AM_0
 10
234.50372322435311
 20
346.70788916592261
 30
0.0
 40
2.0
 50
90.0
 51
180.0
  0
ARC
  5
2930
  8
AM_0
 10
240.50372322435311
 20
346.70788916592261
 30
0.0
 40
2.0
 50
0.0
 51
90.0
  0
ARC
  5
2931
  8
AM_0
 10
234.50372322435311
 20
356.69866416592248
 30
0.0
 40
2.0
 50
90.0
 51
171.8120159999998
  0
ARC
  5
2932
  8
AM_0
 10
230.5444992243533
 20
357.2683491659227
 30
0.0
 40
2.0
 50
304.99999999999739
 51
351.81201599999991
  0
ARC
  5
2933
  8
AM_0
 10
276.00372322435311
 20
362.80051016592239
 30
0.0
 40
3.0
 50
272.0
 51
0.0
  0
ARC
  5
2934
  8
AM_0
 10
281.00370322435322
 20
353.53072016592262
 30
0.0
 40
2.00000007
 50
179.99998999999991
 51
270.0
  0
LINE
  5
2935
  8
AM_0
 10
280.48221322435307
 20
342.5813201659227
 30
0.0
 11
289.43280322435322
 21
342.5813201659227
 31
0.0
  0
LINE
  5
2936
  8
AM_0
 10
281.00370322435322
 20
351.53074016592262
 30
0.0
 11
289.00371322435319
 21
351.53074016592262
 31
0.0
  0
ARC
  5
2937
  8
AM_0
 10
289.00371322435319
 20
349.53076016592257
 30
0.0
 40
2.00000007
 50
0.0
 51
90.000003000000007
  0
LINE
  5
2938
  8
AM_0
 10
291.00372322435311
 20
370.50130016592271
 30
0.0
 11
291.00372322435311
 21
382.41805016592258
 31
0.0
  0
LINE
  5
2939
  8
AM_0
 10
281.00370322435322
 20
368.50132016592272
 30
0.0
 11
289.00371322435319
 21
368.50132016592272
 31
0.0
  0
ARC
  5
293A
  8
AM_0
 10
281.00370322435322
 20
366.50131016592258
 30
0.0
 40
2.00000007
 50
90.000003000000007
 51
180.00001
  0
ARC
  5
293B
  8
AM_0
 10
289.00371322435319
 20
370.50130016592271
 30
0.0
 40
2.00000007
 50
270.0
 51
0.0
  0
LINE
  5
293C
  8
AM_0
 10
281.89896322435322
 20
379.2208601659226
 30
0.0
 11
289.07346322435302
 21
379.4713601659227
 31
0.0
  0
ARC
  5
293D
  8
AM_0
 10
282.00372322435322
 20
376.22272016592262
 30
0.0
 40
3.0
 50
91.999997999999962
 51
180.00001
  0
ARC
  5
293E
  8
AM_0
 10
293.00370322435322
 20
382.41805016592258
 30
0.0
 40
2.00000007
 50
91.999997999999962
 51
180.00001
  0
ARC
  5
293F
  8
AM_0
 10
289.00371322435319
 20
381.47020016592262
 30
0.0
 40
2.00000007
 50
272.0
 51
0.0
  0
POLYLINE
  5
2940
  8
AM_0
 66
     1
 10
0.0
 20
0.0
 30
0.0
  0
VERTEX
  5
2941
  8
AM_0
  6
CONTINUOUS
 10
328.7729132243532
 20
340.67098016592257
 30
0.0
 42
0.038759412
  0
VERTEX
  5
2942
  8
AM_0
  6
CONTINUOUS
 10
331.52073322435302
 20
343.58182016592258
 30
0.0
 42
0.04530642
  0
VERTEX
  5
2943
  8
AM_0
  6
CONTINUOUS
 10
333.74292322435321
 20
346.90954016592252
 30
0.0
 42
0.052171517
  0
VERTEX
  5
2944
  8
AM_0
  6
CONTINUOUS
 10
335.27961322435328
 20
350.60734016592261
 30
0.0
 42
0.057266797
  0
VERTEX
  5
2945
  8
AM_0
  6
CONTINUOUS
 10
335.97387322435321
 20
354.54610016592272
 30
0.0
 42
0.058402473
  0
VERTEX
  5
2946
  8
AM_0
  6
CONTINUOUS
 10
335.74311322435312
 20
358.53430016592262
 30
0.0
 42
0.055045428
  0
VERTEX
  5
2947
  8
AM_0
  6
CONTINUOUS
 10
334.61760322435322
 20
362.36947016592262
 30
0.0
 42
0.048778207
  0
VERTEX
  5
2948
  8
AM_0
  6
CONTINUOUS
 10
332.72472322435323
 20
365.89000016592269
 30
0.0
 42
0.041944178
  0
VERTEX
  5
2949
  8
AM_0
  6
CONTINUOUS
 10
330.22722322435322
 20
369.01303016592271
 30
0.0
 42
0.035908203
  0
VERTEX
  5
294A
  8
AM_0
  6
CONTINUOUS
 10
327.27462322435321
 20
371.71381016592272
 30
0.0
 42
0.031063143
  0
VERTEX
  5
294B
  8
AM_0
  6
CONTINUOUS
 10
323.98794322435322
 20
373.9977701659227
 30
0.0
 42
0.027381807
  0
VERTEX
  5
294C
  8
AM_0
  6
CONTINUOUS
 10
320.45601322435323
 20
375.8848601659227
 30
0.0
 42
0.024647351
  0
VERTEX
  5
294D
  8
AM_0
  6
CONTINUOUS
 10
316.74699322435322
 20
377.39599016592251
 30
0.0
 42
0.022677519
  0
VERTEX
  5
294E
  8
AM_0
  6
CONTINUOUS
 10
312.91161322435312
 20
378.55066016592258
 30
0.0
 42
0.021321472
  0
VERTEX
  5
294F
  8
AM_0
  6
CONTINUOUS
 10
308.98920322435322
 20
379.36450016592278
 30
0.0
 42
0.020471059
  0
VERTEX
  5
2950
  8
AM_0
  6
CONTINUOUS
 10
305.01231322435302
 20
379.84855016592252
 30
0.0
 42
0.020088491
  0
VERTEX
  5
2951
  8
AM_0
  6
CONTINUOUS
 10
301.00368322435321
 20
380.00947016592272
 30
0.0
  0
SEQEND
  5
2952
  8
AM_0
  0
ARC
  5
2953
  8
AM_0
 10
394.0036832243531
 20
369.19867016592258
 30
0.0
 40
8.0000000999999976
 50
179.99998999999991
 51
270.0
  0
LINE
  5
2954
  8
AM_0
 10
301.00371322435319
 20
315.38396816592262
 30
0.0
 11
328.7723732243532
 21
340.67044016592263
 31
0.0
  0
LINE
  5
2955
  8
AM_0
 10
301.00371322435319
 20
299.84639816592272
 30
0.0
 11
305.0037032243531
 21
299.84639816592272
 31
0.0
  0
LINE
  5
2956
  8
AM_0
 10
301.00371322435319
 20
315.38396816592262
 30
0.0
 11
301.0053032243531
 21
315.38396816592262
 31
0.0
  0
POLYLINE
  5
2957
  8
AM_0
 66
     1
 10
0.0
 20
0.0
 30
0.0
  0
VERTEX
  5
2958
  8
AM_0
  6
CONTINUOUS
 10
334.46037322435308
 20
357.84004016592269
 30
0.0
 42
0.046333928
  0
VERTEX
  5
2959
  8
AM_0
  6
CONTINUOUS
 10
332.60856322435319
 20
358.8976901659226
 30
0.0
 42
0.024113287
  0
VERTEX
  5
295A
  8
AM_0
  6
CONTINUOUS
 10
330.62907322435319
 20
359.69755016592262
 30
0.0
 42
0.015482173
  0
VERTEX
  5
295B
  8
AM_0
  6
CONTINUOUS
 10
328.59213322435312
 20
360.3422201659227
 30
0.0
 42
0.01117072
  0
VERTEX
  5
295C
  8
AM_0
  6
CONTINUOUS
 10
326.52441322435322
 20
360.87871016592271
 30
0.0
 42
0.0086851636
  0
VERTEX
  5
295D
  8
AM_0
  6
CONTINUOUS
 10
324.43683322435322
 20
361.33336016592278
 30
0.0
 42
0.0071112813
  0
VERTEX
  5
295E
  8
AM_0
  6
CONTINUOUS
 10
322.33515322435312
 20
361.72240016592258
 30
0.0
 42
0.0060487741
  0
VERTEX
  5
295F
  8
AM_0
  6
CONTINUOUS
 10
320.2224332243531
 20
362.05642016592259
 30
0.0
 42
0.0052886701
  0
VERTEX
  5
2960
  8
AM_0
  6
CONTINUOUS
 10
318.10506322435322
 20
362.34226016592271
 30
0.0
 42
0.0047450804
  0
VERTEX
  5
2961
  8
AM_0
  6
CONTINUOUS
 10
315.9799532243531
 20
362.58592016592257
 30
0.0
 42
0.004337472
  0
VERTEX
  5
2962
  8
AM_0
  6
CONTINUOUS
 10
313.8502532243532
 20
362.79106016592272
 30
0.0
 42
0.0040309329
  0
VERTEX
  5
2963
  8
AM_0
  6
CONTINUOUS
 10
311.7174632243532
 20
362.96056016592257
 30
0.0
 42
0.0038017188
  0
VERTEX
  5
2964
  8
AM_0
  6
CONTINUOUS
 10
309.58224322435319
 20
363.0967001659227
 30
0.0
 42
0.0036333127
  0
VERTEX
  5
2965
  8
AM_0
  6
CONTINUOUS
 10
307.44516322435322
 20
363.20107016592272
 30
0.0
 42
0.0035147917
  0
VERTEX
  5
2966
  8
AM_0
  6
CONTINUOUS
 10
305.30676322435312
 20
363.27493016592251
 30
0.0
 42
0.0034390753
  0
VERTEX
  5
2967
  8
AM_0
  6
CONTINUOUS
 10
303.1675232243532
 20
363.31906016592279
 30
0.0
 42
0.0034021186
  0
VERTEX
  5
2968
  8
AM_0
  6
CONTINUOUS
 10
301.02783322435312
 20
363.33394016592263
 30
0.0
  0
SEQEND
  5
2969
  8
AM_0
  0
LINE
  5
296A
  8
AM_0
 10
418.00368322435332
 20
295.69866416592248
 30
0.0
 11
418.00368322435332
 21
330.69862016592248
 31
0.0
  0
LINE
  5
296B
  8
AM_0
 10
414.00372322435328
 20
313.19863316592262
 30
0.0
 11
414.00372322435328
 21
340.46659016592253
 31
0.0
  0
LINE
  5
296C
  8
AM_0
 10
414.00372322435328
 20
285.93071816592271
 30
0.0
 11
414.00372322435328
 21
313.19863316592262
 31
0.0
  0
LINE
  5
296D
  8
AM_0
 10
408.50367322435318
 20
281.02324916592272
 30
0.0
 11
412.50369322435301
 21
283.33263716592268
 31
0.0
  0
ARC
  5
296E
  8
AM_0
 10
410.0037032243531
 20
278.42513516592271
 30
0.0
 40
3.0
 50
119.9999999999999
 51
180.00001
  0
ARC
  5
296F
  8
AM_0
 10
411.00372322435328
 20
285.93071816592271
 30
0.0
 40
3.0
 50
300.0
 51
0.0
  0
LINE
  5
2970
  8
AM_0
 10
418.00368322435332
 20
295.69866416592248
 30
0.0
 11
414.00372322435328
 21
295.69866416592248
 31
0.0
  0
LINE
  5
2971
  8
AM_0
 10
374.0037032243531
 20
352.6413401659226
 30
0.0
 11
382.40319322435312
 21
352.6413401659226
 31
0.0
  0
ARC
  5
2972
  8
AM_0
 10
374.0037032243531
 20
344.64139016592247
 30
0.0
 40
8.0000000999999976
 50
90.000003000000007
 51
180.00001
  0
ARC
  5
2973
  8
AM_0
 10
411.00372322435328
 20
340.46659016592253
 30
0.0
 40
3.0
 50
0.0
 51
60.000002000000002
  0
LINE
  5
2974
  8
AM_0
 10
418.00368322435332
 20
330.69862016592248
 30
0.0
 11
414.00372322435328
 21
330.69862016592248
 31
0.0
  0
LINE
  5
2975
  8
AM_0
 10
408.5037332243532
 20
345.37408016592252
 30
0.0
 11
412.503723224353
 21
343.06468016592271
 31
0.0
  0
ARC
  5
2976
  8
AM_0
 10
410.0037032243531
 20
347.97217016592271
 30
0.0
 40
3.0
 50
179.99998999999991
 51
240.00001
  0
LINE
  5
2977
  8
AM_0
 10
394.0036832243531
 20
361.19866016592272
 30
0.0
 11
403.00368322435298
 21
361.19866016592272
 31
0.0
  0
ARC
  5
2978
  8
AM_0
 10
403.00368322435298
 20
357.19867016592269
 30
0.0
 40
4.000000199999997
 50
0.0
 51
90.000003000000007
  0
LINE
  5
2979
  8
AM_0
 10
301.00371322435319
 20
384.6986501659228
 30
0.0
 11
378.2130932243532
 21
382.67686016592251
 31
0.0
  0
ARC
  5
297A
  8
AM_0
 10
378.00372322435311
 20
374.67958016592257
 30
0.0
 40
8.0000000999999976
 50
0.0
 51
88.499996999999965
  0
LINE
  5
297B
  8
ﾁｭｳｼﾝｾﾝ
 10
650.60593522435295
 20
166.46013728440741
 30
0.0
 11
650.60594422435315
 21
389.5047826592189
 31
0.0
  0
LINE
  5
297C
  8
AM_0
 10
585.60592822435297
 20
296.19863216592262
 30
0.0
 11
585.60592822435297
 21
206.19866216592271
 31
0.0
  0
LINE
  5
297D
  8
AM_0
 10
715.60593922435305
 20
296.19863216592262
 30
0.0
 11
715.60593922435305
 21
206.19866216592271
 31
0.0
  0
LINE
  5
297E
  8
AM_0
 10
727.60593922435305
 20
345.29233016592269
 30
0.0
 11
727.60593922435305
 21
246.93590516592249
 31
0.0
  0
LINE
  5
297F
  8
AM_0
 10
573.60594322435315
 20
345.29233016592269
 30
0.0
 11
573.60594322435315
 21
246.93590516592249
 31
0.0
  0
LINE
  5
2980
  8
AM_0
 10
765.57325822435314
 20
188.64028016592249
 30
0.0
 11
749.0218562243532
 21
299.8464311659227
 31
0.0
  0
LINE
  5
2981
  8
AM_0
 10
535.63863322435293
 20
188.64028016592249
 30
0.0
 11
552.19001722435314
 21
299.8464311659227
 31
0.0
  0
ARC
  5
2982
  8
AM_0
 10
650.60594422435315
 20
296.19863216592262
 30
0.0
 40
65.000000999999997
 50
0.0
 51
180.00001
  0
LINE
  5
2983
  8
AM_0
 10
587.6059292243533
 20
175.1986451659225
 30
0.0
 11
713.60594122435316
 21
175.1986451659225
 31
0.0
  0
LINE
  5
2984
  8
AM_0
 10
535.60593322435295
 20
173.1986441659225
 30
0.0
 11
585.60592822435297
 21
173.1986441659225
 31
0.0
  0
LINE
  5
2985
  8
AM_0
 10
581.60594422435315
 20
191.1986441659227
 30
0.0
 11
538.60593322435295
 21
191.1986441659227
 31
0.0
  0
LINE
  5
2986
  8
ｶｸﾚｾﾝ2
 10
548.10594322435315
 20
191.1986441659227
 30
0.0
 11
548.10594322435315
 21
173.1986441659225
 31
0.0
  0
LINE
  5
2987
  8
ﾁｭｳｼﾝｾﾝ1
 10
555.60594322435315
 20
195.44797316592249
 30
0.0
 11
555.60594322435315
 21
169.86734516592259
 31
0.0
  0
ARC
  5
2988
  8
AM_0
 10
538.60593322435295
 20
188.1986441659227
 30
0.0
 40
3.0
 50
90.000003000000007
 51
180.00001
  0
LINE
  5
2989
  8
AM_0
 10
535.60593322435295
 20
188.1986441659227
 30
0.0
 11
535.60593322435295
 21
173.1986441659225
 31
0.0
  0
LINE
  5
298A
  8
ｶｸﾚｾﾝ2
 10
563.10594322435327
 20
191.1986441659227
 30
0.0
 11
563.10594322435327
 21
173.1986441659225
 31
0.0
  0
ARC
  5
298B
  8
AM_0
 10
570.60594322435327
 20
206.19866216592271
 30
0.0
 40
15.00000029999998
 50
270.0
 51
0.0
  0
ARC
  5
298C
  8
AM_0
 10
581.60594422435315
 20
187.1986451659227
 30
0.0
 40
4.000000199999997
 50
0.0
 51
90.000003000000007
  0
LINE
  5
298D
  8
AM_0
 10
585.60592822435297
 20
187.1986451659227
 30
0.0
 11
585.60592822435297
 21
173.1986441659225
 31
0.0
  0
ARC
  5
298E
  8
AM_0
 10
587.6059292243533
 20
173.1986441659225
 30
0.0
 40
2.00000007
 50
90.000003000000007
 51
180.00001
  0
ARC
  5
298F
  8
AM_0
 10
650.60594422435315
 20
246.93590516592249
 30
0.0
 40
77.000000999999983
 50
179.99998999999991
 51
212.41838999999979
  0
LINE
  5
2990
  8
ｶｸﾚｾﾝ2
 10
738.10593922435305
 20
191.1986441659227
 30
0.0
 11
738.10593922435305
 21
173.1986441659225
 31
0.0
  0
LINE
  5
2991
  8
ｶｸﾚｾﾝ2
 10
753.10594222435304
 20
191.1986441659227
 30
0.0
 11
753.10594222435304
 21
173.1986441659225
 31
0.0
  0
LINE
  5
2992
  8
ﾁｭｳｼﾝｾﾝ1
 10
745.60593922435305
 20
195.44797316592249
 30
0.0
 11
745.60593922435305
 21
169.86734516592259
 31
0.0
  0
ARC
  5
2993
  8
AM_0
 10
730.60593922435316
 20
206.19866216592271
 30
0.0
 40
15.00000029999998
 50
179.99998999999991
 51
270.0
  0
ARC
  5
2994
  8
AM_0
 10
719.60594122435305
 20
187.1986451659227
 30
0.0
 40
4.000000199999997
 50
90.000003000000007
 51
180.00001
  0
ARC
  5
2995
  8
AM_0
 10
762.60594022435305
 20
188.1986441659227
 30
0.0
 40
3.0
 50
0.0
 51
90.000003000000007
  0
LINE
  5
2996
  8
AM_0
 10
715.60593922435305
 20
173.1986441659225
 30
0.0
 11
765.60594022435305
 21
173.1986441659225
 31
0.0
  0
LINE
  5
2997
  8
AM_0
 10
715.60593922435305
 20
187.1986451659227
 30
0.0
 11
715.60593922435305
 21
173.1986441659225
 31
0.0
  0
ARC
  5
2998
  8
AM_0
 10
713.60594122435316
 20
173.1986441659225
 30
0.0
 40
2.00000007
 50
0.0
 51
90.000003000000007
  0
LINE
  5
2999
  8
AM_0
 10
765.60594022435305
 20
188.1986441659227
 30
0.0
 11
765.60594022435305
 21
173.1986441659225
 31
0.0
  0
LINE
  5
299A
  8
AM_0
 10
719.60594122435305
 20
191.1986441659227
 30
0.0
 11
762.60594022435305
 21
191.1986441659227
 31
0.0
  0
ARC
  5
299B
  8
AM_0
 10
650.60594422435315
 20
246.93590516592249
 30
0.0
 40
77.000000999999983
 50
327.58159999999992
 51
0.0
  0
LINE
  5
299C
  8
ﾁｭｳｼﾝｾﾝ
 10
597.85527424057011
 20
313.19863316592262
 30
0.0
 11
705.24309001119673
 21
313.19863316592262
 31
0.0
  0
LINE
  5
299D
  8
AM_0
 10
722.12668522435297
 20
367.31461016592249
 30
0.0
 11
679.82886322435331
 21
380.31052016592258
 31
0.0
  0
LINE
  5
299E
  8
ﾁｭｳｼﾝｾﾝ
 10
564.24919222435324
 20
285.19866416592248
 30
0.0
 11
738.11598922435314
 21
285.19866416592248
 31
0.0
  0
ARC
  5
299F
  8
AM_0
 10
650.60594422435315
 20
285.19866416592248
 30
0.0
 40
99.500004000000004
 50
8.4654901000000002
 51
171.53450000000001
  0
LINE
  5
29A0
  8
AM_0
 10
568.89192322435326
 20
356.52064016592271
 30
0.0
 11
555.7950902243532
 21
315.38399816592249
 31
0.0
  0
LINE
  5
29A1
  8
AM_0
 10
476.0037032243531
 20
297.19866416592248
 30
0.0
 11
476.0037032243531
 21
332.19862016592248
 31
0.0
  0
LINE
  5
29A2
  8
AM_0
 10
476.0037032243531
 20
332.19862016592248
 30
0.0
 11
431.0037032243531
 21
332.19862016592248
 31
0.0
  0
LINE
  5
29A3
  8
AM_0
 10
431.0037032243531
 20
329.19862016592248
 30
0.0
 11
431.0037032243531
 21
332.19862016592248
 31
0.0
  0
ARC
  5
29A4
  8
AM_0
 10
584.13788122435324
 20
351.66667016592271
 30
0.0
 40
16.000000499999999
 50
107.0794599999999
 51
162.92053000000001
  0
CIRCLE
  5
29A5
  8
AM_0
 10
650.60594422435315
 20
313.19863316592262
 30
0.0
 40
29.000001000000001
  0
ARC
  5
29A6
  8
AM_0
 10
581.60594422435315
 20
345.29233016592269
 30
0.0
 40
8.0000000999999976
 50
138.94665000000001
 51
180.00001
  0
ARC
  5
29A7
  8
AM_0
 10
650.60594422435315
 20
313.19863316592262
 30
0.0
 40
16.000000499999999
 50
108.20996
 51
71.790052000000003
  0
CIRCLE
  5
29A8
  8
AM_5
 10
650.60594422435315
 20
313.19863316592262
 30
0.0
 40
4.000000199999997
  0
CIRCLE
  5
29A9
  8
AM_0
 10
650.60594422435315
 20
313.19863316592262
 30
0.0
 40
2.75000007
  0
LINE
  5
29AA
  8
AM_0
 10
655.60593022435296
 20
324.19867016592258
 30
0.0
 11
655.60593022435296
 21
332.19862016592248
 31
0.0
  0
LINE
  5
29AB
  8
AM_0
 10
645.6059312243533
 20
324.19867016592258
 30
0.0
 11
645.6059312243533
 21
332.19862016592248
 31
0.0
  0
LINE
  5
29AC
  8
AM_0
 10
645.6059312243533
 20
324.19867016592258
 30
0.0
 11
655.60593022435296
 21
324.19867016592258
 31
0.0
  0
LINE
  5
29AD
  8
AM_0
 10
645.6059312243533
 20
332.19862016592248
 30
0.0
 11
655.60593022435296
 21
332.19862016592248
 31
0.0
  0
LINE
  5
29AE
  8
AM_0
 10
579.28398322435305
 20
366.91270016592262
 30
0.0
 11
620.42061022435325
 21
380.0095301659224
 31
0.0
  0
ARC
  5
29AF
  8
AM_0
 10
717.42753322435306
 20
352.02025016592262
 30
0.0
 40
16.000000499999999
 50
17.079463000000001
 51
72.920534000000004
  0
LINE
  5
29B0
  8
AM_0
 10
732.72189922435314
 20
356.71942016592271
 30
0.0
 11
745.71782722435296
 21
314.42156516592269
 31
0.0
  0
ARC
  5
29B1
  8
AM_0
 10
719.60594122435305
 20
345.29233016592269
 30
0.0
 40
8.0000000999999976
 50
0.0
 51
41.053350999999999
  0
LINE
  5
29B2
  8
AM_0
 10
117.5037032243532
 20
584.81840499132875
 30
0.0
 11
139.5037032243533
 21
584.81840499132875
 31
0.0
  0
LINE
  5
29B3
  8
AM_0
 10
117.5037032243532
 20
590.81840499132875
 30
0.0
 11
139.5037032243533
 21
590.81840499132875
 31
0.0
  0
LINE
  5
29B4
  8
AM_0
 10
117.5037032243532
 20
597.31840499132875
 30
0.0
 11
145.5037032243533
 21
597.31840499132875
 31
0.0
  0
LINE
  5
29B5
  8
AM_0
 10
117.5037032243532
 20
578.31840499132875
 30
0.0
 11
145.5037032243533
 21
578.31840499132875
 31
0.0
  0
LINE
  5
29B6
  8
AM_0
 10
117.5037032243532
 20
578.31840499132875
 30
0.0
 11
117.5037032243532
 21
597.31840499132875
 31
0.0
  0
ARC
  5
29B7
  8
AM_0
 10
139.5037032243533
 20
587.81840499132875
 30
0.0
 40
3.0
 50
270.0
 51
90.0
  0
LINE
  5
29B8
  8
AM_0
 10
139.5037032243533
 20
584.81840499132875
 30
0.0
 11
139.5037032243533
 21
590.81840499132875
 31
0.0
  0
LINE
  5
29B9
  8
AM_0
 10
145.5037032243533
 20
577.81840499132886
 30
0.0
 11
145.5037032243533
 21
597.81840499132875
 31
0.0
  0
LINE
  5
29BA
  8
AM_0
 10
147.5037032243533
 20
563.81840499132875
 30
0.0
 11
147.5037032243533
 21
611.81840499132875
 31
0.0
  0
LINE
  5
29BB
  8
AM_0
 10
149.5037032243533
 20
558.55045599132882
 30
0.0
 11
149.5037032243533
 21
617.08635399132868
 31
0.0
  0
LINE
  5
29BC
  8
AM_0
 10
232.5037032243533
 20
519.25995399132864
 30
0.0
 11
232.5037032243533
 21
656.37685599132874
 31
0.0
  0
LINE
  5
29BD
  8
AM_0
 10
180.4332522243532
 20
555.27883199132884
 30
0.0
 11
180.4332522243532
 21
620.35797699132888
 31
0.0
  0
LINE
  5
29BE
  8
AM_0
 10
154.86184922435331
 20
555.72518299132889
 30
0.0
 11
154.86184922435331
 21
619.91162699132872
 31
0.0
  0
LINE
  5
29BF
  8
AM_0
 10
231.6916322243533
 20
517.38702299132888
 30
0.0
 11
182.93765122435309
 21
551.52492799132892
 31
0.0
  0
LINE
  5
29C0
  8
AM_0
 10
155.63758422435299
 20
553.71133799132883
 30
0.0
 11
177.37641122435329
 21
553.33188499132893
 31
0.0
  0
LINE
  5
29C1
  8
AM_0
 10
151.00370322435319
 20
555.95237899132894
 30
0.0
 11
154.18994122435319
 21
554.11280399132875
 31
0.0
  0
ARC
  5
29C2
  8
AM_0
 10
152.5037032243533
 20
558.55045599132882
 30
0.0
 40
3.0
 50
180.0
 51
239.99999999999949
  0
LINE
  5
29C3
  8
AM_0
 10
147.5037032243533
 20
563.81840499132875
 30
0.0
 11
149.5037032243533
 21
561.81840499132875
 31
0.0
  0
ARC
  5
29C4
  8
AM_0
 10
155.6899412243533
 20
556.71088099132885
 30
0.0
 40
3.0
 50
239.99999999999949
 51
269.00000000000148
  0
LINE
  5
29C5
  8
AM_0
 10
145.5037032243533
 20
577.81840499132886
 30
0.0
 11
147.5037032243533
 21
577.81840499132886
 31
0.0
  0
ARC
  5
29C6
  8
AM_0
 10
177.2018872243533
 20
543.33340799132884
 30
0.0
 40
10.0
 50
55.000000000002622
 51
89.000000000001506
  0
LINE
  5
29C7
  8
AM_0
 10
234.5037032243533
 20
514.31840499132875
 30
0.0
 11
244.50370322435319
 21
514.31840499132875
 31
0.0
  0
LINE
  5
29C8
  8
AM_0
 10
234.5037032243533
 20
524.30917999132885
 30
0.0
 11
240.5037032243533
 21
524.30917999132885
 31
0.0
  0
ARC
  5
29C9
  8
AM_0
 10
234.5037032243533
 20
526.30917999132885
 30
0.0
 40
2.0
 50
180.0
 51
270.0
  0
ARC
  5
29CA
  8
AM_0
 10
234.5037032243533
 20
516.31840499132875
 30
0.0
 40
2.0
 50
188.1879840000033
 51
270.0
  0
ARC
  5
29CB
  8
AM_0
 10
230.5444792243533
 20
515.74871899132893
 30
0.0
 40
2.0
 50
8.1879840000034303
 51
55.000000000002622
  0
ARC
  5
29CC
  8
AM_0
 10
240.5037032243533
 20
526.30917999132885
 30
0.0
 40
2.0
 50
270.0
 51
0.0
  0
LINE
  5
29CD
  8
AM_0
 10
234.5037032243533
 20
548.34372899132882
 30
0.0
 11
242.5037032243533
 21
548.34372899132882
 31
0.0
  0
LINE
  5
29CE
  8
AM_0
 10
231.6916322243533
 20
658.24978599132885
 30
0.0
 11
182.93765122435309
 21
624.11188099132858
 31
0.0
  0
LINE
  5
29CF
  8
AM_0
 10
177.37641122435329
 20
622.30492499132868
 30
0.0
 11
155.63758422435299
 21
621.92547199132889
 31
0.0
  0
LINE
  5
29D0
  8
AM_0
 10
149.5037032243533
 20
613.81840499132875
 30
0.0
 11
147.5037032243533
 21
611.81840499132875
 31
0.0
  0
LINE
  5
29D1
  8
AM_0
 10
145.5037032243533
 20
597.81840499132875
 30
0.0
 11
147.5037032243533
 21
597.81840499132875
 31
0.0
  0
LINE
  5
29D2
  8
AM_0
 10
154.18994122435319
 20
621.52400499132887
 30
0.0
 11
151.00370322435319
 21
619.6844299913289
 31
0.0
  0
ARC
  5
29D3
  8
AM_0
 10
152.5037032243533
 20
617.08635399132868
 30
0.0
 40
3.0
 50
120.0000000000005
 51
180.0
  0
ARC
  5
29D4
  8
AM_0
 10
155.6899412243533
 20
618.92592899132865
 30
0.0
 40
3.0
 50
90.999999999998494
 51
120.0000000000005
  0
ARC
  5
29D5
  8
AM_0
 10
177.2018872243533
 20
632.30340199132866
 30
0.0
 40
10.0
 50
270.99999999999841
 51
304.99999999999739
  0
LINE
  5
29D6
  8
AM_0
 10
234.5037032243533
 20
627.29307999132891
 30
0.0
 11
242.5037032243533
 21
627.29307999132891
 31
0.0
  0
LINE
  5
29D7
  8
AM_0
 10
234.5037032243533
 20
661.31840499132886
 30
0.0
 11
244.50370322435319
 21
661.31840499132886
 31
0.0
  0
LINE
  5
29D8
  8
AM_0
 10
234.5037032243533
 20
651.32762999132888
 30
0.0
 11
240.5037032243533
 21
651.32762999132888
 31
0.0
  0
ARC
  5
29D9
  8
AM_0
 10
234.5037032243533
 20
649.32762999132865
 30
0.0
 40
2.0
 50
90.0
 51
180.0
  0
ARC
  5
29DA
  8
AM_0
 10
234.5037032243533
 20
659.31840499132875
 30
0.0
 40
2.0
 50
90.0
 51
171.8120159999965
  0
ARC
  5
29DB
  8
AM_0
 10
230.5444792243533
 20
659.88808999132891
 30
0.0
 40
2.0
 50
304.99999999999739
 51
351.81201599999628
  0
ARC
  5
29DC
  8
AM_0
 10
240.5037032243533
 20
649.32762999132865
 30
0.0
 40
2.0
 50
0.0
 51
90.0
  0
ARC
  5
29DD
  8
AM_0
 10
244.50370322435319
 20
546.3437289913287
 30
0.0
 40
2.0
 50
120.0000000000005
 51
180.0
  0
LINE
  5
29DE
  8
AM_0
 10
242.5037032243533
 20
526.30917999132885
 30
0.0
 11
242.5037032243533
 21
546.3437289913287
 31
0.0
  0
LINE
  5
29DF
  8
AM_0
 10
242.5037032243533
 20
649.32762999132865
 30
0.0
 11
242.5037032243533
 21
629.29307999132891
 31
0.0
  0
ARC
  5
29E0
  8
AM_0
 10
244.50370322435319
 20
629.29307999132891
 30
0.0
 40
2.0
 50
180.0
 51
239.99999999999949
  0
LINE
  5
29E2
  8
AM_0
 10
431.00370322435299
 20
592.81840499132875
 30
0.0
 11
476.0037032243531
 21
592.81840499132875
 31
0.0
  0
LINE
  5
29E3
  8
AM_0
 10
431.00370322435299
 20
582.81840499132875
 30
0.0
 11
476.0037032243531
 21
582.81840499132875
 31
0.0
  0
LINE
  5
29E4
  8
AM_0
 10
476.0037032243531
 20
571.81840499132875
 30
0.0
 11
418.00373322435308
 21
571.81840499132875
 31
0.0
  0
LINE
  5
29E5
  8
AM_0
 10
476.0037032243531
 20
603.81840499132875
 30
0.0
 11
418.00373322435308
 21
603.81840499132875
 31
0.0
  0
LINE
  5
29E6
  8
ﾁｭｳｼﾝｾﾝ
 10
110.5967171409693
 20
587.81840499132875
 30
0.0
 11
483.91654322435318
 21
587.81840499132875
 31
0.0
  0
ARC
  5
29E7
  8
AM_0
 10
431.00370322435299
 20
587.81840499132875
 30
0.0
 40
4.9999924
 50
90.000003000000945
 51
270.0
  0
LINE
  5
29E8
  8
AM_0
 10
244.50370322435319
 20
514.31840499132875
 30
0.0
 11
244.50370322435319
 21
661.31840499132886
 31
0.0
  0
LINE
  5
29E9
  8
AM_0
 10
279.00370322435322
 20
496.89729499132881
 30
0.0
 11
279.00370322435322
 21
678.73954499132878
 31
0.0
  0
LINE
  5
29EA
  8
AM_0
 10
386.0037332243532
 20
518.61167499132875
 30
0.0
 11
386.0037332243532
 21
657.02512499132888
 31
0.0
  0
LINE
  5
29EB
  8
AM_0
 10
431.00373322435308
 20
582.81840499132875
 30
0.0
 11
431.00373322435308
 21
592.81840499132875
 31
0.0
  0
LINE
  5
29EC
  8
AM_0
 10
418.00373322435308
 20
570.31840499132875
 30
0.0
 11
418.00373322435308
 21
605.31840499132875
 31
0.0
  0
LINE
  5
29ED
  8
AM_0
 10
414.00370322435299
 20
560.55045499132882
 30
0.0
 11
414.00370322435299
 21
587.81840499132875
 31
0.0
  0
LINE
  5
29EE
  8
AM_0
 10
291.00370322435322
 20
522.74619499132882
 30
0.0
 11
291.00370322435322
 21
652.89060499132859
 31
0.0
  0
LINE
  5
29EF
  8
AM_0
 10
407.0037332243532
 20
526.71503499132882
 30
0.0
 11
407.0037332243532
 21
648.92179499132874
 31
0.0
  0
LINE
  5
29F0
  8
AM_0
 10
301.0037032243531
 20
488.3184049913288
 30
0.0
 11
301.0037032243531
 21
687.31840499132875
 31
0.0
  0
POLYLINE
  5
29F1
  8
AM_0
 66
     1
 10
0.0
 20
0.0
 30
0.0
  0
VERTEX
  5
29F2
  8
AM_0
 10
301.0037032243531
 20
510.40159499132858
 30
0.0
 42
0.040443759
  0
VERTEX
  5
29F3
  8
AM_0
 10
312.53188322435312
 20
510.62496499132891
 30
0.0
 42
0.042469384
  0
VERTEX
  5
29F4
  8
AM_0
 10
323.86557322435323
 20
512.73847499132876
 30
0.0
 42
0.022671411
  0
VERTEX
  5
29F5
  8
AM_0
 10
329.35006322435322
 20
514.52941499132885
 30
0.0
  0
VERTEX
  5
29F6
  8
AM_0
 10
334.65568322435308
 20
516.7982549913288
 30
0.0
 42
-1.0
  0
SEQEND
  5
29F7
  8
AM_0
  0
POLYLINE
  5
29F8
  8
AM_0
 66
     1
 10
0.0
 20
0.0
 30
0.0
  0
VERTEX
  5
29F9
  8
AM_0
 10
301.0037032243531
 20
557.54197499132874
 30
0.0
 42
-0.07005559
  0
VERTEX
  5
29FA
  8
AM_0
 10
327.36436322435321
 20
537.3446349913288
 30
0.0
 42
-0.27110578
  0
VERTEX
  5
29FB
  8
AM_0
 10
336.00370322435322
 20
517.46128499132885
 30
0.0
 42
-0.21303172
  0
VERTEX
  5
29FC
  8
AM_0
 10
316.41326322435322
 20
499.32647499132878
 30
0.0
  0
VERTEX
  5
29FD
  8
AM_0
 10
301.0037032243531
 20
493.02821499132881
 30
0.0
 42
-1.0
  0
SEQEND
  5
29FE
  8
AM_0
  0
LINE
  5
29FF
  8
AM_0
 10
307.0037032243531
 20
472.8184049913288
 30
0.0
 11
410.14329322435327
 21
476.42011499132877
 31
0.0
  0
ARC
  5
2A00
  8
AM_0
 10
294.00370322435322
 20
491.56467499132862
 30
0.0
 40
3.0
 50
180.00001000000091
 51
267.99999999999932
  0
CIRCLE
  5
2A01
  8
AM_0
 10
271.00370322435322
 20
492.8184049913288
 30
0.0
 40
7.5
  0
LINE
  5
2A02
  8
AM_0
 10
253.0037032243533
 20
505.27982499132889
 30
0.0
 11
253.0037032243533
 21
481.20811499132878
 31
0.0
  0
LINE
  5
2A03
  8
ﾁｭｳｼﾝｾﾝ1
 10
271.00370322435322
 20
506.3184049913288
 30
0.0
 11
271.00370322435322
 21
479.31840499132858
 31
0.0
  0
LINE
  5
2A04
  8
AM_0
 10
256.65507322435309
 20
477.2233349913289
 30
0.0
 11
307.0037032243531
 21
472.8184049913288
 31
0.0
  0
ARC
  5
2A05
  8
AM_0
 10
257.0037032243531
 20
481.20811499132878
 30
0.0
 40
4.0
 50
180.00001000000091
 51
265.00001000000032
  0
ARC
  5
2A06
  8
AM_0
 10
292.00370322435322
 20
477.14219499132878
 30
0.0
 40
3.0
 50
85.000004000000885
 51
265.0
  0
ARC
  5
2A07
  8
AM_0
 10
300.00370322435327
 20
478.44993499132858
 30
0.0
 40
5.0
 50
265.00001000000032
 51
0.0000006832495047
  0
LINE
  5
2A08
  8
AM_0
 10
293.89903322435322
 20
488.56647499132879
 30
0.0
 11
301.0036432243532
 21
488.3184049913288
 31
0.0
  0
LINE
  5
2A09
  8
AM_0
 10
292.26518322435311
 20
480.13078499132882
 30
0.0
 11
300.65513322435322
 21
479.39674499132889
 31
0.0
  0
ARC
  5
2A0A
  8
AM_0
 10
301.0037032243531
 20
483.3815149913288
 30
0.0
 40
4.0
 50
265.00001000000032
 51
0.0000006832495047
  0
LINE
  5
2A0B
  8
AM_0
 10
305.0037032243531
 20
488.3184049913288
 30
0.0
 11
305.0037032243531
 21
478.44993499132858
 31
0.0
  0
LINE
  5
2A0C
  8
AM_0
 10
301.0037032243531
 20
488.3184049913288
 30
0.0
 11
305.0037032243531
 21
488.3184049913288
 31
0.0
  0
LINE
  5
2A0D
  8
AM_0
 10
244.5036432243532
 20
514.31837499132894
 30
0.0
 11
276.57353322435318
 21
513.19846499132882
 31
0.0
  0
LINE
  5
2A0E
  8
AM_0
 10
244.50370322435319
 20
548.3437349913288
 30
0.0
 11
279.00370322435322
 21
548.3437349913288
 31
0.0
  0
LINE
  5
2A0F
  8
AM_0
 10
244.50370322435319
 20
526.23975499132882
 30
0.0
 11
279.00370322435322
 21
526.23975499132882
 31
0.0
  0
LINE
  5
2A10
  8
ﾁｭｳｼﾝｾﾝ1
 10
257.50370322435322
 20
492.8184049913288
 30
0.0
 11
284.5037032243531
 21
492.8184049913288
 31
0.0
  0
LINE
  5
2A11
  8
AM_0
 10
255.96849322435321
 20
509.14353499132881
 30
0.0
 11
271.7326532243531
 21
513.36753499132885
 31
0.0
  0
ARC
  5
2A12
  8
AM_0
 10
257.0037032243531
 20
505.27982499132889
 30
0.0
 40
4.0
 50
105.0000000000007
 51
180.00001000000091
  0
ARC
  5
2A13
  8
AM_0
 10
288.04093322435318
 20
490.89729499132858
 30
0.0
 40
3.0
 50
6.3862994000025619
 51
90.000003000000945
  0
ARC
  5
2A14
  8
AM_0
 10
288.00370322435322
 20
501.92838499132858
 30
0.0
 40
3.0
 50
0.0
 51
90.000003000000945
  0
ARC
  5
2A15
  8
AM_0
 10
288.00370322435322
 20
522.74619499132882
 30
0.0
 40
3.0
 50
270.0
 51
0.0
  0
LINE
  5
2A16
  8
AM_0
 10
279.00370322435322
 20
530.50083499132882
 30
0.0
 11
291.00370322435322
 21
530.50083499132882
 31
0.0
  0
LINE
  5
2A17
  8
AM_0
 10
301.0037032243531
 20
510.40159499132858
 30
0.0
 11
279.00370322435322
 21
510.40159499132858
 31
0.0
  0
ARC
  5
2A18
  8
AM_0
 10
276.0037032243531
 20
510.21656499132871
 30
0.0
 40
3.0
 50
0.0
 51
87.999999999999503
  0
LINE
  5
2A19
  8
AM_0
 10
282.0037032243531
 20
493.89729499132892
 30
0.0
 11
288.04093322435318
 21
493.89729499132892
 31
0.0
  0
ARC
  5
2A1A
  8
AM_0
 10
282.0037032243531
 20
496.89729499132881
 30
0.0
 40
3.0
 50
180.00001000000091
 51
270.0
  0
LINE
  5
2A1B
  8
AM_0
 10
282.0037032243531
 20
504.92838499132881
 30
0.0
 11
288.00370322435322
 21
504.92838499132881
 31
0.0
  0
ARC
  5
2A1C
  8
AM_0
 10
282.0037032243531
 20
507.92838499132881
 30
0.0
 40
3.0
 50
180.00001000000091
 51
270.0
  0
LINE
  5
2A1D
  8
AM_0
 10
279.00370322435322
 20
519.74619499132882
 30
0.0
 11
288.00370322435322
 21
519.74619499132882
 31
0.0
  0
LINE
  5
2A1E
  8
AM_0
 10
291.00370322435322
 20
491.56467499132862
 30
0.0
 11
291.00370322435322
 21
501.92838499132858
 31
0.0
  0
LINE
  5
2A1F
  8
AM_0
 10
301.0037032243531
 20
493.02821499132881
 30
0.0
 11
291.00370322435322
 21
493.02821499132881
 31
0.0
  0
LINE
  5
2A20
  8
AM_0
 10
301.0037032243531
 20
557.54197499132874
 30
0.0
 11
291.00370322435322
 21
557.54197499132874
 31
0.0
  0
CIRCLE
  5
2A21
  8
AM_0
 10
396.0037332243532
 20
492.8184049913288
 30
0.0
 40
7.5
  0
LINE
  5
2A22
  8
AM_0
 10
366.0037032243531
 20
483.16297499132878
 30
0.0
 11
366.0037032243531
 21
498.60480499132859
 31
0.0
  0
LINE
  5
2A23
  8
AM_0
 10
414.00373322435308
 20
518.81840499132875
 30
0.0
 11
414.00373322435308
 21
480.41767499132868
 31
0.0
  0
LINE
  5
2A24
  8
ﾁｭｳｼﾝｾﾝ1
 10
396.0037332243532
 20
506.3184049913288
 30
0.0
 11
396.0037332243532
 21
479.31840499132858
 31
0.0
  0
ARC
  5
2A25
  8
AM_0
 10
374.0037032243531
 20
483.16297499132878
 30
0.0
 40
8.0
 50
180.00001000000091
 51
271.99999000000139
  0
ARC
  5
2A26
  8
AM_0
 10
410.00373322435308
 20
480.41767499132868
 30
0.0
 40
4.0
 50
272.0000000000004
 51
0.0
  0
ARC
  5
2A27
  8
AM_0
 10
378.00373322435308
 20
518.61167499132875
 30
0.0
 40
8.0
 50
271.4999999999992
 51
0.0
  0
LINE
  5
2A28
  8
ﾁｭｳｼﾝｾﾝ1
 10
382.5037332243532
 20
492.8184049913288
 30
0.0
 11
409.50373322435308
 21
492.8184049913288
 31
0.0
  0
ARC
  5
2A29
  8
AM_0
 10
378.0037032243531
 20
498.60480499132859
 30
0.0
 40
12.0
 50
91.500001000001546
 51
180.00001000000091
  0
LINE
  5
2A2A
  8
AM_0
 10
378.2131432243533
 20
510.61442499132858
 30
0.0
 11
377.68955322435318
 21
510.60068499132882
 31
0.0
  0
ARC
  5
2A2B
  8
AM_0
 10
410.00373322435308
 20
518.81840499132875
 30
0.0
 40
4.0
 50
0.0
 51
82.819247000000175
  0
LINE
  5
2A2C
  8
AM_0
 10
403.10841322435311
 20
522.71641499132886
 30
0.0
 11
393.24653322435307
 21
522.45817499132875
 31
0.0
  0
ARC
  5
2A2D
  8
AM_0
 10
393.45594322435318
 20
514.46091499132865
 30
0.0
 40
8.0
 50
91.500001000001546
 51
164.96420000000299
  0
ARC
  5
2A2E
  8
AM_0
 10
403.0037332243532
 20
526.71503499132882
 30
0.0
 40
4.0
 50
271.4999999999992
 51
0.0
  0
ARC
  5
2A2F
  8
AM_0
 10
411.0037332243532
 20
526.75565499132881
 30
0.0
 40
4.0
 50
180.00001000000091
 51
262.8192499999995
  0
ARC
  5
2A30
  8
AM_0
 10
411.00370322435299
 20
560.55045499132882
 30
0.0
 40
3.0
 50
300.00001000000083
 51
0.0
  0
LINE
  5
2A31
  8
AM_0
 10
418.00373322435308
 20
570.31840499132875
 30
0.0
 11
414.00370322435299
 21
570.31840499132875
 31
0.0
  0
ARC
  5
2A32
  8
AM_0
 10
410.00373322435308
 20
553.04490499132885
 30
0.0
 40
3.0
 50
120.0000000000005
 51
180.00001000000091
  0
LINE
  5
2A33
  8
AM_0
 10
408.50367322435318
 20
555.64304499132891
 30
0.0
 11
412.50367322435318
 21
557.95243499132857
 31
0.0
  0
POLYLINE
  5
2A34
  8
AM_0
 66
     1
 10
0.0
 20
0.0
 30
0.0
  0
VERTEX
  5
2A35
  8
AM_0
 10
301.0037032243531
 20
618.09483499132875
 30
0.0
 42
0.070055609
  0
VERTEX
  5
2A36
  8
AM_0
 10
327.36436322435321
 20
638.29217499132858
 30
0.0
 42
0.27110581
  0
VERTEX
  5
2A37
  8
AM_0
 10
336.00370322435322
 20
658.1755149913289
 30
0.0
 42
0.21303143
  0
VERTEX
  5
2A38
  8
AM_0
 10
316.41326322435322
 20
676.31035499132872
 30
0.0
  0
VERTEX
  5
2A39
  8
AM_0
 10
301.0037032243531
 20
682.60862499132872
 30
0.0
 42
-1.0
  0
SEQEND
  5
2A3A
  8
AM_0
  0
POLYLINE
  5
2A3B
  8
AM_0
 66
     1
 10
0.0
 20
0.0
 30
0.0
  0
VERTEX
  5
2A3C
  8
AM_0
 10
301.0037032243531
 20
665.23521499132892
 30
0.0
 42
-0.040443759
  0
VERTEX
  5
2A3D
  8
AM_0
 10
312.53188322435312
 20
665.01184499132864
 30
0.0
 42
-0.042469384
  0
VERTEX
  5
2A3E
  8
AM_0
 10
323.86557322435323
 20
662.89832499132888
 30
0.0
 42
-0.022671411
  0
VERTEX
  5
2A3F
  8
AM_0
 10
329.35006322435322
 20
661.10738499132879
 30
0.0
  0
VERTEX
  5
2A40
  8
AM_0
 10
334.65568322435308
 20
658.83855499132869
 30
0.0
 42
-1.0
  0
SEQEND
  5
2A41
  8
AM_0
  0
LINE
  5
2A42
  8
AM_0
 10
307.0037032243531
 20
702.81840499132886
 30
0.0
 11
410.1433232243532
 21
699.21665499132871
 31
0.0
  0
ARC
  5
2A43
  8
AM_0
 10
288.04093322435318
 20
684.7395449913289
 30
0.0
 40
3.0
 50
270.0
 51
353.61370000000318
  0
CIRCLE
  5
2A44
  8
AM_0
 10
271.00370322435322
 20
682.81840499132875
 30
0.0
 40
7.5
  0
LINE
  5
2A45
  8
AM_0
 10
291.00370322435322
 20
684.07212499132891
 30
0.0
 11
291.00370322435322
 21
673.70841499132894
 31
0.0
  0
LINE
  5
2A46
  8
ﾁｭｳｼﾝｾﾝ1
 10
271.00370322435322
 20
669.31840499132886
 30
0.0
 11
271.00370322435322
 21
696.31840499132875
 31
0.0
  0
LINE
  5
2A47
  8
AM_0
 10
253.0037032243533
 20
670.35697499132891
 30
0.0
 11
253.0037032243533
 21
694.42869499132871
 31
0.0
  0
LINE
  5
2A48
  8
AM_0
 10
244.50370322435319
 20
661.31840499132886
 30
0.0
 11
276.10838322435319
 21
662.4220349913287
 31
0.0
  0
LINE
  5
2A49
  8
AM_0
 10
244.50370322435319
 20
627.29307499132858
 30
0.0
 11
279.00370322435322
 21
627.29307499132858
 31
0.0
  0
LINE
  5
2A4A
  8
AM_0
 10
244.50370322435319
 20
649.39701499132877
 30
0.0
 11
279.00370322435322
 21
649.39701499132877
 31
0.0
  0
LINE
  5
2A4B
  8
AM_0
 10
255.96849322435321
 20
666.49326499132894
 30
0.0
 11
271.7327732243532
 21
662.26920499132871
 31
0.0
  0
LINE
  5
2A4C
  8
ﾁｭｳｼﾝｾﾝ1
 10
257.50370322435322
 20
682.81840499132875
 30
0.0
 11
284.5037032243531
 21
682.81840499132875
 31
0.0
  0
ARC
  5
2A4D
  8
AM_0
 10
257.0037032243531
 20
670.35697499132891
 30
0.0
 40
4.0
 50
180.00001000000091
 51
254.99999000000159
  0
LINE
  5
2A4E
  8
AM_0
 10
301.0037032243531
 20
618.09483499132875
 30
0.0
 11
291.00370322435322
 21
618.09483499132875
 31
0.0
  0
ARC
  5
2A4F
  8
AM_0
 10
288.00370322435322
 20
673.70841499132894
 30
0.0
 40
3.0
 50
270.0
 51
0.0
  0
ARC
  5
2A50
  8
AM_0
 10
288.00370322435322
 20
652.89060499132859
 30
0.0
 40
3.0
 50
0.0
 51
90.000003000000945
  0
LINE
  5
2A51
  8
AM_0
 10
279.00370322435322
 20
645.13596499132893
 30
0.0
 11
291.00370322435322
 21
645.13596499132893
 31
0.0
  0
LINE
  5
2A52
  8
AM_0
 10
301.0037032243531
 20
665.23521499132892
 30
0.0
 11
279.00370322435322
 21
665.23521499132892
 31
0.0
  0
LINE
  5
2A53
  8
AM_0
 10
279.00370322435322
 20
655.8906049913287
 30
0.0
 11
288.00370322435322
 21
655.8906049913287
 31
0.0
  0
LINE
  5
2A54
  8
AM_0
 10
282.0037032243531
 20
670.70841499132894
 30
0.0
 11
288.00370322435322
 21
670.70841499132894
 31
0.0
  0
ARC
  5
2A55
  8
AM_0
 10
282.0037032243531
 20
667.70841499132894
 30
0.0
 40
3.0
 50
90.000003000000945
 51
180.00001000000091
  0
ARC
  5
2A56
  8
AM_0
 10
276.0037032243531
 20
665.42020499132889
 30
0.0
 40
3.0
 50
272.0000000000004
 51
0.0
  0
LINE
  5
2A57
  8
AM_0
 10
282.0037032243531
 20
681.7395449913289
 30
0.0
 11
288.04093322435318
 21
681.7395449913289
 31
0.0
  0
ARC
  5
2A58
  8
AM_0
 10
282.0037032243531
 20
678.73954499132878
 30
0.0
 40
3.0
 50
90.000003000000945
 51
180.00001000000091
  0
LINE
  5
2A59
  8
AM_0
 10
301.0037032243531
 20
682.60856499132865
 30
0.0
 11
291.00370322435322
 21
682.60856499132865
 31
0.0
  0
LINE
  5
2A5A
  8
AM_0
 10
256.65507322435309
 20
698.41349499132889
 30
0.0
 11
307.00376322435318
 21
702.81840499132886
 31
0.0
  0
ARC
  5
2A5B
  8
AM_0
 10
257.0037032243531
 20
694.42869499132871
 30
0.0
 40
4.0
 50
95.000001999998574
 51
180.00001000000091
  0
ARC
  5
2A5C
  8
AM_0
 10
294.00370322435322
 20
684.07212499132891
 30
0.0
 40
3.0
 50
91.999998000000545
 51
180.00001000000091
  0
ARC
  5
2A5D
  8
AM_0
 10
292.00370322435322
 20
698.49461499132894
 30
0.0
 40
3.0
 50
95.000001999998574
 51
275.0
  0
ARC
  5
2A5E
  8
AM_0
 10
301.0037032243531
 20
692.2552949913287
 30
0.0
 40
4.0
 50
0.0
 51
95.000001999998574
  0
LINE
  5
2A5F
  8
AM_0
 10
305.0037032243531
 20
687.31840499132875
 30
0.0
 11
305.0037032243531
 21
697.18687499132875
 31
0.0
  0
LINE
  5
2A60
  8
AM_0
 10
292.2652432243533
 20
695.50602499132867
 30
0.0
 11
300.65513322435322
 21
696.24003499132868
 31
0.0
  0
LINE
  5
2A61
  8
AM_0
 10
293.8989732243532
 20
687.07029499132886
 30
0.0
 11
301.0036432243532
 21
687.31840499132875
 31
0.0
  0
LINE
  5
2A62
  8
AM_0
 10
301.0037032243531
 20
687.31840499132875
 30
0.0
 11
305.0037032243531
 21
687.31840499132875
 31
0.0
  0
ARC
  5
2A63
  8
AM_0
 10
300.00370322435327
 20
697.18687499132875
 30
0.0
 40
5.0
 50
0.0
 51
95.000001999998574
  0
CIRCLE
  5
2A64
  8
AM_0
 10
396.0037332243532
 20
682.81840499132875
 30
0.0
 40
7.5
  0
LINE
  5
2A65
  8
AM_0
 10
366.0037032243531
 20
677.03202499132885
 30
0.0
 11
366.0037032243531
 21
692.47385499132861
 31
0.0
  0
LINE
  5
2A66
  8
ﾁｭｳｼﾝｾﾝ1
 10
396.0037332243532
 20
669.31840499132886
 30
0.0
 11
396.0037332243532
 21
696.31840499132875
 31
0.0
  0
LINE
  5
2A67
  8
AM_0
 10
414.00373322435308
 20
656.81840499132886
 30
0.0
 11
414.00373322435308
 21
695.21909499132892
 31
0.0
  0
ARC
  5
2A68
  8
AM_0
 10
378.00373322435308
 20
657.02512499132888
 30
0.0
 40
8.0
 50
0.0
 51
88.499997000000647
  0
LINE
  5
2A69
  8
ﾁｭｳｼﾝｾﾝ1
 10
382.5037332243532
 20
682.81840499132875
 30
0.0
 11
409.50373322435308
 21
682.81840499132875
 31
0.0
  0
ARC
  5
2A6A
  8
AM_0
 10
378.0037032243531
 20
677.03202499132885
 30
0.0
 40
12.0
 50
180.00001000000091
 51
268.50000000000063
  0
LINE
  5
2A6B
  8
AM_0
 10
378.21311322435321
 20
665.02238499132875
 30
0.0
 11
377.6895832243531
 21
665.03611499132887
 31
0.0
  0
ARC
  5
2A6C
  8
AM_0
 10
411.00370322435299
 20
615.08634499132893
 30
0.0
 40
3.0
 50
0.0
 51
60.000002000001302
  0
LINE
  5
2A6D
  8
AM_0
 10
418.00373322435308
 20
605.31840499132875
 30
0.0
 11
414.00370322435299
 21
605.31840499132875
 31
0.0
  0
LINE
  5
2A6E
  8
AM_0
 10
414.00370322435299
 20
587.81840499132875
 30
0.0
 11
414.00370322435299
 21
615.08634499132893
 31
0.0
  0
ARC
  5
2A6F
  8
AM_0
 10
410.00373322435308
 20
622.59190499132865
 30
0.0
 40
3.0
 50
179.9999899999988
 51
240.00000999999969
  0
LINE
  5
2A70
  8
AM_0
 10
408.5037332243532
 20
619.99381499132892
 30
0.0
 11
412.50370322435327
 21
617.68442499132891
 31
0.0
  0
ARC
  5
2A71
  8
AM_0
 10
410.00373322435308
 20
656.81840499132886
 30
0.0
 40
4.0
 50
277.18075000000022
 51
0.0
  0
LINE
  5
2A72
  8
AM_0
 10
403.10841322435311
 20
652.92039499132875
 30
0.0
 11
393.24653322435307
 21
653.17863499132875
 31
0.0
  0
ARC
  5
2A73
  8
AM_0
 10
393.45594322435318
 20
661.17588499132887
 30
0.0
 40
8.0
 50
195.0357999999969
 51
268.50000000000063
  0
ARC
  5
2A74
  8
AM_0
 10
403.0037332243532
 20
648.92179499132874
 30
0.0
 40
4.0
 50
0.0
 51
88.499997000000647
  0
ARC
  5
2A75
  8
AM_0
 10
411.0037332243532
 20
648.88114499132894
 30
0.0
 40
4.0
 50
97.180758000000822
 51
180.00001000000091
  0
ARC
  5
2A76
  8
AM_0
 10
374.0037032243531
 20
692.47385499132861
 30
0.0
 40
8.0
 50
87.999999999999503
 51
180.00001000000091
  0
ARC
  5
2A77
  8
AM_0
 10
410.00373322435308
 20
695.21909499132892
 30
0.0
 40
4.0
 50
0.0
 51
87.999999999999503
  0
LINE
  5
2A78
  8
AM_0
 10
476.0037032243531
 20
571.81840499132875
 30
0.0
 11
476.0037032243531
 21
603.81840499132875
 31
0.0
  0
TEXT
  5
2B8E
  8
AM_0
 10
559.68943710555322
 20
592.60800619468887
 30
0.0
 40
15.0
  1
VX08-040G~VX08-100G
  0
ENDSEC
  0
EOF
