  0
SECTION
  2
HEADER
  9
$ACADVER
  1
AC1009
  9
$INSBASE
 10
0.0
 20
0.0
 30
0.0
  9
$EXTMIN
 10
296.1298788398617
 20
297.7259982210312
 30
-0.0000000000112498
  9
$EXTMAX
 10
1102.1683531588269
 20
972.72298911694907
 30
0.0000000000002956
  9
$LIMMIN
 10
0.0
 20
0.0
  9
$LIMMAX
 10
1422.5
 20
925.0
  9
$ORTHOMODE
 70
     0
  9
$REGENMODE
 70
     1
  9
$FILLMODE
 70
     1
  9
$QTEXTMODE
 70
     0
  9
$MIRRTEXT
 70
     1
  9
$DRAGMODE
 70
     2
  9
$LTSCALE
 40
5.0
  9
$OSMODE
 70
   551
  9
$ATTMODE
 70
     1
  9
$TEXTSIZE
 40
2.5
  9
$TRACEWID
 40
1.0
  9
$TEXTSTYLE
  7
STANDARD
  9
$CLAYER
  8
AM_0
  9
$CELTYPE
  6
BYLAYER
  9
$CECOLOR
 62
   256
  9
$DIMSCALE
 40
1.0
  9
$DIMASZ
 40
2.5
  9
$DIMEXO
 40
1.0
  9
$DIMDLI
 40
8.0
  9
$DIMRND
 40
0.0
  9
$DIMDLE
 40
0.0
  9
$DIMEXE
 40
0.6
  9
$DIMTP
 40
0.1
  9
$DIMTM
 40
0.1
  9
$DIMTXT
 40
2.5
  9
$DIMCEN
 40
0.0
  9
$DIMTSZ
 40
0.0
  9
$DIMTOL
 70
     0
  9
$DIMLIM
 70
     0
  9
$DIMTIH
 70
     0
  9
$DIMTOH
 70
     0
  9
$DIMSE1
 70
     0
  9
$DIMSE2
 70
     0
  9
$DIMTAD
 70
     1
  9
$DIMZIN
 70
     8
  9
$DIMBLK
  1

  9
$DIMASO
 70
     1
  9
$DIMSHO
 70
     1
  9
$DIMPOST
  1

  9
$DIMAPOST
  1
"
  9
$DIMALT
 70
     0
  9
$DIMALTD
 70
     2
  9
$DIMALTF
 40
0.0393701
  9
$DIMLFAC
 40
1.0
  9
$DIMTOFL
 70
     1
  9
$DIMTVP
 40
0.0
  9
$DIMTIX
 70
     0
  9
$DIMSOXD
 70
     0
  9
$DIMSAH
 70
     0
  9
$DIMBLK1
  1

  9
$DIMBLK2
  1

  9
$DIMSTYLE
  2
AM_ISO
  9
$DIMCLRD
 70
   256
  9
$DIMCLRE
 70
   256
  9
$DIMCLRT
 70
     4
  9
$DIMTFAC
 40
0.71
  9
$DIMGAP
 40
0.8
  9
$LUNITS
 70
     2
  9
$LUPREC
 70
     2
  9
$SKETCHINC
 40
1.0
  9
$FILLETRAD
 40
25.0
  9
$AUNITS
 70
     0
  9
$AUPREC
 70
     0
  9
$MENU
  1
.
  9
$ELEVATION
 40
0.0
  9
$PELEVATION
 40
0.0
  9
$THICKNESS
 40
0.0
  9
$LIMCHECK
 70
     0
  9
$BLIPMODE
 70
     0
  9
$CHAMFERA
 40
10.0
  9
$CHAMFERB
 40
5.0
  9
$SKPOLY
 70
     0
  9
$TDCREATE
 40
2452066.471316007
  9
$TDUPDATE
 40
2458541.4159171409
  9
$TDINDWG
 40
0.1221342708
  9
$TDUSRTIMER
 40
0.1221340856
  9
$USRTIMER
 70
     1
  9
$ANGBASE
 50
0.0
  9
$ANGDIR
 70
     0
  9
$PDMODE
 70
     0
  9
$PDSIZE
 40
0.0
  9
$PLINEWID
 40
0.0
  9
$COORDS
 70
     1
  9
$SPLFRAME
 70
     0
  9
$SPLINETYPE
 70
     6
  9
$SPLINESEGS
 70
     8
  9
$ATTDIA
 70
     1
  9
$ATTREQ
 70
     1
  9
$HANDLING
 70
     1
  9
$HANDSEED
  5
3962
  9
$SURFTAB1
 70
     6
  9
$SURFTAB2
 70
     6
  9
$SURFTYPE
 70
     6
  9
$SURFU
 70
     6
  9
$SURFV
 70
     6
  9
$UCSNAME
  2

  9
$UCSORG
 10
0.0
 20
0.0
 30
0.0
  9
$UCSXDIR
 10
1.0
 20
0.0
 30
0.0
  9
$UCSYDIR
 10
0.0
 20
1.0
 30
0.0
  9
$PUCSNAME
  2

  9
$PUCSORG
 10
0.0
 20
0.0
 30
0.0
  9
$PUCSXDIR
 10
1.0
 20
0.0
 30
0.0
  9
$PUCSYDIR
 10
0.0
 20
1.0
 30
0.0
  9
$USERI1
 70
     0
  9
$USERI2
 70
     0
  9
$USERI3
 70
     0
  9
$USERI4
 70
     0
  9
$USERI5
 70
     0
  9
$USERR1
 40
0.0
  9
$USERR2
 40
0.0
  9
$USERR3
 40
0.0
  9
$USERR4
 40
0.0
  9
$USERR5
 40
0.0
  9
$WORLDVIEW
 70
     1
  9
$SHADEDGE
 70
     3
  9
$SHADEDIF
 70
    70
  9
$TILEMODE
 70
     1
  9
$MAXACTVP
 70
    64
  9
$PLIMCHECK
 70
     0
  9
$PEXTMIN
 10
1.0000000000000000E+020
 20
1.0000000000000000E+020
 30
1.0000000000000000E+020
  9
$PEXTMAX
 10
-1.0000000000000000E+020
 20
-1.0000000000000000E+020
 30
-1.0000000000000000E+020
  9
$PLIMMIN
 10
0.0
 20
0.0
  9
$PLIMMAX
 10
420.0
 20
297.0
  9
$UNITMODE
 70
     0
  9
$VISRETAIN
 70
     1
  9
$PLINEGEN
 70
     0
  9
$PSLTSCALE
 70
     1
  0
ENDSEC
  0
SECTION
  2
TABLES
  0
TABLE
  2
VPORT
 70
     1
  0
VPORT
  2
*ACTIVE
 70
     0
 10
0.0
 20
0.0
 11
1.0
 21
1.0
 12
699.1491159993443
 22
635.22449366899014
 13
0.0
 23
0.0
 14
12.5
 24
12.5
 15
50.0
 25
50.0
 16
0.0
 26
0.0
 36
1.0
 17
0.0
 27
0.0
 37
0.0
 40
679.63083751534054
 41
1.7571592210767459
 42
50.0
 43
0.0
 44
0.0
 50
0.0
 51
0.0
 71
     0
 72
   100
 73
     1
 74
     3
 75
     0
 76
     0
 77
     0
 78
     0
  0
ENDTAB
  0
TABLE
  2
LTYPE
 70
    27
  0
LTYPE
  2
CONTINUOUS
 70
     0
  3
Solid line
 72
    65
 73
     0
 40
0.0
  0
LTYPE
  2
AM_ISO02W050
 70
     0
  3
__ __ __ __ __ __ __ __ __ __ __ __ __ __ __
 72
    65
 73
     2
 40
7.5
 49
6.0
 49
-1.5
  0
LTYPE
  2
AM_ISO08W050
 70
     0
  3
____ . ____ . ____ . ____ . ____ . ____ . ____
 72
    65
 73
     4
 40
18.0
 49
12.0
 49
-1.5
 49
3.0
 49
-1.5
  0
LTYPE
  2
AM_ISO09W050
 70
     0
  3
_____ . . _____ . . _____ . . ____ .. ____
 72
    65
 73
     6
 40
22.5
 49
12.0
 49
-1.5
 49
3.0
 49
-1.5
 49
3.0
 49
-1.5
  0
LTYPE
  2
AMCONSTR
 70
     0
  3
_______________________
 72
    65
 73
     2
 40
9999.0
 49
9999.0
 49
0.0
  0
LTYPE
  2
AM_ISO08W050X2
 70
     0
  3
__ . __ . __ . __ . __ . __
 72
    65
 73
     4
 40
9.0
 49
6.0
 49
-0.75
 49
1.5
 49
-0.75
  0
LTYPE
  2
AM_ISO02W050X2
 70
     0
  3
 _ _ _ _ _ _ _ _ _ _ _ _
 72
    65
 73
     2
 40
3.75
 49
3.0
 49
-0.75
  0
LTYPE
  2
AMZIGZAG
 70
     0
  3
/\/-/\/-/\/-/\/-/\/-/\/
 72
    65
 73
     2
 40
11.000099999999991
 49
0.0001
 49
-11.0
  0
LTYPE
  2
ACISOWELD
 70
     0
  3
_ _ _ _ _
 72
    65
 73
     2
 40
2.0
 49
2.0
 49
-1.0
  0
LTYPE
  2
ACISOTGB
 70
     0
  3
__ . . __ . .
 72
    65
 73
     6
 40
9.0
 49
4.0
 49
-1.0
 49
1.0
 49
-1.0
 49
1.0
 49
-1.0
  0
LTYPE
  2
ACISOTGL
 70
     0
  3
_ _ _ _ _
 72
    65
 73
     2
 40
3.0
 49
2.0
 49
-1.0
  0
LTYPE
  2
CENTER
 70
     0
  3
__ . __
 72
    65
 73
     4
 40
7.0
 49
4.0
 49
-1.0
 49
1.0
 49
-1.0
  0
LTYPE
  2
PHANTOM2
 70
     0
  3
Phantom (.5x) ___ _ _ ___ _ _ ___ _ _ ___ _ _
 72
    65
 73
     6
 40
31.75
 49
15.875
 49
-3.174999999999998
 49
3.174999999999998
 49
-3.174999999999998
 49
3.174999999999998
 49
-3.174999999999998
  0
LTYPE
  2
ACANSTGBM
 70
     0
  3
__ . . __ . .
 72
    65
 73
     6
 40
9.0
 49
4.0
 49
-1.0
 49
1.0
 49
-1.0
 49
1.0
 49
-1.0
  0
LTYPE
  2
ACANSTGLM
 70
     0
  3
_ _ _ _ _
 72
    65
 73
     2
 40
3.0
 49
2.0
 49
-1.0
  0
LTYPE
  2
GEN7
 70
     0
  3
____ . ____ . ____ . ____ . ____ . ____ . ____
 72
    65
 73
     4
 40
14.25
 49
9.75
 49
-1.5
 49
1.5
 49
-1.5
  0
LTYPE
  2
GEN3B
 70
     0
  3
 - - - - -
 72
    65
 73
     2
 40
1.0
 49
0.5
 49
-0.5
  0
LTYPE
  2
GEN7A
 70
     0
  3
__ . __ . __
 72
    65
 73
     4
 40
7.375
 49
4.75
 49
-0.875
 49
0.875
 49
-0.875
  0
LTYPE
  2
ACJISTGB
 70
     0
  3
__ . . __ . .
 72
    65
 73
     6
 40
9.0
 49
4.0
 49
-1.0
 49
1.0
 49
-1.0
 49
1.0
 49
-1.0
  0
LTYPE
  2
ACJISTGL
 70
     0
  3
_ _ _ _ _
 72
    65
 73
     2
 40
3.0
 49
2.0
 49
-1.0
  0
LTYPE
  2
HIDDEN
 70
     0
  3
Hidden __ __ __ __ __ __ __ __ __ __ __ __ __ _
 72
    65
 73
     2
 40
0.375
 49
0.25
 49
-0.125
  0
LTYPE
  2
CENTER2
 70
     0
  3
Center (.5x) ___ _ ___ _ ___ _ ___ _ ___ _ ___
 72
    65
 73
     4
 40
1.125
 49
0.75
 49
-0.125
 49
0.125
 49
-0.125
  0
LTYPE
  2
HIDDEN2
 70
     0
  3
Hidden (.5x) _ _ _ _ _ _ _ _ _ _ _ _ _ _ _ _ _
 72
    65
 73
     2
 40
0.1875
 49
0.125
 49
-0.0625
  0
LTYPE
  2
AMZIGZAG2
 70
     0
  3
/\/-/\/-/\/-/\/-/\/-/\/
 72
    65
 73
     2
 40
0.4401
 49
0.0001
 49
-0.4400000000000002
  0
LTYPE
  2
ACANSTGB
 70
     0
  3
__ . . __ . .
 72
    65
 73
     6
 40
0.35433070866
 49
0.15748031496
 49
-0.03937007874
 49
0.03937007874
 49
-0.03937007874
 49
0.03937007874
 49
-0.03937007874
  0
LTYPE
  2
ACANSTGL
 70
     0
  3
_ _ _ _ _
 72
    65
 73
     2
 40
0.11811023622
 49
0.07874015748
 49
-0.03937007874
  0
ENDTAB
  0
TABLE
  2
LAYER
 70
     7
  0
LAYER
  2
0
 70
     0
 62
     7
  6
CONTINUOUS
  0
LAYER
  2
AM_0
 70
     0
 62
     7
  6
CONTINUOUS
  0
LAYER
  2
AM_5
 70
     0
 62
     2
  6
CONTINUOUS
  0
LAYER
  2
DEFPOINTS
 70
     0
 62
     7
  6
CONTINUOUS
  0
LAYER
  2
ｶｸﾚｾﾝ2
 70
     0
 62
     3
  6
GEN3B
  0
LAYER
  2
ﾁｭｳｼﾝｾﾝ
 70
     0
 62
     1
  6
GEN7
  0
LAYER
  2
ﾁｭｳｼﾝｾﾝ1
 70
     0
 62
     1
  6
GEN7A
  0
ENDTAB
  0
TABLE
  2
STYLE
 70
     9
  0
STYLE
  2
STANDARD
 70
     0
 40
0.0
 41
0.8299999999999999
 50
0.0
 71
     0
 42
2.5
  3
txt.shx
  4
bigfont.shx
  0
STYLE
  2
ANNOTATIVE
 70
     0
 40
0.0
 41
1.0
 50
0.0
 71
     0
 42
0.2
  3
txt
  4

  0
STYLE
  2

 70
     1
 40
0.0
 41
1.0
 50
0.0
 71
     0
 42
2.5
  3
ltypeshp.shx
  4

  0
STYLE
  2
ACISOTS
 70
     0
 40
1.0
 41
1.0
 50
0.0
 71
     0
 42
2.5
  3
isocp.shx
  4
extfont.shx
  0
STYLE
  2
ACISOGDT
 70
     0
 40
0.0
 41
1.0
 50
0.0
 71
     0
 42
2.5
  3
amgdt.shx
  4

  0
STYLE
  2
ACANSTS
 70
     0
 40
1.0
 41
1.0
 50
0.0
 71
     0
 42
2.5
  3
romans.shx
  4
bigfont.shx
  0
STYLE
  2
ACANSGDT
 70
     0
 40
0.0
 41
1.0
 50
0.0
 71
     0
 42
2.5
  3
amgdt.shx
  4

  0
STYLE
  2
ACJISTS
 70
     0
 40
1.0
 41
1.0
 50
0.0
 71
     0
 42
2.5
  3
isocp.shx
  4
bigfont.shx
  0
STYLE
  2
ACJISGDT
 70
     0
 40
0.0
 41
1.0
 50
0.0
 71
     0
 42
2.5
  3
amgdt.shx
  4

  0
ENDTAB
  0
TABLE
  2
VIEW
 70
     6
  0
VIEW
  2
AM_VIEW1
 70
     0
 40
462.5
 10
416.07965009208078
 20
693.75
 41
832.15930018416213
 11
0.0
 21
0.0
 31
1.0
 12
0.0
 22
0.0
 32
0.0
 42
50.0
 43
0.0
 44
0.0
 50
0.0
 71
     0
  0
VIEW
  2
AM_VIEW2
 70
     0
 40
462.5
 10
1006.420349907918
 20
693.75
 41
832.15930018416213
 11
0.0
 21
0.0
 31
1.0
 12
0.0
 22
0.0
 32
0.0
 42
50.0
 43
0.0
 44
0.0
 50
0.0
 71
     0
  0
VIEW
  2
AM_VIEW3
 70
     0
 40
462.5
 10
416.07965009208078
 20
231.25
 41
832.15930018416213
 11
0.0
 21
0.0
 31
1.0
 12
0.0
 22
0.0
 32
0.0
 42
50.0
 43
0.0
 44
0.0
 50
0.0
 71
     0
  0
VIEW
  2
AM_VIEW4
 70
     0
 40
462.5
 10
1006.420349907918
 20
231.25
 41
832.15930018416213
 11
0.0
 21
0.0
 31
1.0
 12
0.0
 22
0.0
 32
0.0
 42
50.0
 43
0.0
 44
0.0
 50
0.0
 71
     0
  0
VIEW
  2
AM_VIEW5
 70
     0
 40
462.5
 10
711.24999999999966
 20
462.5
 41
832.15930018416179
 11
0.0
 21
0.0
 31
1.0
 12
0.0
 22
0.0
 32
0.0
 42
50.0
 43
0.0
 44
0.0
 50
0.0
 71
     0
  0
VIEW
  2
AM_VIEW6
 70
     0
 40
924.99075000000005
 10
711.24999999999966
 20
462.5
 41
1664.3019571823199
 11
0.0
 21
0.0
 31
1.0
 12
0.0
 22
0.0
 32
0.0
 42
50.0
 43
0.0
 44
0.0
 50
0.0
 71
     0
  0
ENDTAB
  0
TABLE
  2
UCS
 70
     0
  0
ENDTAB
  0
TABLE
  2
APPID
 70
    95
  0
APPID
  2
ACAD
 70
     0
  0
APPID
  2
ACADANNOTATIVE
 70
     0
  0
APPID
  2
MCAD_NO_VIS
 70
     0
  0
APPID
  2
ACAD_TEMP_GRAPHIC
 70
     0
  0
APPID
  2
ACATTRIBSERVICES
 70
     0
  0
APPID
  2
GENIUS_GENREC_14
 70
     0
  0
APPID
  2
GENIUS_GENOBJ-N-REC_13
 70
     0
  0
APPID
  2
GENIUS_GENODEF_13
 70
     0
  0
APPID
  2
GENIUS_GENOLIS_13
 70
     0
  0
APPID
  2
GENIUS_GENOBJ-N-TIT_13
 70
     0
  0
APPID
  2
GENIUS_GENOENT_13
 70
     0
  0
APPID
  2
GENIUS_GENTITLE_13
 70
     0
  0
APPID
  2
GENIUS_GENOREF_13
 70
     0
  0
APPID
  2
GENIUS_GENSCREG_15
 70
     0
  0
APPID
  2
GENIUS_GENOBJ-N-SDF_13
 70
     0
  0
APPID
  2
GENIUS_GENFIL_13
 70
     0
  0
APPID
  2
GENIUS_GENOBJ-N-CHA_13
 70
     0
  0
APPID
  2
GENIUS_GENDTOL_13
 70
     0
  0
APPID
  2
GENIUS_GENOBJ-N-FIL_13
 70
     0
  0
APPID
  2
AD_DRAW
 70
     0
  0
APPID
  2
DESIGNERASSEMBLIES
 70
     0
  0
APPID
  2
ASURF_PCURVE_APPNAME
 70
     0
  0
APPID
  2
GENIUS_GE3SECT_13
 70
     0
  0
APPID
  2
GENIUS_GENCFG_13
 70
     0
  0
APPID
  2
GENIUS_GE3CFG0_13
 70
     0
  0
APPID
  2
GENIUS_GENCFG0_13
 70
     0
  0
APPID
  2
GENIUS_GENCFG1_13
 70
     0
  0
APPID
  2
GENIUS_GENCFG2_13
 70
     0
  0
APPID
  2
GENIUS_GENCFG3_13
 70
     0
  0
APPID
  2
GENIUS_GENCFG4_13
 70
     0
  0
APPID
  2
GENIUS_GEVCFG0_13
 70
     0
  0
APPID
  2
GENIUS_GENHINW_13
 70
     0
  0
APPID
  2
GENIUS_FIRSTVISTXT_14
 70
     0
  0
APPID
  2
GENIUS_GENOBJ-N-LEADER_13
 70
     0
  0
APPID
  2
GEV_VCCNULL_SWITCH_OFF
 70
     0
  0
APPID
  2
GENIUS_GEFCFG0_13
 70
     0
  0
APPID
  2
GENIUS_GENZVEED_13
 70
     0
  0
APPID
  2
GENIUS_GENSCREG_13
 70
     0
  0
APPID
  2
GENIUS_DUMCFG0_13
 70
     0
  0
APPID
  2
GEVID936201362
 70
     0
  0
APPID
  2
GEVDC
 70
     0
  0
APPID
  2
GEVCON
 70
     0
  0
APPID
  2
VCC
 70
     0
  0
APPID
  2
GEVPT
 70
     0
  0
APPID
  2
GEVIT
 70
     0
  0
APPID
  2
GENBH
 70
     0
  0
APPID
  2
GEVMK
 70
     0
  0
APPID
  2
GENIUS_GENBH_13
 70
     0
  0
APPID
  2
GENIUS_GENOBJ-NBEHI-BHF_13
 70
     0
  0
APPID
  2
GENIUS_GENOBJ-NBEHI-BHB_13
 70
     0
  0
APPID
  2
GENIUS_GENOBJ-F-DESC_13
 70
     0
  0
APPID
  2
GENIUS_GEFDESC_14
 70
     0
  0
APPID
  2
GENIUS_GENOBJ-F-PART_13
 70
     0
  0
APPID
  2
GENIUS_GEFSTDP_13
 70
     0
  0
APPID
  2
GENIUS_GEFPARTINS_13
 70
     0
  0
APPID
  2
GENIUS_GENTRA_14
 70
     0
  0
APPID
  2
GENIUS_GENINF13_13
 70
     0
  0
APPID
  2
GENIUS_GENOBJ-N-INFOPT_13
 70
     0
  0
APPID
  2
GENIUS_GENOBJ-N-RSSYM_13
 70
     0
  0
APPID
  2
GENIUS_GENSYMENT_13
 70
     0
  0
APPID
  2
GENIUS_GENSCSYM_13
 70
     0
  0
APPID
  2
GENIUS_GEFINFNAM_13
 70
     0
  0
APPID
  2
GENIUS_GENOBJ-N-CEN_13
 70
     0
  0
APPID
  2
GENIUS_GENOBJ-N-CRS_13
 70
     0
  0
APPID
  2
GENIUS_GENOBJ-N-CRC_13
 70
     0
  0
APPID
  2
GENIUS_GENCRC_14
 70
     0
  0
APPID
  2
GEVID942827039
 70
     0
  0
APPID
  2
GEVID942827040
 70
     0
  0
APPID
  2
GEVID942827041
 70
     0
  0
APPID
  2
GENIUS_GENOBJ-F-SCPASSM_13
 70
     0
  0
APPID
  2
GENIUS_GENDIMSH_14
 70
     0
  0
APPID
  2
GEVID942827042
 70
     0
  0
APPID
  2
GEVID946020473
 70
     0
  0
APPID
  2
GEVID946020474
 70
     0
  0
APPID
  2
GEVID946020475
 70
     0
  0
APPID
  2
GENIUS_GENOBJ-N-HTC_13
 70
     0
  0
APPID
  2
GENIUS_GENHATCH_13
 70
     0
  0
APPID
  2
GEVID948854295
 70
     0
  0
APPID
  2
GEVID939402019
 70
     0
  0
APPID
  2
GEVID952919491
 70
     0
  0
APPID
  2
GEVID952919492
 70
     0
  0
APPID
  2
GENIUS_GEFWELD_13
 70
     0
  0
APPID
  2
GENIUS_GENOBJ-F-WELS_13
 70
     0
  0
APPID
  2
GEVID952919493
 70
     0
  0
APPID
  2
GENIUS_GENOBJ-N-RSBK_13
 70
     0
  0
APPID
  2
GENIUS_GENOBJ-N-LIB_13
 70
     0
  0
APPID
  2
GENIUS_GENSCALE_13
 70
     0
  0
APPID
  2
GEVID986376691
 70
     0
  0
APPID
  2
DCO15
 70
     0
  0
APPID
  2
ACAD_DSTYLE_DIMBREAK
 70
     0
  0
APPID
  2
ACAD_DSTYLE_DIMJAG
 70
     0
  0
APPID
  2
ACAD_NAV_VCDISPLAY
 70
     0
  0
APPID
  2
ACADANNOPO
 70
     0
  0
APPID
  2
ACAD_EXEMPT_FROM_CAD_STANDARDS
 70
     0
  0
APPID
  2
ACAD_MLEADERVER
 70
     0
  0
ENDTAB
  0
TABLE
  2
DIMSTYLE
 70
    22
  0
DIMSTYLE
  2
STANDARD
 70
     0
  3

  4

  5

  6

  7

 40
1.0
 41
0.18
 42
0.0625
 43
0.38
 44
0.18
 45
0.0
 46
0.0
 47
0.0
 48
0.0
140
0.18
141
0.09
142
0.0
143
25.399999999999999
144
1.0
145
0.0
146
1.0
147
0.09
 71
     0
 72
     0
 73
     1
 74
     1
 75
     0
 76
     0
 77
     0
 78
     0
170
     0
171
     2
172
     0
173
     0
174
     0
175
     0
176
     0
177
     0
178
     0
  0
DIMSTYLE
  2
ANNOTATIVE
 70
     0
  3

  4

  5

  6

  7

 40
1.0
 41
0.18
 42
0.0625
 43
0.38
 44
0.18
 45
0.0
 46
0.0
 47
0.0
 48
0.0
140
0.18
141
0.09
142
0.0
143
25.399999999999999
144
1.0
145
0.0
146
1.0
147
0.09
 71
     0
 72
     0
 73
     1
 74
     1
 75
     0
 76
     0
 77
     0
 78
     0
170
     0
171
     2
172
     0
173
     0
174
     0
175
     0
176
     0
177
     0
178
     0
  0
DIMSTYLE
  2
AM_ISO
 70
     0
  3

  4
"
  5

  6

  7

 40
1.0
 41
2.5
 42
1.0
 43
8.0
 44
0.6
 45
0.0
 46
0.0
 47
0.1
 48
0.1
140
2.5
141
0.0
142
0.0
143
0.0393701
144
1.0
145
0.0
146
0.71
147
0.8
 71
     0
 72
     0
 73
     0
 74
     0
 75
     0
 76
     0
 77
     1
 78
     8
170
     0
171
     2
172
     1
173
     0
174
     0
175
     0
176
   256
177
   256
178
     4
  0
DIMSTYLE
  2
AM_ISO$3
 70
     0
  3

  4
"
  5

  6

  7

 40
1.0
 41
2.5
 42
1.0
 43
8.0
 44
0.6
 45
0.0
 46
0.0
 47
0.1
 48
0.1
140
2.5
141
0.0
142
0.0
143
0.0393701
144
1.0
145
0.0
146
0.71
147
0.8
 71
     0
 72
     0
 73
     0
 74
     1
 75
     0
 76
     0
 77
     1
 78
     8
170
     0
171
     2
172
     0
173
     0
174
     0
175
     0
176
   256
177
   256
178
     4
  0
DIMSTYLE
  2
AM_ISO$4
 70
     0
  3

  4
"
  5

  6

  7

 40
1.0
 41
2.5
 42
1.0
 43
8.0
 44
0.6
 45
0.0
 46
0.0
 47
0.1
 48
0.1
140
2.5
141
0.0
142
0.0
143
0.0393701
144
1.0
145
0.0
146
0.71
147
0.8
 71
     0
 72
     0
 73
     0
 74
     1
 75
     0
 76
     0
 77
     1
 78
     8
170
     0
171
     2
172
     0
173
     0
174
     0
175
     0
176
   256
177
   256
178
     4
  0
DIMSTYLE
  2
AM_ISO$6
 70
     0
  3

  4
"
  5

  6

  7

 40
1.0
 41
2.5
 42
1.0
 43
8.0
 44
0.6
 45
0.0
 46
0.0
 47
0.1
 48
0.1
140
2.5
141
0.0
142
0.0
143
0.0393701
144
1.0
145
0.0
146
0.71
147
0.8
 71
     0
 72
     0
 73
     0
 74
     0
 75
     0
 76
     0
 77
     0
 78
     8
170
     0
171
     2
172
     1
173
     0
174
     0
175
     0
176
   256
177
   256
178
     4
  0
DIMSTYLE
  2
AM_ISO$7
 70
     0
  3

  4
"
  5

  6

  7

 40
1.0
 41
2.5
 42
1.0
 43
8.0
 44
0.6
 45
0.0
 46
0.0
 47
0.1
 48
0.1
140
2.5
141
0.0
142
0.0
143
0.0393701
144
1.0
145
0.0
146
0.71
147
0.8
 71
     0
 72
     0
 73
     0
 74
     0
 75
     0
 76
     0
 77
     1
 78
     8
170
     0
171
     2
172
     1
173
     0
174
     0
175
     0
176
   256
177
   256
178
     4
  0
DIMSTYLE
  2
AM_ISO$SF
 70
     0
  3

  4
"
  5

  6

  7

 40
1.0
 41
2.5
 42
1.0
 43
10.0
 44
1.0
 45
0.0
 46
0.0
 47
0.1
 48
0.1
140
3.5
141
0.0
142
0.0
143
0.0393701
144
1.0
145
0.0
146
0.71
147
1.5
 71
     0
 72
     0
 73
     0
 74
     0
 75
     1
 76
     1
 77
     1
 78
     8
170
     0
171
     2
172
     1
173
     0
174
     0
175
     0
176
   256
177
   256
178
     2
  0
DIMSTYLE
  2
AM_ISO$SH
 70
     0
  3

  4
"
  5

  6

  7

 40
1.0
 41
2.5
 42
1.0
 43
10.0
 44
1.0
 45
0.0
 46
0.0
 47
0.1
 48
0.1
140
3.5
141
0.0
142
0.0
143
0.0393701
144
2.0
145
0.0
146
0.71
147
1.5
 71
     0
 72
     0
 73
     0
 74
     0
 75
     1
 76
     1
 77
     1
 78
     8
170
     0
171
     2
172
     1
173
     1
174
     0
175
     0
176
   256
177
   256
178
     2
  0
DIMSTYLE
  2
AM_JIS
 70
     0
  3

  4
"
  5

  6

  7

 40
1.0
 41
2.5
 42
1.0
 43
7.0
 44
1.0
 45
0.0
 46
0.0
 47
0.1
 48
0.1000000001
140
2.5
141
0.0
142
0.0
143
0.0393701
144
1.0
145
0.0
146
0.71
147
1.0
 71
     0
 72
     0
 73
     0
 74
     0
 75
     0
 76
     0
 77
     3
 78
     8
170
     0
171
     2
172
     1
173
     0
174
     0
175
     0
176
   256
177
   256
178
     4
  0
DIMSTYLE
  2
AM_JIS$3
 70
     0
  3

  4
"
  5

  6

  7

 40
1.0
 41
2.5
 42
1.0
 43
7.0
 44
1.0
 45
0.0
 46
0.0
 47
0.1
 48
0.1000000001
140
2.5
141
0.0
142
0.0
143
0.0393701
144
1.0
145
0.0
146
0.71
147
1.0
 71
     0
 72
     0
 73
     0
 74
     1
 75
     0
 76
     0
 77
     3
 78
     8
170
     0
171
     2
172
     0
173
     0
174
     0
175
     0
176
   256
177
   256
178
     4
  0
DIMSTYLE
  2
AM_JIS$4
 70
     0
  3

  4
"
  5

  6

  7

 40
1.0
 41
2.5
 42
1.0
 43
7.0
 44
1.0
 45
0.0
 46
0.0
 47
0.1
 48
0.1000000001
140
2.5
141
0.0
142
0.0
143
0.0393701
144
1.0
145
0.0
146
0.71
147
1.0
 71
     0
 72
     0
 73
     0
 74
     0
 75
     0
 76
     0
 77
     3
 78
     8
170
     0
171
     2
172
     0
173
     0
174
     0
175
     0
176
   256
177
   256
178
     4
  0
DIMSTYLE
  2
AM_JIS$6
 70
     0
  3

  4
"
  5

  6

  7

 40
1.0
 41
2.5
 42
1.0
 43
7.0
 44
1.0
 45
0.0
 46
0.0
 47
0.1
 48
0.1000000001
140
2.5
141
0.0
142
0.0
143
0.0393701
144
1.0
145
0.0
146
0.71
147
1.0
 71
     0
 72
     0
 73
     0
 74
     0
 75
     0
 76
     0
 77
     0
 78
     8
170
     0
171
     2
172
     1
173
     0
174
     0
175
     0
176
   256
177
   256
178
     4
  0
DIMSTYLE
  2
AM_JIS$7
 70
     0
  3

  4
"
  5

  6

  7

 40
1.0
 41
2.5
 42
1.0
 43
7.0
 44
1.0
 45
0.0
 46
0.0
 47
0.1
 48
0.1000000001
140
2.5
141
0.0
142
0.0
143
0.0393701
144
1.0
145
0.0
146
0.71
147
1.0
 71
     0
 72
     0
 73
     0
 74
     0
 75
     0
 76
     0
 77
     3
 78
     8
170
     0
171
     2
172
     1
173
     0
174
     0
175
     0
176
   256
177
   256
178
     4
  0
DIMSTYLE
  2
AM_JIS$SF
 70
     0
  3

  4
"
  5

  6

  7

 40
1.0
 41
2.5
 42
1.0
 43
10.0
 44
1.0
 45
0.0
 46
0.0
 47
0.1
 48
0.1
140
3.5
141
0.0
142
0.0
143
0.0393701
144
1.0
145
0.0
146
0.71
147
1.5
 71
     0
 72
     0
 73
     0
 74
     0
 75
     1
 76
     1
 77
     3
 78
     8
170
     0
171
     2
172
     1
173
     0
174
     0
175
     0
176
   256
177
   256
178
     4
  0
DIMSTYLE
  2
AM_JIS$SH
 70
     0
  3

  4
"
  5

  6

  7

 40
1.0
 41
2.5
 42
1.0
 43
10.0
 44
1.0
 45
0.0
 46
0.0
 47
0.1
 48
0.1
140
3.5
141
0.0
142
0.0
143
0.0393701
144
1.0
145
0.0
146
0.71
147
1.5
 71
     0
 72
     0
 73
     0
 74
     0
 75
     1
 76
     0
 77
     3
 78
     8
170
     0
171
     2
172
     1
173
     1
174
     0
175
     0
176
   256
177
   256
178
     4
  0
DIMSTYLE
  2
AM_ANSI
 70
     0
  3

  4
mm
  5

  6

  7

 40
1.0
 41
0.1
 42
0.05
 43
0.5
 44
0.1
 45
0.0
 46
0.0
 47
0.1
 48
0.1
140
0.12
141
0.0
142
0.0
143
25.399999999999999
144
1.0
145
0.0
146
0.71
147
0.06
 71
     0
 72
     0
 73
     1
 74
     1
 75
     0
 76
     0
 77
     0
 78
     7
170
     0
171
     2
172
     0
173
     0
174
     0
175
     0
176
   256
177
   256
178
     2
  0
DIMSTYLE
  2
AM_ANSI$3
 70
     0
  3

  4
mm
  5

  6

  7

 40
1.0
 41
0.1
 42
0.05
 43
0.5
 44
0.1
 45
0.0
 46
0.0
 47
0.1
 48
0.1
140
0.12
141
0.0
142
0.0
143
25.399999999999999
144
1.0
145
0.0
146
0.71
147
0.06
 71
     0
 72
     0
 73
     1
 74
     1
 75
     0
 76
     0
 77
     0
 78
     7
170
     0
171
     2
172
     0
173
     0
174
     0
175
     0
176
   256
177
   256
178
     2
  0
DIMSTYLE
  2
AM_ANSI$4
 70
     0
  3

  4
mm
  5

  6

  7

 40
1.0
 41
0.1
 42
0.05
 43
0.5
 44
0.1
 45
0.0
 46
0.0
 47
0.1
 48
0.1
140
0.12
141
0.0
142
0.0
143
25.399999999999999
144
1.0
145
0.0
146
0.71
147
0.06
 71
     0
 72
     0
 73
     1
 74
     1
 75
     0
 76
     0
 77
     0
 78
     7
170
     0
171
     2
172
     0
173
     0
174
     0
175
     0
176
   256
177
   256
178
     2
  0
DIMSTYLE
  2
AM_ANSI$7
 70
     0
  3

  4
mm
  5

  6

  7

 40
1.0
 41
0.1
 42
0.05
 43
0.5
 44
0.1
 45
0.0
 46
0.0
 47
0.1
 48
0.1
140
0.24
141
0.0
142
0.0
143
25.399999999999999
144
1.0
145
0.0
146
0.71
147
0.06
 71
     0
 72
     0
 73
     1
 74
     1
 75
     0
 76
     0
 77
     0
 78
     7
170
     0
171
     2
172
     0
173
     0
174
     0
175
     0
176
   256
177
   256
178
     2
  0
DIMSTYLE
  2
AM_ANSI$SF
 70
     0
  3

  4
mm
  5

  6

  7

 40
1.0
 41
0.1
 42
0.05
 43
0.5
 44
0.1
 45
0.0
 46
0.0
 47
0.1
 48
0.1
140
0.12
141
0.0
142
0.0
143
25.399999999999999
144
1.0
145
0.0
146
0.71
147
0.06
 71
     0
 72
     0
 73
     1
 74
     1
 75
     1
 76
     1
 77
     0
 78
     7
170
     0
171
     2
172
     0
173
     0
174
     0
175
     0
176
   256
177
   256
178
     2
  0
DIMSTYLE
  2
AM_ANSI$SH
 70
     0
  3

  4
mm
  5

  6

  7

 40
1.0
 41
0.1
 42
0.05
 43
0.5
 44
0.1
 45
0.0
 46
0.0
 47
0.1
 48
0.1
140
0.12
141
0.0
142
0.0
143
25.399999999999999
144
1.0
145
0.0
146
0.71
147
0.06
 71
     0
 72
     0
 73
     1
 74
     1
 75
     1
 76
     1
 77
     0
 78
     7
170
     0
171
     2
172
     0
173
     1
174
     0
175
     0
176
   256
177
   256
178
     2
  0
ENDTAB
  0
ENDSEC
  0
SECTION
  2
BLOCKS
  0
BLOCK
  8
0
  2
$MODEL_SPACE
 70
     0
 10
0.0
 20
0.0
 30
0.0
  3
$MODEL_SPACE
  1

  0
ENDBLK
  5
37D2
  8
0
  0
BLOCK
 67
     1
  8
0
  2
$PAPER_SPACE
 70
     0
 10
0.0
 20
0.0
 30
0.0
  3
$PAPER_SPACE
  1

  0
ENDBLK
  5
37CE
 67
     1
  8
0
  0
BLOCK
  8
0
  2
GENAXEH
 70
     0
 10
0.0
 20
0.0
 30
0.0
  3
GENAXEH
  1

  0
LINE
  5
352C
  8
0
 10
-1.0
 20
0.0
 30
0.0
 11
1.0
 21
0.0
 31
0.0
  0
ENDBLK
  5
352D
  8
0
  0
BLOCK
  8
0
  2
_OPEN30
 70
     0
 10
0.0
 20
0.0
 30
0.0
  3
_OPEN30
  1

  0
LINE
  5
3530
  8
0
 62
     0
 10
-1.0
 20
0.26794919
 30
0.0
 11
0.0
 21
0.0
 31
0.0
  0
LINE
  5
3531
  8
0
 62
     0
 10
0.0
 20
0.0
 30
0.0
 11
-1.0
 21
-0.26794919
 31
0.0
  0
LINE
  5
3532
  8
0
 62
     0
 10
0.0
 20
0.0
 30
0.0
 11
-1.0
 21
0.0
 31
0.0
  0
ENDBLK
  5
3533
  8
0
  0
BLOCK
  8
0
  2
_NONE
 70
     0
 10
0.0
 20
0.0
 30
0.0
  3
_NONE
  1

  0
ENDBLK
  5
3536
  8
0
  0
BLOCK
  8
0
  2
_ACMFILLEDHALF
 70
     0
 10
0.0
 20
0.0
 30
0.0
  3
_ACMFILLEDHALF
  1

  0
TRACE
  5
38CA
  8
AM_0
 62
     0
 10
-0.8
 20
0.0
 30
0.0
 11
-1.0
 21
0.166666666
 31
0.0
 12
0.0
 22
0.0
 32
0.0
 13
0.0
 23
0.0
 33
0.0
  0
LINE
  5
38CB
  8
AM_0
 62
     0
 10
-1.0
 20
0.0
 30
0.0
 11
-0.8
 21
0.0
 31
0.0
  0
ENDBLK
  5
38C9
  8
0
  0
ENDSEC
  0
SECTION
  2
ENTITIES
  0
LINE
  5
3537
  8
AM_0
 10
341.65505248947909
 20
409.62162482080078
 30
0.0
 11
341.65505248947909
 21
473.80806882080083
 31
0.0
  0
LINE
  5
3538
  8
AM_0
 10
367.22645548947912
 20
409.17527382080112
 30
0.0
 11
367.22645548947912
 21
474.25441882080111
 31
0.0
  0
LINE
  5
3539
  8
AM_0
 10
419.29690648947877
 20
373.15639582080109
 30
0.0
 11
419.29690648947877
 21
510.27329782080108
 31
0.0
  0
LINE
  5
353A
  8
AM_0
 10
336.296906489479
 20
412.44689782080093
 30
0.0
 11
336.296906489479
 21
470.98279582080079
 31
0.0
  0
LINE
  5
353B
  8
AM_0
 10
334.296906489479
 20
417.7148468208008
 30
0.0
 11
334.296906489479
 21
465.71484682080109
 31
0.0
  0
ARC
  5
353C
  8
AM_0
 10
510.93300648947888
 20
460.2301068208011
 30
0.0
 40
3.0000000500000001
 50
41.102821999999989
 51
90.000003000000007
  0
LINE
  5
353D
  8
AM_0
 10
431.29690648947877
 20
368.21484682080091
 30
0.0
 11
431.29690648947877
 21
515.21484682080074
 31
0.0
  0
LINE
  5
353E
  8
AM_0
 10
479.79690648947889
 20
346.48904682080109
 30
0.0
 11
479.79690648947889
 21
569.32948682080098
 31
0.0
  0
LINE
  5
353F
  8
AM_0
 10
465.79695648947887
 20
330.26727182080111
 30
0.0
 11
465.79695648947887
 21
569.71483682080111
 31
0.0
  0
LINE
  5
3540
  8
AM_0
 10
610.79695648947904
 20
479.7148168208011
 30
0.0
 11
610.79695648947904
 21
445.9574618208008
 31
0.0
  0
LINE
  5
3541
  8
AM_0
 10
582.79690648947894
 20
383.31268682080082
 30
0.0
 11
582.79690648947894
 21
555.56023682080081
 31
0.0
  0
LINE
  5
3542
  8
AM_0
 10
604.79690648947894
 20
479.7148168208011
 30
0.0
 11
604.79690648947894
 21
333.46081682080103
 31
0.0
  0
LINE
  5
3543
  8
AM_0
 10
562.79690648947894
 20
513.88769682080067
 30
0.0
 11
562.79690648947894
 21
337.71484682080091
 31
0.0
  0
LINE
  5
3544
  8
AM_0
 10
507.79690648947877
 20
459.72662682080079
 30
0.0
 11
507.79690648947877
 21
543.03913682080088
 31
0.0
  0
LINE
  5
3545
  8
AM_0
 10
492.79690648947889
 20
363.26321682080118
 30
0.0
 11
492.79690648947889
 21
571.71483682080111
 31
0.0
  0
LINE
  5
3546
  8
AM_0
 10
614.79690648947894
 20
457.2148168208011
 30
0.0
 11
614.79690648947894
 21
502.2148168208011
 31
0.0
  0
LINE
  5
3547
  8
AM_0
 10
684.79690648947894
 20
458.7148468208008
 30
0.0
 11
684.79690648947894
 21
503.7148468208008
 31
0.0
  0
LINE
  5
3548
  8
AM_0
 10
479.79690648947889
 20
456.72662682080079
 30
0.0
 11
492.79690648947889
 21
456.72662682080079
 31
0.0
  0
LINE
  5
3549
  8
AM_0
 10
479.79690648947889
 20
426.70303682080078
 30
0.0
 11
492.79690648947889
 21
426.70303682080078
 31
0.0
  0
LINE
  5
354A
  8
AM_0
 10
418.79690648947877
 20
304.714811820801
 30
0.0
 11
610.79695648947904
 21
304.714811820801
 31
0.0
  0
LINE
  5
354B
  8
AM_0
 10
496.74905648947907
 20
368.36267182080121
 30
0.0
 11
469.19900648947902
 21
332.81427182080103
 31
0.0
  0
LINE
  5
354C
  8
ﾁｭｳｼﾝｾﾝ1
 10
439.79690648947877
 20
334.222716820801
 30
0.0
 11
439.79690648947877
 21
299.82321182080102
 31
0.0
  0
LINE
  5
354D
  8
ｶｸﾚｾﾝ2
 10
430.29690648947889
 20
329.714811820801
 30
0.0
 11
430.29690648947889
 21
304.714811820801
 31
0.0
  0
LINE
  5
354E
  8
ｶｸﾚｾﾝ2
 10
449.29695648947887
 20
329.714811820801
 30
0.0
 11
449.29695648947887
 21
304.714811820801
 31
0.0
  0
LINE
  5
354F
  8
AM_0
 10
418.79690648947877
 20
325.7148418208011
 30
0.0
 11
418.79690648947877
 21
304.714811820801
 31
0.0
  0
LINE
  5
3550
  8
AM_0
 10
418.48483548947888
 20
371.28346482080121
 30
0.0
 11
369.73085448947887
 21
405.42136982080109
 31
0.0
  0
LINE
  5
3551
  8
ﾁｭｳｼﾝｾﾝ
 10
296.16573848497728
 20
441.71484682080109
 30
0.0
 11
472.35138185251191
 21
441.71484682080109
 31
0.0
  0
LINE
  5
3552
  8
AM_0
 10
304.296906489479
 20
453.71484682080109
 30
0.0
 11
326.29690648947889
 21
453.71484682080109
 31
0.0
  0
LINE
  5
3553
  8
AM_0
 10
304.296906489479
 20
451.21484682080091
 30
0.0
 11
332.296906489479
 21
451.21484682080091
 31
0.0
  0
LINE
  5
3554
  8
AM_0
 10
304.296906489479
 20
432.21484682080109
 30
0.0
 11
332.296906489479
 21
432.21484682080109
 31
0.0
  0
LINE
  5
3555
  8
AM_0
 10
304.296906489479
 20
432.21484682080109
 30
0.0
 11
304.296906489479
 21
451.21484682080091
 31
0.0
  0
LINE
  5
3556
  8
AM_0
 10
304.296906489479
 20
451.21484682080091
 30
0.0
 11
304.296906489479
 21
453.71484682080109
 31
0.0
  0
LINE
  5
3557
  8
AM_0
 10
342.43078748947892
 20
407.60777982080111
 30
0.0
 11
364.16961448947887
 21
407.2283268208011
 31
0.0
  0
LINE
  5
3558
  8
AM_0
 10
337.796906489479
 20
409.84882082080111
 30
0.0
 11
340.98314448947889
 21
408.0092458208008
 31
0.0
  0
ARC
  5
3559
  8
AM_0
 10
342.483144489479
 20
410.60732282080107
 30
0.0
 40
3.0
 50
239.99999999999949
 51
269.00000000000148
  0
LINE
  5
355A
  8
AM_0
 10
334.296906489479
 20
417.7148468208008
 30
0.0
 11
336.296906489479
 21
415.71484682080109
 31
0.0
  0
ARC
  5
355B
  8
AM_0
 10
339.29690648947889
 20
412.44689782080093
 30
0.0
 40
3.0
 50
180.0
 51
239.99999999999949
  0
ARC
  5
355C
  8
AM_0
 10
363.99509048947908
 20
397.22984982080078
 30
0.0
 40
10.0
 50
55.000000000002629
 51
89.000000000001506
  0
LINE
  5
355D
  8
AM_0
 10
332.296906489479
 20
431.7148468208008
 30
0.0
 11
332.296906489479
 21
451.7148468208008
 31
0.0
  0
LINE
  5
355E
  8
AM_0
 10
332.296906489479
 20
431.7148468208008
 30
0.0
 11
334.296906489479
 21
431.7148468208008
 31
0.0
  0
LINE
  5
355F
  8
AM_0
 10
332.296906489479
 20
451.7148468208008
 30
0.0
 11
334.296906489479
 21
451.7148468208008
 31
0.0
  0
LINE
  5
3560
  8
AM_0
 10
326.29690648947889
 20
451.21484682080091
 30
0.0
 11
326.29690648947889
 21
453.71484682080109
 31
0.0
  0
LINE
  5
3561
  8
AM_0
 10
429.296906489479
 20
380.20562182080079
 30
0.0
 11
429.296906489479
 21
400.24017082080081
 31
0.0
  0
ARC
  5
3562
  8
AM_0
 10
433.29695648947887
 20
365.14319182080078
 30
0.0
 40
3.0000000500000001
 50
0.0
 51
88.0
  0
LINE
  5
3563
  8
AM_0
 10
431.29690648947877
 20
380.13620182080081
 30
0.0
 11
465.79695648947887
 21
380.13620182080081
 31
0.0
  0
LINE
  5
3564
  8
AM_0
 10
422.79690648947877
 20
329.714811820801
 30
0.0
 11
462.8756064894788
 21
329.714811820801
 31
0.0
  0
ARC
  5
3565
  8
AM_0
 10
422.79690648947877
 20
325.7148418208011
 30
0.0
 40
4.000000049999997
 50
90.000003000000007
 51
180.00001
  0
ARC
  5
3566
  8
AM_0
 10
421.29690648947911
 20
370.21484682080091
 30
0.0
 40
2.0
 50
188.187984
 51
270.0
  0
ARC
  5
3567
  8
AM_0
 10
417.33768248947888
 20
369.64516082080121
 30
0.0
 40
2.0
 50
8.1879840000002062
 51
55.000000000002629
  0
LINE
  5
3568
  8
AM_0
 10
421.29690648947911
 20
368.21484682080091
 30
0.0
 11
431.29690648947877
 21
368.21484682080091
 31
0.0
  0
LINE
  5
3569
  8
AM_0
 10
431.2968564894789
 20
368.21484682080091
 30
0.0
 11
433.40155648947888
 21
368.141326820801
 31
0.0
  0
ARC
  5
356A
  8
AM_0
 10
421.29690648947911
 20
380.20562182080079
 30
0.0
 40
2.0
 50
180.0
 51
270.0
  0
LINE
  5
356B
  8
AM_0
 10
421.29690648947911
 20
378.20562182080079
 30
0.0
 11
427.29690648947877
 21
378.20562182080079
 31
0.0
  0
ARC
  5
356C
  8
AM_0
 10
427.29690648947877
 20
380.20562182080079
 30
0.0
 40
2.0
 50
270.0
 51
0.0
  0
ARC
  5
356D
  8
AM_0
 10
462.79690648947889
 20
353.88495182080101
 30
0.0
 40
3.0000000500000001
 50
0.0
 51
84.999996999999979
  0
ARC
  5
356E
  8
AM_0
 10
462.8756064894788
 20
337.71484682080091
 30
0.0
 40
8.0
 50
270.0
 51
322.22431999999992
  0
LINE
  5
356F
  8
AM_0
 10
439.03545648947892
 20
358.97525182080108
 30
0.0
 11
463.05840648947878
 21
356.87350682080108
 31
0.0
  0
LINE
  5
3570
  8
AM_0
 10
436.296906489479
 20
361.96380682080093
 30
0.0
 11
436.296906489479
 21
379.7148168208011
 31
0.0
  0
ARC
  5
3571
  8
AM_0
 10
439.29695648947887
 20
361.96380682080093
 30
0.0
 40
3.0000000500000001
 50
179.99998999999991
 51
265.0
  0
LINE
  5
3572
  8
AM_0
 10
431.29690648947877
 20
402.24014682080082
 30
0.0
 11
465.79695648947887
 21
402.24014682080082
 31
0.0
  0
LINE
  5
3573
  8
AM_0
 10
421.29690648947911
 20
402.24017082080093
 30
0.0
 11
429.296906489479
 21
402.24017082080093
 31
0.0
  0
ARC
  5
3574
  8
AM_0
 10
431.29690648947877
 20
400.24017082080081
 30
0.0
 40
2.0
 50
120.0000000000005
 51
180.0
  0
LINE
  5
3575
  8
ﾁｭｳｼﾝｾﾝ1
 10
589.79690648947894
 20
334.22271682080111
 30
0.0
 11
589.79690648947894
 21
299.82321182080102
 31
0.0
  0
LINE
  5
3576
  8
ｶｸﾚｾﾝ2
 10
599.29695648947904
 20
329.714811820801
 30
0.0
 11
599.29695648947904
 21
304.714811820801
 31
0.0
  0
LINE
  5
3577
  8
AM_0
 10
610.79695648947904
 20
325.7148418208011
 30
0.0
 11
610.79695648947904
 21
304.714811820801
 31
0.0
  0
LINE
  5
3578
  8
ｶｸﾚｾﾝ2
 10
580.29690648947894
 20
329.714811820801
 30
0.0
 11
580.29690648947894
 21
304.714811820801
 31
0.0
  0
LINE
  5
3579
  8
AM_0
 10
570.79695648947904
 20
329.714811820801
 30
0.0
 11
606.79695648947904
 21
329.714811820801
 31
0.0
  0
LINE
  5
357A
  8
AM_0
 10
497.79690648947877
 20
415.52673682080109
 30
0.0
 11
497.79690648947877
 21
369.71481682080088
 31
0.0
  0
ARC
  5
357B
  8
AM_0
 10
492.79690648947889
 20
371.42553682080091
 30
0.0
 40
5.0
 50
322.22431999999992
 51
0.0
  0
ARC
  5
357C
  8
AM_0
 10
570.79695648947904
 20
337.71484682080091
 30
0.0
 40
8.0
 50
180.00001
 51
270.0
  0
LINE
  5
357D
  8
AM_0
 10
574.79690648947894
 20
375.3127168208008
 30
0.0
 11
566.28015648947894
 21
375.3127168208008
 31
0.0
  0
ARC
  5
357E
  8
AM_0
 10
574.79690648947894
 20
383.31268682080082
 30
0.0
 40
8.0
 50
270.0
 51
0.0
  0
LINE
  5
357F
  8
AM_0
 10
510.55465648947887
 20
423.79989682080088
 30
0.0
 11
523.79050648947884
 21
433.7098718208008
 31
0.0
  0
LINE
  5
3580
  8
AM_0
 10
492.79690648947889
 20
425.10452682080091
 30
0.0
 11
504.79690648947889
 21
425.10452682080091
 31
0.0
  0
LINE
  5
3581
  8
AM_0
 10
497.79690648947877
 20
415.52673682080109
 30
0.0
 11
507.79690648947877
 21
415.52673682080109
 31
0.0
  0
ARC
  5
3582
  8
AM_0
 10
504.79690648947889
 20
422.104491820801
 30
0.0
 40
3.0000000500000001
 50
0.0
 51
90.000003000000007
  0
LINE
  5
3583
  8
AM_0
 10
507.79690648947877
 20
422.104491820801
 30
0.0
 11
507.79690648947877
 21
415.52673682080109
 31
0.0
  0
LINE
  5
3584
  8
AM_0
 10
513.19360648947895
 20
462.20242682080112
 30
0.0
 11
525.33225648947894
 21
448.2890018208011
 31
0.0
  0
LINE
  5
3585
  8
AM_0
 10
512.29690648947894
 20
454.20267182080107
 30
0.0
 11
512.29690648947894
 21
427.09051682080087
 31
0.0
  0
LINE
  5
3586
  8
AM_0
 10
492.79690648947889
 20
456.72662682080079
 30
0.0
 11
504.79690648947889
 21
456.72662682080079
 31
0.0
  0
ARC
  5
3587
  8
AM_0
 10
504.79690648947889
 20
459.72662682080079
 30
0.0
 40
3.0000000500000001
 50
270.0
 51
0.0
  0
ARC
  5
3588
  8
AM_0
 10
517.79690648947894
 20
441.71484682080109
 30
0.0
 40
10.0
 50
306.82303999999999
 51
41.102821999999989
  0
ARC
  5
3589
  8
AM_0
 10
606.79695648947904
 20
325.7148418208011
 30
0.0
 40
4.000000049999997
 50
0.0
 51
90.000003000000007
  0
ARC
  5
358A
  8
AM_0
 10
608.79690648947906
 20
333.46081682080103
 30
0.0
 40
4.000000049999997
 50
179.99998999999991
 51
255.52249
  0
LINE
  5
358B
  8
AM_0
 10
614.79690648947894
 20
458.7148468208008
 30
0.0
 11
684.79690648947894
 21
458.7148468208008
 31
0.0
  0
ARC
  5
358C
  8
AM_0
 10
607.79690648947894
 20
445.9574618208008
 30
0.0
 40
3.0000000500000001
 50
315.0
 51
0.0
  0
ARC
  5
358D
  8
AM_0
 10
607.79690648947894
 20
437.4722018208011
 30
0.0
 40
3.0000000500000001
 50
135.0
 51
180.00001
  0
LINE
  5
358E
  8
AM_0
 10
605.67570648947913
 20
439.5934768208009
 30
0.0
 11
609.91835648947904
 21
443.836121820801
 31
0.0
  0
LINE
  5
358F
  8
AM_0
 10
610.79695648947904
 20
457.2148168208011
 30
0.0
 11
614.79690648947894
 21
457.2148168208011
 31
0.0
  0
ARC
  5
3590
  8
AM_0
 10
476.79695648947887
 20
592.21483682080111
 30
0.0
 40
20.500000499999992
 50
304.61363999999992
 51
235.38634999999999
  0
CIRCLE
  5
3591
  8
AM_0
 10
476.79695648947887
 20
592.21483682080111
 30
0.0
 40
12.5
  0
LINE
  5
3592
  8
AM_0
 10
481.72720648947887
 20
571.32833682080104
 30
0.0
 11
492.7969564894791
 21
571.71488682080121
 31
0.0
  0
LINE
  5
3593
  8
AM_0
 10
479.79690648947889
 20
564.29813682080112
 30
0.0
 11
492.79690648947889
 21
564.29813682080112
 31
0.0
  0
LINE
  5
3594
  8
AM_0
 10
479.79690648947889
 20
546.03908682080078
 30
0.0
 11
492.79690648947889
 21
546.03908682080078
 31
0.0
  0
LINE
  5
3595
  8
ﾁｭｳｼﾝｾﾝ
 10
455.38550648947881
 20
479.7148168208011
 30
0.0
 11
689.26835648947872
 21
479.7148168208011
 31
0.0
  0
LINE
  5
3596
  8
AM_0
 10
481.05295648947907
 20
562.95838682080125
 30
0.0
 11
507.79690648947877
 21
562.95838682080125
 31
0.0
  0
LINE
  5
3597
  8
AM_0
 10
418.48483548947888
 20
512.14622782080119
 30
0.0
 11
369.73085448947887
 21
478.00832282080108
 31
0.0
  0
LINE
  5
3598
  8
AM_0
 10
364.16961448947887
 20
476.20136682080118
 30
0.0
 11
342.43078748947892
 21
475.82191382080111
 31
0.0
  0
ARC
  5
3599
  8
AM_0
 10
339.29690648947889
 20
470.98279582080079
 30
0.0
 40
3.0
 50
120.0000000000005
 51
180.0
  0
LINE
  5
359A
  8
AM_0
 10
336.296906489479
 20
467.71484682080091
 30
0.0
 11
334.296906489479
 21
465.71484682080109
 31
0.0
  0
ARC
  5
359B
  8
AM_0
 10
342.483144489479
 20
472.82237082080121
 30
0.0
 40
3.0
 50
90.999999999998494
 51
120.0000000000005
  0
LINE
  5
359C
  8
AM_0
 10
340.98314448947889
 20
475.42044682080081
 30
0.0
 11
337.796906489479
 21
473.58087182080112
 31
0.0
  0
ARC
  5
359D
  8
AM_0
 10
363.99509048947908
 20
486.19984382080111
 30
0.0
 40
10.0
 50
270.99999999999841
 51
304.99999999999739
  0
LINE
  5
359E
  8
AM_0
 10
431.29690648947877
 20
503.29346182080093
 30
0.0
 11
465.79695648947887
 21
503.29346182080093
 31
0.0
  0
LINE
  5
359F
  8
AM_0
 10
431.29690648947877
 20
481.18951682080092
 30
0.0
 11
465.79695648947887
 21
481.18951682080092
 31
0.0
  0
LINE
  5
35A0
  8
AM_0
 10
431.29690648947877
 20
515.21487682080067
 30
0.0
 11
460.9714564894789
 21
516.25113182080065
 31
0.0
  0
LINE
  5
35A1
  8
AM_0
 10
429.296906489479
 20
503.2240718208011
 30
0.0
 11
429.296906489479
 21
483.18952182080108
 31
0.0
  0
LINE
  5
35A2
  8
AM_0
 10
421.29690648947911
 20
481.18952182080079
 30
0.0
 11
429.296906489479
 21
481.18952182080079
 31
0.0
  0
ARC
  5
35A3
  8
AM_0
 10
431.29690648947877
 20
483.18952182080108
 30
0.0
 40
2.0
 50
180.0
 51
239.99999999999949
  0
ARC
  5
35A4
  8
AM_0
 10
421.29690648947911
 20
513.21484682080097
 30
0.0
 40
2.0
 50
90.0
 51
171.8120159999998
  0
ARC
  5
35A5
  8
AM_0
 10
421.29690648947911
 20
503.2240718208011
 30
0.0
 40
2.0
 50
90.0
 51
180.0
  0
ARC
  5
35A6
  8
AM_0
 10
417.33768248947888
 20
513.78453182080113
 30
0.0
 40
2.0
 50
304.99999999999739
 51
351.81201599999991
  0
ARC
  5
35A7
  8
AM_0
 10
427.29690648947877
 20
503.2240718208011
 30
0.0
 40
2.0
 50
0.0
 51
90.0
  0
LINE
  5
35A8
  8
AM_0
 10
421.29690648947911
 20
505.22407182080082
 30
0.0
 11
427.29690648947877
 21
505.22407182080082
 31
0.0
  0
LINE
  5
35A9
  8
AM_0
 10
421.29690648947911
 20
515.21484682080074
 30
0.0
 11
431.29690648947877
 21
515.21484682080074
 31
0.0
  0
ARC
  5
35AA
  8
AM_0
 10
460.79695648947887
 20
521.24808182080096
 30
0.0
 40
5.0
 50
272.0
 51
0.0
  0
ARC
  5
35AB
  8
AM_0
 10
467.79690648947889
 20
569.71483682080111
 30
0.0
 40
2.0000000500000001
 50
131.4096199999999
 51
180.00001
  0
ARC
  5
35AC
  8
AM_0
 10
481.79695648947887
 20
569.32948682080098
 30
0.0
 40
2.0000000500000001
 50
91.999997999999948
 51
180.00001
  0
LINE
  5
35AD
  8
AM_0
 10
468.27595648947909
 20
558.79383682080106
 30
0.0
 11
477.31780648947893
 21
560.38818682080114
 31
0.0
  0
ARC
  5
35AE
  8
AM_0
 10
468.79690648947877
 20
555.83943682080076
 30
0.0
 40
3.0000000500000001
 50
100.0
 51
180.00001
  0
ARC
  5
35AF
  8
AM_0
 10
476.79695648947887
 20
563.34253682080112
 30
0.0
 40
3.0000000500000001
 50
280.0
 51
0.0
  0
LINE
  5
35B0
  8
AM_0
 10
469.29365648947902
 20
578.32958682080096
 30
0.0
 11
476.79705648947902
 21
579.71488682080121
 31
0.0
  0
LINE
  5
35B1
  8
AM_0
 10
468.97975648947892
 20
578.21488682080121
 30
0.0
 11
484.61405648947903
 21
578.21488682080121
 31
0.0
  0
LINE
  5
35B2
  8
AM_0
 10
466.47405648947893
 20
571.21483682080111
 30
0.0
 11
481.12960648947887
 21
571.21483682080111
 31
0.0
  0
ARC
  5
35B3
  8
AM_0
 10
469.47505648947902
 20
577.34613682080101
 30
0.0
 40
1.0
 50
100.4607199999999
 51
164.99999
  0
ARC
  5
35B4
  8
AM_0
 10
462.87990648947903
 20
572.051336820801
 30
0.0
 40
4.000000049999997
 50
347.92932999999999
 51
55.386358999999992
  0
LINE
  5
35B5
  8
AM_0
 10
466.79695648947882
 20
571.21483682080111
 30
0.0
 11
468.5091564894791
 21
577.60498682080095
 31
0.0
  0
ARC
  5
35B6
  8
AM_0
 10
484.1188064894788
 20
577.34613682080101
 30
0.0
 40
1.0
 50
15.0
 51
79.539281000000003
  0
ARC
  5
35B7
  8
AM_0
 10
490.71390648947892
 20
572.051336820801
 30
0.0
 40
4.000000049999997
 50
124.61365000000001
 51
187.86824999999999
  0
LINE
  5
35B8
  8
AM_0
 10
476.7968564894789
 20
579.71488682080121
 30
0.0
 11
484.30025648947878
 21
578.32953682080085
 31
0.0
  0
LINE
  5
35B9
  8
AM_0
 10
486.71975648947893
 20
571.50268682080105
 30
0.0
 11
485.0846564894789
 21
577.60493682080119
 31
0.0
  0
LINE
  5
35BA
  8
AM_0
 10
590.79695648947904
 20
539.71483682080111
 30
0.0
 11
601.79695648947904
 21
539.71483682080111
 31
0.0
  0
ARC
  5
35BB
  8
AM_0
 10
572.79690648947894
 20
513.88769682080067
 30
0.0
 40
10.0
 50
90.000003000000007
 51
180.00001
  0
LINE
  5
35BC
  8
AM_0
 10
577.85520648947909
 20
523.88768682080081
 30
0.0
 11
572.79690648947894
 21
523.88768682080081
 31
0.0
  0
LINE
  5
35BD
  8
AM_0
 10
509.72715648947877
 20
565.83738682080104
 30
0.0
 11
575.07615648947865
 21
563.55543682080122
 31
0.0
  0
ARC
  5
35BE
  8
AM_0
 10
505.79695648947887
 20
569.25963682080123
 30
0.0
 40
2.0000000500000001
 50
0.0
 51
88.0
  0
LINE
  5
35BF
  8
AM_0
 10
512.99595648947889
 20
563.89183682080102
 30
0.0
 11
522.82200648947889
 21
558.1807368208008
 31
0.0
  0
LINE
  5
35C0
  8
AM_0
 10
509.16335648947887
 20
536.1086868208007
 30
0.0
 11
520.96475648947887
 21
540.05013682080096
 31
0.0
  0
LINE
  5
35C1
  8
AM_0
 10
512.29690648947894
 20
541.19048682080108
 30
0.0
 11
512.29690648947894
 21
562.36373682080091
 31
0.0
  0
LINE
  5
35C2
  8
AM_0
 10
492.79690648947889
 20
546.03908682080078
 30
0.0
 11
504.79690648947889
 21
546.03908682080078
 31
0.0
  0
ARC
  5
35C3
  8
AM_0
 10
511.80920648947881
 20
540.15513682080109
 30
0.0
 40
3.0000000500000001
 50
270.0
 51
288.46821999999992
  0
ARC
  5
35C4
  8
AM_0
 10
504.79690648947889
 20
543.03913682080088
 30
0.0
 40
3.0000000500000001
 50
0.0
 51
90.000003000000007
  0
LINE
  5
35C5
  8
AM_0
 10
492.79690648947889
 20
564.29813682080112
 30
0.0
 11
511.4884064894789
 21
564.29813682080112
 31
0.0
  0
ARC
  5
35C6
  8
AM_0
 10
509.79690648947889
 20
567.836186820801
 30
0.0
 40
2.0000000500000001
 50
179.99998999999991
 51
268.00000999999992
  0
ARC
  5
35C7
  8
AM_0
 10
511.4884064894789
 20
561.29813682080112
 30
0.0
 40
3.0000000500000001
 50
59.833878000000013
 51
90.000003000000007
  0
LINE
  5
35C8
  8
AM_0
 10
507.79690648947877
 20
564.29813682080112
 30
0.0
 11
507.79690648947877
 21
569.25963682080123
 31
0.0
  0
ARC
  5
35C9
  8
AM_0
 10
517.79690648947894
 20
549.53498682080112
 30
0.0
 40
10.0
 50
288.46821
 51
59.833878000000013
  0
LINE
  5
35CA
  8
AM_0
 10
492.7969564894791
 20
571.71483682080111
 30
0.0
 11
505.86670648947887
 21
571.25843682080085
 31
0.0
  0
LINE
  5
35CB
  8
AM_0
 10
490.79695648947887
 20
571.64503682080112
 30
0.0
 11
490.79695648947887
 21
571.71483682080111
 31
0.0
  0
LINE
  5
35CC
  8
AM_0
 10
490.79695648947887
 20
571.71483682080111
 30
0.0
 11
492.79690648947889
 21
571.71483682080111
 31
0.0
  0
ARC
  5
35CD
  8
AM_0
 10
590.79695648947904
 20
547.71483682080111
 30
0.0
 40
8.0
 50
180.00001
 51
270.0
  0
ARC
  5
35CE
  8
AM_0
 10
574.79690648947894
 20
555.56023682080081
 30
0.0
 40
8.0
 50
0.0
 51
88.0
  0
LINE
  5
35CF
  8
AM_0
 10
604.79690648947894
 20
479.7148168208011
 30
0.0
 11
604.79690648947894
 21
536.71483682080111
 31
0.0
  0
LINE
  5
35D0
  8
AM_0
 10
614.79690648947894
 20
500.7148468208008
 30
0.0
 11
684.79690648947894
 21
500.7148468208008
 31
0.0
  0
LINE
  5
35D1
  8
AM_0
 10
628.79690648947917
 20
503.7148468208008
 30
0.0
 11
684.79690648947894
 21
503.7148468208008
 31
0.0
  0
LINE
  5
35D2
  8
AM_0
 10
610.79695648947904
 20
479.7148168208011
 30
0.0
 11
610.79695648947904
 21
519.47220182080105
 31
0.0
  0
LINE
  5
35D3
  8
AM_0
 10
610.79695648947904
 20
502.2148168208011
 30
0.0
 11
614.79690648947894
 21
502.2148168208011
 31
0.0
  0
ARC
  5
35D4
  8
AM_0
 10
607.79690648947894
 20
527.95748682080114
 30
0.0
 40
3.0000000500000001
 50
179.99998999999991
 51
225.0
  0
ARC
  5
35D5
  8
AM_0
 10
607.79690648947894
 20
519.47220182080105
 30
0.0
 40
3.0000000500000001
 50
0.0
 51
45.00000099999999
  0
LINE
  5
35D6
  8
AM_0
 10
605.67570648947913
 20
525.83613682080113
 30
0.0
 11
609.91835648947904
 21
521.59344682080086
 31
0.0
  0
LINE
  5
35D7
  8
AM_0
 10
628.79690648947917
 20
503.7148468208008
 30
0.0
 11
628.79690648947917
 21
500.7148468208008
 31
0.0
  0
ARC
  5
35D8
  8
AM_0
 10
601.79695648947904
 20
536.71483682080111
 30
0.0
 40
3.0000000500000001
 50
0.0
 51
90.000003000000007
  0
ARC
  5
35D9
  8
AM_0
 10
1072.005388659049
 20
465.66131682080118
 30
0.0
 40
5.0
 50
190.65618000000001
 51
225.0
  0
ARC
  5
35DA
  8
AM_0
 10
817.47195865904962
 20
465.66131682080118
 30
0.0
 40
5.0
 50
315.0
 51
349.34381999999982
  0
ARC
  5
35DB
  8
AM_0
 10
944.73869365904966
 20
441.71484682080109
 30
0.0
 40
130.0
 50
7.3755071999999986
 51
52.624493999999991
  0
ARC
  5
35DC
  8
AM_0
 10
944.73869365904966
 20
451.7148468208008
 30
0.0
 40
88.0
 50
0.0
 51
186.52497999999991
  0
CIRCLE
  5
35DD
  8
AM_0
 10
944.73869365904966
 20
479.7148168208011
 30
0.0
 40
41.000000499999992
  0
ARC
  5
35DE
  8
AM_0
 10
944.73869365904966
 20
441.71484682080109
 30
0.0
 40
124.5
 50
7.1014839000000007
 51
172.89851999999991
  0
ARC
  5
35DF
  8
AM_0
 10
944.73869365904966
 20
441.71484682080109
 30
0.0
 40
130.0
 50
127.3754999999999
 51
172.62448999999989
  0
ARC
  5
35E0
  8
AM_0
 10
944.73869365904966
 20
479.7148168208011
 30
0.0
 40
20.9999985
 50
106.60155
 51
73.398452000000006
  0
LINE
  5
35E1
  8
AM_0
 10
1038.738668659048
 20
523.34968682080091
 30
0.0
 11
1038.738668659048
 21
404.10019182080077
 31
0.0
  0
LINE
  5
35E2
  8
AM_0
 10
850.73870865904973
 20
523.34968682080091
 30
0.0
 11
850.73870865904973
 21
407.7049868208008
 31
0.0
  0
LINE
  5
35E3
  8
ﾁｭｳｼﾝｾﾝ
 10
944.73869365904966
 20
614.25753682080085
 30
0.0
 11
944.73869365904966
 21
303.74524182080103
 31
0.0
  0
LINE
  5
35E4
  8
AM_0
 10
874.38423365904941
 20
319.445496820801
 30
0.0
 11
1015.093128659048
 21
319.445496820801
 31
0.0
  0
LINE
  5
35E5
  8
AM_0
 10
877.73869365904955
 20
324.714811820801
 30
0.0
 11
1011.7386636590491
 21
324.714811820801
 31
0.0
  0
LINE
  5
35E6
  8
AM_0
 10
863.73866365904951
 20
309.714811820801
 30
0.0
 11
1026.104478659048
 21
309.714811820801
 31
0.0
  0
LINE
  5
35E7
  8
ﾁｭｳｼﾝｾﾝ
 10
800.47310865904956
 20
441.71484682080109
 30
0.0
 11
1088.5931586590491
 21
441.71484682080109
 31
0.0
  0
ARC
  5
35E8
  8
AM_0
 10
874.38423365904941
 20
314.44549682080088
 30
0.0
 40
5.0
 50
90.000003000000007
 51
166.18078
  0
ARC
  5
35E9
  8
AM_0
 10
877.73869365904955
 20
316.71484182080093
 30
0.0
 40
8.0
 50
90.000003000000007
 51
177.00553999999991
  0
LINE
  5
35EA
  8
ｶｸﾚｾﾝ2
 10
839.23870865904951
 20
329.714811820801
 30
0.0
 11
839.23870865904951
 21
304.714811820801
 31
0.0
  0
LINE
  5
35EB
  8
AM_0
 10
856.03871365904945
 20
325.7148418208011
 30
0.0
 11
856.03871365904945
 21
304.714811820801
 31
0.0
  0
LINE
  5
35EC
  8
ｶｸﾚｾﾝ2
 10
820.23870865904985
 20
329.714811820801
 30
0.0
 11
820.23870865904985
 21
304.714811820801
 31
0.0
  0
LINE
  5
35ED
  8
AM_0
 10
804.73870865904973
 20
324.714811820801
 30
0.0
 11
804.73870865904973
 21
304.714811820801
 31
0.0
  0
LINE
  5
35EE
  8
ﾁｭｳｼﾝｾﾝ1
 10
829.73870865904973
 20
334.22271682080111
 30
0.0
 11
829.73870865904973
 21
299.82321182080102
 31
0.0
  0
LINE
  5
35EF
  8
AM_0
 10
804.73870865904973
 20
304.714811820801
 30
0.0
 11
859.73869365904955
 21
304.714811820801
 31
0.0
  0
ARC
  5
35F0
  8
AM_0
 10
861.76051365904959
 20
317.550661820801
 30
0.0
 40
8.0
 50
279.48829999999998
 51
357.00554
  0
ARC
  5
35F1
  8
AM_0
 10
863.73866365904951
 20
305.7148418208011
 30
0.0
 40
4.000000049999997
 50
99.488295999999963
 51
180.00001
  0
LINE
  5
35F2
  8
AM_0
 10
859.73869365904955
 20
305.7148418208011
 30
0.0
 11
859.73869365904955
 21
304.714811820801
 31
0.0
  0
ARC
  5
35F3
  8
AM_0
 10
944.73869365904966
 20
407.7049868208008
 30
0.0
 40
93.999994999999984
 50
179.99998999999991
 51
200.58195999999981
  0
LINE
  5
35F4
  8
AM_0
 10
856.73869365904943
 20
441.71484682080109
 30
0.0
 11
856.73869365904943
 21
337.71484682080091
 31
0.0
  0
LINE
  5
35F5
  8
AM_0
 10
821.19370865904966
 20
457.10644682080078
 30
0.0
 11
804.77700865904956
 21
325.33297682080092
 31
0.0
  0
ARC
  5
35F6
  8
AM_0
 10
848.73865865904963
 20
337.71484682080091
 30
0.0
 40
8.0
 50
270.0
 51
0.0
  0
LINE
  5
35F7
  8
AM_0
 10
809.73870865904951
 20
329.714811820801
 30
0.0
 11
852.03868365904964
 21
329.714811820801
 31
0.0
  0
ARC
  5
35F8
  8
AM_0
 10
809.73870865904951
 20
324.714811820801
 30
0.0
 40
5.0
 50
90.000003000000007
 51
180.00001
  0
ARC
  5
35F9
  8
AM_0
 10
852.03868365904964
 20
325.7148418208011
 30
0.0
 40
4.000000049999997
 50
0.0
 51
90.000003000000007
  0
ARC
  5
35FA
  8
AM_0
 10
810.85570865904947
 20
424.38467682080091
 30
0.0
 40
5.0
 50
7.3755080999999967
 51
45.00000099999999
  0
ARC
  5
35FB
  8
AM_0
 10
811.9430586590496
 20
423.2972418208011
 30
0.0
 40
5.0
 50
352.89852000000002
 51
45.00000099999999
  0
ARC
  5
35FC
  8
AM_0
 10
944.73869365904966
 20
441.71484682080109
 30
0.0
 40
130.0
 50
187.37550999999999
 51
189.62446
  0
ARC
  5
35FD
  8
AM_0
 10
814.73870865904962
 20
441.71484682080109
 30
0.0
 40
10.0
 50
135.0
 51
225.0
  0
LINE
  5
35FE
  8
AM_0
 10
807.66765865904904
 20
434.6437418208011
 30
0.0
 11
815.47860865904966
 21
426.832766820801
 31
0.0
  0
LINE
  5
35FF
  8
AM_0
 10
807.66765865904904
 20
448.78586182080107
 30
0.0
 11
821.00755865904955
 21
462.12576682080078
 31
0.0
  0
ARC
  5
3600
  8
AM_0
 10
810.85570865904947
 20
459.0450168208007
 30
0.0
 40
5.0
 50
315.0
 51
352.62448999999998
  0
ARC
  5
3601
  8
AM_0
 10
1015.093128659048
 20
314.44549682080088
 30
0.0
 40
5.0
 50
13.819217
 51
90.000003000000007
  0
ARC
  5
3602
  8
AM_0
 10
1011.7386636590491
 20
316.71484182080093
 30
0.0
 40
8.0
 50
2.9944643999999991
 51
90.000003000000007
  0
LINE
  5
3603
  8
AM_0
 10
1084.7386986590491
 20
324.714811820801
 30
0.0
 11
1084.7386986590491
 21
304.714811820801
 31
0.0
  0
LINE
  5
3604
  8
ｶｸﾚｾﾝ2
 10
1050.238668659048
 20
329.714811820801
 30
0.0
 11
1050.238668659048
 21
304.714811820801
 31
0.0
  0
LINE
  5
3605
  8
ｶｸﾚｾﾝ2
 10
1069.238668659048
 20
329.714811820801
 30
0.0
 11
1069.238668659048
 21
304.714811820801
 31
0.0
  0
LINE
  5
3606
  8
AM_0
 10
1033.438678659048
 20
325.7148418208011
 30
0.0
 11
1033.438678659048
 21
304.714811820801
 31
0.0
  0
LINE
  5
3607
  8
ﾁｭｳｼﾝｾﾝ1
 10
1059.7386986590491
 20
333.56500182080077
 30
0.0
 11
1059.7386986590491
 21
297.73931682080081
 31
0.0
  0
LINE
  5
3608
  8
AM_0
 10
1029.7386986590491
 20
304.714811820801
 30
0.0
 11
1084.7386986590491
 21
304.714811820801
 31
0.0
  0
ARC
  5
3609
  8
AM_0
 10
1025.7386986590491
 20
305.7148418208011
 30
0.0
 40
4.000000049999997
 50
0.0
 51
80.511701999999985
  0
ARC
  5
360A
  8
AM_0
 10
1027.716848659049
 20
317.550661820801
 30
0.0
 40
8.0
 50
182.99446
 51
260.51170000000002
  0
LINE
  5
360B
  8
AM_0
 10
1029.7386986590491
 20
305.7148418208011
 30
0.0
 11
1029.7386986590491
 21
304.714811820801
 31
0.0
  0
ARC
  5
360C
  8
AM_0
 10
944.73869365904966
 20
407.7049868208008
 30
0.0
 40
93.999994999999984
 50
339.95001999999982
 51
20.049976000000001
  0
LINE
  5
360D
  8
AM_0
 10
1032.738668659048
 20
451.7148468208008
 30
0.0
 11
1032.738668659048
 21
337.71484682080091
 31
0.0
  0
LINE
  5
360E
  8
AM_0
 10
1068.283618659048
 20
457.10644682080078
 30
0.0
 11
1084.7003386590491
 21
325.33300682080107
 31
0.0
  0
LINE
  5
360F
  8
AM_0
 10
1040.738668659048
 20
329.714811820801
 30
0.0
 11
1079.7386986590491
 21
329.714811820801
 31
0.0
  0
ARC
  5
3610
  8
AM_0
 10
1040.738668659048
 20
337.71484682080091
 30
0.0
 40
8.0
 50
180.00001
 51
270.0
  0
ARC
  5
3611
  8
AM_0
 10
1037.438678659048
 20
325.7148418208011
 30
0.0
 40
4.000000049999997
 50
90.000003000000007
 51
180.00001
  0
ARC
  5
3612
  8
AM_0
 10
1037.738668659048
 20
373.76385682080092
 30
0.0
 40
5.0
 50
159.95003
 51
180.00001
  0
ARC
  5
3613
  8
AM_0
 10
1079.7386986590491
 20
324.714811820801
 30
0.0
 40
5.0
 50
0.0
 51
90.000003000000007
  0
LINE
  5
3614
  8
AM_0
 10
1081.809743659049
 20
448.78592182080109
 30
0.0
 11
1068.4698686590491
 21
462.1257968208011
 31
0.0
  0
ARC
  5
3615
  8
AM_0
 10
1037.738668659048
 20
441.6460918208009
 30
0.0
 40
5.0
 50
179.99998999999991
 51
200.04997
  0
ARC
  5
3616
  8
AM_0
 10
1078.621693659049
 20
424.38467682080091
 30
0.0
 40
5.0
 50
135.0
 51
172.62448999999989
  0
ARC
  5
3617
  8
AM_0
 10
1077.534288659049
 20
423.2972418208011
 30
0.0
 40
5.0
 50
135.0
 51
187.1014899999999
  0
ARC
  5
3618
  8
AM_0
 10
944.73869365904966
 20
441.71484682080109
 30
0.0
 40
130.0
 50
350.37554999999998
 51
352.62448999999998
  0
ARC
  5
3619
  8
AM_0
 10
1074.7386986590491
 20
441.71484682080109
 30
0.0
 40
10.0
 50
315.0
 51
45.00000099999999
  0
LINE
  5
361A
  8
AM_0
 10
1081.809743659049
 20
434.64380182080117
 30
0.0
 11
1073.998738659049
 21
426.83282682080079
 31
0.0
  0
ARC
  5
361B
  8
AM_0
 10
1078.621693659049
 20
459.0450168208007
 30
0.0
 40
5.0
 50
187.37550999999999
 51
225.0
  0
ARC
  5
361C
  8
AM_0
 10
944.73869365904966
 20
441.71484682080109
 30
0.0
 40
130.0
 50
67.375506000000001
 51
112.62448999999999
  0
LINE
  5
361D
  8
ﾁｭｳｼﾝｾﾝ
 10
872.23157635862913
 20
479.71481682080088
 30
0.0
 11
1018.177648043486
 21
479.71481682080088
 31
0.0
  0
ARC
  5
361E
  8
AM_0
 10
879.73869365904955
 20
554.29813682080089
 30
0.0
 40
10.0
 50
74.999999000000003
 51
164.99999
  0
LINE
  5
361F
  8
AM_0
 10
870.07942365904944
 20
556.88633682080081
 30
0.0
 11
865.19667365904945
 21
538.66368682080122
 31
0.0
  0
ARC
  5
3620
  8
AM_0
 10
862.78880365904956
 20
548.99583682080095
 30
0.0
 40
5.0
 50
307.37551000000002
 51
345.0
  0
ARC
  5
3621
  8
AM_0
 10
860.36705365904947
 20
539.95778682080106
 30
0.0
 40
5.0
 50
310.65618000000001
 51
345.0
  0
LINE
  5
3622
  8
AM_0
 10
882.32685865904955
 20
563.95738682080105
 30
0.0
 11
900.54948365904954
 21
559.07468682080105
 31
0.0
  0
ARC
  5
3623
  8
AM_0
 10
892.80555865904955
 20
566.32603682080105
 30
0.0
 40
5.0
 50
255.0
 51
292.62448999999998
  0
ARC
  5
3624
  8
AM_0
 10
901.84361365904942
 20
563.90428682080085
 30
0.0
 40
5.0
 50
255.0
 51
289.34381999999982
  0
ARC
  5
3625
  8
AM_0
 10
944.73869365904966
 20
608.71483682080111
 30
0.0
 40
4.000000049999997
 50
359.99998999999991
 51
179.99998999999991
  0
LINE
  5
3626
  8
AM_0
 10
948.73866365904939
 20
608.71483682080111
 30
0.0
 11
948.73866365904939
 21
575.21483682080088
 31
0.0
  0
LINE
  5
3627
  8
AM_0
 10
940.73869365904955
 20
608.71483682080111
 30
0.0
 11
940.73869365904955
 21
575.21483682080088
 31
0.0
  0
ARC
  5
3628
  8
AM_0
 10
1009.738698659049
 20
554.29813682080089
 30
0.0
 40
10.0
 50
15.0
 51
104.9999999999998
  0
LINE
  5
3629
  8
AM_0
 10
938.73866365904928
 20
503.7148468208008
 30
0.0
 11
938.73866365904928
 21
495.71484682080109
 31
0.0
  0
LINE
  5
362A
  8
AM_0
 10
950.73869365904955
 20
503.7148468208008
 30
0.0
 11
950.73869365904955
 21
495.71484682080109
 31
0.0
  0
CIRCLE
  5
362B
  8
AM_5
 10
944.73869365904966
 20
479.7148168208011
 30
0.0
 40
5.0
  0
CIRCLE
  5
362C
  8
AM_0
 10
944.73869365904966
 20
479.7148168208011
 30
0.0
 40
3.5000000500000001
  0
LINE
  5
362D
  8
AM_0
 10
938.73866365904928
 20
495.71484682080109
 30
0.0
 11
950.73869365904955
 21
495.71484682080109
 31
0.0
  0
LINE
  5
362E
  8
AM_0
 10
938.73866365904928
 20
503.7148468208008
 30
0.0
 11
950.73869365904955
 21
503.7148468208008
 31
0.0
  0
ARC
  5
362F
  8
AM_0
 10
937.41685865904981
 20
577.34608682080102
 30
0.0
 40
1.0
 50
100.4607199999999
 51
164.99999
  0
ARC
  5
3630
  8
AM_0
 10
938.73866365904928
 20
575.21483682080088
 30
0.0
 40
2.0000000500000001
 50
270.0
 51
0.0
  0
LINE
  5
3631
  8
AM_0
 10
940.73866365904985
 20
578.97633682080129
 30
0.0
 11
937.23524865904972
 21
578.32948682080098
 31
0.0
  0
LINE
  5
3632
  8
AM_0
 10
934.77009865904915
 20
571.33208682080112
 30
0.0
 11
936.45088365904974
 21
577.60493682080119
 31
0.0
  0
ARC
  5
3633
  8
AM_0
 10
952.06056365904965
 20
577.34608682080102
 30
0.0
 40
1.0
 50
15.0
 51
79.539281000000003
  0
ARC
  5
3634
  8
AM_0
 10
950.73869365904955
 20
575.21483682080088
 30
0.0
 40
2.0000000500000001
 50
179.99998999999991
 51
270.0
  0
LINE
  5
3635
  8
AM_0
 10
948.73869365904943
 20
578.97638682080105
 30
0.0
 11
952.24208365904963
 21
578.32953682080085
 31
0.0
  0
LINE
  5
3636
  8
AM_0
 10
954.7072936590497
 20
571.33208682080112
 30
0.0
 11
953.02647865904942
 21
577.60493682080119
 31
0.0
  0
ARC
  5
3637
  8
AM_0
 10
987.63377865904965
 20
563.90428682080085
 30
0.0
 40
5.0
 50
250.65617999999989
 51
285.0
  0
LINE
  5
3638
  8
AM_0
 10
1007.15049865905
 20
563.95733682080117
 30
0.0
 11
988.92787365904974
 21
559.07463682080095
 31
0.0
  0
ARC
  5
3639
  8
AM_0
 10
996.67183365904964
 20
566.32603682080105
 30
0.0
 40
5.0
 50
247.37550999999991
 51
285.0
  0
LINE
  5
363A
  8
AM_0
 10
1019.397968659049
 20
556.88628682080105
 30
0.0
 11
1024.2806886590481
 21
538.66373682080109
 31
0.0
  0
ARC
  5
363B
  8
AM_0
 10
1026.688588659048
 20
548.99583682080095
 30
0.0
 40
5.0
 50
195.00001
 51
232.62450000000001
  0
ARC
  5
363C
  8
AM_0
 10
1029.110308659049
 20
539.95778682080106
 30
0.0
 40
5.0
 50
195.00001
 51
229.34381999999991
  0
LINE
  5
363D
  8
AM_0
 10
304.29684648947881
 20
829.70808178607058
 30
0.0
 11
326.29684648947881
 21
829.70808178607058
 31
0.0
  0
LINE
  5
363E
  8
AM_0
 10
304.29684648947881
 20
835.70808178607012
 30
0.0
 11
326.29684648947881
 21
835.70808178607012
 31
0.0
  0
LINE
  5
363F
  8
AM_0
 10
304.29684648947881
 20
842.20808178607058
 30
0.0
 11
332.29684648947881
 21
842.20808178607058
 31
0.0
  0
LINE
  5
3640
  8
AM_0
 10
304.29684648947881
 20
823.20808178607012
 30
0.0
 11
332.29684648947881
 21
823.20808178607012
 31
0.0
  0
LINE
  5
3641
  8
AM_0
 10
304.29684648947881
 20
823.20808178607012
 30
0.0
 11
304.29684648947881
 21
842.20808178607058
 31
0.0
  0
ARC
  5
3642
  8
AM_0
 10
326.29684648947881
 20
832.70808178607024
 30
0.0
 40
3.0
 50
270.0
 51
90.0
  0
LINE
  5
3643
  8
AM_0
 10
326.29684648947881
 20
829.70808178607058
 30
0.0
 11
326.29684648947881
 21
835.70808178607012
 31
0.0
  0
LINE
  5
3644
  8
AM_0
 10
332.29684648947881
 20
822.70808178607058
 30
0.0
 11
332.29684648947881
 21
842.70808178607012
 31
0.0
  0
LINE
  5
3645
  8
AM_0
 10
334.29684648947881
 20
808.70808178607024
 30
0.0
 11
334.29684648947881
 21
856.70808178607069
 31
0.0
  0
LINE
  5
3646
  8
AM_0
 10
336.2968464894787
 20
803.44013278607042
 30
0.0
 11
336.2968464894787
 21
861.97603078607051
 31
0.0
  0
LINE
  5
3647
  8
AM_0
 10
419.29684648947881
 20
764.14963078607025
 30
0.0
 11
419.29684648947881
 21
901.26653278607046
 31
0.0
  0
LINE
  5
3648
  8
AM_0
 10
367.22639548947882
 20
800.16850878607011
 30
0.0
 11
367.22639548947882
 21
865.24765378607049
 31
0.0
  0
LINE
  5
3649
  8
AM_0
 10
341.6549924894789
 20
800.61485978607061
 30
0.0
 11
341.6549924894789
 21
864.80130378607055
 31
0.0
  0
LINE
  5
364A
  8
AM_0
 10
418.48477548947881
 20
762.27669978607071
 30
0.0
 11
369.7307944894788
 21
796.41460478607053
 31
0.0
  0
LINE
  5
364B
  8
AM_0
 10
342.43072748947878
 20
798.60101478607055
 30
0.0
 11
364.16955448947891
 21
798.22156178607054
 31
0.0
  0
LINE
  5
364C
  8
AM_0
 10
337.79684648947881
 20
800.84205578607055
 30
0.0
 11
340.98308448947881
 21
799.00248078607069
 31
0.0
  0
ARC
  5
364D
  8
AM_0
 10
339.29684648947881
 20
803.44013278607042
 30
0.0
 40
3.0
 50
180.0
 51
239.99999999999949
  0
LINE
  5
364E
  8
AM_0
 10
334.29684648947881
 20
808.70808178607024
 30
0.0
 11
336.2968464894787
 21
806.70808178607069
 31
0.0
  0
ARC
  5
364F
  8
AM_0
 10
342.48308448947881
 20
801.60055778607057
 30
0.0
 40
3.0
 50
239.99999999999949
 51
269.00000000000148
  0
LINE
  5
3650
  8
AM_0
 10
332.29684648947881
 20
822.70808178607058
 30
0.0
 11
334.29684648947881
 21
822.70808178607058
 31
0.0
  0
ARC
  5
3651
  8
AM_0
 10
363.99503048947889
 20
788.22308478607044
 30
0.0
 40
10.0
 50
55.000000000002629
 51
89.000000000001506
  0
LINE
  5
3652
  8
AM_0
 10
421.29684648947881
 20
759.20808178607024
 30
0.0
 11
431.29684648947892
 21
759.20808178607024
 31
0.0
  0
LINE
  5
3653
  8
AM_0
 10
421.29684648947881
 20
769.19885678607045
 30
0.0
 11
427.29684648947881
 21
769.19885678607045
 31
0.0
  0
ARC
  5
3654
  8
AM_0
 10
421.29684648947881
 20
771.19885678607045
 30
0.0
 40
2.0
 50
180.0
 51
270.0
  0
ARC
  5
3655
  8
AM_0
 10
421.29684648947881
 20
761.20808178607058
 30
0.0
 40
2.0
 50
188.1879840000033
 51
270.0
  0
ARC
  5
3656
  8
AM_0
 10
417.33762248947892
 20
760.63839578607053
 30
0.0
 40
2.0
 50
8.1879840000034303
 51
55.000000000002629
  0
ARC
  5
3657
  8
AM_0
 10
427.29684648947881
 20
771.19885678607045
 30
0.0
 40
2.0
 50
270.0
 51
0.0
  0
LINE
  5
3658
  8
AM_0
 10
421.29684648947881
 20
793.23340578607053
 30
0.0
 11
429.29684648947881
 21
793.23340578607053
 31
0.0
  0
LINE
  5
3659
  8
AM_0
 10
418.48477548947881
 20
903.13946278607045
 30
0.0
 11
369.7307944894788
 21
869.00155778607052
 31
0.0
  0
LINE
  5
365A
  8
AM_0
 10
364.16955448947891
 20
867.19460178607051
 30
0.0
 11
342.43072748947878
 21
866.81514878607061
 31
0.0
  0
LINE
  5
365B
  8
AM_0
 10
336.2968464894787
 20
858.70808178607024
 30
0.0
 11
334.29684648947881
 21
856.70808178607069
 31
0.0
  0
LINE
  5
365C
  8
AM_0
 10
332.29684648947881
 20
842.70808178607012
 30
0.0
 11
334.29684648947881
 21
842.70808178607012
 31
0.0
  0
LINE
  5
365D
  8
AM_0
 10
340.98308448947881
 20
866.41368178607058
 30
0.0
 11
337.79684648947881
 21
864.57410678607039
 31
0.0
  0
ARC
  5
365E
  8
AM_0
 10
339.29684648947881
 20
861.97603078607051
 30
0.0
 40
3.0
 50
120.0000000000005
 51
180.0
  0
ARC
  5
365F
  8
AM_0
 10
342.48308448947881
 20
863.81560578607059
 30
0.0
 40
3.0
 50
90.999999999998494
 51
120.0000000000005
  0
ARC
  5
3660
  8
AM_0
 10
363.99503048947889
 20
877.19307878607049
 30
0.0
 40
10.0
 50
270.99999999999841
 51
304.99999999999739
  0
LINE
  5
3661
  8
AM_0
 10
421.29684648947881
 20
872.18275678607074
 30
0.0
 11
429.29684648947881
 21
872.18275678607074
 31
0.0
  0
LINE
  5
3662
  8
AM_0
 10
421.29684648947881
 20
906.20808178607035
 30
0.0
 11
431.29684648947892
 21
906.20808178607035
 31
0.0
  0
LINE
  5
3663
  8
AM_0
 10
421.29684648947881
 20
896.21730678607014
 30
0.0
 11
427.29684648947881
 21
896.21730678607014
 31
0.0
  0
ARC
  5
3664
  8
AM_0
 10
421.29684648947881
 20
894.21730678607025
 30
0.0
 40
2.0
 50
90.0
 51
180.0
  0
ARC
  5
3665
  8
AM_0
 10
421.29684648947881
 20
904.20808178607035
 30
0.0
 40
2.0
 50
90.0
 51
171.8120159999965
  0
ARC
  5
3666
  8
AM_0
 10
417.33762248947892
 20
904.77776678607074
 30
0.0
 40
2.0
 50
304.99999999999739
 51
351.81201599999628
  0
ARC
  5
3667
  8
AM_0
 10
427.29684648947881
 20
894.21730678607025
 30
0.0
 40
2.0
 50
0.0
 51
90.0
  0
ARC
  5
3668
  8
AM_0
 10
431.29684648947892
 20
791.23340578607053
 30
0.0
 40
2.0
 50
120.0000000000005
 51
180.0
  0
LINE
  5
3669
  8
AM_0
 10
429.29684648947881
 20
771.19885678607045
 30
0.0
 11
429.29684648947881
 21
791.23340578607053
 31
0.0
  0
LINE
  5
366A
  8
AM_0
 10
429.29684648947881
 20
894.21730678607025
 30
0.0
 11
429.29684648947881
 21
874.1827567860704
 31
0.0
  0
ARC
  5
366B
  8
AM_0
 10
431.29684648947892
 20
874.1827567860704
 30
0.0
 40
2.0
 50
180.0
 51
239.99999999999949
  0
LINE
  5
366D
  8
ﾁｭｳｼﾝｾﾝ
 10
296.16573848497728
 20
832.70808178607024
 30
0.0
 11
696.31088648947912
 21
832.70808178607024
 31
0.0
  0
LINE
  5
366E
  8
AM_0
 10
431.29684648947892
 20
759.20808178607024
 30
0.0
 11
431.29684648947892
 21
906.20814178607054
 31
0.0
  0
LINE
  5
366F
  8
AM_0
 10
507.79690648947877
 20
783.14351178607058
 30
0.0
 11
507.79690648947877
 21
882.27266178607044
 31
0.0
  0
LINE
  5
3670
  8
AM_0
 10
582.79690648947894
 20
741.70808178607024
 30
0.0
 11
582.79690648947894
 21
923.70808178607035
 31
0.0
  0
LINE
  5
3671
  8
AM_0
 10
610.79690648947894
 20
872.46541178607072
 30
0.0
 11
610.79690648947894
 21
798.95076178607053
 31
0.0
  0
LINE
  5
3672
  8
AM_0
 10
492.79690648947889
 20
692.97011178607045
 30
0.0
 11
492.79690648947889
 21
828.70808178607058
 31
0.0
  0
LINE
  5
3673
  8
AM_0
 10
604.79690648947894
 20
918.58870178607049
 30
0.0
 11
604.79690648947894
 21
746.82747178607053
 31
0.0
  0
LINE
  5
3674
  8
AM_0
 10
684.79690648947894
 20
811.70808178607058
 30
0.0
 11
684.79690648947894
 21
853.70808178607058
 31
0.0
  0
LINE
  5
3675
  8
AM_0
 10
614.79690648947894
 20
810.20808178607058
 30
0.0
 11
614.79690648947894
 21
855.20808178607012
 31
0.0
  0
LINE
  5
3676
  8
AM_0
 10
479.79684648947892
 20
696.49831178607053
 30
0.0
 11
479.79684648947892
 21
823.16865178607054
 31
0.0
  0
LINE
  5
3677
  8
AM_0
 10
465.79690648947877
 20
718.60011178607056
 30
0.0
 11
465.79690648947877
 21
828.70808178607058
 31
0.0
  0
ARC
  5
3678
  8
AM_0
 10
572.79690648947894
 20
723.70808178607058
 30
0.0
 40
10.0
 50
90.00000299999769
 51
180.00001000000091
  0
ARC
  5
3679
  8
AM_0
 10
567.79690648947894
 20
700.15559178607054
 30
0.0
 40
5.0
 50
180.00001000000091
 51
271.99999000000139
  0
ARC
  5
367A
  8
AM_0
 10
554.79690648947894
 20
718.16426178607048
 30
0.0
 40
8.0
 50
272.00000000000369
 51
0.0
  0
LINE
  5
367B
  8
AM_0
 10
497.79684648947892
 20
692.70808178607047
 30
0.0
 11
606.93643648947909
 21
696.51936178607048
 31
0.0
  0
LINE
  5
367C
  8
AM_0
 10
481.72708648947912
 20
703.96431178607054
 30
0.0
 11
492.79690648947889
 21
703.57771178607061
 31
0.0
  0
LINE
  5
367D
  8
AM_0
 10
479.79684648947892
 20
781.14351178607023
 30
0.0
 11
505.79690648947889
 21
781.14351178607023
 31
0.0
  0
LINE
  5
367E
  8
AM_0
 10
479.79684648947892
 20
755.1422917860707
 30
0.0
 11
505.79690648947889
 21
755.1422917860707
 31
0.0
  0
LINE
  5
367F
  8
AM_0
 10
422.5875564894788
 20
696.6496717860706
 30
0.0
 11
497.79690648947877
 21
692.70808178607047
 31
0.0
  0
CIRCLE
  5
3680
  8
AM_0
 10
439.79690648947877
 20
717.70808178607047
 30
0.0
 40
9.5
  0
LINE
  5
3681
  8
AM_0
 10
422.448336489479
 20
741.11592178607054
 30
0.0
 11
465.79697648947888
 21
744.9084017860705
 31
0.0
  0
LINE
  5
3682
  8
AM_0
 10
418.79690648947877
 20
700.64412178607051
 30
0.0
 11
418.79690648947877
 21
737.13118178607056
 31
0.0
  0
ARC
  5
3683
  8
AM_0
 10
422.79690648947877
 20
700.64412178607051
 30
0.0
 40
4.0
 50
180.00001000000091
 51
266.99999000000008
  0
ARC
  5
3684
  8
AM_0
 10
422.79690648947877
 20
737.13118178607056
 30
0.0
 40
4.0
 50
95.00000199999856
 51
180.00001000000091
  0
ARC
  5
3685
  8
AM_0
 10
471.79690648947889
 20
706.99812178607056
 30
0.0
 40
5.0
 50
180.00001000000091
 51
277.13983000000007
  0
ARC
  5
3686
  8
AM_0
 10
468.79690648947877
 20
718.58351178607052
 30
0.0
 40
3.0
 50
179.9999899999988
 51
260.00000000000119
  0
LINE
  5
3687
  8
AM_0
 10
466.79690648947889
 20
695.31288178607053
 30
0.0
 11
466.79690648947889
 21
703.16157178607045
 31
0.0
  0
ARC
  5
3688
  8
AM_0
 10
481.79690648947877
 20
705.96309178607055
 30
0.0
 40
2.0
 50
179.9999899999988
 51
268.00000999999861
  0
LINE
  5
3689
  8
AM_0
 10
479.79690648947889
 20
702.9611317860705
 30
0.0
 11
472.41830648947888
 21
702.03688178607047
 31
0.0
  0
ARC
  5
368A
  8
AM_0
 10
482.79684648947892
 20
696.49831178607053
 30
0.0
 40
3.0
 50
180.00001000000091
 51
266.99999000000008
  0
LINE
  5
368B
  8
AM_0
 10
468.27591648947907
 20
715.6290417860705
 30
0.0
 11
477.31784648947888
 21
714.03474178607053
 31
0.0
  0
ARC
  5
368C
  8
AM_0
 10
476.79690648947877
 20
711.08040178607052
 30
0.0
 40
3.0
 50
0.0
 51
79.999998000001099
  0
LINE
  5
368D
  8
AM_0
 10
431.29684648947892
 20
759.20808178607024
 30
0.0
 11
460.97140648947891
 21
758.1718317860707
 31
0.0
  0
LINE
  5
368E
  8
AM_0
 10
431.29690648947877
 20
793.23341178607052
 30
0.0
 11
465.79690648947877
 21
793.23341178607052
 31
0.0
  0
LINE
  5
368F
  8
AM_0
 10
431.29690648947877
 20
771.12947178607055
 30
0.0
 11
465.79690648947877
 21
771.12947178607055
 31
0.0
  0
ARC
  5
3690
  8
AM_0
 10
460.79690648947872
 20
753.17488178607027
 30
0.0
 40
5.0
 50
0.0
 51
87.999999999996248
  0
POLYLINE
  5
3691
  8
AM_0
 66
     1
 10
0.0
 20
0.0
 30
0.0
  0
VERTEX
  5
3692
  8
AM_0
 10
512.72660648947885
 20
752.97659178607046
 30
0.0
 42
0.1107572
  0
VERTEX
  5
3693
  8
AM_0
 10
525.60756648947904
 20
762.88434178607054
 30
0.0
 42
0.20375856
  0
VERTEX
  5
3694
  8
AM_0
 10
527.8652764894789
 20
770.54983178607051
 30
0.0
  0
VERTEX
  5
3695
  8
AM_0
 10
513.09547648947876
 20
789.46499178607053
 30
0.0
 42
-1.0
  0
SEQEND
  5
3696
  8
AM_0
  0
LINE
  5
3697
  8
AM_0
 10
507.79690648947877
 20
706.0329117860706
 30
0.0
 11
507.79690648947877
 21
753.1422917860707
 31
0.0
  0
LINE
  5
3698
  8
AM_0
 10
509.72714648947908
 20
710.14863178607061
 30
0.0
 11
534.33011648947877
 21
711.00777178607052
 31
0.0
  0
LINE
  5
3699
  8
AM_0
 10
520.61331648947885
 20
696.54463178607045
 30
0.0
 11
529.98050648947901
 21
706.42146178607061
 31
0.0
  0
LINE
  5
369A
  8
AM_0
 10
492.79684648947892
 20
703.57771178607061
 30
0.0
 11
505.86673648947902
 21
704.03413178607059
 31
0.0
  0
ARC
  5
369B
  8
AM_0
 10
505.79690648947889
 20
706.0329117860706
 30
0.0
 40
2.0
 50
272.00000000000369
 51
0.0
  0
LINE
  5
369C
  8
AM_0
 10
512.29690648947894
 20
696.4709017860705
 30
0.0
 11
512.29690648947894
 21
708.50325178607045
 31
0.0
  0
ARC
  5
369D
  8
AM_0
 10
513.35757648947902
 20
703.4261017860706
 30
0.0
 40
10.0
 50
272.00000000000369
 51
316.51703999999847
  0
ARC
  5
369E
  8
AM_0
 10
509.79690648947889
 20
708.14986178607046
 30
0.0
 40
2.0
 50
91.999998000000545
 51
180.00001000000091
  0
ARC
  5
369F
  8
AM_0
 10
511.82498648947887
 20
754.76185178607068
 30
0.0
 40
2.0
 50
270.0
 51
296.80019999999712
  0
LINE
  5
36A0
  8
AM_0
 10
536.8872464894788
 20
709.53395178607059
 30
0.0
 11
555.07608648947894
 21
710.16914178607055
 31
0.0
  0
ARC
  5
36A1
  8
AM_0
 10
537.23624648947896
 20
699.54005178607053
 30
0.0
 40
10.0
 50
91.999998000000545
 51
136.5170399999985
  0
LINE
  5
36A2
  8
AM_0
 10
512.29690648947894
 20
755.1422917860707
 30
0.0
 11
512.29690648947894
 21
781.14351178607023
 31
0.0
  0
ARC
  5
36A3
  8
AM_0
 10
505.79690648947889
 20
753.1422917860707
 30
0.0
 40
2.0
 50
0.0
 51
90.00000299999769
  0
ARC
  5
36A4
  8
AM_0
 10
505.79690648947889
 20
783.14351178607058
 30
0.0
 40
2.0
 50
270.0
 51
0.0
  0
ARC
  5
36A5
  8
AM_0
 10
511.34653648947892
 20
787.02754178607051
 30
0.0
 40
3.0
 50
54.348324000004709
 51
90.00000299999769
  0
LINE
  5
36A6
  8
AM_0
 10
614.79690648947894
 20
811.70808178607058
 30
0.0
 11
684.79690648947894
 21
811.70808178607058
 31
0.0
  0
ARC
  5
36A7
  8
AM_0
 10
599.79690648947894
 20
751.50728178607051
 30
0.0
 40
5.0
 50
272.00000000000369
 51
0.0
  0
LINE
  5
36A8
  8
ﾁｭｳｼﾝｾﾝ1
 10
572.29690648947894
 20
717.70808178607047
 30
0.0
 11
607.29690648947894
 21
717.70808178607047
 31
0.0
  0
CIRCLE
  5
36A9
  8
AM_0
 10
589.79690648947894
 20
717.70808178607047
 30
0.0
 40
9.5
  0
LINE
  5
36AA
  8
AM_0
 10
562.79690648947894
 20
723.70808178607058
 30
0.0
 11
562.79690648947894
 21
718.16426178607048
 31
0.0
  0
LINE
  5
36AB
  8
ﾁｭｳｼﾝｾﾝ1
 10
589.79690648947894
 20
700.20808178607047
 30
0.0
 11
589.79690648947894
 21
735.20808178607069
 31
0.0
  0
LINE
  5
36AC
  8
AM_0
 10
562.79690648947894
 20
700.15559178607054
 30
0.0
 11
562.79690648947894
 21
718.16426178607048
 31
0.0
  0
ARC
  5
36AD
  8
AM_0
 10
590.40109648947885
 20
738.17128178607061
 30
0.0
 40
8.0
 50
91.999998000000545
 51
167.22924999999881
  0
ARC
  5
36AE
  8
AM_0
 10
574.79690648947894
 20
741.70808178607024
 30
0.0
 40
8.0
 50
270.0
 51
0.0
  0
LINE
  5
36AF
  8
AM_0
 10
572.79690648947894
 20
733.70808178607024
 30
0.0
 11
574.79690648947894
 21
733.70808178607024
 31
0.0
  0
LINE
  5
36B0
  8
AM_0
 10
590.12192648947894
 20
746.16640178607054
 30
0.0
 11
599.97134648947895
 21
746.51033178607054
 31
0.0
  0
LINE
  5
36B1
  8
AM_0
 10
610.79690648947894
 20
700.5169217860705
 30
0.0
 11
610.79690648947894
 21
739.89925178607052
 31
0.0
  0
ARC
  5
36B2
  8
AM_0
 10
606.79690648947894
 20
700.5169217860705
 30
0.0
 40
4.0
 50
272.00000000000369
 51
0.0
  0
ARC
  5
36B3
  8
AM_0
 10
606.79690648947894
 20
739.89925178607052
 30
0.0
 40
4.0
 50
0.0
 51
81.786789000000198
  0
ARC
  5
36B4
  8
AM_0
 10
607.79690648947894
 20
746.82747178607053
 30
0.0
 40
3.0
 50
180.00001000000091
 51
261.78677999999701
  0
ARC
  5
36B5
  8
AM_0
 10
607.79690648947894
 20
798.95076178607053
 30
0.0
 40
3.0
 50
315.0
 51
0.0
  0
ARC
  5
36B6
  8
AM_0
 10
607.79690648947894
 20
798.95076178607053
 30
0.0
 40
3.0
 50
315.0
 51
0.0
  0
ARC
  5
36B7
  8
AM_0
 10
607.79690648947894
 20
790.46541178607049
 30
0.0
 40
3.0
 50
135.0
 51
180.00001000000091
  0
ARC
  5
36B8
  8
AM_0
 10
607.79690648947894
 20
790.46547178607045
 30
0.0
 40
3.0
 50
135.0
 51
180.00001000000091
  0
LINE
  5
36B9
  8
AM_0
 10
605.67575648947877
 20
792.58675178607052
 30
0.0
 11
609.9183664894789
 21
796.82936178607054
 31
0.0
  0
LINE
  5
36BA
  8
AM_0
 10
610.79697648947888
 20
810.20808178607058
 30
0.0
 11
614.79690648947894
 21
810.20808178607058
 31
0.0
  0
ARC
  5
36BB
  8
AM_0
 10
572.79690648947894
 20
941.70808178607035
 30
0.0
 40
10.0
 50
180.00001000000091
 51
270.0
  0
ARC
  5
36BC
  8
AM_0
 10
567.79690648947894
 20
965.26057178607073
 30
0.0
 40
5.0
 50
87.999999999996248
 51
180.00001000000091
  0
ARC
  5
36BD
  8
AM_0
 10
554.79690648947894
 20
947.25191178607065
 30
0.0
 40
8.0
 50
0.0
 51
87.999999999996248
  0
LINE
  5
36BE
  8
AM_0
 10
497.79690648947877
 20
972.70808178607035
 30
0.0
 11
606.93649648947894
 21
968.8968617860703
 31
0.0
  0
CIRCLE
  5
36BF
  8
AM_0
 10
439.79690648947877
 20
947.70808178607035
 30
0.0
 40
9.5
  0
ARC
  5
36C0
  8
AM_0
 10
468.79690648947877
 20
946.8326617860705
 30
0.0
 40
3.0
 50
99.999999999998593
 51
180.00001000000091
  0
LINE
  5
36C1
  8
AM_0
 10
479.79684648947892
 20
842.24751178607039
 30
0.0
 11
479.79684648947892
 21
968.9178617860706
 31
0.0
  0
LINE
  5
36C2
  8
AM_0
 10
492.79690648947889
 20
836.70808178607058
 30
0.0
 11
492.79690648947889
 21
972.44606178607046
 31
0.0
  0
LINE
  5
36C3
  8
AM_0
 10
507.79690648947877
 20
959.38325178607045
 30
0.0
 11
507.79690648947877
 21
912.27388178607055
 31
0.0
  0
LINE
  5
36C4
  8
AM_0
 10
418.79690648947877
 20
964.77199178607054
 30
0.0
 11
418.79690648947877
 21
928.28499178607069
 31
0.0
  0
LINE
  5
36C5
  8
AM_0
 10
460.29697648947888
 20
836.70808178607058
 30
0.0
 11
493.29697648947888
 21
836.70808178607058
 31
0.0
  0
LINE
  5
36C6
  8
AM_0
 10
460.29697648947888
 20
828.70808178607058
 30
0.0
 11
493.29697648947888
 21
828.70808178607058
 31
0.0
  0
LINE
  5
36C7
  8
AM_0
 10
479.79684648947892
 20
910.27388178607043
 30
0.0
 11
505.79690648947889
 21
910.27388178607043
 31
0.0
  0
LINE
  5
36C8
  8
AM_0
 10
479.79684648947892
 20
884.27266178607022
 30
0.0
 11
505.79690648947889
 21
884.27266178607022
 31
0.0
  0
LINE
  5
36C9
  8
AM_0
 10
465.79690648947877
 20
836.70808178607058
 30
0.0
 11
465.79690648947877
 21
946.84926178607066
 31
0.0
  0
LINE
  5
36CA
  8
AM_0
 10
431.29690648947877
 20
872.18275178607041
 30
0.0
 11
465.79690648947877
 21
872.18275178607041
 31
0.0
  0
ARC
  5
36CB
  8
AM_0
 10
476.79697648947888
 20
832.70808178607024
 30
0.0
 40
10.0
 50
203.5782699999985
 51
336.4217200000013
  0
ARC
  5
36CC
  8
AM_0
 10
476.79697648947888
 20
832.70808178607024
 30
0.0
 40
10.0
 50
23.57803699999776
 51
156.42196000000081
  0
ARC
  5
36CD
  8
AM_0
 10
460.29697648947888
 20
832.70808178607024
 30
0.0
 40
3.9999962
 50
90.00000299999769
 51
270.0
  0
LINE
  5
36CE
  8
AM_0
 10
422.44827648947893
 20
924.30025178607059
 30
0.0
 11
465.79697648947888
 21
920.50770178607036
 31
0.0
  0
LINE
  5
36CF
  8
AM_0
 10
431.29690648947877
 20
906.20814178607054
 30
0.0
 11
460.971346489479
 21
907.24440178607028
 31
0.0
  0
LINE
  5
36D0
  8
AM_0
 10
431.29690648947877
 20
894.28670178607058
 30
0.0
 11
465.79690648947877
 21
894.28670178607058
 31
0.0
  0
ARC
  5
36D1
  8
AM_0
 10
422.79690648947877
 20
928.28499178607069
 30
0.0
 40
4.0
 50
180.00001000000091
 51
265.00001000000032
  0
ARC
  5
36D2
  8
AM_0
 10
460.79690648947872
 20
912.24129178607075
 30
0.0
 40
5.0
 50
272.00000000000369
 51
0.0
  0
POLYLINE
  5
36D3
  8
AM_0
 66
     1
 10
0.0
 20
0.0
 30
0.0
  0
VERTEX
  5
36D4
  8
AM_0
 10
512.72660648947885
 20
912.4395717860707
 30
0.0
 42
-0.1107572
  0
VERTEX
  5
36D5
  8
AM_0
 10
525.60756648947904
 20
902.5318217860704
 30
0.0
 42
-0.20375856
  0
VERTEX
  5
36D6
  8
AM_0
 10
527.8652764894789
 20
894.86634178607051
 30
0.0
  0
VERTEX
  5
36D7
  8
AM_0
 10
513.09547648947876
 20
875.95118178607061
 30
0.0
 42
-1.0
  0
SEQEND
  5
36D8
  8
AM_0
  0
ARC
  5
36D9
  8
AM_0
 10
493.29697648947888
 20
832.70808178607024
 30
0.0
 40
3.9999962
 50
270.0
 51
90.00000299999769
  0
ARC
  5
36DA
  8
AM_0
 10
511.34653648947892
 20
878.3886317860705
 30
0.0
 40
3.0
 50
270.0
 51
305.65166999999718
  0
LINE
  5
36DB
  8
AM_0
 10
512.29690648947894
 20
910.27388178607043
 30
0.0
 11
512.29690648947894
 21
884.27266178607022
 31
0.0
  0
ARC
  5
36DC
  8
AM_0
 10
505.79690648947889
 20
882.27266178607044
 30
0.0
 40
2.0
 50
0.0
 51
90.00000299999769
  0
ARC
  5
36DD
  8
AM_0
 10
505.79690648947889
 20
912.27388178607055
 30
0.0
 40
2.0
 50
270.0
 51
0.0
  0
ARC
  5
36DE
  8
AM_0
 10
511.82498648947887
 20
910.65431178607059
 30
0.0
 40
2.0
 50
63.199809000002318
 51
90.00000299999769
  0
LINE
  5
36DF
  8
AM_0
 10
422.5875564894788
 20
968.76655178607064
 30
0.0
 11
497.79690648947877
 21
972.70814178607066
 31
0.0
  0
LINE
  5
36E0
  8
AM_0
 10
481.72714648947903
 20
961.45186178607059
 30
0.0
 11
492.79690648947889
 21
961.83845178607044
 31
0.0
  0
ARC
  5
36E1
  8
AM_0
 10
422.79690648947877
 20
964.77199178607054
 30
0.0
 40
4.0
 50
92.999999000001679
 51
180.00001000000091
  0
ARC
  5
36E2
  8
AM_0
 10
471.79690648947889
 20
958.41804178607072
 30
0.0
 40
5.0
 50
82.860167000000104
 51
180.00001000000091
  0
LINE
  5
36E3
  8
AM_0
 10
466.79690648947889
 20
970.10329178607071
 30
0.0
 11
466.79690648947889
 21
962.2545917860707
 31
0.0
  0
LINE
  5
36E4
  8
AM_0
 10
479.79690648947889
 20
962.45503178607044
 30
0.0
 11
472.4183664894789
 21
963.37929178607044
 31
0.0
  0
LINE
  5
36E5
  8
AM_0
 10
468.27603648947888
 20
949.78712178607032
 30
0.0
 11
477.31784648947888
 21
951.38148178607025
 31
0.0
  0
ARC
  5
36E6
  8
AM_0
 10
476.79690648947877
 20
954.33583178607034
 30
0.0
 40
3.0
 50
280.00001000000128
 51
0.0
  0
ARC
  5
36E7
  8
AM_0
 10
481.79690648947877
 20
959.45308178607036
 30
0.0
 40
2.0
 50
91.999998000000545
 51
180.00001000000091
  0
ARC
  5
36E8
  8
AM_0
 10
482.79684648947892
 20
968.9178617860706
 30
0.0
 40
3.0
 50
92.999999000001679
 51
180.00001000000091
  0
LINE
  5
36E9
  8
AM_0
 10
509.72708648947901
 20
955.26753178607032
 30
0.0
 11
534.33017648947884
 21
954.40834178607042
 31
0.0
  0
LINE
  5
36EA
  8
AM_0
 10
520.61331648947885
 20
968.87154178607045
 30
0.0
 11
529.98050648947901
 21
958.99470178607055
 31
0.0
  0
LINE
  5
36EB
  8
AM_0
 10
492.79684648947892
 20
961.83845178607044
 30
0.0
 11
505.86673648947902
 21
961.38203178607046
 31
0.0
  0
LINE
  5
36EC
  8
AM_0
 10
512.29690648947894
 20
956.98793178607059
 30
0.0
 11
512.29690648947894
 21
968.94136178607039
 31
0.0
  0
ARC
  5
36ED
  8
AM_0
 10
509.79690648947889
 20
957.26631178607045
 30
0.0
 40
2.0
 50
180.00001000000091
 51
267.99999999999631
  0
ARC
  5
36EE
  8
AM_0
 10
505.79690648947889
 20
959.38325178607045
 30
0.0
 40
2.0
 50
0.0
 51
87.999999999996248
  0
ARC
  5
36EF
  8
AM_0
 10
513.35757648947902
 20
961.9900717860703
 30
0.0
 40
10.0
 50
43.482964999999631
 51
87.999999999996248
  0
LINE
  5
36F0
  8
AM_0
 10
536.8872464894788
 20
955.88222178607043
 30
0.0
 11
555.07608648947894
 21
955.2470217860706
 31
0.0
  0
ARC
  5
36F1
  8
AM_0
 10
537.23624648947896
 20
965.8761117860704
 30
0.0
 40
10.0
 50
223.48296000000141
 51
267.99999999999631
  0
CIRCLE
  5
36F2
  8
AM_0
 10
589.79690648947894
 20
947.70808178607035
 30
0.0
 40
9.5
  0
LINE
  5
36F3
  8
AM_0
 10
562.79690648947894
 20
941.70808178607035
 30
0.0
 11
562.79690648947894
 21
947.25191178607065
 31
0.0
  0
LINE
  5
36F4
  8
AM_0
 10
610.79690648947894
 20
964.8993117860706
 30
0.0
 11
610.79690648947894
 21
925.51686178607042
 31
0.0
  0
LINE
  5
36F5
  8
AM_0
 10
628.79690648947894
 20
838.70808178607058
 30
0.0
 11
684.79690648947894
 21
838.70808178607058
 31
0.0
  0
LINE
  5
36F6
  8
AM_0
 10
628.79690648947894
 20
826.70808178607012
 30
0.0
 11
684.79690648947894
 21
826.70808178607012
 31
0.0
  0
LINE
  5
36F7
  8
AM_0
 10
614.79690648947894
 20
853.70808178607058
 30
0.0
 11
684.79690648947894
 21
853.70808178607058
 31
0.0
  0
ARC
  5
36F8
  8
AM_0
 10
628.79690648947894
 20
832.70808178607024
 30
0.0
 40
6.0000037999999991
 50
90.00000299999769
 51
270.0
  0
LINE
  5
36F9
  8
AM_0
 10
628.79690648947894
 20
838.70808178607058
 30
0.0
 11
628.79690648947894
 21
826.70808178607012
 31
0.0
  0
LINE
  5
36FA
  8
AM_0
 10
610.79697648947888
 20
855.20808178607012
 30
0.0
 11
614.79690648947894
 21
855.20808178607012
 31
0.0
  0
ARC
  5
36FB
  8
AM_0
 10
607.79690648947894
 20
872.46541178607072
 30
0.0
 40
3.0
 50
0.0
 51
44.999998000001611
  0
ARC
  5
36FC
  8
AM_0
 10
607.79690648947894
 20
872.46547178607068
 30
0.0
 40
3.0
 50
0.0
 51
45.000001000003799
  0
ARC
  5
36FD
  8
AM_0
 10
607.79690648947894
 20
880.95076178607042
 30
0.0
 40
3.0
 50
180.00001000000091
 51
225.0
  0
ARC
  5
36FE
  8
AM_0
 10
607.79690648947894
 20
880.95076178607042
 30
0.0
 40
3.0
 50
179.9999899999988
 51
225.0
  0
LINE
  5
36FF
  8
AM_0
 10
605.67563648947885
 20
878.8294217860705
 30
0.0
 11
609.91830648947894
 21
874.58675178607052
 31
0.0
  0
ARC
  5
3700
  8
AM_0
 10
599.79690648947894
 20
913.90889178607028
 30
0.0
 40
5.0
 50
0.0
 51
87.999999999996248
  0
ARC
  5
3701
  8
AM_0
 10
590.40109648947885
 20
927.24489178607075
 30
0.0
 40
8.0
 50
192.7707500000011
 51
267.99999999999631
  0
ARC
  5
3702
  8
AM_0
 10
574.79690648947894
 20
923.70808178607035
 30
0.0
 40
8.0
 50
0.0
 51
90.00000299999769
  0
LINE
  5
3703
  8
AM_0
 10
572.79690648947894
 20
931.70808178607035
 30
0.0
 11
574.79690648947894
 21
931.70808178607035
 31
0.0
  0
LINE
  5
3704
  8
AM_0
 10
590.12192648947894
 20
919.24977178607014
 30
0.0
 11
599.97140648947891
 21
918.90584178607071
 31
0.0
  0
ARC
  5
3705
  8
AM_0
 10
606.79690648947894
 20
925.51686178607042
 30
0.0
 40
4.0
 50
278.2132199999964
 51
0.0
  0
ARC
  5
3706
  8
AM_0
 10
607.79690648947894
 20
918.58870178607049
 30
0.0
 40
3.0
 50
98.213209000002095
 51
180.00001000000091
  0
LINE
  5
3707
  8
AM_0
 10
562.79690648947894
 20
965.26057178607073
 30
0.0
 11
562.79690648947894
 21
947.25191178607065
 31
0.0
  0
ARC
  5
3708
  8
AM_0
 10
606.79690648947894
 20
964.8993117860706
 30
0.0
 40
4.0
 50
0.0
 51
87.999999999996248
  0
LINE
  5
3709
  8
ﾁｭｳｼﾝｾﾝ1
 10
589.79690648947894
 20
930.20808178607035
 30
0.0
 11
589.79690648947894
 21
965.20808178607035
 31
0.0
  0
LINE
  5
370A
  8
ﾁｭｳｼﾝｾﾝ1
 10
572.29690648947894
 20
947.70808178607035
 30
0.0
 11
607.29690648947894
 21
947.70808178607035
 31
0.0
  0
LINE
  5
370B
  8
ﾁｭｳｼﾝｾﾝ1
 10
439.79690648947877
 20
930.20808178607035
 30
0.0
 11
439.79690648947877
 21
965.20808178607035
 31
0.0
  0
LINE
  5
370C
  8
ﾁｭｳｼﾝｾﾝ1
 10
422.29690648947889
 20
947.70808178607035
 30
0.0
 11
457.29690648947877
 21
947.70808178607035
 31
0.0
  0
LINE
  5
370D
  8
ﾁｭｳｼﾝｾﾝ1
 10
439.79690648947877
 20
700.20808178607047
 30
0.0
 11
439.79690648947877
 21
735.20808178607069
 31
0.0
  0
LINE
  5
370E
  8
ﾁｭｳｼﾝｾﾝ1
 10
422.29690648947889
 20
717.70808178607047
 30
0.0
 11
457.29690648947877
 21
717.70808178607047
 31
0.0
  0
TEXT
  5
38F1
  8
AM_0
 10
829.56111577593845
 20
827.42067111122242
 30
0.0
 40
15.0
  1
VX08-120G~VX08-200G
  0
ENDSEC
  0
EOF
