  0
SECTION
  2
HEADER
  9
$ACADVER
  1
AC1009
  9
$INSBASE
 10
0.0
 20
0.0
 30
0.0
  9
$EXTMIN
 10
207.78797505049491
 20
276.82985150085511
 30
-0.0000000000112498
  9
$EXTMAX
 10
1253.999217288218
 20
1100.9522097059109
 30
0.0000000000002956
  9
$LIMMIN
 10
0.0
 20
0.0
  9
$LIMMAX
 10
1422.5
 20
925.0
  9
$ORTHOMODE
 70
     0
  9
$REGENMODE
 70
     1
  9
$FILLMODE
 70
     1
  9
$QTEXTMODE
 70
     0
  9
$MIRRTEXT
 70
     1
  9
$DRAGMODE
 70
     2
  9
$LTSCALE
 40
5.0
  9
$OSMODE
 70
   551
  9
$ATTMODE
 70
     1
  9
$TEXTSIZE
 40
2.5
  9
$TRACEWID
 40
1.0
  9
$TEXTSTYLE
  7
STANDARD
  9
$CLAYER
  8
AM_0
  9
$CELTYPE
  6
BYLAYER
  9
$CECOLOR
 62
   256
  9
$DIMSCALE
 40
1.0
  9
$DIMASZ
 40
2.5
  9
$DIMEXO
 40
1.0
  9
$DIMDLI
 40
8.0
  9
$DIMRND
 40
0.0
  9
$DIMDLE
 40
0.0
  9
$DIMEXE
 40
0.6
  9
$DIMTP
 40
0.1
  9
$DIMTM
 40
0.1
  9
$DIMTXT
 40
2.5
  9
$DIMCEN
 40
0.0
  9
$DIMTSZ
 40
0.0
  9
$DIMTOL
 70
     0
  9
$DIMLIM
 70
     0
  9
$DIMTIH
 70
     0
  9
$DIMTOH
 70
     0
  9
$DIMSE1
 70
     0
  9
$DIMSE2
 70
     0
  9
$DIMTAD
 70
     1
  9
$DIMZIN
 70
     8
  9
$DIMBLK
  1

  9
$DIMASO
 70
     1
  9
$DIMSHO
 70
     1
  9
$DIMPOST
  1

  9
$DIMAPOST
  1
"
  9
$DIMALT
 70
     0
  9
$DIMALTD
 70
     2
  9
$DIMALTF
 40
0.0393701
  9
$DIMLFAC
 40
1.0
  9
$DIMTOFL
 70
     1
  9
$DIMTVP
 40
0.0
  9
$DIMTIX
 70
     0
  9
$DIMSOXD
 70
     0
  9
$DIMSAH
 70
     0
  9
$DIMBLK1
  1

  9
$DIMBLK2
  1

  9
$DIMSTYLE
  2
AM_ISO
  9
$DIMCLRD
 70
   256
  9
$DIMCLRE
 70
   256
  9
$DIMCLRT
 70
     4
  9
$DIMTFAC
 40
0.71
  9
$DIMGAP
 40
0.8
  9
$LUNITS
 70
     2
  9
$LUPREC
 70
     2
  9
$SKETCHINC
 40
1.0
  9
$FILLETRAD
 40
25.0
  9
$AUNITS
 70
     0
  9
$AUPREC
 70
     0
  9
$MENU
  1
.
  9
$ELEVATION
 40
0.0
  9
$PELEVATION
 40
0.0
  9
$THICKNESS
 40
0.0
  9
$LIMCHECK
 70
     0
  9
$BLIPMODE
 70
     0
  9
$CHAMFERA
 40
10.0
  9
$CHAMFERB
 40
5.0
  9
$SKPOLY
 70
     0
  9
$TDCREATE
 40
2452066.486006401
  9
$TDUPDATE
 40
2458541.416451239
  9
$TDINDWG
 40
0.1252037269
  9
$TDUSRTIMER
 40
0.1252033333
  9
$USRTIMER
 70
     1
  9
$ANGBASE
 50
0.0
  9
$ANGDIR
 70
     0
  9
$PDMODE
 70
     0
  9
$PDSIZE
 40
0.0
  9
$PLINEWID
 40
0.0
  9
$COORDS
 70
     1
  9
$SPLFRAME
 70
     0
  9
$SPLINETYPE
 70
     6
  9
$SPLINESEGS
 70
     8
  9
$ATTDIA
 70
     1
  9
$ATTREQ
 70
     1
  9
$HANDLING
 70
     1
  9
$HANDSEED
  5
2E4C
  9
$SURFTAB1
 70
     6
  9
$SURFTAB2
 70
     6
  9
$SURFTYPE
 70
     6
  9
$SURFU
 70
     6
  9
$SURFV
 70
     6
  9
$UCSNAME
  2

  9
$UCSORG
 10
0.0
 20
0.0
 30
0.0
  9
$UCSXDIR
 10
1.0
 20
0.0
 30
0.0
  9
$UCSYDIR
 10
0.0
 20
1.0
 30
0.0
  9
$PUCSNAME
  2

  9
$PUCSORG
 10
0.0
 20
0.0
 30
0.0
  9
$PUCSXDIR
 10
1.0
 20
0.0
 30
0.0
  9
$PUCSYDIR
 10
0.0
 20
1.0
 30
0.0
  9
$USERI1
 70
     0
  9
$USERI2
 70
     0
  9
$USERI3
 70
     0
  9
$USERI4
 70
     0
  9
$USERI5
 70
     0
  9
$USERR1
 40
0.0
  9
$USERR2
 40
0.0
  9
$USERR3
 40
0.0
  9
$USERR4
 40
0.0
  9
$USERR5
 40
0.0
  9
$WORLDVIEW
 70
     1
  9
$SHADEDGE
 70
     3
  9
$SHADEDIF
 70
    70
  9
$TILEMODE
 70
     1
  9
$MAXACTVP
 70
    64
  9
$PLIMCHECK
 70
     0
  9
$PEXTMIN
 10
1.0000000000000000E+020
 20
1.0000000000000000E+020
 30
1.0000000000000000E+020
  9
$PEXTMAX
 10
-1.0000000000000000E+020
 20
-1.0000000000000000E+020
 30
-1.0000000000000000E+020
  9
$PLIMMIN
 10
0.0
 20
0.0
  9
$PLIMMAX
 10
420.0
 20
297.0
  9
$UNITMODE
 70
     0
  9
$VISRETAIN
 70
     1
  9
$PLINEGEN
 70
     0
  9
$PSLTSCALE
 70
     1
  0
ENDSEC
  0
SECTION
  2
TABLES
  0
TABLE
  2
VPORT
 70
     1
  0
VPORT
  2
*ACTIVE
 70
     0
 10
0.0
 20
0.0
 11
1.0
 21
1.0
 12
730.89359616935656
 22
688.89103060338277
 13
0.0
 23
0.0
 14
12.5
 24
12.5
 15
50.0
 25
50.0
 16
0.0
 26
0.0
 36
1.0
 17
0.0
 27
0.0
 37
0.0
 40
829.77994876481569
 41
1.7571592210767459
 42
50.0
 43
0.0
 44
0.0
 50
0.0
 51
0.0
 71
     0
 72
   100
 73
     1
 74
     3
 75
     0
 76
     0
 77
     0
 78
     0
  0
ENDTAB
  0
TABLE
  2
LTYPE
 70
    27
  0
LTYPE
  2
CONTINUOUS
 70
     0
  3
Solid line
 72
    65
 73
     0
 40
0.0
  0
LTYPE
  2
AM_ISO02W050
 70
     0
  3
__ __ __ __ __ __ __ __ __ __ __ __ __ __ __
 72
    65
 73
     2
 40
7.5
 49
6.0
 49
-1.5
  0
LTYPE
  2
AM_ISO08W050
 70
     0
  3
____ . ____ . ____ . ____ . ____ . ____ . ____
 72
    65
 73
     4
 40
18.0
 49
12.0
 49
-1.5
 49
3.0
 49
-1.5
  0
LTYPE
  2
AM_ISO09W050
 70
     0
  3
_____ . . _____ . . _____ . . ____ .. ____
 72
    65
 73
     6
 40
22.5
 49
12.0
 49
-1.5
 49
3.0
 49
-1.5
 49
3.0
 49
-1.5
  0
LTYPE
  2
AMCONSTR
 70
     0
  3
_______________________
 72
    65
 73
     2
 40
9999.0
 49
9999.0
 49
0.0
  0
LTYPE
  2
AM_ISO08W050X2
 70
     0
  3
__ . __ . __ . __ . __ . __
 72
    65
 73
     4
 40
9.0
 49
6.0
 49
-0.75
 49
1.5
 49
-0.75
  0
LTYPE
  2
AM_ISO02W050X2
 70
     0
  3
 _ _ _ _ _ _ _ _ _ _ _ _
 72
    65
 73
     2
 40
3.75
 49
3.0
 49
-0.75
  0
LTYPE
  2
AMZIGZAG
 70
     0
  3
/\/-/\/-/\/-/\/-/\/-/\/
 72
    65
 73
     2
 40
11.000099999999991
 49
0.0001
 49
-11.0
  0
LTYPE
  2
ACISOWELD
 70
     0
  3
_ _ _ _ _
 72
    65
 73
     2
 40
2.0
 49
2.0
 49
-1.0
  0
LTYPE
  2
ACISOTGB
 70
     0
  3
__ . . __ . .
 72
    65
 73
     6
 40
9.0
 49
4.0
 49
-1.0
 49
1.0
 49
-1.0
 49
1.0
 49
-1.0
  0
LTYPE
  2
ACISOTGL
 70
     0
  3
_ _ _ _ _
 72
    65
 73
     2
 40
3.0
 49
2.0
 49
-1.0
  0
LTYPE
  2
CENTER
 70
     0
  3
__ . __
 72
    65
 73
     4
 40
7.0
 49
4.0
 49
-1.0
 49
1.0
 49
-1.0
  0
LTYPE
  2
PHANTOM2
 70
     0
  3
Phantom (.5x) ___ _ _ ___ _ _ ___ _ _ ___ _ _
 72
    65
 73
     6
 40
31.75
 49
15.875
 49
-3.174999999999998
 49
3.174999999999998
 49
-3.174999999999998
 49
3.174999999999998
 49
-3.174999999999998
  0
LTYPE
  2
ACANSTGBM
 70
     0
  3
__ . . __ . .
 72
    65
 73
     6
 40
9.0
 49
4.0
 49
-1.0
 49
1.0
 49
-1.0
 49
1.0
 49
-1.0
  0
LTYPE
  2
ACANSTGLM
 70
     0
  3
_ _ _ _ _
 72
    65
 73
     2
 40
3.0
 49
2.0
 49
-1.0
  0
LTYPE
  2
GEN7
 70
     0
  3
____ . ____ . ____ . ____ . ____ . ____ . ____
 72
    65
 73
     4
 40
14.25
 49
9.75
 49
-1.5
 49
1.5
 49
-1.5
  0
LTYPE
  2
GEN3B
 70
     0
  3
 - - - - -
 72
    65
 73
     2
 40
1.0
 49
0.5
 49
-0.5
  0
LTYPE
  2
GEN7A
 70
     0
  3
__ . __ . __
 72
    65
 73
     4
 40
7.375
 49
4.75
 49
-0.875
 49
0.875
 49
-0.875
  0
LTYPE
  2
ACJISTGB
 70
     0
  3
__ . . __ . .
 72
    65
 73
     6
 40
9.0
 49
4.0
 49
-1.0
 49
1.0
 49
-1.0
 49
1.0
 49
-1.0
  0
LTYPE
  2
ACJISTGL
 70
     0
  3
_ _ _ _ _
 72
    65
 73
     2
 40
3.0
 49
2.0
 49
-1.0
  0
LTYPE
  2
HIDDEN
 70
     0
  3
Hidden __ __ __ __ __ __ __ __ __ __ __ __ __ _
 72
    65
 73
     2
 40
0.375
 49
0.25
 49
-0.125
  0
LTYPE
  2
CENTER2
 70
     0
  3
Center (.5x) ___ _ ___ _ ___ _ ___ _ ___ _ ___
 72
    65
 73
     4
 40
1.125
 49
0.75
 49
-0.125
 49
0.125
 49
-0.125
  0
LTYPE
  2
HIDDEN2
 70
     0
  3
Hidden (.5x) _ _ _ _ _ _ _ _ _ _ _ _ _ _ _ _ _
 72
    65
 73
     2
 40
0.1875
 49
0.125
 49
-0.0625
  0
LTYPE
  2
AMZIGZAG2
 70
     0
  3
/\/-/\/-/\/-/\/-/\/-/\/
 72
    65
 73
     2
 40
0.4401
 49
0.0001
 49
-0.4400000000000002
  0
LTYPE
  2
ACANSTGB
 70
     0
  3
__ . . __ . .
 72
    65
 73
     6
 40
0.35433070866
 49
0.15748031496
 49
-0.03937007874
 49
0.03937007874
 49
-0.03937007874
 49
0.03937007874
 49
-0.03937007874
  0
LTYPE
  2
ACANSTGL
 70
     0
  3
_ _ _ _ _
 72
    65
 73
     2
 40
0.11811023622
 49
0.07874015748
 49
-0.03937007874
  0
ENDTAB
  0
TABLE
  2
LAYER
 70
     7
  0
LAYER
  2
0
 70
     0
 62
     7
  6
CONTINUOUS
  0
LAYER
  2
AM_0
 70
     0
 62
     7
  6
CONTINUOUS
  0
LAYER
  2
AM_5
 70
     0
 62
     2
  6
CONTINUOUS
  0
LAYER
  2
DEFPOINTS
 70
     0
 62
     7
  6
CONTINUOUS
  0
LAYER
  2
ｶｸﾚｾﾝ2
 70
     0
 62
     3
  6
GEN3B
  0
LAYER
  2
ﾁｭｳｼﾝｾﾝ
 70
     0
 62
     1
  6
GEN7
  0
LAYER
  2
ﾁｭｳｼﾝｾﾝ1
 70
     0
 62
     1
  6
GEN7A
  0
ENDTAB
  0
TABLE
  2
STYLE
 70
     9
  0
STYLE
  2
STANDARD
 70
     0
 40
0.0
 41
0.8299999999999999
 50
0.0
 71
     0
 42
2.5
  3
txt.shx
  4
bigfont.shx
  0
STYLE
  2
ANNOTATIVE
 70
     0
 40
0.0
 41
1.0
 50
0.0
 71
     0
 42
0.2
  3
txt
  4

  0
STYLE
  2

 70
     1
 40
0.0
 41
1.0
 50
0.0
 71
     0
 42
2.5
  3
ltypeshp.shx
  4

  0
STYLE
  2
ACISOTS
 70
     0
 40
1.0
 41
1.0
 50
0.0
 71
     0
 42
2.5
  3
isocp.shx
  4
extfont.shx
  0
STYLE
  2
ACISOGDT
 70
     0
 40
0.0
 41
1.0
 50
0.0
 71
     0
 42
2.5
  3
amgdt.shx
  4

  0
STYLE
  2
ACANSTS
 70
     0
 40
1.0
 41
1.0
 50
0.0
 71
     0
 42
2.5
  3
romans.shx
  4
bigfont.shx
  0
STYLE
  2
ACANSGDT
 70
     0
 40
0.0
 41
1.0
 50
0.0
 71
     0
 42
2.5
  3
amgdt.shx
  4

  0
STYLE
  2
ACJISTS
 70
     0
 40
1.0
 41
1.0
 50
0.0
 71
     0
 42
2.5
  3
isocp.shx
  4
bigfont.shx
  0
STYLE
  2
ACJISGDT
 70
     0
 40
0.0
 41
1.0
 50
0.0
 71
     0
 42
2.5
  3
amgdt.shx
  4

  0
ENDTAB
  0
TABLE
  2
VIEW
 70
     6
  0
VIEW
  2
AM_VIEW1
 70
     0
 40
462.5
 10
416.07965009208078
 20
693.75
 41
832.15930018416213
 11
0.0
 21
0.0
 31
1.0
 12
0.0
 22
0.0
 32
0.0
 42
50.0
 43
0.0
 44
0.0
 50
0.0
 71
     0
  0
VIEW
  2
AM_VIEW2
 70
     0
 40
462.5
 10
1006.420349907918
 20
693.75
 41
832.15930018416213
 11
0.0
 21
0.0
 31
1.0
 12
0.0
 22
0.0
 32
0.0
 42
50.0
 43
0.0
 44
0.0
 50
0.0
 71
     0
  0
VIEW
  2
AM_VIEW3
 70
     0
 40
462.5
 10
416.07965009208078
 20
231.25
 41
832.15930018416213
 11
0.0
 21
0.0
 31
1.0
 12
0.0
 22
0.0
 32
0.0
 42
50.0
 43
0.0
 44
0.0
 50
0.0
 71
     0
  0
VIEW
  2
AM_VIEW4
 70
     0
 40
462.5
 10
1006.420349907918
 20
231.25
 41
832.15930018416213
 11
0.0
 21
0.0
 31
1.0
 12
0.0
 22
0.0
 32
0.0
 42
50.0
 43
0.0
 44
0.0
 50
0.0
 71
     0
  0
VIEW
  2
AM_VIEW5
 70
     0
 40
462.5
 10
711.24999999999966
 20
462.5
 41
832.15930018416179
 11
0.0
 21
0.0
 31
1.0
 12
0.0
 22
0.0
 32
0.0
 42
50.0
 43
0.0
 44
0.0
 50
0.0
 71
     0
  0
VIEW
  2
AM_VIEW6
 70
     0
 40
924.99075000000005
 10
711.24999999999966
 20
462.5
 41
1664.3019571823199
 11
0.0
 21
0.0
 31
1.0
 12
0.0
 22
0.0
 32
0.0
 42
50.0
 43
0.0
 44
0.0
 50
0.0
 71
     0
  0
ENDTAB
  0
TABLE
  2
UCS
 70
     0
  0
ENDTAB
  0
TABLE
  2
APPID
 70
    95
  0
APPID
  2
ACAD
 70
     0
  0
APPID
  2
ACADANNOTATIVE
 70
     0
  0
APPID
  2
MCAD_NO_VIS
 70
     0
  0
APPID
  2
ACAD_TEMP_GRAPHIC
 70
     0
  0
APPID
  2
ACATTRIBSERVICES
 70
     0
  0
APPID
  2
GENIUS_GENREC_14
 70
     0
  0
APPID
  2
GENIUS_GENOBJ-N-REC_13
 70
     0
  0
APPID
  2
GENIUS_GENODEF_13
 70
     0
  0
APPID
  2
GENIUS_GENOLIS_13
 70
     0
  0
APPID
  2
GENIUS_GENOBJ-N-TIT_13
 70
     0
  0
APPID
  2
GENIUS_GENOENT_13
 70
     0
  0
APPID
  2
GENIUS_GENTITLE_13
 70
     0
  0
APPID
  2
GENIUS_GENOREF_13
 70
     0
  0
APPID
  2
GENIUS_GENSCREG_15
 70
     0
  0
APPID
  2
GENIUS_GENOBJ-N-SDF_13
 70
     0
  0
APPID
  2
GENIUS_GENFIL_13
 70
     0
  0
APPID
  2
GENIUS_GENOBJ-N-CHA_13
 70
     0
  0
APPID
  2
GENIUS_GENDTOL_13
 70
     0
  0
APPID
  2
GENIUS_GENOBJ-N-FIL_13
 70
     0
  0
APPID
  2
AD_DRAW
 70
     0
  0
APPID
  2
DESIGNERASSEMBLIES
 70
     0
  0
APPID
  2
ASURF_PCURVE_APPNAME
 70
     0
  0
APPID
  2
GENIUS_GE3SECT_13
 70
     0
  0
APPID
  2
GENIUS_GENCFG_13
 70
     0
  0
APPID
  2
GENIUS_GE3CFG0_13
 70
     0
  0
APPID
  2
GENIUS_GENCFG0_13
 70
     0
  0
APPID
  2
GENIUS_GENCFG1_13
 70
     0
  0
APPID
  2
GENIUS_GENCFG2_13
 70
     0
  0
APPID
  2
GENIUS_GENCFG3_13
 70
     0
  0
APPID
  2
GENIUS_GENCFG4_13
 70
     0
  0
APPID
  2
GENIUS_GEVCFG0_13
 70
     0
  0
APPID
  2
GENIUS_GENHINW_13
 70
     0
  0
APPID
  2
GENIUS_FIRSTVISTXT_14
 70
     0
  0
APPID
  2
GENIUS_GENOBJ-N-LEADER_13
 70
     0
  0
APPID
  2
GEV_VCCNULL_SWITCH_OFF
 70
     0
  0
APPID
  2
GENIUS_GEFCFG0_13
 70
     0
  0
APPID
  2
GENIUS_GENZVEED_13
 70
     0
  0
APPID
  2
GENIUS_GENSCREG_13
 70
     0
  0
APPID
  2
GENIUS_DUMCFG0_13
 70
     0
  0
APPID
  2
GEVID936201362
 70
     0
  0
APPID
  2
GEVDC
 70
     0
  0
APPID
  2
GEVCON
 70
     0
  0
APPID
  2
VCC
 70
     0
  0
APPID
  2
GEVPT
 70
     0
  0
APPID
  2
GEVIT
 70
     0
  0
APPID
  2
GENBH
 70
     0
  0
APPID
  2
GEVMK
 70
     0
  0
APPID
  2
GENIUS_GENBH_13
 70
     0
  0
APPID
  2
GENIUS_GENOBJ-NBEHI-BHF_13
 70
     0
  0
APPID
  2
GENIUS_GENOBJ-NBEHI-BHB_13
 70
     0
  0
APPID
  2
GENIUS_GENOBJ-F-DESC_13
 70
     0
  0
APPID
  2
GENIUS_GEFDESC_14
 70
     0
  0
APPID
  2
GENIUS_GENOBJ-F-PART_13
 70
     0
  0
APPID
  2
GENIUS_GEFSTDP_13
 70
     0
  0
APPID
  2
GENIUS_GEFPARTINS_13
 70
     0
  0
APPID
  2
GENIUS_GENTRA_14
 70
     0
  0
APPID
  2
GENIUS_GENINF13_13
 70
     0
  0
APPID
  2
GENIUS_GENOBJ-N-INFOPT_13
 70
     0
  0
APPID
  2
GENIUS_GENOBJ-N-RSSYM_13
 70
     0
  0
APPID
  2
GENIUS_GENSYMENT_13
 70
     0
  0
APPID
  2
GENIUS_GENSCSYM_13
 70
     0
  0
APPID
  2
GENIUS_GEFINFNAM_13
 70
     0
  0
APPID
  2
GENIUS_GENOBJ-N-CEN_13
 70
     0
  0
APPID
  2
GENIUS_GENOBJ-N-CRS_13
 70
     0
  0
APPID
  2
GENIUS_GENOBJ-N-CRC_13
 70
     0
  0
APPID
  2
GENIUS_GENCRC_14
 70
     0
  0
APPID
  2
GEVID942827039
 70
     0
  0
APPID
  2
GEVID942827040
 70
     0
  0
APPID
  2
GEVID942827041
 70
     0
  0
APPID
  2
GENIUS_GENOBJ-F-SCPASSM_13
 70
     0
  0
APPID
  2
GENIUS_GENDIMSH_14
 70
     0
  0
APPID
  2
GEVID942827042
 70
     0
  0
APPID
  2
GEVID946020473
 70
     0
  0
APPID
  2
GEVID946020474
 70
     0
  0
APPID
  2
GEVID946020475
 70
     0
  0
APPID
  2
GENIUS_GENOBJ-N-HTC_13
 70
     0
  0
APPID
  2
GENIUS_GENHATCH_13
 70
     0
  0
APPID
  2
GEVID948854295
 70
     0
  0
APPID
  2
GEVID939402019
 70
     0
  0
APPID
  2
GEVID952919491
 70
     0
  0
APPID
  2
GEVID952919492
 70
     0
  0
APPID
  2
GENIUS_GEFWELD_13
 70
     0
  0
APPID
  2
GENIUS_GENOBJ-F-WELS_13
 70
     0
  0
APPID
  2
GEVID952919493
 70
     0
  0
APPID
  2
GENIUS_GENOBJ-N-RSBK_13
 70
     0
  0
APPID
  2
GENIUS_GENOBJ-N-LIB_13
 70
     0
  0
APPID
  2
GENIUS_GENSCALE_13
 70
     0
  0
APPID
  2
GEVID986376691
 70
     0
  0
APPID
  2
DCO15
 70
     0
  0
APPID
  2
ACAD_DSTYLE_DIMBREAK
 70
     0
  0
APPID
  2
ACAD_DSTYLE_DIMJAG
 70
     0
  0
APPID
  2
ACAD_NAV_VCDISPLAY
 70
     0
  0
APPID
  2
ACADANNOPO
 70
     0
  0
APPID
  2
ACAD_EXEMPT_FROM_CAD_STANDARDS
 70
     0
  0
APPID
  2
ACAD_MLEADERVER
 70
     0
  0
ENDTAB
  0
TABLE
  2
DIMSTYLE
 70
    22
  0
DIMSTYLE
  2
STANDARD
 70
     0
  3

  4

  5

  6

  7

 40
1.0
 41
0.18
 42
0.0625
 43
0.38
 44
0.18
 45
0.0
 46
0.0
 47
0.0
 48
0.0
140
0.18
141
0.09
142
0.0
143
25.399999999999999
144
1.0
145
0.0
146
1.0
147
0.09
 71
     0
 72
     0
 73
     1
 74
     1
 75
     0
 76
     0
 77
     0
 78
     0
170
     0
171
     2
172
     0
173
     0
174
     0
175
     0
176
     0
177
     0
178
     0
  0
DIMSTYLE
  2
ANNOTATIVE
 70
     0
  3

  4

  5

  6

  7

 40
1.0
 41
0.18
 42
0.0625
 43
0.38
 44
0.18
 45
0.0
 46
0.0
 47
0.0
 48
0.0
140
0.18
141
0.09
142
0.0
143
25.399999999999999
144
1.0
145
0.0
146
1.0
147
0.09
 71
     0
 72
     0
 73
     1
 74
     1
 75
     0
 76
     0
 77
     0
 78
     0
170
     0
171
     2
172
     0
173
     0
174
     0
175
     0
176
     0
177
     0
178
     0
  0
DIMSTYLE
  2
AM_ISO
 70
     0
  3

  4
"
  5

  6

  7

 40
1.0
 41
2.5
 42
1.0
 43
8.0
 44
0.6
 45
0.0
 46
0.0
 47
0.1
 48
0.1
140
2.5
141
0.0
142
0.0
143
0.0393701
144
1.0
145
0.0
146
0.71
147
0.8
 71
     0
 72
     0
 73
     0
 74
     0
 75
     0
 76
     0
 77
     1
 78
     8
170
     0
171
     2
172
     1
173
     0
174
     0
175
     0
176
   256
177
   256
178
     4
  0
DIMSTYLE
  2
AM_ISO$3
 70
     0
  3

  4
"
  5

  6

  7

 40
1.0
 41
2.5
 42
1.0
 43
8.0
 44
0.6
 45
0.0
 46
0.0
 47
0.1
 48
0.1
140
2.5
141
0.0
142
0.0
143
0.0393701
144
1.0
145
0.0
146
0.71
147
0.8
 71
     0
 72
     0
 73
     0
 74
     1
 75
     0
 76
     0
 77
     1
 78
     8
170
     0
171
     2
172
     0
173
     0
174
     0
175
     0
176
   256
177
   256
178
     4
  0
DIMSTYLE
  2
AM_ISO$4
 70
     0
  3

  4
"
  5

  6

  7

 40
1.0
 41
2.5
 42
1.0
 43
8.0
 44
0.6
 45
0.0
 46
0.0
 47
0.1
 48
0.1
140
2.5
141
0.0
142
0.0
143
0.0393701
144
1.0
145
0.0
146
0.71
147
0.8
 71
     0
 72
     0
 73
     0
 74
     1
 75
     0
 76
     0
 77
     1
 78
     8
170
     0
171
     2
172
     0
173
     0
174
     0
175
     0
176
   256
177
   256
178
     4
  0
DIMSTYLE
  2
AM_ISO$6
 70
     0
  3

  4
"
  5

  6

  7

 40
1.0
 41
2.5
 42
1.0
 43
8.0
 44
0.6
 45
0.0
 46
0.0
 47
0.1
 48
0.1
140
2.5
141
0.0
142
0.0
143
0.0393701
144
1.0
145
0.0
146
0.71
147
0.8
 71
     0
 72
     0
 73
     0
 74
     0
 75
     0
 76
     0
 77
     0
 78
     8
170
     0
171
     2
172
     1
173
     0
174
     0
175
     0
176
   256
177
   256
178
     4
  0
DIMSTYLE
  2
AM_ISO$7
 70
     0
  3

  4
"
  5

  6

  7

 40
1.0
 41
2.5
 42
1.0
 43
8.0
 44
0.6
 45
0.0
 46
0.0
 47
0.1
 48
0.1
140
2.5
141
0.0
142
0.0
143
0.0393701
144
1.0
145
0.0
146
0.71
147
0.8
 71
     0
 72
     0
 73
     0
 74
     0
 75
     0
 76
     0
 77
     1
 78
     8
170
     0
171
     2
172
     1
173
     0
174
     0
175
     0
176
   256
177
   256
178
     4
  0
DIMSTYLE
  2
AM_ISO$SF
 70
     0
  3

  4
"
  5

  6

  7

 40
1.0
 41
2.5
 42
1.0
 43
10.0
 44
1.0
 45
0.0
 46
0.0
 47
0.1
 48
0.1
140
3.5
141
0.0
142
0.0
143
0.0393701
144
1.0
145
0.0
146
0.71
147
1.5
 71
     0
 72
     0
 73
     0
 74
     0
 75
     1
 76
     1
 77
     1
 78
     8
170
     0
171
     2
172
     1
173
     0
174
     0
175
     0
176
   256
177
   256
178
     2
  0
DIMSTYLE
  2
AM_ISO$SH
 70
     0
  3

  4
"
  5

  6

  7

 40
1.0
 41
2.5
 42
1.0
 43
10.0
 44
1.0
 45
0.0
 46
0.0
 47
0.1
 48
0.1
140
3.5
141
0.0
142
0.0
143
0.0393701
144
2.0
145
0.0
146
0.71
147
1.5
 71
     0
 72
     0
 73
     0
 74
     0
 75
     1
 76
     1
 77
     1
 78
     8
170
     0
171
     2
172
     1
173
     1
174
     0
175
     0
176
   256
177
   256
178
     2
  0
DIMSTYLE
  2
AM_JIS
 70
     0
  3

  4
"
  5

  6

  7

 40
1.0
 41
2.5
 42
1.0
 43
7.0
 44
1.0
 45
0.0
 46
0.0
 47
0.1
 48
0.1000000001
140
2.5
141
0.0
142
0.0
143
0.0393701
144
1.0
145
0.0
146
0.71
147
1.0
 71
     0
 72
     0
 73
     0
 74
     0
 75
     0
 76
     0
 77
     3
 78
     8
170
     0
171
     2
172
     1
173
     0
174
     0
175
     0
176
   256
177
   256
178
     4
  0
DIMSTYLE
  2
AM_JIS$3
 70
     0
  3

  4
"
  5

  6

  7

 40
1.0
 41
2.5
 42
1.0
 43
7.0
 44
1.0
 45
0.0
 46
0.0
 47
0.1
 48
0.1000000001
140
2.5
141
0.0
142
0.0
143
0.0393701
144
1.0
145
0.0
146
0.71
147
1.0
 71
     0
 72
     0
 73
     0
 74
     1
 75
     0
 76
     0
 77
     3
 78
     8
170
     0
171
     2
172
     0
173
     0
174
     0
175
     0
176
   256
177
   256
178
     4
  0
DIMSTYLE
  2
AM_JIS$4
 70
     0
  3

  4
"
  5

  6

  7

 40
1.0
 41
2.5
 42
1.0
 43
7.0
 44
1.0
 45
0.0
 46
0.0
 47
0.1
 48
0.1000000001
140
2.5
141
0.0
142
0.0
143
0.0393701
144
1.0
145
0.0
146
0.71
147
1.0
 71
     0
 72
     0
 73
     0
 74
     0
 75
     0
 76
     0
 77
     3
 78
     8
170
     0
171
     2
172
     0
173
     0
174
     0
175
     0
176
   256
177
   256
178
     4
  0
DIMSTYLE
  2
AM_JIS$6
 70
     0
  3

  4
"
  5

  6

  7

 40
1.0
 41
2.5
 42
1.0
 43
7.0
 44
1.0
 45
0.0
 46
0.0
 47
0.1
 48
0.1000000001
140
2.5
141
0.0
142
0.0
143
0.0393701
144
1.0
145
0.0
146
0.71
147
1.0
 71
     0
 72
     0
 73
     0
 74
     0
 75
     0
 76
     0
 77
     0
 78
     8
170
     0
171
     2
172
     1
173
     0
174
     0
175
     0
176
   256
177
   256
178
     4
  0
DIMSTYLE
  2
AM_JIS$7
 70
     0
  3

  4
"
  5

  6

  7

 40
1.0
 41
2.5
 42
1.0
 43
7.0
 44
1.0
 45
0.0
 46
0.0
 47
0.1
 48
0.1000000001
140
2.5
141
0.0
142
0.0
143
0.0393701
144
1.0
145
0.0
146
0.71
147
1.0
 71
     0
 72
     0
 73
     0
 74
     0
 75
     0
 76
     0
 77
     3
 78
     8
170
     0
171
     2
172
     1
173
     0
174
     0
175
     0
176
   256
177
   256
178
     4
  0
DIMSTYLE
  2
AM_JIS$SF
 70
     0
  3

  4
"
  5

  6

  7

 40
1.0
 41
2.5
 42
1.0
 43
10.0
 44
1.0
 45
0.0
 46
0.0
 47
0.1
 48
0.1
140
3.5
141
0.0
142
0.0
143
0.0393701
144
1.0
145
0.0
146
0.71
147
1.5
 71
     0
 72
     0
 73
     0
 74
     0
 75
     1
 76
     1
 77
     3
 78
     8
170
     0
171
     2
172
     1
173
     0
174
     0
175
     0
176
   256
177
   256
178
     4
  0
DIMSTYLE
  2
AM_JIS$SH
 70
     0
  3

  4
"
  5

  6

  7

 40
1.0
 41
2.5
 42
1.0
 43
10.0
 44
1.0
 45
0.0
 46
0.0
 47
0.1
 48
0.1
140
3.5
141
0.0
142
0.0
143
0.0393701
144
1.0
145
0.0
146
0.71
147
1.5
 71
     0
 72
     0
 73
     0
 74
     0
 75
     1
 76
     0
 77
     3
 78
     8
170
     0
171
     2
172
     1
173
     1
174
     0
175
     0
176
   256
177
   256
178
     4
  0
DIMSTYLE
  2
AM_ANSI
 70
     0
  3

  4
mm
  5

  6

  7

 40
1.0
 41
0.1
 42
0.05
 43
0.5
 44
0.1
 45
0.0
 46
0.0
 47
0.1
 48
0.1
140
0.12
141
0.0
142
0.0
143
25.399999999999999
144
1.0
145
0.0
146
0.71
147
0.06
 71
     0
 72
     0
 73
     1
 74
     1
 75
     0
 76
     0
 77
     0
 78
     7
170
     0
171
     2
172
     0
173
     0
174
     0
175
     0
176
   256
177
   256
178
     2
  0
DIMSTYLE
  2
AM_ANSI$3
 70
     0
  3

  4
mm
  5

  6

  7

 40
1.0
 41
0.1
 42
0.05
 43
0.5
 44
0.1
 45
0.0
 46
0.0
 47
0.1
 48
0.1
140
0.12
141
0.0
142
0.0
143
25.399999999999999
144
1.0
145
0.0
146
0.71
147
0.06
 71
     0
 72
     0
 73
     1
 74
     1
 75
     0
 76
     0
 77
     0
 78
     7
170
     0
171
     2
172
     0
173
     0
174
     0
175
     0
176
   256
177
   256
178
     2
  0
DIMSTYLE
  2
AM_ANSI$4
 70
     0
  3

  4
mm
  5

  6

  7

 40
1.0
 41
0.1
 42
0.05
 43
0.5
 44
0.1
 45
0.0
 46
0.0
 47
0.1
 48
0.1
140
0.12
141
0.0
142
0.0
143
25.399999999999999
144
1.0
145
0.0
146
0.71
147
0.06
 71
     0
 72
     0
 73
     1
 74
     1
 75
     0
 76
     0
 77
     0
 78
     7
170
     0
171
     2
172
     0
173
     0
174
     0
175
     0
176
   256
177
   256
178
     2
  0
DIMSTYLE
  2
AM_ANSI$7
 70
     0
  3

  4
mm
  5

  6

  7

 40
1.0
 41
0.1
 42
0.05
 43
0.5
 44
0.1
 45
0.0
 46
0.0
 47
0.1
 48
0.1
140
0.24
141
0.0
142
0.0
143
25.399999999999999
144
1.0
145
0.0
146
0.71
147
0.06
 71
     0
 72
     0
 73
     1
 74
     1
 75
     0
 76
     0
 77
     0
 78
     7
170
     0
171
     2
172
     0
173
     0
174
     0
175
     0
176
   256
177
   256
178
     2
  0
DIMSTYLE
  2
AM_ANSI$SF
 70
     0
  3

  4
mm
  5

  6

  7

 40
1.0
 41
0.1
 42
0.05
 43
0.5
 44
0.1
 45
0.0
 46
0.0
 47
0.1
 48
0.1
140
0.12
141
0.0
142
0.0
143
25.399999999999999
144
1.0
145
0.0
146
0.71
147
0.06
 71
     0
 72
     0
 73
     1
 74
     1
 75
     1
 76
     1
 77
     0
 78
     7
170
     0
171
     2
172
     0
173
     0
174
     0
175
     0
176
   256
177
   256
178
     2
  0
DIMSTYLE
  2
AM_ANSI$SH
 70
     0
  3

  4
mm
  5

  6

  7

 40
1.0
 41
0.1
 42
0.05
 43
0.5
 44
0.1
 45
0.0
 46
0.0
 47
0.1
 48
0.1
140
0.12
141
0.0
142
0.0
143
25.399999999999999
144
1.0
145
0.0
146
0.71
147
0.06
 71
     0
 72
     0
 73
     1
 74
     1
 75
     1
 76
     1
 77
     0
 78
     7
170
     0
171
     2
172
     0
173
     1
174
     0
175
     0
176
   256
177
   256
178
     2
  0
ENDTAB
  0
ENDSEC
  0
SECTION
  2
BLOCKS
  0
BLOCK
  8
0
  2
$MODEL_SPACE
 70
     0
 10
0.0
 20
0.0
 30
0.0
  3
$MODEL_SPACE
  1

  0
ENDBLK
  5
2CBC
  8
0
  0
BLOCK
 67
     1
  8
0
  2
$PAPER_SPACE
 70
     0
 10
0.0
 20
0.0
 30
0.0
  3
$PAPER_SPACE
  1

  0
ENDBLK
  5
2CB8
 67
     1
  8
0
  0
BLOCK
  8
0
  2
GENAXEH
 70
     0
 10
0.0
 20
0.0
 30
0.0
  3
GENAXEH
  1

  0
LINE
  5
2A1B
  8
0
 10
-1.0
 20
0.0
 30
0.0
 11
1.0
 21
0.0
 31
0.0
  0
ENDBLK
  5
2A1C
  8
0
  0
BLOCK
  8
0
  2
_OPEN30
 70
     0
 10
0.0
 20
0.0
 30
0.0
  3
_OPEN30
  1

  0
LINE
  5
2A1F
  8
0
 62
     0
 10
-1.0
 20
0.26794919
 30
0.0
 11
0.0
 21
0.0
 31
0.0
  0
LINE
  5
2A20
  8
0
 62
     0
 10
0.0
 20
0.0
 30
0.0
 11
-1.0
 21
-0.26794919
 31
0.0
  0
LINE
  5
2A21
  8
0
 62
     0
 10
0.0
 20
0.0
 30
0.0
 11
-1.0
 21
0.0
 31
0.0
  0
ENDBLK
  5
2A22
  8
0
  0
BLOCK
  8
0
  2
_NONE
 70
     0
 10
0.0
 20
0.0
 30
0.0
  3
_NONE
  1

  0
ENDBLK
  5
2A25
  8
0
  0
BLOCK
  8
0
  2
_ACMFILLEDHALF
 70
     0
 10
0.0
 20
0.0
 30
0.0
  3
_ACMFILLEDHALF
  1

  0
TRACE
  5
2DB4
  8
AM_0
 62
     0
 10
-0.8
 20
0.0
 30
0.0
 11
-1.0
 21
0.166666666
 31
0.0
 12
0.0
 22
0.0
 32
0.0
 13
0.0
 23
0.0
 33
0.0
  0
LINE
  5
2DB5
  8
AM_0
 62
     0
 10
-1.0
 20
0.0
 30
0.0
 11
-0.8
 21
0.0
 31
0.0
  0
ENDBLK
  5
2DB3
  8
0
  0
ENDSEC
  0
SECTION
  2
ENTITIES
  0
LINE
  5
2A26
  8
AM_0
 10
662.0001367663624
 20
510.39569999999998
 30
0.0
 11
744.00013676636183
 21
510.39569999999998
 31
0.0
  0
LINE
  5
2A27
  8
AM_0
 10
662.0001367663624
 20
455.39569999999992
 30
0.0
 11
744.00013676636183
 21
455.39569999999992
 31
0.0
  0
LINE
  5
2A28
  8
AM_0
 10
682.00013676636206
 20
514.39570000000003
 30
0.0
 11
744.00013676636183
 21
514.39570000000003
 31
0.0
  0
LINE
  5
2A29
  8
ﾁｭｳｼﾝｾﾝ
 10
386.68648676636218
 20
482.89569999999992
 30
0.0
 11
750.9289867663623
 21
482.89569999999992
 31
0.0
  0
LINE
  5
2A2A
  8
AM_0
 10
327.18816576636232
 20
465.82707599999992
 30
0.0
 11
278.43418476636231
 21
431.68917099999999
 31
0.0
  0
LINE
  5
2A2B
  8
AM_0
 10
328.00023676636232
 20
326.837244
 30
0.0
 11
328.00023676636232
 21
463.95414599999998
 31
0.0
  0
LINE
  5
2A2C
  8
AM_0
 10
355.54293676636217
 20
469.43845499999992
 30
0.0
 11
355.54293676636217
 21
395.39569499999988
 31
0.0
  0
LINE
  5
2A2D
  8
AM_0
 10
340.00023676636232
 20
468.89569999999998
 30
0.0
 11
340.00023676636232
 21
321.89566499999989
 31
0.0
  0
LINE
  5
2A2E
  8
AM_0
 10
415.00023676636209
 20
340.39569499999982
 30
0.0
 11
415.00023676636209
 21
534.39569999999992
 31
0.0
  0
LINE
  5
2A2F
  8
AM_0
 10
453.0001367663624
 20
550.87964999999986
 30
0.0
 11
453.0001367663624
 21
325.45318999999989
 31
0.0
  0
LINE
  5
2A30
  8
AM_0
 10
479.00013676636229
 20
601.91669999999999
 30
0.0
 11
479.00013676636229
 21
313.03467499999999
 31
0.0
  0
LINE
  5
2A31
  8
AM_0
 10
509.00013676636229
 20
604.89564999999982
 30
0.0
 11
509.00013676636229
 21
372.28961499999991
 31
0.0
  0
LINE
  5
2A32
  8
AM_0
 10
591.0001367663624
 20
519.85334999999986
 30
0.0
 11
591.0001367663624
 21
322.89569499999999
 31
0.0
  0
LINE
  5
2A33
  8
AM_0
 10
624.0001367663624
 20
587.22289999999987
 30
0.0
 11
624.0001367663624
 21
339.20270499999992
 31
0.0
  0
LINE
  5
2A34
  8
AM_0
 10
514.00013676636217
 20
475.00168500000001
 30
0.0
 11
514.00013676636217
 21
385.13465000000002
 31
0.0
  0
LINE
  5
2A35
  8
AM_0
 10
656.00013676636229
 20
540.96429999999987
 30
0.0
 11
656.00013676636229
 21
424.82709499999999
 31
0.0
  0
LINE
  5
2A36
  8
AM_0
 10
651.00013676636229
 20
563.31404999999995
 30
0.0
 11
651.00013676636229
 21
316.55594499999989
 31
0.0
  0
LINE
  5
2A37
  8
AM_0
 10
430.00023676636221
 20
535.39570000000003
 30
0.0
 11
430.00023676636221
 21
340.39569499999982
 31
0.0
  0
LINE
  5
2A38
  8
AM_0
 10
662.0001367663624
 20
512.89570000000003
 30
0.0
 11
662.0001367663624
 21
452.89569999999998
 31
0.0
  0
LINE
  5
2A39
  8
ﾁｭｳｼﾝｾﾝ
 10
207.84406381506989
 20
395.39569499999988
 30
0.0
 11
402.7087795994405
 21
395.39569499999988
 31
0.0
  0
LINE
  5
2A3A
  8
AM_0
 10
272.87294476636231
 20
429.88221499999992
 30
0.0
 11
251.13411776636221
 21
429.50276199999979
 31
0.0
  0
LINE
  5
2A3B
  8
AM_0
 10
251.13411776636221
 20
361.28862800000002
 30
0.0
 11
272.87294476636231
 21
360.909175
 31
0.0
  0
LINE
  5
2A3C
  8
AM_0
 10
241.00023676636221
 20
385.39569499999999
 30
0.0
 11
241.00023676636221
 21
405.39569499999988
 31
0.0
  0
LINE
  5
2A3D
  8
AM_0
 10
213.00023676636221
 20
385.89569499999988
 30
0.0
 11
213.00023676636221
 21
404.89569499999988
 31
0.0
  0
LINE
  5
2A3E
  8
AM_0
 10
243.00023676636221
 20
371.39569499999999
 30
0.0
 11
243.00023676636221
 21
419.39569499999988
 31
0.0
  0
LINE
  5
2A3F
  8
AM_0
 10
245.00023676636241
 20
366.12774599999989
 30
0.0
 11
245.00023676636241
 21
424.66364399999992
 31
0.0
  0
LINE
  5
2A40
  8
AM_0
 10
250.35838276636241
 20
363.30247299999979
 30
0.0
 11
250.35838276636241
 21
427.48891699999979
 31
0.0
  0
LINE
  5
2A41
  8
AM_0
 10
213.00023676636221
 20
385.89569499999988
 30
0.0
 11
241.00023676636221
 21
385.89569499999988
 31
0.0
  0
ARC
  5
2A42
  8
AM_0
 10
248.00023676636221
 20
366.12774599999989
 30
0.0
 40
3.0
 50
180.0
 51
239.99999999999949
  0
LINE
  5
2A43
  8
AM_0
 10
243.00023676636221
 20
371.39569499999999
 30
0.0
 11
245.00023676636241
 21
369.39569499999999
 31
0.0
  0
ARC
  5
2A44
  8
AM_0
 10
251.18647476636221
 20
364.28817099999992
 30
0.0
 40
3.0
 50
239.99999999999949
 51
269.00000000000148
  0
LINE
  5
2A45
  8
AM_0
 10
246.50023676636221
 20
363.52966900000001
 30
0.0
 11
249.68647476636221
 21
361.69009399999987
 31
0.0
  0
LINE
  5
2A46
  8
AM_0
 10
241.00023676636221
 20
385.39569499999999
 30
0.0
 11
243.00023676636221
 21
385.39569499999999
 31
0.0
  0
ARC
  5
2A47
  8
AM_0
 10
248.00023676636221
 20
424.66364399999992
 30
0.0
 40
3.0
 50
120.0000000000005
 51
180.0
  0
LINE
  5
2A48
  8
AM_0
 10
213.00023676636221
 20
404.89569499999988
 30
0.0
 11
241.00023676636221
 21
404.89569499999988
 31
0.0
  0
LINE
  5
2A49
  8
AM_0
 10
213.00023676636221
 20
407.39569499999999
 30
0.0
 11
235.00023676636221
 21
407.39569499999999
 31
0.0
  0
LINE
  5
2A4A
  8
AM_0
 10
213.00023676636221
 20
404.89569499999988
 30
0.0
 11
213.00023676636221
 21
407.39569499999999
 31
0.0
  0
LINE
  5
2A4B
  8
AM_0
 10
235.00023676636221
 20
404.89569499999988
 30
0.0
 11
235.00023676636221
 21
407.39569499999999
 31
0.0
  0
LINE
  5
2A4C
  8
AM_0
 10
241.00023676636221
 20
405.39569499999988
 30
0.0
 11
243.00023676636221
 21
405.39569499999988
 31
0.0
  0
LINE
  5
2A4D
  8
AM_0
 10
245.00023676636241
 20
421.39569499999999
 30
0.0
 11
243.00023676636221
 21
419.39569499999988
 31
0.0
  0
LINE
  5
2A4E
  8
AM_0
 10
249.68647476636221
 20
429.10129499999988
 30
0.0
 11
246.50023676636221
 21
427.26172000000003
 31
0.0
  0
ARC
  5
2A4F
  8
AM_0
 10
251.18647476636221
 20
426.503219
 30
0.0
 40
3.0
 50
90.999999999998494
 51
120.0000000000005
  0
LINE
  5
2A50
  8
AM_0
 10
482.35218676636242
 20
315.76358499999992
 30
0.0
 11
513.0454367663624
 21
380.87045999999998
 31
0.0
  0
LINE
  5
2A51
  8
AM_0
 10
426.00013676636229
 20
282.89566500000001
 30
0.0
 11
656.00013676636229
 21
282.89566500000001
 31
0.0
  0
LINE
  5
2A52
  8
AM_0
 10
466.85513676636208
 20
312.89563499999991
 30
0.0
 11
455.07393676636241
 21
321.39890000000008
 31
0.0
  0
LINE
  5
2A53
  8
AM_0
 10
431.00013676636212
 20
312.89569499999999
 30
0.0
 11
477.82958676636213
 21
312.89569499999999
 31
0.0
  0
LINE
  5
2A54
  8
AM_0
 10
426.00013676636229
 20
307.89566500000001
 30
0.0
 11
426.00013676636229
 21
282.89566500000001
 31
0.0
  0
ARC
  5
2A55
  8
AM_0
 10
431.00013676636212
 20
307.89566500000001
 30
0.0
 40
5.0
 50
90.000003000000007
 51
180.00001
  0
LINE
  5
2A56
  8
ﾁｭｳｼﾝｾﾝ1
 10
456.00013676636212
 20
316.80356499999982
 30
0.0
 11
456.00013676636212
 21
279.89566500000001
 31
0.0
  0
LINE
  5
2A57
  8
ｶｸﾚｾﾝ2
 10
446.50013676636229
 20
312.89569499999999
 30
0.0
 11
446.50013676636229
 21
282.89566500000001
 31
0.0
  0
LINE
  5
2A58
  8
ｶｸﾚｾﾝ2
 10
465.5001367663624
 20
312.89569499999999
 30
0.0
 11
465.5001367663624
 21
282.89566500000001
 31
0.0
  0
ARC
  5
2A59
  8
AM_0
 10
477.82958676636213
 20
317.89569499999988
 30
0.0
 40
5.0
 50
270.0
 51
334.75947000000002
  0
LINE
  5
2A5A
  8
AM_0
 10
355.00023676636232
 20
391.443825
 30
0.0
 11
412.00013676636229
 21
391.443825
 31
0.0
  0
LINE
  5
2A5B
  8
AM_0
 10
363.2000367663623
 20
346.89566499999978
 30
0.0
 11
412.00013676636229
 21
346.89566499999978
 31
0.0
  0
LINE
  5
2A5C
  8
AM_0
 10
275.92978576636227
 20
362.85612200000003
 30
0.0
 11
275.92978576636227
 21
427.93526700000001
 31
0.0
  0
LINE
  5
2A5D
  8
AM_0
 10
327.18816576636232
 20
324.96431299999989
 30
0.0
 11
278.43418476636231
 21
359.10221799999982
 31
0.0
  0
ARC
  5
2A5E
  8
AM_0
 10
272.69842076636229
 20
350.9106979999998
 30
0.0
 40
10.0
 50
55.000000000002629
 51
89.000000000001506
  0
ARC
  5
2A5F
  8
AM_0
 10
340.00023676636232
 20
353.92101899999977
 30
0.0
 40
2.0
 50
120.0000000000005
 51
180.0
  0
LINE
  5
2A60
  8
AM_0
 10
352.00023676636232
 20
388.443825
 30
0.0
 11
352.00023676636232
 21
323.32599499999992
 31
0.0
  0
LINE
  5
2A61
  8
AM_0
 10
361.0994367663626
 20
388.443825
 30
0.0
 11
361.0994367663626
 21
346.89566499999978
 31
0.0
  0
ARC
  5
2A62
  8
AM_0
 10
348.49913676636248
 20
326.89566500000001
 30
0.0
 40
5.0
 50
270.0
 51
340.0
  0
LINE
  5
2A63
  8
AM_0
 10
340.00023676636232
 20
333.81702000000001
 30
0.0
 11
352.00023676636232
 21
333.81702000000001
 31
0.0
  0
LINE
  5
2A64
  8
AM_0
 10
338.00023676636232
 20
333.88646999999992
 30
0.0
 11
338.00023676636232
 21
353.92101899999977
 31
0.0
  0
ARC
  5
2A65
  8
AM_0
 10
336.00023676636232
 20
333.88646999999992
 30
0.0
 40
2.0
 50
270.0
 51
0.0
  0
LINE
  5
2A66
  8
AM_0
 10
330.00023676636232
 20
321.89569499999988
 30
0.0
 11
340.00023676636232
 21
321.89569499999988
 31
0.0
  0
LINE
  5
2A67
  8
AM_0
 10
330.00023676636232
 20
331.88646999999992
 30
0.0
 11
336.00023676636232
 21
331.88646999999992
 31
0.0
  0
ARC
  5
2A68
  8
AM_0
 10
330.00023676636232
 20
333.88646999999992
 30
0.0
 40
2.0
 50
180.0
 51
270.0
  0
ARC
  5
2A69
  8
AM_0
 10
326.04101276636243
 20
323.32600899999989
 30
0.0
 40
2.0
 50
8.1879840000002062
 51
55.000000000002629
  0
ARC
  5
2A6A
  8
AM_0
 10
330.00023676636232
 20
323.89569499999982
 30
0.0
 40
2.0
 50
188.187984
 51
270.0
  0
LINE
  5
2A6B
  8
AM_0
 10
340.00023676636232
 20
321.89566499999989
 30
0.0
 11
348.49913676636248
 21
321.89566499999989
 31
0.0
  0
LINE
  5
2A6C
  8
AM_0
 10
353.19758676636212
 20
325.1855799999999
 30
0.0
 11
360.38093676636231
 21
344.92176000000001
 31
0.0
  0
ARC
  5
2A6D
  8
AM_0
 10
363.2000367663623
 20
343.89569499999999
 30
0.0
 40
3.0000000500000001
 50
90.000003000000007
 51
160.0
  0
LINE
  5
2A6E
  8
AM_0
 10
340.00023676636232
 20
355.92102499999999
 30
0.0
 11
352.00023676636232
 21
355.92102499999999
 31
0.0
  0
LINE
  5
2A6F
  8
AM_0
 10
330.00023676636232
 20
355.92101899999977
 30
0.0
 11
338.00023676636232
 21
355.92101899999977
 31
0.0
  0
ARC
  5
2A70
  8
AM_0
 10
272.69842076636229
 20
439.88069200000001
 30
0.0
 40
10.0
 50
270.99999999999841
 51
304.99999999999739
  0
LINE
  5
2A71
  8
AM_0
 10
340.00023676636232
 20
456.97433999999998
 30
0.0
 11
355.54293676636217
 21
456.97433999999998
 31
0.0
  0
LINE
  5
2A72
  8
AM_0
 10
340.00023676636232
 20
434.87036999999992
 30
0.0
 11
355.00023676636232
 21
434.87036999999992
 31
0.0
  0
LINE
  5
2A73
  8
AM_0
 10
338.00023676636232
 20
456.90492
 30
0.0
 11
338.00023676636232
 21
436.87036999999998
 31
0.0
  0
LINE
  5
2A74
  8
AM_0
 10
330.00023676636232
 20
434.87036999999992
 30
0.0
 11
338.00023676636232
 21
434.87036999999992
 31
0.0
  0
ARC
  5
2A75
  8
AM_0
 10
340.00023676636232
 20
436.87036999999998
 30
0.0
 40
2.0
 50
180.0
 51
239.99999999999949
  0
ARC
  5
2A76
  8
AM_0
 10
336.00023676636232
 20
456.90492
 30
0.0
 40
2.0
 50
0.0
 51
90.0
  0
LINE
  5
2A77
  8
AM_0
 10
330.00023676636232
 20
458.90491999999989
 30
0.0
 11
336.00023676636232
 21
458.90491999999989
 31
0.0
  0
ARC
  5
2A78
  8
AM_0
 10
330.00023676636232
 20
456.90492
 30
0.0
 40
2.0
 50
90.0
 51
180.0
  0
LINE
  5
2A79
  8
AM_0
 10
432.000136766362
 20
354.70050500000002
 30
0.0
 11
453.0001367663624
 21
354.70050500000002
 31
0.0
  0
LINE
  5
2A7A
  8
AM_0
 10
432.000136766362
 20
364.88949999999988
 30
0.0
 11
453.0001367663624
 21
364.88949999999988
 31
0.0
  0
LINE
  5
2A7B
  8
AM_0
 10
432.000136766362
 20
381.11988000000002
 30
0.0
 11
453.0001367663624
 21
381.11988000000002
 31
0.0
  0
LINE
  5
2A7C
  8
AM_0
 10
430.0000867663623
 20
340.39566500000001
 30
0.0
 11
448.17458676636249
 21
339.76098999999988
 31
0.0
  0
LINE
  5
2A7D
  8
AM_0
 10
417.00013676636229
 20
338.39569499999988
 30
0.0
 11
428.0001367663624
 21
338.39569499999988
 31
0.0
  0
ARC
  5
2A7E
  8
AM_0
 10
417.00013676636229
 20
340.39569499999982
 30
0.0
 40
2.0000000500000001
 50
179.99998999999991
 51
270.0
  0
ARC
  5
2A7F
  8
AM_0
 10
412.00013676636229
 20
343.89569499999999
 30
0.0
 40
3.0000000500000001
 50
0.0
 51
90.000003000000007
  0
LINE
  5
2A80
  8
AM_0
 10
428.00023676636232
 20
338.39566499999989
 30
0.0
 11
430.00013676636229
 21
340.39566500000001
 31
0.0
  0
LINE
  5
2A81
  8
AM_0
 10
432.000136766362
 20
381.11988000000002
 30
0.0
 11
432.000136766362
 21
354.70050500000002
 31
0.0
  0
LINE
  5
2A82
  8
AM_0
 10
415.00023676636209
 20
354.70050500000002
 30
0.0
 11
430.00023676636221
 21
354.70050500000002
 31
0.0
  0
LINE
  5
2A83
  8
AM_0
 10
415.00023676636209
 20
364.88949999999988
 30
0.0
 11
430.00023676636221
 21
364.88949999999988
 31
0.0
  0
LINE
  5
2A84
  8
AM_0
 10
415.00023676636209
 20
381.11988000000002
 30
0.0
 11
430.00023676636221
 21
381.11988000000002
 31
0.0
  0
ARC
  5
2A85
  8
AM_0
 10
448.0001367663624
 20
334.76407499999999
 30
0.0
 40
5.0
 50
0.0
 51
88.0
  0
ARC
  5
2A86
  8
AM_0
 10
458.0001367663624
 20
325.45318999999989
 30
0.0
 40
5.0
 50
179.99998999999991
 51
234.17957000000001
  0
ARC
  5
2A87
  8
AM_0
 10
601.00013676636229
 20
322.89569499999999
 30
0.0
 40
10.0
 50
179.99998999999991
 51
270.0
  0
ARC
  5
2A88
  8
AM_0
 10
651.00013676636229
 20
307.89566500000001
 30
0.0
 40
5.0
 50
0.0
 51
90.000003000000007
  0
LINE
  5
2A89
  8
ﾁｭｳｼﾝｾﾝ1
 10
626.00013676636229
 20
316.80356499999999
 30
0.0
 11
626.00013676636229
 21
279.89566500000001
 31
0.0
  0
LINE
  5
2A8A
  8
AM_0
 10
601.00013676636229
 20
312.89569499999999
 30
0.0
 11
651.00013676636229
 21
312.89569499999999
 31
0.0
  0
LINE
  5
2A8B
  8
ｶｸﾚｾﾝ2
 10
616.5001367663624
 20
312.89569499999999
 30
0.0
 11
616.5001367663624
 21
282.89566500000001
 31
0.0
  0
LINE
  5
2A8C
  8
ｶｸﾚｾﾝ2
 10
635.5001367663624
 20
312.89569499999999
 30
0.0
 11
635.5001367663624
 21
282.89566500000001
 31
0.0
  0
ARC
  5
2A8D
  8
AM_0
 10
656.00013676636229
 20
316.55594499999989
 30
0.0
 40
5.0
 50
179.99998999999991
 51
240.00001
  0
LINE
  5
2A8E
  8
AM_0
 10
656.00013676636229
 20
307.89566500000001
 30
0.0
 11
656.00013676636229
 21
282.89566500000001
 31
0.0
  0
LINE
  5
2A8F
  8
AM_0
 10
591.0001367663624
 20
329.20270499999992
 30
0.0
 11
614.00013676636217
 21
329.20270499999992
 31
0.0
  0
ARC
  5
2A90
  8
AM_0
 10
504.00013676636229
 20
385.13465000000002
 30
0.0
 40
10.0
 50
334.75947000000002
 51
0.0
  0
ARC
  5
2A91
  8
AM_0
 10
614.00013676636217
 20
339.20270499999992
 30
0.0
 40
10.0
 50
270.0
 51
0.0
  0
ARC
  5
2A92
  8
AM_0
 10
654.0001367663624
 20
424.82709499999999
 30
0.0
 40
2.0000000500000001
 50
272.0
 51
0.0
  0
ARC
  5
2A93
  8
AM_0
 10
653.0001367663624
 20
420.78971000000001
 30
0.0
 40
2.0000000500000001
 50
91.999997999999948
 51
180.00001
  0
LINE
  5
2A94
  8
AM_0
 10
652.93043676636228
 20
422.78849000000002
 30
0.0
 11
654.07003676636236
 21
422.82828499999999
 31
0.0
  0
LINE
  5
2A95
  8
AM_0
 10
656.00013676636229
 20
452.89569999999998
 30
0.0
 11
662.0001367663624
 21
452.89569999999998
 31
0.0
  0
CIRCLE
  5
2A96
  8
AM_0
 10
491.0001367663624
 20
630.89565000000005
 30
0.0
 40
15.0
  0
ARC
  5
2A97
  8
AM_0
 10
491.0001367663624
 20
630.89565000000005
 30
0.0
 40
25.000000499999999
 50
306.46672000000001
 51
233.53328999999999
  0
LINE
  5
2A98
  8
AM_0
 10
480.93043676636239
 20
603.91549999999995
 30
0.0
 11
509.00028676636208
 21
604.89569999999958
 31
0.0
  0
LINE
  5
2A99
  8
AM_0
 10
478.0001367663624
 20
604.89564999999982
 30
0.0
 11
509.00013676636229
 21
604.89564999999982
 31
0.0
  0
LINE
  5
2A9A
  8
AM_0
 10
481.20608676636238
 20
613.89569999999958
 30
0.0
 11
500.79418676636237
 21
613.89569999999958
 31
0.0
  0
LINE
  5
2A9B
  8
AM_0
 10
481.52213676636228
 20
614.01665000000003
 30
0.0
 11
491.0001367663624
 21
615.89565000000016
 31
0.0
  0
ARC
  5
2A9C
  8
AM_0
 10
472.57508676636252
 20
605.96540000000005
 30
0.0
 40
6.0
 50
349.72994999999997
 51
53.533291000000013
  0
LINE
  5
2A9D
  8
AM_0
 10
478.50023676636232
 20
604.89564999999982
 30
0.0
 11
480.75068676636249
 21
613.29454999999984
 31
0.0
  0
LINE
  5
2A9E
  8
AM_0
 10
356.93563676636222
 20
470.83108999999979
 30
0.0
 11
413.53573676636228
 21
527.43115
 31
0.0
  0
LINE
  5
2A9F
  8
AM_0
 10
340.00023676636232
 20
468.89569999999998
 30
0.0
 11
353.57468676636222
 21
469.36972499999968
 31
0.0
  0
LINE
  5
2AA0
  8
AM_0
 10
330.00023676636232
 20
468.89569499999988
 30
0.0
 11
340.00023676636232
 21
468.89569499999988
 31
0.0
  0
ARC
  5
2AA1
  8
AM_0
 10
326.04101276636243
 20
467.46537999999993
 30
0.0
 40
2.0
 50
304.99999999999739
 51
351.81201599999991
  0
ARC
  5
2AA2
  8
AM_0
 10
330.00023676636232
 20
466.89569499999999
 30
0.0
 40
2.0
 50
90.0
 51
171.8120159999998
  0
ARC
  5
2AA3
  8
AM_0
 10
353.40013676636232
 20
474.36667499999999
 30
0.0
 40
5.0
 50
272.0
 51
315.0
  0
ARC
  5
2AA4
  8
AM_0
 10
418.00013676636217
 20
534.39569999999992
 30
0.0
 40
3.0000000500000001
 50
90.000003000000007
 51
180.00001
  0
LINE
  5
2AA5
  8
AM_0
 10
432.000136766362
 20
494.67148500000002
 30
0.0
 11
453.0001367663624
 21
494.67148500000002
 31
0.0
  0
LINE
  5
2AA6
  8
AM_0
 10
432.000136766362
 20
510.90184999999991
 30
0.0
 11
453.0001367663624
 21
510.90184999999991
 31
0.0
  0
LINE
  5
2AA7
  8
AM_0
 10
432.000136766362
 20
521.09085000000005
 30
0.0
 11
453.0001367663624
 21
521.09085000000005
 31
0.0
  0
LINE
  5
2AA8
  8
AM_0
 10
432.000136766362
 20
521.09085000000005
 30
0.0
 11
432.000136766362
 21
494.67148500000002
 31
0.0
  0
LINE
  5
2AA9
  8
AM_0
 10
415.00023676636209
 20
494.67148500000002
 30
0.0
 11
430.00023676636221
 21
494.67148500000002
 31
0.0
  0
LINE
  5
2AAA
  8
AM_0
 10
415.00023676636209
 20
510.90184999999991
 30
0.0
 11
430.00023676636221
 21
510.90184999999991
 31
0.0
  0
LINE
  5
2AAB
  8
AM_0
 10
415.00023676636209
 20
521.09085000000005
 30
0.0
 11
430.00023676636221
 21
521.09085000000005
 31
0.0
  0
ARC
  5
2AAC
  8
AM_0
 10
410.00023676636232
 20
530.96674999999993
 30
0.0
 40
5.0
 50
315.0
 51
0.0
  0
LINE
  5
2AAD
  8
AM_0
 10
430.00028676636219
 20
535.39570000000003
 30
0.0
 11
448.17478676636227
 21
536.03034999999966
 31
0.0
  0
LINE
  5
2AAE
  8
AM_0
 10
418.00013676636217
 20
537.39564999999993
 30
0.0
 11
428.0001367663624
 21
537.39564999999993
 31
0.0
  0
LINE
  5
2AAF
  8
AM_0
 10
428.00023676636232
 20
537.39564999999993
 30
0.0
 11
430.00013676636229
 21
535.39570000000003
 31
0.0
  0
LINE
  5
2AB0
  8
AM_0
 10
454.39853676636238
 20
554.34784999999988
 30
0.0
 11
474.60173676636202
 21
575.32815000000005
 31
0.0
  0
ARC
  5
2AB1
  8
AM_0
 10
458.0001367663624
 20
550.87964999999986
 30
0.0
 40
5.0
 50
136.08091999999999
 51
180.00001
  0
ARC
  5
2AB2
  8
AM_0
 10
448.0001367663624
 20
541.02729999999997
 30
0.0
 40
5.0
 50
272.0
 51
0.0
  0
LINE
  5
2AB3
  8
AM_0
 10
476.00013676636229
 20
602.89570000000003
 30
0.0
 11
476.00013676636229
 21
578.79634999999996
 31
0.0
  0
ARC
  5
2AB4
  8
AM_0
 10
471.0001367663624
 20
578.79634999999996
 30
0.0
 40
5.0
 50
316.08091999999999
 51
0.0
  0
LINE
  5
2AB5
  8
AM_0
 10
474.60173676636202
 20
575.32815000000005
 30
0.0
 11
477.60173676636231
 21
578.44349999999997
 31
0.0
  0
ARC
  5
2AB6
  8
AM_0
 10
474.000136766362
 20
581.91169999999966
 30
0.0
 40
5.0
 50
316.08091999999999
 51
0.0
  0
ARC
  5
2AB7
  8
AM_0
 10
478.0001367663624
 20
602.89570000000003
 30
0.0
 40
2.0000000500000001
 50
90.000003000000007
 51
180.00001
  0
ARC
  5
2AB8
  8
AM_0
 10
481.00013676636212
 20
601.91669999999999
 30
0.0
 40
2.0000000500000001
 50
91.999997999999948
 51
180.00001
  0
ARC
  5
2AB9
  8
AM_0
 10
481.71658676636218
 20
613.03579999999999
 30
0.0
 40
1.0
 50
101.21329
 51
164.99999
  0
ARC
  5
2ABA
  8
AM_0
 10
509.42513676636207
 20
605.96540000000005
 30
0.0
 40
6.0
 50
126.4666999999999
 51
190.27006
  0
LINE
  5
2ABB
  8
AM_0
 10
503.50028676636242
 20
604.89564999999982
 30
0.0
 11
501.24978676636238
 21
613.29454999999984
 31
0.0
  0
ARC
  5
2ABC
  8
AM_0
 10
606.00013676636229
 20
519.85334999999986
 30
0.0
 40
15.0
 50
90.000003000000007
 51
180.00001
  0
LINE
  5
2ABD
  8
AM_0
 10
537.02843676636235
 20
599.91694999999982
 30
0.0
 11
614.34913676636234
 21
597.21680000000003
 31
0.0
  0
LINE
  5
2ABE
  8
AM_0
 10
534.00013676636229
 20
599.1941999999998
 30
0.0
 11
534.00013676636229
 21
475.00168500000001
 31
0.0
  0
LINE
  5
2ABF
  8
AM_0
 10
514.00013676636217
 20
475.00168500000001
 30
0.0
 11
534.00013676636229
 21
475.00168500000001
 31
0.0
  0
LINE
  5
2AC0
  8
AM_0
 10
509.00013676636229
 20
604.89564999999982
 30
0.0
 11
529.17463676636226
 21
604.19115000000011
 31
0.0
  0
ARC
  5
2AC1
  8
AM_0
 10
529.00013676636229
 20
599.1941999999998
 30
0.0
 40
5.0
 50
34.887349999999998
 51
88.0
  0
ARC
  5
2AC2
  8
AM_0
 10
537.2029867663623
 20
604.91390000000001
 30
0.0
 40
5.0
 50
214.88733999999991
 51
268.0
  0
LINE
  5
2AC3
  8
AM_0
 10
656.00013676636229
 20
512.89570000000003
 30
0.0
 11
662.0001367663624
 21
512.89570000000003
 31
0.0
  0
LINE
  5
2AC4
  8
AM_0
 10
682.00013676636206
 20
514.39570000000003
 30
0.0
 11
682.00013676636206
 21
510.39569999999998
 31
0.0
  0
ARC
  5
2AC5
  8
AM_0
 10
654.0001367663624
 20
540.96429999999987
 30
0.0
 40
2.0000000500000001
 50
0.0
 51
88.0
  0
ARC
  5
2AC6
  8
AM_0
 10
634.00013676636229
 20
579.42119999999989
 30
0.0
 40
10.0
 50
179.99998999999991
 51
265.0
  0
LINE
  5
2AC7
  8
AM_0
 10
606.00013676636229
 20
534.85334999999998
 30
0.0
 11
624.0001367663624
 21
534.85334999999998
 31
0.0
  0
ARC
  5
2AC8
  8
AM_0
 10
653.0001367663624
 20
545.00165000000004
 30
0.0
 40
2.0000000500000001
 50
179.99998999999991
 51
268.00000999999992
  0
LINE
  5
2AC9
  8
AM_0
 10
652.9303867663624
 20
543.00290000000007
 30
0.0
 11
654.06998676636215
 21
542.96310000000005
 31
0.0
  0
LINE
  5
2ACA
  8
AM_0
 10
633.12863676636243
 20
569.45924999999966
 30
0.0
 11
646.43593676636226
 21
568.29504999999995
 31
0.0
  0
ARC
  5
2ACB
  8
AM_0
 10
646.0001367663624
 20
563.31404999999995
 30
0.0
 40
5.0
 50
0.0
 51
84.999996999999979
  0
ARC
  5
2ACC
  8
AM_0
 10
614.00013676636217
 20
587.22289999999987
 30
0.0
 40
10.0
 50
0.0
 51
88.0
  0
ARC
  5
2ACD
  8
AM_0
 10
500.28378676636243
 20
613.03579999999999
 30
0.0
 40
1.0
 50
15.0
 51
78.786709999999999
  0
LINE
  5
2ACE
  8
AM_0
 10
491.00023676636232
 20
615.89565000000016
 30
0.0
 11
500.47828676636237
 21
614.01660000000004
 31
0.0
  0
ARC
  5
2ACF
  8
AM_0
 10
1022.189456874929
 20
482.89569999999992
 30
0.0
 40
60.0
 50
270.0
 51
90.000003000000007
  0
ARC
  5
2AD0
  8
AM_0
 10
1022.189456874929
 20
482.89569999999992
 30
0.0
 40
60.0
 50
90.000003000000007
 51
270.0
  0
ARC
  5
2AD1
  8
AM_0
 10
1022.189456874929
 20
482.89569999999992
 30
0.0
 40
27.500000499999999
 50
106.91239
 51
73.087597000000002
  0
LINE
  5
2AD2
  8
AM_0
 10
1187.189431874928
 20
312.89566500000001
 30
0.0
 11
1148.9920868749291
 21
509.40399999999988
 31
0.0
  0
LINE
  5
2AD3
  8
AM_0
 10
1139.189446874929
 20
389.85959500000001
 30
0.0
 11
1139.189446874929
 21
533.82950000000005
 31
0.0
  0
LINE
  5
2AD4
  8
AM_0
 10
1122.189426874929
 20
324.89566499999972
 30
0.0
 11
1122.189426874929
 21
467.89569999999992
 31
0.0
  0
LINE
  5
2AD5
  8
AM_0
 10
857.18943687492958
 20
312.89569499999999
 30
0.0
 11
895.38678187492985
 21
509.40395000000001
 31
0.0
  0
LINE
  5
2AD6
  8
AM_0
 10
905.18945687492965
 20
389.85959500000001
 30
0.0
 11
905.18945687492965
 21
533.82950000000005
 31
0.0
  0
LINE
  5
2AD7
  8
ﾁｭｳｼﾝｾﾝ
 10
1022.189456874929
 20
276.89566500000001
 30
0.0
 11
1022.189456874929
 21
658.89494999999999
 31
0.0
  0
LINE
  5
2AD8
  8
AM_0
 10
922.18945687492965
 20
324.89566499999972
 30
0.0
 11
922.18945687492965
 21
467.89569999999992
 31
0.0
  0
LINE
  5
2AD9
  8
AM_0
 10
744.00013676636183
 20
514.39570000000003
 30
0.0
 11
744.00013676636183
 21
455.39569999999992
 31
0.0
  0
LINE
  5
2ADA
  8
AM_0
 10
1117.189426874929
 20
282.89566500000001
 30
0.0
 11
1187.189431874928
 21
282.89566500000001
 31
0.0
  0
LINE
  5
2ADB
  8
AM_0
 10
1122.189426874929
 20
312.89569499999999
 30
0.0
 11
1182.189431874928
 21
312.89569499999999
 31
0.0
  0
LINE
  5
2ADC
  8
AM_0
 10
930.1183818749297
 20
295.82459
 30
0.0
 11
938.3088418749295
 21
304.01508000000001
 31
0.0
  0
LINE
  5
2ADD
  8
AM_0
 10
1022.189456874929
 20
289.89563500000008
 30
0.0
 11
932.18945687492965
 21
289.89563500000008
 31
0.0
  0
ARC
  5
2ADE
  8
AM_0
 10
910.18945687492965
 20
324.89566499999972
 30
0.0
 40
12.0
 50
270.0
 51
0.0
  0
LINE
  5
2ADF
  8
AM_0
 10
927.18945687492965
 20
282.89566500000001
 30
0.0
 11
857.18943687492958
 21
282.89566500000001
 31
0.0
  0
LINE
  5
2AE0
  8
AM_0
 10
922.18945687492965
 20
312.89569499999999
 30
0.0
 11
862.18943687492981
 21
312.89569499999999
 31
0.0
  0
LINE
  5
2AE1
  8
AM_0
 10
857.18943687492958
 20
312.89569499999999
 30
0.0
 11
857.18943687492958
 21
282.89566500000001
 31
0.0
  0
ARC
  5
2AE2
  8
AM_0
 10
862.18943687492981
 20
307.89566500000001
 30
0.0
 40
5.0
 50
90.000003000000007
 51
180.00001
  0
LINE
  5
2AE3
  8
ﾁｭｳｼﾝｾﾝ1
 10
889.68943687492992
 20
317.55694999999992
 30
0.0
 11
889.68943687492992
 21
279.89566500000001
 31
0.0
  0
LINE
  5
2AE4
  8
ｶｸﾚｾﾝ2
 10
899.18942687492961
 20
312.89569499999999
 30
0.0
 11
899.18942687492961
 21
282.89566500000001
 31
0.0
  0
LINE
  5
2AE5
  8
ｶｸﾚｾﾝ2
 10
880.18943687492958
 20
312.89569499999999
 30
0.0
 11
880.18943687492958
 21
282.89566500000001
 31
0.0
  0
LINE
  5
2AE6
  8
AM_0
 10
927.18945687492965
 20
307.89566500000001
 30
0.0
 11
927.18945687492965
 21
282.89566500000001
 31
0.0
  0
ARC
  5
2AE7
  8
AM_0
 10
937.18945687492953
 20
288.75351499999999
 30
0.0
 40
10.0
 50
135.0
 51
180.00001
  0
ARC
  5
2AE8
  8
AM_0
 10
932.18945687492965
 20
284.89563500000008
 30
0.0
 40
5.0
 50
90.000003000000007
 51
180.00001
  0
ARC
  5
2AE9
  8
AM_0
 10
922.18945687492965
 20
307.89566500000001
 30
0.0
 40
5.0
 50
0.0
 51
90.000003000000007
  0
ARC
  5
2AEA
  8
AM_0
 10
1022.189456874929
 20
389.89566500000001
 30
0.0
 40
117.0
 50
179.99998999999991
 51
211.27329999999989
  0
ARC
  5
2AEB
  8
AM_0
 10
1134.1894618749291
 20
324.89566499999972
 30
0.0
 40
12.0
 50
180.00001
 51
270.0
  0
LINE
  5
2AEC
  8
AM_0
 10
1022.189456874929
 20
298.89566499999989
 30
0.0
 11
1081.1987668749291
 21
298.89566499999989
 31
0.0
  0
LINE
  5
2AED
  8
AM_0
 10
1022.189456874929
 20
289.89563500000008
 30
0.0
 11
1112.189426874929
 21
289.89563500000008
 31
0.0
  0
LINE
  5
2AEE
  8
AM_0
 10
1022.189456874929
 20
298.89566499999989
 30
0.0
 11
963.18011687492981
 21
298.89566499999989
 31
0.0
  0
ARC
  5
2AEF
  8
AM_0
 10
963.18011687492981
 20
308.89566499999989
 30
0.0
 40
10.0
 50
235.0
 51
270.0
  0
ARC
  5
2AF0
  8
AM_0
 10
945.37991687492968
 20
296.94397499999991
 30
0.0
 40
10.0
 50
54.999999000000003
 51
135.0
  0
LINE
  5
2AF1
  8
AM_0
 10
957.44434187492971
 20
300.70416499999999
 30
0.0
 11
951.11569687492965
 21
305.13553499999972
 31
0.0
  0
ARC
  5
2AF2
  8
AM_0
 10
1098.998966874929
 20
296.94397499999991
 30
0.0
 40
10.0
 50
45.00000099999999
 51
125.0
  0
ARC
  5
2AF3
  8
AM_0
 10
1081.1987668749291
 20
308.89566499999989
 30
0.0
 40
10.0
 50
270.0
 51
305.0
  0
LINE
  5
2AF4
  8
AM_0
 10
1086.934516874928
 20
300.70413500000001
 30
0.0
 11
1093.263191874928
 21
305.13553499999972
 31
0.0
  0
LINE
  5
2AF5
  8
ﾁｭｳｼﾝｾﾝ1
 10
1154.689431874928
 20
317.55694999999992
 30
0.0
 11
1154.689431874928
 21
279.89566500000001
 31
0.0
  0
LINE
  5
2AF6
  8
AM_0
 10
1114.260506874929
 20
295.82459
 30
0.0
 11
1106.0700118749301
 21
304.01508000000001
 31
0.0
  0
LINE
  5
2AF7
  8
AM_0
 10
1117.189426874929
 20
307.89566500000001
 30
0.0
 11
1117.189426874929
 21
282.89566500000001
 31
0.0
  0
ARC
  5
2AF8
  8
AM_0
 10
1112.189426874929
 20
284.89563500000008
 30
0.0
 40
5.0
 50
0.0
 51
90.000003000000007
  0
ARC
  5
2AF9
  8
AM_0
 10
1107.1894268749279
 20
288.75351499999999
 30
0.0
 40
10.0
 50
0.0
 51
45.00000099999999
  0
ARC
  5
2AFA
  8
AM_0
 10
1122.189426874929
 20
307.89566500000001
 30
0.0
 40
5.0
 50
90.000003000000007
 51
180.00001
  0
LINE
  5
2AFB
  8
ｶｸﾚｾﾝ2
 10
1145.189446874929
 20
312.89569499999999
 30
0.0
 11
1145.189446874929
 21
282.89566500000001
 31
0.0
  0
ARC
  5
2AFC
  8
AM_0
 10
1022.189456874929
 20
389.89566500000001
 30
0.0
 40
117.0
 50
328.72669999999988
 51
0.0
  0
ARC
  5
2AFD
  8
AM_0
 10
1182.189431874928
 20
307.89566500000001
 30
0.0
 40
5.0
 50
0.0
 51
90.000003000000007
  0
LINE
  5
2AFE
  8
ｶｸﾚｾﾝ2
 10
1164.189446874929
 20
312.89569499999999
 30
0.0
 11
1164.189446874929
 21
282.89566500000001
 31
0.0
  0
LINE
  5
2AFF
  8
AM_0
 10
1187.189431874928
 20
312.89569499999999
 30
0.0
 11
1187.189431874928
 21
282.89566500000001
 31
0.0
  0
ARC
  5
2B00
  8
AM_0
 10
1055.189456874929
 20
491.36207000000002
 30
0.0
 40
100.0
 50
0.0
 51
45.402042999999992
  0
ARC
  5
2B01
  8
AM_0
 10
1022.189456874929
 20
457.89569999999992
 30
0.0
 40
142.0
 50
90.000003000000007
 51
136.44563999999991
  0
ARC
  5
2B02
  8
AM_0
 10
1022.189456874929
 20
457.89569999999992
 30
0.0
 40
147.0
 50
90.000003000000007
 51
134.5979599999998
  0
ARC
  5
2B03
  8
AM_0
 10
1022.189456874929
 20
467.89569999999992
 30
0.0
 40
100.0
 50
90.000003000000007
 51
180.00001
  0
LINE
  5
2B04
  8
ﾁｭｳｼﾝｾﾝ
 10
1099.870524215472
 20
482.89569999999992
 30
0.0
 11
944.50835953438752
 21
482.89569999999992
 31
0.0
  0
ARC
  5
2B05
  8
AM_0
 10
989.1894268749295
 20
491.36207000000002
 30
0.0
 40
100.0
 50
134.5979599999998
 51
180.00001
  0
ARC
  5
2B06
  8
AM_0
 10
915.18945687492965
 20
533.82950000000005
 30
0.0
 40
10.0
 50
149.4639199999998
 51
180.00001
  0
ARC
  5
2B07
  8
AM_0
 10
986.67813687492992
 20
491.65878999999973
 30
0.0
 40
93.0
 50
136.44563999999991
 51
169.0
  0
LINE
  5
2B08
  8
AM_0
 10
889.18943687492958
 20
491.36207000000002
 30
0.0
 11
889.18943687492958
 21
477.52140000000003
 31
0.0
  0
ARC
  5
2B09
  8
AM_0
 10
1022.189456874929
 20
457.89569999999992
 30
0.0
 40
142.0
 50
43.554364
 51
90.000003000000007
  0
ARC
  5
2B0A
  8
AM_0
 10
1022.189456874929
 20
457.89569999999992
 30
0.0
 40
147.0
 50
45.402042999999992
 51
90.000003000000007
  0
ARC
  5
2B0B
  8
AM_0
 10
1029.189426874929
 20
608.89569999999958
 30
0.0
 40
2.0000000500000001
 50
179.99998999999991
 51
270.0
  0
ARC
  5
2B0C
  8
AM_0
 10
1015.189456874929
 20
608.89569999999958
 30
0.0
 40
2.0000000500000001
 50
270.0
 51
0.0
  0
LINE
  5
2B0D
  8
AM_0
 10
1034.835456874928
 20
604.35064999999975
 30
0.0
 11
1032.4389418749281
 21
613.29454999999984
 31
0.0
  0
LINE
  5
2B0E
  8
AM_0
 10
1009.543401874929
 20
604.35069999999985
 30
0.0
 11
1011.939886874928
 21
613.29454999999984
 31
0.0
  0
ARC
  5
2B0F
  8
AM_0
 10
1022.189456874929
 20
467.89569999999992
 30
0.0
 40
100.0
 50
0.0
 51
90.000003000000007
  0
CIRCLE
  5
2B10
  8
AM_5
 10
1022.189456874929
 20
482.89569999999992
 30
0.0
 40
6.0
  0
CIRCLE
  5
2B11
  8
AM_0
 10
1022.189456874929
 20
482.89569999999992
 30
0.0
 40
4.500000049999997
  0
LINE
  5
2B12
  8
AM_0
 10
1014.189426874928
 20
514.39570000000003
 30
0.0
 11
1030.189456874929
 21
514.39570000000003
 31
0.0
  0
LINE
  5
2B13
  8
AM_0
 10
1014.189426874928
 20
504.39564999999999
 30
0.0
 11
1030.189456874929
 21
504.39564999999999
 31
0.0
  0
LINE
  5
2B14
  8
AM_0
 10
1014.189426874928
 20
504.39564999999999
 30
0.0
 11
1014.189426874928
 21
514.39570000000003
 31
0.0
  0
LINE
  5
2B15
  8
AM_0
 10
1030.189456874929
 20
504.39564999999999
 30
0.0
 11
1030.189456874929
 21
514.39570000000003
 31
0.0
  0
ARC
  5
2B16
  8
AM_0
 10
1129.1894618749291
 20
533.82950000000005
 30
0.0
 40
10.0
 50
0.0
 51
30.536084999999989
  0
ARC
  5
2B17
  8
AM_0
 10
1057.700751874929
 20
491.65878999999973
 30
0.0
 40
93.0
 50
11.0
 51
43.554364
  0
LINE
  5
2B18
  8
AM_0
 10
1155.189446874929
 20
491.36207000000002
 30
0.0
 11
1155.189446874929
 21
477.52140000000003
 31
0.0
  0
LINE
  5
2B19
  8
AM_0
 10
1017.189456874929
 20
650.89565000000005
 30
0.0
 11
1017.189456874929
 21
608.89569999999958
 31
0.0
  0
LINE
  5
2B1A
  8
AM_0
 10
1027.1894568749281
 20
650.89565000000005
 30
0.0
 11
1027.1894568749281
 21
608.89569999999958
 31
0.0
  0
LINE
  5
2B1B
  8
AM_0
 10
1012.711371874929
 20
614.01665000000003
 30
0.0
 11
1017.189426874929
 21
614.90445
 31
0.0
  0
ARC
  5
2B1C
  8
AM_0
 10
1012.905856874929
 20
613.03579999999999
 30
0.0
 40
1.0
 50
101.21329
 51
164.99999
  0
LINE
  5
2B1D
  8
AM_0
 10
1027.189426874929
 20
614.90435000000002
 30
0.0
 11
1031.667456874929
 21
614.01660000000004
 31
0.0
  0
ARC
  5
2B1E
  8
AM_0
 10
1031.473026874929
 20
613.03579999999999
 30
0.0
 40
1.0
 50
15.0
 51
78.786709999999999
  0
ARC
  5
2B1F
  8
AM_0
 10
1022.189456874929
 20
650.89565000000005
 30
0.0
 40
5.0
 50
359.99998999999991
 51
179.99998999999991
  0
LINE
  5
2B20
  8
AM_0
 10
213.00019676636211
 20
932.93540512544917
 30
0.0
 11
235.00019676636211
 21
932.93540512544917
 31
0.0
  0
LINE
  5
2B21
  8
AM_0
 10
213.00019676636211
 20
938.93540512544905
 30
0.0
 11
235.00019676636211
 21
938.93540512544905
 31
0.0
  0
LINE
  5
2B22
  8
AM_0
 10
213.00019676636211
 20
945.43540512544917
 30
0.0
 11
241.00019676636211
 21
945.43540512544917
 31
0.0
  0
LINE
  5
2B23
  8
AM_0
 10
213.00019676636211
 20
926.43540512544905
 30
0.0
 11
241.00019676636211
 21
926.43540512544905
 31
0.0
  0
LINE
  5
2B24
  8
AM_0
 10
213.00019676636211
 20
926.43540512544905
 30
0.0
 11
213.00019676636211
 21
945.43540512544917
 31
0.0
  0
ARC
  5
2B25
  8
AM_0
 10
235.00019676636211
 20
935.93540512544905
 30
0.0
 40
3.0
 50
270.0
 51
90.0
  0
LINE
  5
2B26
  8
AM_0
 10
235.00019676636211
 20
932.93540512544917
 30
0.0
 11
235.00019676636211
 21
938.93540512544905
 31
0.0
  0
LINE
  5
2B27
  8
AM_0
 10
241.00019676636211
 20
925.93540512544917
 30
0.0
 11
241.00019676636211
 21
945.93540512544905
 31
0.0
  0
LINE
  5
2B28
  8
AM_0
 10
243.00019676636211
 20
911.93540512544894
 30
0.0
 11
243.00019676636211
 21
959.93540512544917
 31
0.0
  0
LINE
  5
2B29
  8
AM_0
 10
245.00019676636211
 20
906.66745612544923
 30
0.0
 11
245.00019676636211
 21
965.20335412544932
 31
0.0
  0
LINE
  5
2B2A
  8
AM_0
 10
328.00019676636219
 20
867.37695412544952
 30
0.0
 11
328.00019676636219
 21
1004.493856125449
 31
0.0
  0
LINE
  5
2B2B
  8
AM_0
 10
275.9297457663622
 20
903.39583212544926
 30
0.0
 11
275.9297457663622
 21
968.47497712544907
 31
0.0
  0
LINE
  5
2B2C
  8
AM_0
 10
250.35834276636231
 20
903.84218312544954
 30
0.0
 11
250.35834276636231
 21
968.02862712544925
 31
0.0
  0
LINE
  5
2B2D
  8
AM_0
 10
327.18812576636219
 20
865.50402312544918
 30
0.0
 11
278.43414476636212
 21
899.64192812544923
 31
0.0
  0
LINE
  5
2B2E
  8
AM_0
 10
251.1340777663622
 20
901.82833812544925
 30
0.0
 11
272.87290476636213
 21
901.44888512544924
 31
0.0
  0
LINE
  5
2B2F
  8
AM_0
 10
246.50019676636211
 20
904.06937912544925
 30
0.0
 11
249.68643476636211
 21
902.22980412544916
 31
0.0
  0
ARC
  5
2B30
  8
AM_0
 10
248.00019676636211
 20
906.66745612544923
 30
0.0
 40
3.0
 50
180.0
 51
239.99999999999949
  0
LINE
  5
2B31
  8
AM_0
 10
243.00019676636211
 20
911.93540512544894
 30
0.0
 11
245.00019676636211
 21
909.93540512544917
 31
0.0
  0
ARC
  5
2B32
  8
AM_0
 10
251.18643476636211
 20
904.82788112544915
 30
0.0
 40
3.0
 50
239.99999999999949
 51
269.00000000000148
  0
LINE
  5
2B33
  8
AM_0
 10
241.00019676636211
 20
925.93540512544917
 30
0.0
 11
243.00019676636211
 21
925.93540512544917
 31
0.0
  0
ARC
  5
2B34
  8
AM_0
 10
272.69838076636228
 20
891.45040812544903
 30
0.0
 40
10.0
 50
55.000000000002629
 51
89.000000000001506
  0
LINE
  5
2B35
  8
AM_0
 10
330.00019676636219
 20
862.43540512544905
 30
0.0
 11
340.00019676636219
 21
862.43540512544905
 31
0.0
  0
LINE
  5
2B36
  8
AM_0
 10
330.00019676636219
 20
872.42618012544904
 30
0.0
 11
336.00019676636219
 21
872.42618012544904
 31
0.0
  0
ARC
  5
2B37
  8
AM_0
 10
330.00019676636219
 20
874.42618012544926
 30
0.0
 40
2.0
 50
180.0
 51
270.0
  0
ARC
  5
2B38
  8
AM_0
 10
330.00019676636219
 20
864.43540512544905
 30
0.0
 40
2.0
 50
188.1879840000033
 51
270.0
  0
ARC
  5
2B39
  8
AM_0
 10
326.0409727663623
 20
863.86571912544935
 30
0.0
 40
2.0
 50
8.1879840000034303
 51
55.000000000002629
  0
ARC
  5
2B3A
  8
AM_0
 10
336.00019676636219
 20
874.42618012544926
 30
0.0
 40
2.0
 50
270.0
 51
0.0
  0
LINE
  5
2B3B
  8
AM_0
 10
330.00019676636219
 20
896.46072912544935
 30
0.0
 11
338.00019676636219
 21
896.46072912544935
 31
0.0
  0
LINE
  5
2B3C
  8
AM_0
 10
327.18812576636219
 20
1006.366786125449
 30
0.0
 11
278.43414476636212
 21
972.22888112544911
 31
0.0
  0
LINE
  5
2B3D
  8
AM_0
 10
272.87290476636213
 20
970.42192512544921
 30
0.0
 11
251.1340777663622
 21
970.04247212544965
 31
0.0
  0
LINE
  5
2B3E
  8
AM_0
 10
245.00019676636211
 20
961.93540512544894
 30
0.0
 11
243.00019676636211
 21
959.93540512544917
 31
0.0
  0
LINE
  5
2B3F
  8
AM_0
 10
241.00019676636211
 20
945.93540512544905
 30
0.0
 11
243.00019676636211
 21
945.93540512544905
 31
0.0
  0
LINE
  5
2B40
  8
AM_0
 10
249.68643476636211
 20
969.64100512544917
 30
0.0
 11
246.50019676636211
 21
967.8014301254492
 31
0.0
  0
ARC
  5
2B41
  8
AM_0
 10
248.00019676636211
 20
965.20335412544932
 30
0.0
 40
3.0
 50
120.0000000000005
 51
180.0
  0
ARC
  5
2B42
  8
AM_0
 10
251.18643476636211
 20
967.04292912544906
 30
0.0
 40
3.0
 50
90.999999999998494
 51
120.0000000000005
  0
ARC
  5
2B43
  8
AM_0
 10
272.69838076636228
 20
980.42040212544896
 30
0.0
 40
10.0
 50
270.99999999999841
 51
304.99999999999739
  0
LINE
  5
2B44
  8
AM_0
 10
330.00019676636219
 20
975.41008012544933
 30
0.0
 11
338.00019676636219
 21
975.41008012544933
 31
0.0
  0
LINE
  5
2B45
  8
AM_0
 10
330.00019676636219
 20
1009.4354051254491
 30
0.0
 11
340.00019676636219
 21
1009.4354051254491
 31
0.0
  0
LINE
  5
2B46
  8
AM_0
 10
330.00019676636219
 20
999.44463012544963
 30
0.0
 11
336.00019676636219
 21
999.44463012544963
 31
0.0
  0
ARC
  5
2B47
  8
AM_0
 10
330.00019676636219
 20
997.44463012544975
 30
0.0
 40
2.0
 50
90.0
 51
180.0
  0
ARC
  5
2B48
  8
AM_0
 10
330.00019676636219
 20
1007.4354051254491
 30
0.0
 40
2.0
 50
90.0
 51
171.8120159999965
  0
ARC
  5
2B49
  8
AM_0
 10
326.0409727663623
 20
1008.005090125449
 30
0.0
 40
2.0
 50
304.99999999999739
 51
351.81201599999628
  0
ARC
  5
2B4A
  8
AM_0
 10
336.00019676636219
 20
997.44463012544975
 30
0.0
 40
2.0
 50
0.0
 51
90.0
  0
ARC
  5
2B4B
  8
AM_0
 10
340.00019676636219
 20
894.46072912544923
 30
0.0
 40
2.0
 50
120.0000000000005
 51
180.0
  0
LINE
  5
2B4C
  8
AM_0
 10
338.00019676636219
 20
874.42618012544926
 30
0.0
 11
338.00019676636219
 21
894.46072912544923
 31
0.0
  0
LINE
  5
2B4D
  8
AM_0
 10
338.00019676636219
 20
997.44463012544975
 30
0.0
 11
338.00019676636219
 21
977.41008012544921
 31
0.0
  0
ARC
  5
2B4E
  8
AM_0
 10
340.00019676636219
 20
977.41008012544921
 30
0.0
 40
2.0
 50
180.0
 51
239.99999999999949
  0
LINE
  5
2B50
  8
AM_0
 10
682.00019676636225
 20
943.9353451254492
 30
0.0
 11
744.00013676636183
 21
943.9353451254492
 31
0.0
  0
LINE
  5
2B51
  8
AM_0
 10
682.00019676636225
 20
927.93534512544909
 30
0.0
 11
744.00013676636183
 21
927.93534512544909
 31
0.0
  0
LINE
  5
2B52
  8
AM_0
 10
662.0001367663624
 20
963.43540512544917
 30
0.0
 11
744.00013676636183
 21
963.43540512544917
 31
0.0
  0
LINE
  5
2B53
  8
AM_0
 10
662.0001367663624
 20
908.43540512544905
 30
0.0
 11
744.00013676636183
 21
908.43540512544905
 31
0.0
  0
LINE
  5
2B54
  8
ﾁｭｳｼﾝｾﾝ
 10
207.84406381506989
 20
935.93540512544905
 30
0.0
 11
754.61737676636233
 21
935.93540512544905
 31
0.0
  0
POLYLINE
  5
2B55
  8
AM_0
 66
     1
 10
0.0
 20
0.0
 30
0.0
  0
VERTEX
  5
2B56
  8
AM_0
 10
399.062816766362
 20
860.37284512544909
 30
0.0
 42
-0.10362759
  0
VERTEX
  5
2B57
  8
AM_0
 10
359.65445676636222
 20
906.59853512544908
 30
0.0
 42
-0.26090923
  0
VERTEX
  5
2B58
  8
AM_0
 10
359.65445676636222
 20
965.27228512544934
 30
0.0
 42
-0.10362793
  0
VERTEX
  5
2B59
  8
AM_0
 10
399.06275676636221
 20
1011.4979051254491
 30
0.0
  0
SEQEND
  5
2B5A
  8
AM_0
  0
LINE
  5
2B5B
  8
AM_0
 10
397.09442676636201
 20
860.44156512544907
 30
0.0
 11
340.00019676636219
 21
862.4353451254492
 31
0.0
  0
LINE
  5
2B5C
  8
AM_0
 10
397.09442676636201
 20
1011.429175125449
 30
0.0
 11
340.00019676636219
 21
1009.4354051254491
 31
0.0
  0
LINE
  5
2B5D
  8
AM_0
 10
352.00019676636208
 20
862.4353451254492
 30
0.0
 11
352.00019676636208
 21
1009.4354051254491
 31
0.0
  0
LINE
  5
2B5E
  8
AM_0
 10
340.00019676636219
 20
862.4353451254492
 30
0.0
 11
340.00019676636219
 21
1009.4354051254491
 31
0.0
  0
LINE
  5
2B5F
  8
AM_0
 10
340.00019676636219
 20
874.35538512544906
 30
0.0
 11
352.00019676636208
 21
874.35538512544906
 31
0.0
  0
LINE
  5
2B60
  8
AM_0
 10
340.00019676636219
 20
896.46073512544933
 30
0.0
 11
352.00019676636208
 21
896.46073512544933
 31
0.0
  0
LINE
  5
2B61
  8
AM_0
 10
340.00019676636219
 20
975.41007512544923
 30
0.0
 11
352.00019676636208
 21
975.41007512544923
 31
0.0
  0
LINE
  5
2B62
  8
AM_0
 10
340.00019676636219
 20
997.51542512544916
 30
0.0
 11
352.00019676636208
 21
997.51542512544916
 31
0.0
  0
LINE
  5
2B63
  8
AM_0
 10
397.00019676636208
 20
917.93540512544917
 30
0.0
 11
397.00019676636208
 21
953.93540512544894
 31
0.0
  0
LINE
  5
2B64
  8
AM_0
 10
365.00019676636208
 20
922.93540512544905
 30
0.0
 11
365.00019676636208
 21
948.93540512544917
 31
0.0
  0
LINE
  5
2B65
  8
AM_0
 10
415.00019676636202
 20
838.93540512544905
 30
0.0
 11
415.00019676636202
 21
1032.935345125449
 31
0.0
  0
LINE
  5
2B66
  8
AM_0
 10
430.0002567663621
 20
1033.4354051254491
 30
0.0
 11
430.0002567663621
 21
838.43540512544905
 31
0.0
  0
LINE
  5
2B67
  8
AM_0
 10
479.00013676636229
 20
808.81144512544904
 30
0.0
 11
479.00013676636229
 21
925.39981512544921
 31
0.0
  0
LINE
  5
2B68
  8
AM_0
 10
509.00019676636231
 20
930.93540512544905
 30
0.0
 11
509.00019676636231
 21
802.93534512544898
 31
0.0
  0
LINE
  5
2B69
  8
AM_0
 10
453.000136766362
 20
829.47971512544905
 30
0.0
 11
453.000136766362
 21
1042.391035125449
 31
0.0
  0
LINE
  5
2B6A
  8
AM_0
 10
534.00013676636229
 20
803.80838512544915
 30
0.0
 11
534.00013676636229
 21
1068.062355125448
 31
0.0
  0
LINE
  5
2B6B
  8
AM_0
 10
624.00019676636225
 20
827.8132751254492
 30
0.0
 11
624.00019676636225
 21
1044.057475125448
 31
0.0
  0
LINE
  5
2B6C
  8
AM_0
 10
651.00019676636225
 20
1033.306375125449
 30
0.0
 11
651.00019676636225
 21
838.56437512544926
 31
0.0
  0
LINE
  5
2B6D
  8
AM_0
 10
656.00019676636225
 20
994.00400512544911
 30
0.0
 11
656.00019676636225
 21
877.86673512544905
 31
0.0
  0
LINE
  5
2B6E
  8
AM_0
 10
662.0001367663624
 20
965.93540512544917
 30
0.0
 11
662.0001367663624
 21
905.93540512544905
 31
0.0
  0
LINE
  5
2B6F
  8
AM_0
 10
509.00013676636229
 20
802.93540512544905
 30
0.0
 11
534.00013676636229
 21
803.80838512544915
 31
0.0
  0
LINE
  5
2B70
  8
AM_0
 10
514.00013676636217
 20
770.93540512544905
 30
0.0
 11
651.17463676636226
 21
775.72568512544922
 31
0.0
  0
ARC
  5
2B71
  8
AM_0
 10
431.00019676636202
 20
778.83683512544906
 30
0.0
 40
5.0
 50
180.00001000000091
 51
268.00000000000261
  0
LINE
  5
2B72
  8
AM_0
 10
481.53650676636221
 20
772.27738512544909
 30
0.0
 11
512.00019676636225
 21
783.04844512544923
 31
0.0
  0
LINE
  5
2B73
  8
AM_0
 10
514.00019676636225
 20
770.9353451254492
 30
0.0
 11
430.82569676636223
 21
773.83988512544909
 31
0.0
  0
LINE
  5
2B74
  8
AM_0
 10
430.00019676636208
 20
838.43534512544954
 30
0.0
 11
448.17469676636222
 21
837.80069512544935
 31
0.0
  0
LINE
  5
2B75
  8
AM_0
 10
432.000136766362
 20
852.74021512544903
 30
0.0
 11
453.000136766362
 21
852.74021512544903
 31
0.0
  0
LINE
  5
2B76
  8
AM_0
 10
432.000136766362
 20
879.1595851254491
 30
0.0
 11
453.000136766362
 21
879.1595851254491
 31
0.0
  0
LINE
  5
2B77
  8
AM_0
 10
432.000136766362
 20
862.92917512544909
 30
0.0
 11
453.000136766362
 21
862.92917512544909
 31
0.0
  0
LINE
  5
2B78
  8
AM_0
 10
430.13190676636202
 20
826.14713512544904
 30
0.0
 11
453.000136766362
 21
830.17942512544903
 31
0.0
  0
LINE
  5
2B79
  8
AM_0
 10
399.062816766362
 20
860.37284512544909
 30
0.0
 11
413.5357167663621
 21
845.89994512544911
 31
0.0
  0
LINE
  5
2B7A
  8
AM_0
 10
426.00019676636208
 20
778.83683512544906
 30
0.0
 11
426.00019676636208
 21
821.22312512544897
 31
0.0
  0
LINE
  5
2B7B
  8
AM_0
 10
417.00019676636208
 20
836.93540512544894
 30
0.0
 11
428.000136766362
 21
836.93540512544894
 31
0.0
  0
ARC
  5
2B7C
  8
AM_0
 10
410.00019676636208
 20
842.36429512544908
 30
0.0
 40
5.0
 50
0.0
 51
45.000001000003799
  0
ARC
  5
2B7D
  8
AM_0
 10
417.00019676636208
 20
838.93540512544905
 30
0.0
 40
2.0
 50
179.9999899999988
 51
270.0
  0
ARC
  5
2B7E
  8
AM_0
 10
431.00019676636202
 20
821.22312512544897
 30
0.0
 40
5.0
 50
99.999999999998593
 51
180.00001000000091
  0
LINE
  5
2B7F
  8
AM_0
 10
428.000136766362
 20
836.93540512544894
 30
0.0
 11
430.00013676636229
 21
838.93540512544905
 31
0.0
  0
ARC
  5
2B80
  8
AM_0
 10
396.91993676636201
 20
855.44461512544922
 30
0.0
 40
5.0
 50
44.999998000001611
 51
88.000000000002785
  0
LINE
  5
2B81
  8
AM_0
 10
370.00019676636208
 20
917.93540512544917
 30
0.0
 11
392.00019676636208
 21
917.93540512544917
 31
0.0
  0
ARC
  5
2B82
  8
AM_0
 10
370.00019676636208
 20
922.93540512544905
 30
0.0
 40
5.0
 50
180.00001000000091
 51
270.0
  0
ARC
  5
2B83
  8
AM_0
 10
392.00019676636208
 20
912.93540512544905
 30
0.0
 40
5.0
 50
0.0
 51
90.00000299999769
  0
LINE
  5
2B84
  8
AM_0
 10
415.00019676636202
 20
879.65958512544921
 30
0.0
 11
430.00019676636208
 21
879.65958512544921
 31
0.0
  0
LINE
  5
2B85
  8
AM_0
 10
415.00019676636202
 20
863.42917512544921
 30
0.0
 11
430.00019676636208
 21
863.42917512544921
 31
0.0
  0
LINE
  5
2B86
  8
AM_0
 10
415.00019676636202
 20
853.24021512544925
 30
0.0
 11
430.00019676636208
 21
853.24021512544925
 31
0.0
  0
LINE
  5
2B87
  8
AM_0
 10
432.000136766362
 20
879.1595851254491
 30
0.0
 11
432.000136766362
 21
852.74021512544903
 31
0.0
  0
LINE
  5
2B88
  8
AM_0
 10
509.00019676636231
 20
802.93534512544898
 30
0.0
 11
483.82569676636189
 21
803.81449512544907
 31
0.0
  0
LINE
  5
2B89
  8
AM_0
 10
485.00019676636208
 20
784.10868512544926
 30
0.0
 11
512.00025676636221
 21
793.65506512544925
 31
0.0
  0
CIRCLE
  5
2B8A
  8
AM_0
 10
456.00019676636202
 20
803.4353451254492
 30
0.0
 40
9.5
  0
ARC
  5
2B8B
  8
AM_0
 10
484.00019676636231
 20
786.93711512544905
 30
0.0
 40
3.0
 50
180.00001000000091
 51
289.47202999999712
  0
ARC
  5
2B8C
  8
AM_0
 10
484.00013676636229
 20
808.81144512544904
 30
0.0
 40
5.0
 50
180.00001000000091
 51
268.00000000000261
  0
LINE
  5
2B8D
  8
AM_0
 10
474.17463676636208
 20
823.91184512544919
 30
0.0
 11
457.82563676636198
 21
824.48276512544919
 31
0.0
  0
ARC
  5
2B8E
  8
AM_0
 10
458.00013676636229
 20
829.47971512544905
 30
0.0
 40
5.0
 50
180.00001000000091
 51
268.00000000000261
  0
ARC
  5
2B8F
  8
AM_0
 10
448.00019676636202
 20
832.80375512544924
 30
0.0
 40
5.0
 50
0.0
 51
88.000000000002785
  0
ARC
  5
2B90
  8
AM_0
 10
474.000136766362
 20
818.91489512544911
 30
0.0
 40
5.0
 50
0.0
 51
88.000000000002785
  0
ARC
  5
2B91
  8
AM_0
 10
511.00019676636202
 20
796.48349512544905
 30
0.0
 40
3.0
 50
289.47202000000181
 51
0.0
  0
LINE
  5
2B92
  8
AM_0
 10
514.00019676636225
 20
785.87687512544903
 30
0.0
 11
514.00019676636225
 21
803.11002512544906
 31
0.0
  0
ARC
  5
2B93
  8
AM_0
 10
511.00019676636202
 20
785.87687512544903
 30
0.0
 40
3.0
 50
289.47202000000181
 51
0.0
  0
ARC
  5
2B94
  8
AM_0
 10
596.00019676636236
 20
778.80191512544923
 30
0.0
 40
5.0
 50
180.00001000000091
 51
271.99999000000139
  0
ARC
  5
2B95
  8
AM_0
 10
651.00019676636225
 20
780.72257512544923
 30
0.0
 40
5.0
 50
271.9999999999971
 51
0.0
  0
ARC
  5
2B96
  8
AM_0
 10
616.00019676636236
 20
827.8132751254492
 30
0.0
 40
8.0
 50
271.9999999999971
 51
0.0
  0
CIRCLE
  5
2B97
  8
AM_0
 10
626.00019676636225
 20
803.4353451254492
 30
0.0
 40
9.5
  0
LINE
  5
2B98
  8
ﾁｭｳｼﾝｾﾝ1
 10
606.50019676636225
 20
803.4353451254492
 30
0.0
 11
645.50019676636236
 21
803.4353451254492
 31
0.0
  0
LINE
  5
2B99
  8
AM_0
 10
538.14490676636228
 20
807.95316512544935
 30
0.0
 11
587.84015676636216
 21
809.68851512544904
 31
0.0
  0
LINE
  5
2B9A
  8
AM_0
 10
534.00019676636225
 20
803.80838512544915
 30
0.0
 11
538.14496676636224
 21
807.95316512544935
 31
0.0
  0
ARC
  5
2B9B
  8
AM_0
 10
587.66559676636223
 20
814.68546512544935
 30
0.0
 40
5.0
 50
271.9999999999971
 51
334.42648000000293
  0
ARC
  5
2B9C
  8
AM_0
 10
603.00019676636225
 20
807.34708512544933
 30
0.0
 40
12.0
 50
91.999998000000545
 51
180.00001000000091
  0
LINE
  5
2B9D
  8
AM_0
 10
591.00019676636236
 20
778.80191512544923
 30
0.0
 11
591.00019676636236
 21
807.34708512544933
 31
0.0
  0
LINE
  5
2B9E
  8
AM_0
 10
602.58136676636207
 20
819.3398851254492
 30
0.0
 11
616.27936676636205
 21
819.81821512544923
 31
0.0
  0
LINE
  5
2B9F
  8
AM_0
 10
656.00019676636225
 20
780.72257512544923
 30
0.0
 11
656.00019676636225
 21
831.1482351254491
 31
0.0
  0
LINE
  5
2BA0
  8
ﾁｭｳｼﾝｾﾝ1
 10
626.00019676636225
 20
783.9353451254492
 30
0.0
 11
626.00019676636225
 21
822.93534512544932
 31
0.0
  0
LINE
  5
2BA1
  8
AM_0
 10
631.72101676636225
 20
836.20505512544923
 30
0.0
 11
643.27936676636239
 21
836.60868512544903
 31
0.0
  0
ARC
  5
2BA2
  8
AM_0
 10
632.00019676636225
 20
828.20987512544923
 30
0.0
 40
8.0
 50
91.999998000000545
 51
180.00001000000091
  0
ARC
  5
2BA3
  8
AM_0
 10
651.00019676636225
 20
831.1482351254491
 30
0.0
 40
5.0
 50
0.0
 51
67.975688999996393
  0
ARC
  5
2BA4
  8
AM_0
 10
643.00019676636225
 20
844.60379512544921
 30
0.0
 40
8.0
 50
271.9999999999971
 51
0.0
  0
ARC
  5
2BA5
  8
AM_0
 10
654.00019676636236
 20
838.56437512544926
 30
0.0
 40
3.0
 50
180.00001000000091
 51
247.97569000000061
  0
ARC
  5
2BA6
  8
AM_0
 10
654.00019676636236
 20
877.86673512544905
 30
0.0
 40
2.0
 50
271.9999999999971
 51
0.0
  0
ARC
  5
2BA7
  8
AM_0
 10
653.00019676636225
 20
873.82938512544933
 30
0.0
 40
2.0
 50
91.999998000000545
 51
180.00001000000091
  0
LINE
  5
2BA8
  8
AM_0
 10
652.93036676636223
 20
875.82822512544919
 30
0.0
 11
654.07001676636207
 21
875.86802512544921
 31
0.0
  0
LINE
  5
2BA9
  8
AM_0
 10
656.00019676636225
 20
905.93540512544905
 30
0.0
 11
662.0001367663624
 21
905.93540512544905
 31
0.0
  0
LINE
  5
2BAA
  8
AM_0
 10
514.00019676636225
 20
1100.9354051254491
 30
0.0
 11
651.17469676636222
 21
1096.145115125448
 31
0.0
  0
LINE
  5
2BAB
  8
AM_0
 10
509.00019676636231
 20
1068.935345125449
 30
0.0
 11
534.00019676636225
 21
1068.062355125448
 31
0.0
  0
CIRCLE
  5
2BAC
  8
AM_0
 10
456.00019676636202
 20
1068.4354051254491
 30
0.0
 40
9.5
  0
LINE
  5
2BAD
  8
AM_0
 10
426.00019676636208
 20
1093.0339151254491
 30
0.0
 11
426.00019676636208
 21
1050.647625125448
 31
0.0
  0
LINE
  5
2BAE
  8
AM_0
 10
514.00019676636225
 20
1085.9939351254491
 30
0.0
 11
514.00019676636225
 21
1068.760785125449
 31
0.0
  0
LINE
  5
2BAF
  8
AM_0
 10
430.0002567663621
 20
1033.4354051254491
 30
0.0
 11
448.17475676636229
 21
1034.0700451254479
 31
0.0
  0
LINE
  5
2BB0
  8
AM_0
 10
432.000136766362
 20
1008.941565125449
 30
0.0
 11
453.000136766362
 21
1008.941565125449
 31
0.0
  0
LINE
  5
2BB1
  8
AM_0
 10
432.000136766362
 20
1019.130535125449
 30
0.0
 11
453.000136766362
 21
1019.130535125449
 31
0.0
  0
LINE
  5
2BB2
  8
AM_0
 10
432.000136766362
 20
992.71115512544918
 30
0.0
 11
453.000136766362
 21
992.71115512544918
 31
0.0
  0
LINE
  5
2BB3
  8
AM_0
 10
430.13190676636202
 20
1045.7236751254491
 30
0.0
 11
453.000136766362
 21
1041.691385125449
 31
0.0
  0
LINE
  5
2BB4
  8
AM_0
 10
432.000136766362
 20
1019.130535125449
 30
0.0
 11
432.000136766362
 21
992.71115512544918
 31
0.0
  0
LINE
  5
2BB5
  8
AM_0
 10
370.00019676636208
 20
953.93540512544894
 30
0.0
 11
392.00019676636208
 21
953.93540512544894
 31
0.0
  0
ARC
  5
2BB6
  8
AM_0
 10
370.00019676636208
 20
948.93540512544917
 30
0.0
 40
5.0
 50
90.00000299999769
 51
180.00001000000091
  0
ARC
  5
2BB7
  8
AM_0
 10
392.00019676636208
 20
958.93540512544917
 30
0.0
 40
5.0
 50
270.0
 51
0.0
  0
LINE
  5
2BB8
  8
AM_0
 10
415.00019676636202
 20
993.21115512544907
 30
0.0
 11
430.00019676636208
 21
993.21115512544907
 31
0.0
  0
ARC
  5
2BB9
  8
AM_0
 10
396.91993676636201
 20
1016.426125125448
 30
0.0
 40
5.0
 50
271.9999999999971
 51
315.0
  0
ARC
  5
2BBA
  8
AM_0
 10
418.00013676636217
 20
1032.935345125449
 30
0.0
 40
3.0
 50
90.00000299999769
 51
180.00001000000091
  0
LINE
  5
2BBB
  8
AM_0
 10
428.00019676636202
 20
1035.9354051254491
 30
0.0
 11
430.00013676636229
 21
1033.935465125448
 31
0.0
  0
LINE
  5
2BBC
  8
AM_0
 10
415.00019676636202
 20
1019.630535125449
 30
0.0
 11
430.00019676636208
 21
1019.630535125449
 31
0.0
  0
LINE
  5
2BBD
  8
AM_0
 10
415.00019676636202
 20
1009.441565125449
 30
0.0
 11
430.00019676636208
 21
1009.441565125449
 31
0.0
  0
LINE
  5
2BBE
  8
AM_0
 10
399.06275676636221
 20
1011.497845125449
 30
0.0
 11
413.53577676636201
 21
1025.9708651254491
 31
0.0
  0
ARC
  5
2BBF
  8
AM_0
 10
410.00019676636208
 20
1029.5064451254491
 30
0.0
 40
5.0
 50
315.0
 51
0.0
  0
LINE
  5
2BC0
  8
AM_0
 10
418.00013676636217
 20
1035.935345125449
 30
0.0
 11
428.000136766362
 21
1035.935345125449
 31
0.0
  0
ARC
  5
2BC1
  8
AM_0
 10
431.00019676636202
 20
1050.647625125448
 30
0.0
 40
5.0
 50
180.00001000000091
 51
259.99998999999872
  0
LINE
  5
2BC2
  8
AM_0
 10
479.00013676636229
 20
946.47098512544926
 30
0.0
 11
479.00013676636229
 21
1063.0593051254491
 31
0.0
  0
LINE
  5
2BC3
  8
AM_0
 10
509.00019676636231
 20
1068.9354051254491
 30
0.0
 11
509.00019676636231
 21
940.93540512544917
 31
0.0
  0
ARC
  5
2BC4
  8
AM_0
 10
491.00019676636202
 20
935.93540512544905
 30
0.0
 40
12.5
 50
203.5781799999973
 51
336.42183000000068
  0
ARC
  5
2BC5
  8
AM_0
 10
491.00019676636202
 20
935.93540512544905
 30
0.0
 40
12.5
 50
23.578179999997531
 51
156.42182000000241
  0
LINE
  5
2BC6
  8
AM_0
 10
471.00019676636208
 20
940.93540512544917
 30
0.0
 11
511.00019676636202
 21
940.93540512544917
 31
0.0
  0
LINE
  5
2BC7
  8
AM_0
 10
471.00019676636208
 20
930.93540512544905
 30
0.0
 11
511.00019676636202
 21
930.93540512544905
 31
0.0
  0
ARC
  5
2BC8
  8
AM_0
 10
491.00019676636202
 20
935.93540512544905
 30
0.0
 40
15.0
 50
148.21198000000049
 51
160.52876999999901
  0
ARC
  5
2BC9
  8
AM_0
 10
471.00019676636208
 20
935.93540512544905
 30
0.0
 40
5.0
 50
90.00000299999769
 51
270.0
  0
ARC
  5
2BCA
  8
AM_0
 10
474.000136766362
 20
925.39981512544921
 30
0.0
 40
5.0
 50
0.0
 51
31.78801800000311
  0
ARC
  5
2BCB
  8
AM_0
 10
491.00019676636202
 20
935.93540512544905
 30
0.0
 40
15.0
 50
199.4712300000005
 51
211.78801999999919
  0
ARC
  5
2BCC
  8
AM_0
 10
474.000136766362
 20
946.47098512544926
 30
0.0
 40
5.0
 50
328.21198000000078
 51
0.0
  0
ARC
  5
2BCD
  8
AM_0
 10
511.00019676636202
 20
935.93540512544905
 30
0.0
 40
5.0
 50
270.0
 51
90.00000299999769
  0
LINE
  5
2BCE
  8
AM_0
 10
509.00013676636229
 20
1068.9354051254491
 30
0.0
 11
483.82556676636227
 21
1068.0562551254491
 31
0.0
  0
ARC
  5
2BCF
  8
AM_0
 10
448.00019676636202
 20
1039.066995125449
 30
0.0
 40
5.0
 50
271.9999999999971
 51
0.0
  0
LINE
  5
2BD0
  8
AM_0
 10
474.17463676636208
 20
1047.958965125448
 30
0.0
 11
457.82563676636198
 21
1047.3880351254491
 31
0.0
  0
ARC
  5
2BD1
  8
AM_0
 10
458.00013676636229
 20
1042.391035125449
 30
0.0
 40
5.0
 50
91.999998000000545
 51
180.00001000000091
  0
ARC
  5
2BD2
  8
AM_0
 10
474.000136766362
 20
1052.9559151254491
 30
0.0
 40
5.0
 50
271.9999999999971
 51
0.0
  0
ARC
  5
2BD3
  8
AM_0
 10
484.00013676636229
 20
1063.0593051254491
 30
0.0
 40
5.0
 50
91.999998000000545
 51
180.00001000000091
  0
LINE
  5
2BD4
  8
AM_0
 10
514.00019676636225
 20
1100.9354051254491
 30
0.0
 11
430.82563676636221
 21
1098.0308651254491
 31
0.0
  0
ARC
  5
2BD5
  8
AM_0
 10
431.00019676636202
 20
1093.0339151254491
 30
0.0
 40
5.0
 50
91.999998000000545
 51
180.00001000000091
  0
LINE
  5
2BD6
  8
AM_0
 10
481.53638676636228
 20
1099.5933651254491
 30
0.0
 11
512.00019676636225
 21
1088.822305125449
 31
0.0
  0
LINE
  5
2BD7
  8
AM_0
 10
485.00013676636212
 20
1087.762065125449
 30
0.0
 11
512.00025676636221
 21
1078.215615125448
 31
0.0
  0
ARC
  5
2BD8
  8
AM_0
 10
484.00019676636231
 20
1084.933635125449
 30
0.0
 40
3.0
 50
70.527972999999633
 51
180.00001000000091
  0
ARC
  5
2BD9
  8
AM_0
 10
511.00019676636202
 20
1085.9939351254491
 30
0.0
 40
3.0
 50
0.0
 51
70.527972999999633
  0
ARC
  5
2BDA
  8
AM_0
 10
511.00019676636202
 20
1075.387245125449
 30
0.0
 40
3.0
 50
0.0
 51
70.527972999999633
  0
CIRCLE
  5
2BDB
  8
AM_0
 10
626.00019676636225
 20
1068.4354051254491
 30
0.0
 40
9.5
  0
LINE
  5
2BDC
  8
AM_0
 10
656.00019676636225
 20
1091.148175125448
 30
0.0
 11
656.00019676636225
 21
1040.7225751254491
 31
0.0
  0
LINE
  5
2BDD
  8
AM_0
 10
591.00019676636236
 20
1093.068825125448
 30
0.0
 11
591.00019676636236
 21
1064.5236551254491
 31
0.0
  0
ARC
  5
2BDE
  8
AM_0
 10
616.00019676636236
 20
1044.057475125448
 30
0.0
 40
8.0
 50
0.0
 51
88.000000000002785
  0
LINE
  5
2BDF
  8
AM_0
 10
538.14490676636228
 20
1063.917585125449
 30
0.0
 11
587.84015676636216
 21
1062.182225125448
 31
0.0
  0
LINE
  5
2BE0
  8
AM_0
 10
534.00013676636229
 20
1068.0624151254481
 30
0.0
 11
538.14490676636228
 21
1063.9176451254491
 31
0.0
  0
ARC
  5
2BE1
  8
AM_0
 10
603.00019676636225
 20
1064.5236551254491
 30
0.0
 40
12.0
 50
180.00001000000091
 51
268.00000000000261
  0
ARC
  5
2BE2
  8
AM_0
 10
587.66559676636223
 20
1057.185285125448
 30
0.0
 40
5.0
 50
25.5735169999985
 51
88.000000000002785
  0
LINE
  5
2BE3
  8
AM_0
 10
602.58136676636207
 20
1052.530925125448
 30
0.0
 11
616.27942676636223
 21
1052.0525951254481
 31
0.0
  0
ARC
  5
2BE4
  8
AM_0
 10
653.00019676636225
 20
998.0413551254494
 30
0.0
 40
2.0
 50
180.00001000000091
 51
268.00000000000261
  0
LINE
  5
2BE5
  8
AM_0
 10
656.00019676636225
 20
965.93540512544917
 30
0.0
 11
662.0001367663624
 21
965.93540512544917
 31
0.0
  0
ARC
  5
2BE6
  8
AM_0
 10
654.00019676636236
 20
994.00400512544911
 30
0.0
 40
2.0
 50
0.0
 51
88.000000000002785
  0
LINE
  5
2BE7
  8
AM_0
 10
652.93036676636223
 20
996.0425151254492
 30
0.0
 11
654.07001676636207
 21
996.00272512544905
 31
0.0
  0
ARC
  5
2BE8
  8
AM_0
 10
682.00019676636225
 20
935.9353451254492
 30
0.0
 40
8.0000113999999982
 50
90.00000299999769
 51
270.0
  0
LINE
  5
2BE9
  8
AM_0
 10
682.00013676636206
 20
943.9353451254492
 30
0.0
 11
682.00013676636206
 21
927.93534512544909
 31
0.0
  0
ARC
  5
2BEA
  8
AM_0
 10
654.00019676636236
 20
1033.306375125449
 30
0.0
 40
3.0
 50
112.0243099999992
 51
180.00001000000091
  0
ARC
  5
2BEB
  8
AM_0
 10
643.00019676636225
 20
1027.267005125449
 30
0.0
 40
8.0
 50
0.0
 51
88.000000000002785
  0
ARC
  5
2BEC
  8
AM_0
 10
632.00019676636225
 20
1043.6609251254481
 30
0.0
 40
8.0
 50
180.00001000000091
 51
268.00000000000261
  0
LINE
  5
2BED
  8
AM_0
 10
631.72101676636225
 20
1035.665745125448
 30
0.0
 11
643.27936676636239
 21
1035.2621251254491
 31
0.0
  0
ARC
  5
2BEE
  8
AM_0
 10
651.00019676636225
 20
1040.7225751254491
 30
0.0
 40
5.0
 50
292.02430999999922
 51
0.0
  0
ARC
  5
2BEF
  8
AM_0
 10
596.00019676636236
 20
1093.068825125448
 30
0.0
 40
5.0
 50
88.000000000002785
 51
180.00001000000091
  0
ARC
  5
2BF0
  8
AM_0
 10
651.00019676636225
 20
1091.148175125448
 30
0.0
 40
5.0
 50
0.0
 51
88.000000000002785
  0
LINE
  5
2BF1
  8
AM_0
 10
744.00013676636183
 20
963.43540512544917
 30
0.0
 11
744.00013676636183
 21
908.43540512544905
 31
0.0
  0
LINE
  5
2BF2
  8
ﾁｭｳｼﾝｾﾝ
 10
890.23409874415609
 20
395.39569499999988
 30
0.0
 11
1154.1447776270211
 21
395.39569499999988
 31
0.0
  0
LINE
  5
2BF3
  8
ﾁｭｳｼﾝｾﾝ1
 10
456.00019676636202
 20
783.9353451254492
 30
0.0
 11
456.00019676636202
 21
822.93534512544932
 31
0.0
  0
LINE
  5
2BF4
  8
ﾁｭｳｼﾝｾﾝ1
 10
436.50019676636202
 20
803.4353451254492
 30
0.0
 11
475.50019676636231
 21
803.4353451254492
 31
0.0
  0
LINE
  5
2BF5
  8
ﾁｭｳｼﾝｾﾝ1
 10
456.00019676636202
 20
1048.9354051254491
 30
0.0
 11
456.00019676636202
 21
1087.9354051254491
 31
0.0
  0
LINE
  5
2BF6
  8
ﾁｭｳｼﾝｾﾝ1
 10
436.50019676636202
 20
1068.4354051254491
 30
0.0
 11
475.50019676636231
 21
1068.4354051254491
 31
0.0
  0
LINE
  5
2BF7
  8
ﾁｭｳｼﾝｾﾝ1
 10
626.00019676636225
 20
1048.9354051254491
 30
0.0
 11
626.00019676636225
 21
1087.9354051254491
 31
0.0
  0
LINE
  5
2BF8
  8
ﾁｭｳｼﾝｾﾝ1
 10
606.50019676636225
 20
1068.4354051254491
 30
0.0
 11
645.50019676636236
 21
1068.4354051254491
 31
0.0
  0
TEXT
  5
2DDB
  8
AM_0
 10
883.9946655930944
 20
929.33146971002031
 30
0.0
 40
20.0
  1
VX08-240G~VX08-500G
  0
ENDSEC
  0
EOF
