  0
SECTION
  2
HEADER
  9
$ACADVER
  1
AC1024
  9
$ACADMAINTVER
 70
   226
  9
$DWGCODEPAGE
  3
ANSI_932
  9
$LASTSAVEDBY
  1
y-sakai
  9
$INSBASE
 10
0.0
 20
0.0
 30
0.0
  9
$EXTMIN
 10
177.6437304790546
 20
260.2409387359407
 30
-0.0015258207003583
  9
$EXTMAX
 10
894.5540264400815
 20
805.4794331668873
 30
0.0000000349246037
  9
$LIMMIN
 10
0.0
 20
0.0
  9
$LIMMAX
 10
1422.5
 20
925.0
  9
$ORTHOMODE
 70
     0
  9
$REGENMODE
 70
     1
  9
$FILLMODE
 70
     1
  9
$QTEXTMODE
 70
     0
  9
$MIRRTEXT
 70
     1
  9
$LTSCALE
 40
5.0
  9
$ATTMODE
 70
     1
  9
$TEXTSIZE
 40
2.5
  9
$TRACEWID
 40
1.0
  9
$TEXTSTYLE
  7
STANDARD
  9
$CLAYER
  8
AM_0
  9
$CELTYPE
  6
ByLayer
  9
$CECOLOR
 62
   256
  9
$CELTSCALE
 40
1.0
  9
$DISPSILH
 70
     0
  9
$DIMSCALE
 40
1.0
  9
$DIMASZ
 40
2.5
  9
$DIMEXO
 40
1.0
  9
$DIMDLI
 40
8.0
  9
$DIMRND
 40
0.0
  9
$DIMDLE
 40
0.0
  9
$DIMEXE
 40
0.6
  9
$DIMTP
 40
0.1
  9
$DIMTM
 40
0.1
  9
$DIMTXT
 40
2.5
  9
$DIMCEN
 40
0.0
  9
$DIMTSZ
 40
0.0
  9
$DIMTOL
 70
     0
  9
$DIMLIM
 70
     0
  9
$DIMTIH
 70
     0
  9
$DIMTOH
 70
     0
  9
$DIMSE1
 70
     0
  9
$DIMSE2
 70
     0
  9
$DIMTAD
 70
     1
  9
$DIMZIN
 70
     8
  9
$DIMBLK
  1

  9
$DIMASO
 70
     1
  9
$DIMSHO
 70
     1
  9
$DIMPOST
  1

  9
$DIMAPOST
  1
"
  9
$DIMALT
 70
     0
  9
$DIMALTD
 70
     2
  9
$DIMALTF
 40
0.0393701
  9
$DIMLFAC
 40
1.0
  9
$DIMTOFL
 70
     1
  9
$DIMTVP
 40
0.0
  9
$DIMTIX
 70
     0
  9
$DIMSOXD
 70
     0
  9
$DIMSAH
 70
     0
  9
$DIMBLK1
  1

  9
$DIMBLK2
  1

  9
$DIMSTYLE
  2
AM_ISO
  9
$DIMCLRD
 70
   256
  9
$DIMCLRE
 70
   256
  9
$DIMCLRT
 70
     4
  9
$DIMTFAC
 40
0.71
  9
$DIMGAP
 40
0.8
  9
$DIMJUST
 70
     0
  9
$DIMSD1
 70
     0
  9
$DIMSD2
 70
     0
  9
$DIMTOLJ
 70
     1
  9
$DIMTZIN
 70
     0
  9
$DIMALTZ
 70
     0
  9
$DIMALTTZ
 70
     0
  9
$DIMUPT
 70
     0
  9
$DIMDEC
 70
     4
  9
$DIMTDEC
 70
     4
  9
$DIMALTU
 70
     2
  9
$DIMALTTD
 70
     2
  9
$DIMTXSTY
  7
STANDARD
  9
$DIMAUNIT
 70
     0
  9
$DIMADEC
 70
     0
  9
$DIMALTRND
 40
0.0
  9
$DIMAZIN
 70
     0
  9
$DIMDSEP
 70
    46
  9
$DIMATFIT
 70
     3
  9
$DIMFRAC
 70
     0
  9
$DIMLDRBLK
  1

  9
$DIMLUNIT
 70
     2
  9
$DIMLWD
 70
    -2
  9
$DIMLWE
 70
    -2
  9
$DIMTMOVE
 70
     0
  9
$DIMFXL
 40
1.0
  9
$DIMFXLON
 70
     0
  9
$DIMJOGANG
 40
0.7853981633974483
  9
$DIMTFILL
 70
     0
  9
$DIMTFILLCLR
 70
     0
  9
$DIMARCSYM
 70
     0
  9
$DIMLTYPE
  6

  9
$DIMLTEX1
  6

  9
$DIMLTEX2
  6

  9
$DIMTXTDIRECTION
 70
     0
  9
$LUNITS
 70
     2
  9
$LUPREC
 70
     2
  9
$SKETCHINC
 40
1.0
  9
$FILLETRAD
 40
25.0
  9
$AUNITS
 70
     0
  9
$AUPREC
 70
     0
  9
$MENU
  1
.
  9
$ELEVATION
 40
0.0
  9
$PELEVATION
 40
0.0
  9
$THICKNESS
 40
0.0
  9
$LIMCHECK
 70
     0
  9
$CHAMFERA
 40
10.0
  9
$CHAMFERB
 40
5.0
  9
$CHAMFERC
 40
0.0
  9
$CHAMFERD
 40
0.0
  9
$SKPOLY
 70
     0
  9
$TDCREATE
 40
2452066.549594908
  9
$TDUCREATE
 40
2452066.174594908
  9
$TDUPDATE
 40
2460362.583715278
  9
$TDUUPDATE
 40
2460362.208715278
  9
$TDINDWG
 40
0.0904646875
  9
$TDUSRTIMER
 40
0.0904645023
  9
$USRTIMER
 70
     1
  9
$ANGBASE
 50
0.0
  9
$ANGDIR
 70
     0
  9
$PDMODE
 70
     0
  9
$PDSIZE
 40
0.0
  9
$PLINEWID
 40
0.0
  9
$SPLFRAME
 70
     0
  9
$SPLINETYPE
 70
     6
  9
$SPLINESEGS
 70
     8
  9
$HANDSEED
  5
30B9
  9
$SURFTAB1
 70
     6
  9
$SURFTAB2
 70
     6
  9
$SURFTYPE
 70
     6
  9
$SURFU
 70
     6
  9
$SURFV
 70
     6
  9
$UCSBASE
  2

  9
$UCSNAME
  2

  9
$UCSORG
 10
0.0
 20
0.0
 30
0.0
  9
$UCSXDIR
 10
1.0
 20
0.0
 30
0.0
  9
$UCSYDIR
 10
0.0
 20
1.0
 30
0.0
  9
$UCSORTHOREF
  2

  9
$UCSORTHOVIEW
 70
     0
  9
$UCSORGTOP
 10
0.0
 20
0.0
 30
0.0
  9
$UCSORGBOTTOM
 10
0.0
 20
0.0
 30
0.0
  9
$UCSORGLEFT
 10
0.0
 20
0.0
 30
0.0
  9
$UCSORGRIGHT
 10
0.0
 20
0.0
 30
0.0
  9
$UCSORGFRONT
 10
0.0
 20
0.0
 30
0.0
  9
$UCSORGBACK
 10
0.0
 20
0.0
 30
0.0
  9
$PUCSBASE
  2

  9
$PUCSNAME
  2

  9
$PUCSORG
 10
0.0
 20
0.0
 30
0.0
  9
$PUCSXDIR
 10
1.0
 20
0.0
 30
0.0
  9
$PUCSYDIR
 10
0.0
 20
1.0
 30
0.0
  9
$PUCSORTHOREF
  2

  9
$PUCSORTHOVIEW
 70
     0
  9
$PUCSORGTOP
 10
0.0
 20
0.0
 30
0.0
  9
$PUCSORGBOTTOM
 10
0.0
 20
0.0
 30
0.0
  9
$PUCSORGLEFT
 10
0.0
 20
0.0
 30
0.0
  9
$PUCSORGRIGHT
 10
0.0
 20
0.0
 30
0.0
  9
$PUCSORGFRONT
 10
0.0
 20
0.0
 30
0.0
  9
$PUCSORGBACK
 10
0.0
 20
0.0
 30
0.0
  9
$USERI1
 70
     0
  9
$USERI2
 70
     0
  9
$USERI3
 70
     0
  9
$USERI4
 70
     0
  9
$USERI5
 70
     0
  9
$USERR1
 40
0.0
  9
$USERR2
 40
0.0
  9
$USERR3
 40
0.0
  9
$USERR4
 40
0.0
  9
$USERR5
 40
0.0
  9
$WORLDVIEW
 70
     1
  9
$SHADEDGE
 70
     3
  9
$SHADEDIF
 70
    70
  9
$TILEMODE
 70
     1
  9
$MAXACTVP
 70
    64
  9
$PINSBASE
 10
0.0
 20
0.0
 30
0.0
  9
$PLIMCHECK
 70
     0
  9
$PEXTMIN
 10
1.000000000000000E+20
 20
1.000000000000000E+20
 30
1.000000000000000E+20
  9
$PEXTMAX
 10
-1.000000000000000E+20
 20
-1.000000000000000E+20
 30
-1.000000000000000E+20
  9
$PLIMMIN
 10
0.0
 20
0.0
  9
$PLIMMAX
 10
420.0
 20
297.0
  9
$UNITMODE
 70
     0
  9
$VISRETAIN
 70
     1
  9
$PLINEGEN
 70
     0
  9
$PSLTSCALE
 70
     1
  9
$TREEDEPTH
 70
  3020
  9
$CMLSTYLE
  2
Standard
  9
$CMLJUST
 70
     0
  9
$CMLSCALE
 40
1.0
  9
$PROXYGRAPHICS
 70
     1
  9
$MEASUREMENT
 70
     0
  9
$CELWEIGHT
370
    -1
  9
$ENDCAPS
280
     0
  9
$JOINSTYLE
280
     0
  9
$LWDISPLAY
290
     0
  9
$INSUNITS
 70
     0
  9
$HYPERLINKBASE
  1

  9
$STYLESHEET
  1

  9
$XEDIT
290
     1
  9
$CEPSNTYPE
380
     0
  9
$PSTYLEMODE
290
     1
  9
$FINGERPRINTGUID
  2
{FA623D4E-5D99-9C43-BF3E-6FDD9DF1F06C}
  9
$VERSIONGUID
  2
{8F72AE9E-7EF0-174A-A02D-5A78F3B046A3}
  9
$EXTNAMES
290
     1
  9
$PSVPSCALE
 40
0.0
  9
$OLESTARTUP
290
     0
  9
$SORTENTS
280
   127
  9
$INDEXCTL
280
     0
  9
$HIDETEXT
280
     0
  9
$XCLIPFRAME
280
     2
  9
$HALOGAP
280
     0
  9
$OBSCOLOR
 70
   257
  9
$OBSLTYPE
280
     0
  9
$INTERSECTIONDISPLAY
280
     0
  9
$INTERSECTIONCOLOR
 70
   257
  9
$DIMASSOC
280
     1
  9
$PROJECTNAME
  1

  9
$CAMERADISPLAY
290
     0
  9
$LENSLENGTH
 40
50.0
  9
$CAMERAHEIGHT
 40
0.0
  9
$STEPSPERSEC
 40
2.0
  9
$STEPSIZE
 40
6.0
  9
$3DDWFPREC
 40
2.0
  9
$PSOLWIDTH
 40
0.25
  9
$PSOLHEIGHT
 40
4.0
  9
$LOFTANG1
 40
1.570796326794896
  9
$LOFTANG2
 40
1.570796326794896
  9
$LOFTMAG1
 40
0.0
  9
$LOFTMAG2
 40
0.0
  9
$LOFTPARAM
 70
     7
  9
$LOFTNORMALS
280
     1
  9
$LATITUDE
 40
37.795
  9
$LONGITUDE
 40
-122.394
  9
$NORTHDIRECTION
 40
0.0
  9
$TIMEZONE
 70
 -8000
  9
$LIGHTGLYPHDISPLAY
280
     1
  9
$TILEMODELIGHTSYNCH
280
     1
  9
$CMATERIAL
347
2CE9
  9
$SOLIDHIST
280
     0
  9
$SHOWHIST
280
     1
  9
$DWFFRAME
280
     2
  9
$DGNFRAME
280
     0
  9
$REALWORLDSCALE
290
     1
  9
$INTERFERECOLOR
 62
     1
  9
$INTERFEREOBJVS
345
2D0B
  9
$INTERFEREVPVS
346
2D08
  9
$CSHADOW
280
     0
  9
$SHADOWPLANELOCATION
 40
0.0
  0
ENDSEC
  0
SECTION
  2
CLASSES
  0
CLASS
  1
ACDBDICTIONARYWDFLT
  2
AcDbDictionaryWithDefault
  3
ObjectDBX Classes
 90
        0
 91
        1
280
     0
281
     0
  0
CLASS
  1
MATERIAL
  2
AcDbMaterial
  3
ObjectDBX Classes
 90
     1153
 91
        3
280
     0
281
     0
  0
CLASS
  1
VISUALSTYLE
  2
AcDbVisualStyle
  3
ObjectDBX Classes
 90
     4095
 91
       24
280
     0
281
     0
  0
CLASS
  1
SCALE
  2
AcDbScale
  3
ObjectDBX Classes
 90
     1153
 91
       17
280
     0
281
     0
  0
CLASS
  1
TABLESTYLE
  2
AcDbTableStyle
  3
ObjectDBX Classes
 90
     4095
 91
        1
280
     0
281
     0
  0
CLASS
  1
MLEADERSTYLE
  2
AcDbMLeaderStyle
  3
ACDB_MLEADERSTYLE_CLASS
 90
     4095
 91
        1
280
     0
281
     0
  0
CLASS
  1
ACDBSECTIONVIEWSTYLE
  2
AcDbSectionViewStyle
  3
ObjectDBX Classes
 90
     1025
 91
        2
280
     0
281
     0
  0
CLASS
  1
ACDBDETAILVIEWSTYLE
  2
AcDbDetailViewStyle
  3
ObjectDBX Classes
 90
     1025
 91
        2
280
     0
281
     0
  0
CLASS
  1
AMGSETTINGSOBJ
  2
AmgSettingsObj
  3
"AcadM|Product Description: AutoCAD Mechanical|Company: Autodesk, Inc."
 90
     1024
 91
        2
280
     0
281
     0
  0
CLASS
  1
ACME_DOCUMENT
  2
AcMeDbDoc
  3
AcMeServices
 90
     1024
 91
        1
280
     0
281
     0
  0
CLASS
  1
ACMESCOPE
  2
AcMeScope
  3
AcMeServices
 90
     1024
 91
        1
280
     0
281
     0
  0
CLASS
  1
ACMECOMMANDHISTORY
  2
AcMeCommandHistory
  3
AcMeServices
 90
     1024
 91
        1
280
     0
281
     0
  0
CLASS
  1
ACIMSYSVARMAN
  2
AcImSysVarManager
  3
AcMeServices
 90
     1024
 91
        3
280
     0
281
     0
  0
CLASS
  1
ACIMINTSYSVAR
  2
AcImIntSysVar
  3
AcMeServices
 90
     1024
 91
        4
280
     0
281
     0
  0
CLASS
  1
ACMESTATEMGR
  2
AcMeStateMgr
  3
AcMeServices
 90
     1024
 91
        1
280
     0
281
     0
  0
CLASS
  1
ACDBENTITYCACHE
  2
AcMeEntityCache
  3
AcMeServices
 90
     1024
 91
        1
280
     0
281
     0
  0
CLASS
  1
ACGREFMASTER
  2
AcGrefMaster
  3
AcAttribServices
 90
     1024
 91
        1
280
     0
281
     0
  0
CLASS
  1
ACME_DATABASE
  2
AcMeDbDatabase
  3
AcMeServices
 90
     1024
 91
        1
280
     0
281
     0
  0
CLASS
  1
ACRFINSADJUSTERMGR
  2
AcRfInsAdjusterMgr
  3
AcMeServices
 90
     1024
 91
        1
280
     0
281
     0
  0
CLASS
  1
ACGREFACADMASTER
  2
AcGrefacadMaster
  3
AcGrefServices
 90
     1024
 91
        1
280
     0
281
     0
  0
CLASS
  1
AMIMASTER
  2
AmiMaster
  3
AmiServices
 90
     1024
 91
        1
280
     0
281
     0
  0
CLASS
  1
AMDTMENUSTATEMGR
  2
AmdtMenuStateMgr
  3
McadcomServices
 90
     1024
 91
        1
280
     0
281
     0
  0
CLASS
  1
AMDTMCOMMENUSTATE
  2
AmdtMcomMenuState
  3
McadcomServices
 90
     1024
 91
        1
280
     0
281
     0
  0
CLASS
  1
MAPIAMMOUDLE
  2
MApiAmModule
  3
MApiAmServices
 90
     1024
 91
        1
280
     0
281
     0
  0
CLASS
  1
ACIMSTRSYSVAR
  2
AcImStrSysVar
  3
AcMeServices
 90
     1024
 91
        5
280
     0
281
     0
  0
CLASS
  1
AMDTAMMENUSTATE
  2
AmdtAmMenuState
  3
DesignerAssemblies_arx
 90
     1024
 91
        1
280
     0
281
     0
  0
CLASS
  1
ACAMPROJECT
  2
AcAmProject
  3
DesignerAssemblies
 90
     1024
 91
        1
280
     0
281
     0
  0
CLASS
  1
ACAMGRCOMPDEF
  2
AcAmGrCompDef
  3
DesignerAssemblies
 90
     1024
 91
        1
280
     0
281
     0
  0
CLASS
  1
ACAMCOMPDEF
  2
AcAmCompDef
  3
DesignerAssemblies
 90
     1024
 91
        1
280
     0
281
     0
  0
CLASS
  1
ACAMCOMPDEFMGR
  2
AcAmCompDefMgr
  3
DesignerAssemblies
 90
     1024
 91
        1
280
     0
281
     0
  0
CLASS
  1
AMCONTEXTMGR
  2
AcAmContextMgr
  3
DesignerAssemblies
 90
     1024
 91
        1
280
     0
281
     0
  0
CLASS
  1
ACAMCONTEXTMODELER
  2
AcAmContextModeler
  3
DesignerAssemblies
 90
     1024
 91
        1
280
     0
281
     0
  0
CLASS
  1
ACMDATADICTIONARY
  2
AcmDataDictionary
  3
"AcmSymBB|Product Description: AutoCAD Mechanical|Company: Autodesk, Inc."
 90
     1024
 91
        1
280
     0
281
     0
  0
CLASS
  1
ACAMGRCOMPDEFSET
  2
AcAmGrCompDefSet
  3
DesignerAssemblies
 90
     1024
 91
        1
280
     0
281
     0
  0
CLASS
  1
AMDTBROWSERDBTAB
  2
AmdtBrowserDbTab
  3
McadcomServices
 90
     1024
 91
        1
280
     0
281
     0
  0
CLASS
  1
CBROWSERAPPOBJECT
  2
CBrowserAppObject
  3
McadcomServices
 90
     1024
 91
        2
280
     0
281
     0
  0
CLASS
  1
DM_PLACEHOLDER
  2
AcDmSelsetPlaceholder
  3
McadcomServices
 90
     1024
 91
        1
280
     0
281
     0
  0
CLASS
  1
EXACXREFPANELOBJECT
  2
ExAcXREFPanelObject
  3
EXAC_ESW
 90
     1025
 91
        1
280
     0
281
     0
  0
CLASS
  1
NPOCOLLECTION
  2
AcDbImpNonPersistentObjectsCollection
  3
ObjectDBX Classes
 90
     1153
 91
        1
280
     0
281
     0
  0
CLASS
  1
ACMSTANDARDANSI
  2
AcmStandardANSI
  3
"Amdt_StdImp|Product Description: AutoCAD Mechanical|Company: Autodesk, Inc."
 90
     1024
 91
        1
280
     0
281
     0
  0
CLASS
  1
ACMSURFSTANDARDANSI
  2
AcmSurfTextStdANSI
  3
"Amdt_StdImp|Product Description: AutoCAD Mechanical|Company: Autodesk, Inc."
 90
     1024
 91
        1
280
     0
281
     0
  0
CLASS
  1
ACMFCFSTANDARDANSI
  2
AcmFCFStdANSI
  3
"Amdt_StdImp|Product Description: AutoCAD Mechanical|Company: Autodesk, Inc."
 90
     1024
 91
        1
280
     0
281
     0
  0
CLASS
  1
ACMWELDSTANDARDANSI
  2
AcmWeldingStdANSI
  3
"Amdt_StdImp|Product Description: AutoCAD Mechanical|Company: Autodesk, Inc."
 90
     1024
 91
        1
280
     0
281
     0
  0
CLASS
  1
ACMIDSTANDARDANSI
  2
AcmIdStdANSI
  3
"Amdt_StdImp|Product Description: AutoCAD Mechanical|Company: Autodesk, Inc."
 90
     1024
 91
        1
280
     0
281
     0
  0
CLASS
  1
ACMDATUMSTANDARDANSI
  2
AcmDatumStdANSI
  3
"Amdt_StdImp|Product Description: AutoCAD Mechanical|Company: Autodesk, Inc."
 90
     1024
 91
        1
280
     0
281
     0
  0
CLASS
  1
ACMBOMSTANDARDANSI
  2
AcmBOMStdANSI
  3
"Amdt_StdImp|Product Description: AutoCAD Mechanical|Company: Autodesk, Inc."
 90
     1024
 91
        1
280
     0
281
     0
  0
CLASS
  1
ACMDETAILSTANDARDANSI
  2
AmdtDetailSymStdANSI
  3
"Amdt_StdImp|Product Description: AutoCAD Mechanical|Company: Autodesk, Inc."
 90
     1024
 91
        1
280
     0
281
     0
  0
CLASS
  1
ACMSECTIONSTANDARDANSI
  2
AmdtSectionSymStdANSI
  3
"Amdt_StdImp|Product Description: AutoCAD Mechanical|Company: Autodesk, Inc."
 90
     1024
 91
        1
280
     0
281
     0
  0
CLASS
  1
ACMCENTERLINESTANDARDANSI
  2
AmdtCenterLineStdANSI
  3
"Amdt_StdImp|Product Description: AutoCAD Mechanical|Company: Autodesk, Inc."
 90
     1024
 91
        1
280
     0
281
     0
  0
CLASS
  1
ACMTHREADLINESTANDARDANSI
  2
AmdtThreadLineStdANSI
  3
"Amdt_StdImp|Product Description: AutoCAD Mechanical|Company: Autodesk, Inc."
 90
     1024
 91
        1
280
     0
281
     0
  0
CLASS
  1
ACMNOTESTANDARDANSI
  2
AmdtNoteStdANSI
  3
"Amdt_StdImp|Product Description: AutoCAD Mechanical|Company: Autodesk, Inc."
 90
     1024
 91
        1
280
     0
281
     0
  0
CLASS
  1
ACMTAPERSTANDARDANSI
  2
AcmTaperStdANSI
  3
"Amdt_StdImp|Product Description: AutoCAD Mechanical|Company: Autodesk, Inc."
 90
     1024
 91
        1
280
     0
281
     0
  0
CLASS
  1
ACMANOOTATIONVIEWSTANDARDANSI
  2
AmdtAnViewStdANSI
  3
"Amdt_StdImp|Product Description: AutoCAD Mechanical|Company: Autodesk, Inc."
 90
     1024
 91
        1
280
     0
281
     0
  0
CLASS
  1
ACAMGLAYSTD
  2
AcAmgLayStd
  3
"AmgLay|Product Description: AutoCAD Mechanical|Company: Autodesk, Inc."
 90
     1024
 91
        1
280
     0
281
     0
  0
CLASS
  1
ACAMGDIMSTD
  2
AcAmgDimStd
  3
"AmgDim|Product Description: AutoCAD Mechanical|Company: Autodesk, Inc."
 90
     1024
 91
        1
280
     0
281
     0
  0
CLASS
  1
ACAMGHOLECHARTSTDANSI
  2
AcAmgHoleChartStdANSI
  3
"AmgDim" "Product Description: AutoCAD Mechanical|Company: Autodesk, Inc."
 90
     1024
 91
        1
280
     0
281
     0
  0
CLASS
  1
AMGOBJPROPCFG
  2
AmgObjPropCfg
  3
"AmgLay|Product Description: AutoCAD Mechanical|Company: Autodesk, Inc."
 90
     1024
 91
        1
280
     0
281
     0
  0
CLASS
  1
ACAMGTITLESTD
  2
AcAmgTitleStd
  3
"AmgTitle|Product Description: AutoCAD Mechanical|Company: Autodesk, Inc."
 90
     1024
 91
        1
280
     0
281
     0
  0
CLASS
  1
ACMSECTIONSTANDARDCUSTOM
  2
AmdtSectionSymStdCustom
  3
"Amdt_StdImp|Product Description: AutoCAD Mechanical|Company: Autodesk, Inc."
 90
     1024
 91
        1
280
     0
281
     0
  0
CLASS
  1
ACMDETAILTANDARDCUSTOM
  2
AmdtDetailSymStdCustom
  3
"Amdt_StdImp|Product Description: AutoCAD Mechanical|Company: Autodesk, Inc."
 90
     1024
 91
        1
280
     0
281
     0
  0
CLASS
  1
FIELD
  2
AcDbField
  3
ObjectDBX Classes
 90
     1152
 91
        8
280
     0
281
     0
  0
CLASS
  1
FIELDLIST
  2
AcDbFieldList
  3
ObjectDBX Classes
 90
     1152
 91
        1
280
     0
281
     0
  0
CLASS
  1
AMDTNOTETEMPLATEDB
  2
AmdtNoteTemplateDB
  3
"AcmSymBB" "Product Description: AutoCAD Mechanical|Company: Autodesk, Inc."
 90
     1024
 91
        7
280
     0
281
     0
  0
CLASS
  1
ACAMGFILTERDAT
  2
AcAmgFilterDat
  3
"AcadM|Product Description: AutoCAD Mechanical|Company: Autodesk, Inc."
 90
     1024
 91
        0
280
     0
281
     0
  0
CLASS
  1
SORTENTSTABLE
  2
AcDbSortentsTable
  3
ObjectDBX Classes
 90
        0
 91
        1
280
     0
281
     0
  0
CLASS
  1
DICTIONARYVAR
  2
AcDbDictionaryVar
  3
ObjectDBX Classes
 90
        0
 91
        9
280
     0
281
     0
  0
CLASS
  1
CELLSTYLEMAP
  2
AcDbCellStyleMap
  3
ObjectDBX Classes
 90
     1152
 91
        2
280
     0
281
     0
  0
ENDSEC
  0
SECTION
  2
TABLES
  0
TABLE
  2
VPORT
  5
2CE0
330
0
100
AcDbSymbolTable
 70
     1
  0
VPORT
  5
2D4C
330
2CE0
100
AcDbSymbolTableRecord
100
AcDbViewportTableRecord
  2
*ACTIVE
 70
     0
 10
0.0
 20
0.0
 11
1.0
 21
1.0
 12
540.101130737284
 22
532.8601859514139
 13
0.0
 23
0.0
 14
12.5
 24
12.5
 15
50.0
 25
50.0
 16
0.0
 26
0.0
 36
1.0
 17
0.0
 27
0.0
 37
0.0
 40
549.7821485512044
 41
2.197496522948539
 42
50.0
 43
0.0
 44
0.0
 50
0.0
 51
0.0
 71
     0
 72
   100
 73
     1
 74
     3
 75
     0
 76
     0
 77
     0
 78
     0
281
     0
 65
     0
110
0.0
120
0.0
130
0.0
111
1.0
121
0.0
131
0.0
112
0.0
122
1.0
132
0.0
 79
     0
146
0.0
348
2D07
 60
     3
 61
     5
292
     1
282
     0
141
0.0
142
0.0
 63
   250
421
  3355443
1001
ACAD_NAV_VCDISPLAY
1070
     3
  0
ENDTAB
  0
TABLE
  2
LTYPE
  5
2CDD
330
0
100
AcDbSymbolTable
 70
    18
  0
LTYPE
  5
2D32
330
2CDD
100
AcDbSymbolTableRecord
100
AcDbLinetypeTableRecord
  2
ByBlock
 70
     0
  3

 72
    65
 73
     0
 40
0.0
  0
LTYPE
  5
2D33
330
2CDD
100
AcDbSymbolTableRecord
100
AcDbLinetypeTableRecord
  2
ByLayer
 70
     0
  3

 72
    65
 73
     0
 40
0.0
  0
LTYPE
  5
2D34
330
2CDD
100
AcDbSymbolTableRecord
100
AcDbLinetypeTableRecord
  2
CONTINUOUS
 70
     0
  3
Solid line
 72
    65
 73
     0
 40
0.0
  0
LTYPE
  5
2D50
330
2CDD
100
AcDbSymbolTableRecord
100
AcDbLinetypeTableRecord
  2
AMCONSTR
 70
     0
  3
_______________________
 72
    65
 73
     2
 40
9999.0
 49
9999.0
 74
     0
 49
0.0
 74
     0
  0
LTYPE
  5
2D58
330
2CDD
100
AcDbSymbolTableRecord
100
AcDbLinetypeTableRecord
  2
PHANTOM2
 70
     0
  3
Phantom (.5x) ___ _ _ ___ _ _ ___ _ _ ___ _ _
 72
    65
 73
     6
 40
31.75
 49
15.875
 74
     0
 49
-3.174999999999998
 74
     0
 49
3.174999999999998
 74
     0
 49
-3.174999999999998
 74
     0
 49
3.174999999999998
 74
     0
 49
-3.174999999999998
 74
     0
  0
LTYPE
  5
2D5B
330
2CDD
100
AcDbSymbolTableRecord
100
AcDbLinetypeTableRecord
  2
GEN3B
 70
     0
  3
 - - - - -
 72
    65
 73
     2
 40
1.0
 49
0.5
 74
     0
 49
-0.5
 74
     0
  0
LTYPE
  5
2D5C
330
2CDD
100
AcDbSymbolTableRecord
100
AcDbLinetypeTableRecord
  2
GEN7A
 70
     0
  3
__ . __ . __
 72
    65
 73
     4
 40
7.375
 49
4.75
 74
     0
 49
-0.875
 74
     0
 49
0.875
 74
     0
 49
-0.875
 74
     0
  0
LTYPE
  5
2D63
330
2CDD
100
AcDbSymbolTableRecord
100
AcDbLinetypeTableRecord
  2
ACANSTGB
 70
     0
  3
__ . . __ . .
 72
    65
 73
     6
 40
0.35433070866
 49
0.15748031496
 74
     0
 49
-0.03937007874
 74
     0
 49
0.03937007874
 74
     0
 49
-0.03937007874
 74
     0
 49
0.03937007874
 74
     0
 49
-0.03937007874
 74
     0
  0
LTYPE
  5
2D64
330
2CDD
100
AcDbSymbolTableRecord
100
AcDbLinetypeTableRecord
  2
ACANSTGL
 70
     0
  3
_ _ _ _ _
 72
    65
 73
     2
 40
0.11811023622
 49
0.07874015748
 74
     0
 49
-0.03937007874
 74
     0
  0
LTYPE
  5
2FD5
330
2CDD
100
AcDbSymbolTableRecord
100
AcDbLinetypeTableRecord
  2
HIDDEN
 70
     0
  3
Hidden __ __ __ __ __ __ __ __ __ __ __ __ __ _
 72
    65
 73
     2
 40
0.375
 49
0.25
 74
     0
 49
-0.125
 74
     0
  0
LTYPE
  5
2FD6
330
2CDD
100
AcDbSymbolTableRecord
100
AcDbLinetypeTableRecord
  2
CENTER
 70
     0
  3
Center ____ _ ____ _ ____ _ ____ _ ____ _ ____
 72
    65
 73
     4
 40
2.0
 49
1.25
 74
     0
 49
-0.25
 74
     0
 49
0.25
 74
     0
 49
-0.25
 74
     0
  0
LTYPE
  5
300C
330
2CDD
100
AcDbSymbolTableRecord
100
AcDbLinetypeTableRecord
  2
CENTER2
 70
     0
  3
Center (.5x) ___ _ ___ _ ___ _ ___ _ ___ _ ___
 72
    65
 73
     4
 40
1.125
 49
0.75
 74
     0
 49
-0.125
 74
     0
 49
0.125
 74
     0
 49
-0.125
 74
     0
  0
LTYPE
  5
300D
330
2CDD
100
AcDbSymbolTableRecord
100
AcDbLinetypeTableRecord
  2
HIDDEN2
 70
     0
  3
Hidden (.5x) _ _ _ _ _ _ _ _ _ _ _ _ _ _ _ _ _
 72
    65
 73
     2
 40
0.1875
 49
0.125
 74
     0
 49
-0.0625
 74
     0
  0
LTYPE
  5
3010
330
2CDD
100
AcDbSymbolTableRecord
100
AcDbLinetypeTableRecord
  2
Amzigzag2
 70
     0
  3
/\/-/\/-/\/-/\/-/\/-/\/
 72
    65
 73
     2
 40
0.4401
 49
0.0001
 74
     4
 75
   136
340
300F
 46
0.0016
 50
0.0
 44
0.0
 45
0.0
 49
-0.4400000000000001
 74
     0
  0
ENDTAB
  0
TABLE
  2
LAYER
  5
2CDA
102
{ACAD_XDICTIONARY
360
2F77
102
}
330
0
100
AcDbSymbolTable
 70
     6
  0
LAYER
  5
2D2C
102
{ACAD_XDICTIONARY
360
2F6A
102
}
330
2CDA
100
AcDbSymbolTableRecord
100
AcDbLayerTableRecord
  2
0
 70
     0
 62
     7
  6
CONTINUOUS
370
    -3
390
2CE7
347
2CF9
  0
LAYER
  5
2D4B
102
{ACAD_XDICTIONARY
360
2F6C
102
}
330
2CDA
100
AcDbSymbolTableRecord
100
AcDbLayerTableRecord
  2
AM_0
 70
     0
 62
     7
  6
CONTINUOUS
370
    -3
390
2CE7
347
2CF9
  0
LAYER
  5
2D65
102
{ACAD_XDICTIONARY
360
2F6E
102
}
330
2CDA
100
AcDbSymbolTableRecord
100
AcDbLayerTableRecord
  2
AM_5
 70
     0
 62
     2
  6
CONTINUOUS
370
    -3
390
2CE7
347
2CF9
  0
LAYER
  5
2D66
330
2CDA
100
AcDbSymbolTableRecord
100
AcDbLayerTableRecord
  2
DEFPOINTS
 70
     0
 62
     7
  6
CONTINUOUS
290
     0
370
    -3
390
2CE7
347
2CF9
  0
LAYER
  5
2D67
102
{ACAD_XDICTIONARY
360
2F70
102
}
330
2CDA
100
AcDbSymbolTableRecord
100
AcDbLayerTableRecord
  2
ｶｸﾚｾﾝ2
 70
     0
 62
     3
  6
GEN3B
370
    -3
390
2CE7
347
2CF9
  0
LAYER
  5
2D68
102
{ACAD_XDICTIONARY
360
2F72
102
}
330
2CDA
100
AcDbSymbolTableRecord
100
AcDbLayerTableRecord
  2
ﾁｭｳｼﾝｾﾝ1
 70
     0
 62
     1
  6
GEN7A
370
    -3
390
2CE7
347
2CF9
  0
ENDTAB
  0
TABLE
  2
STYLE
  5
2CDB
330
0
100
AcDbSymbolTable
 70
     4
  0
STYLE
  5
2D2D
330
2CDB
100
AcDbSymbolTableRecord
100
AcDbTextStyleTableRecord
  2
STANDARD
 70
     0
 40
0.0
 41
0.8299999999999998
 50
0.0
 71
     0
 42
2.5
  3
txt.shx
  4
bigfont.shx
  0
STYLE
  5
2D6D
330
2CDB
100
AcDbSymbolTableRecord
100
AcDbTextStyleTableRecord
  2
ACANSGDT
 70
     0
 40
0.0
 41
1.0
 50
0.0
 71
     0
 42
2.5
  3
amgdt.shx
  4

  0
STYLE
  5
300F
330
2CDB
100
AcDbSymbolTableRecord
100
AcDbTextStyleTableRecord
  2

 70
     1
 40
0.0
 41
1.0
 50
0.0
 71
     0
 42
2.5
  3
genltshp.shx
  4

  0
ENDTAB
  0
TABLE
  2
VIEW
  5
2CDE
330
0
100
AcDbSymbolTable
 70
     6
  0
VIEW
  5
2D70
330
2CDE
100
AcDbSymbolTableRecord
100
AcDbViewTableRecord
  2
AM_VIEW1
 70
     0
 40
462.5
 10
416.0796500920808
 20
693.75
 41
832.1593001841621
 11
0.0
 21
0.0
 31
1.0
 12
0.0
 22
0.0
 32
0.0
 42
50.0
 43
0.0
 44
0.0
 50
0.0
 71
     0
281
     0
 72
     0
 73
     0
348
2D07
  0
VIEW
  5
2D71
330
2CDE
100
AcDbSymbolTableRecord
100
AcDbViewTableRecord
  2
AM_VIEW2
 70
     0
 40
462.5
 10
1006.420349907918
 20
693.75
 41
832.1593001841621
 11
0.0
 21
0.0
 31
1.0
 12
0.0
 22
0.0
 32
0.0
 42
50.0
 43
0.0
 44
0.0
 50
0.0
 71
     0
281
     0
 72
     0
 73
     0
348
2D07
  0
VIEW
  5
2D72
330
2CDE
100
AcDbSymbolTableRecord
100
AcDbViewTableRecord
  2
AM_VIEW3
 70
     0
 40
462.5
 10
416.0796500920808
 20
231.25
 41
832.1593001841621
 11
0.0
 21
0.0
 31
1.0
 12
0.0
 22
0.0
 32
0.0
 42
50.0
 43
0.0
 44
0.0
 50
0.0
 71
     0
281
     0
 72
     0
 73
     0
348
2D07
  0
VIEW
  5
2D73
330
2CDE
100
AcDbSymbolTableRecord
100
AcDbViewTableRecord
  2
AM_VIEW4
 70
     0
 40
462.5
 10
1006.420349907918
 20
231.25
 41
832.1593001841621
 11
0.0
 21
0.0
 31
1.0
 12
0.0
 22
0.0
 32
0.0
 42
50.0
 43
0.0
 44
0.0
 50
0.0
 71
     0
281
     0
 72
     0
 73
     0
348
2D07
  0
VIEW
  5
2D74
330
2CDE
100
AcDbSymbolTableRecord
100
AcDbViewTableRecord
  2
AM_VIEW5
 70
     0
 40
462.5
 10
711.2499999999997
 20
462.5
 41
832.1593001841616
 11
0.0
 21
0.0
 31
1.0
 12
0.0
 22
0.0
 32
0.0
 42
50.0
 43
0.0
 44
0.0
 50
0.0
 71
     0
281
     0
 72
     0
 73
     0
348
2D07
  0
VIEW
  5
2D75
330
2CDE
100
AcDbSymbolTableRecord
100
AcDbViewTableRecord
  2
AM_VIEW6
 70
     0
 40
924.99075
 10
711.2499999999997
 20
462.5
 41
1664.30195718232
 11
0.0
 21
0.0
 31
1.0
 12
0.0
 22
0.0
 32
0.0
 42
50.0
 43
0.0
 44
0.0
 50
0.0
 71
     0
281
     0
 72
     0
 73
     0
348
2D07
  0
ENDTAB
  0
TABLE
  2
UCS
  5
2CDF
330
0
100
AcDbSymbolTable
 70
     0
  0
ENDTAB
  0
TABLE
  2
APPID
  5
2CE1
330
0
100
AcDbSymbolTable
 70
    96
  0
APPID
  5
2D2E
330
2CE1
100
AcDbSymbolTableRecord
100
AcDbRegAppTableRecord
  2
ACAD
 70
     0
  0
APPID
  5
2D35
330
2CE1
100
AcDbSymbolTableRecord
100
AcDbRegAppTableRecord
  2
ACADANNOTATIVE
 70
     0
  0
APPID
  5
2D76
330
2CE1
100
AcDbSymbolTableRecord
100
AcDbRegAppTableRecord
  2
MCAD_NO_VIS
 70
     0
  0
APPID
  5
2D77
330
2CE1
100
AcDbSymbolTableRecord
100
AcDbRegAppTableRecord
  2
ACAD_TEMP_GRAPHIC
 70
     0
  0
APPID
  5
2D78
330
2CE1
100
AcDbSymbolTableRecord
100
AcDbRegAppTableRecord
  2
ACATTRIBSERVICES
 70
     0
  0
APPID
  5
2D79
330
2CE1
100
AcDbSymbolTableRecord
100
AcDbRegAppTableRecord
  2
GENIUS_GENREC_14
 70
     0
  0
APPID
  5
2D7A
330
2CE1
100
AcDbSymbolTableRecord
100
AcDbRegAppTableRecord
  2
GENIUS_GENOBJ-N-REC_13
 70
     0
  0
APPID
  5
2D7B
330
2CE1
100
AcDbSymbolTableRecord
100
AcDbRegAppTableRecord
  2
GENIUS_GENODEF_13
 70
     0
  0
APPID
  5
2D7C
330
2CE1
100
AcDbSymbolTableRecord
100
AcDbRegAppTableRecord
  2
GENIUS_GENOLIS_13
 70
     0
  0
APPID
  5
2D7D
330
2CE1
100
AcDbSymbolTableRecord
100
AcDbRegAppTableRecord
  2
GENIUS_GENOBJ-N-TIT_13
 70
     0
  0
APPID
  5
2D7E
330
2CE1
100
AcDbSymbolTableRecord
100
AcDbRegAppTableRecord
  2
GENIUS_GENOENT_13
 70
     0
  0
APPID
  5
2D7F
330
2CE1
100
AcDbSymbolTableRecord
100
AcDbRegAppTableRecord
  2
GENIUS_GENTITLE_13
 70
     0
  0
APPID
  5
2D80
330
2CE1
100
AcDbSymbolTableRecord
100
AcDbRegAppTableRecord
  2
GENIUS_GENOREF_13
 70
     0
  0
APPID
  5
2D81
330
2CE1
100
AcDbSymbolTableRecord
100
AcDbRegAppTableRecord
  2
GENIUS_GENSCREG_15
 70
     0
  0
APPID
  5
2D82
330
2CE1
100
AcDbSymbolTableRecord
100
AcDbRegAppTableRecord
  2
GENIUS_GENOBJ-N-SDF_13
 70
     0
  0
APPID
  5
2D83
330
2CE1
100
AcDbSymbolTableRecord
100
AcDbRegAppTableRecord
  2
GENIUS_GENFIL_13
 70
     0
  0
APPID
  5
2D84
330
2CE1
100
AcDbSymbolTableRecord
100
AcDbRegAppTableRecord
  2
GENIUS_GENOBJ-N-CHA_13
 70
     0
  0
APPID
  5
2D85
330
2CE1
100
AcDbSymbolTableRecord
100
AcDbRegAppTableRecord
  2
GENIUS_GENDTOL_13
 70
     0
  0
APPID
  5
2D86
330
2CE1
100
AcDbSymbolTableRecord
100
AcDbRegAppTableRecord
  2
GENIUS_GENOBJ-N-FIL_13
 70
     0
  0
APPID
  5
2D87
330
2CE1
100
AcDbSymbolTableRecord
100
AcDbRegAppTableRecord
  2
AD_DRAW
 70
     0
  0
APPID
  5
2D88
330
2CE1
100
AcDbSymbolTableRecord
100
AcDbRegAppTableRecord
  2
DESIGNERASSEMBLIES
 70
     0
  0
APPID
  5
2D89
330
2CE1
100
AcDbSymbolTableRecord
100
AcDbRegAppTableRecord
  2
ASURF_PCURVE_APPNAME
 70
     0
  0
APPID
  5
2D8A
330
2CE1
100
AcDbSymbolTableRecord
100
AcDbRegAppTableRecord
  2
GENIUS_GE3SECT_13
 70
     0
  0
APPID
  5
2D8B
330
2CE1
100
AcDbSymbolTableRecord
100
AcDbRegAppTableRecord
  2
GENIUS_GENCFG_13
 70
     0
  0
APPID
  5
2D8C
330
2CE1
100
AcDbSymbolTableRecord
100
AcDbRegAppTableRecord
  2
GENIUS_GE3CFG0_13
 70
     0
  0
APPID
  5
2D8D
330
2CE1
100
AcDbSymbolTableRecord
100
AcDbRegAppTableRecord
  2
GENIUS_GENCFG0_13
 70
     0
  0
APPID
  5
2D8E
330
2CE1
100
AcDbSymbolTableRecord
100
AcDbRegAppTableRecord
  2
GENIUS_GENCFG1_13
 70
     0
  0
APPID
  5
2D8F
330
2CE1
100
AcDbSymbolTableRecord
100
AcDbRegAppTableRecord
  2
GENIUS_GENCFG2_13
 70
     0
  0
APPID
  5
2D90
330
2CE1
100
AcDbSymbolTableRecord
100
AcDbRegAppTableRecord
  2
GENIUS_GENCFG3_13
 70
     0
  0
APPID
  5
2D91
330
2CE1
100
AcDbSymbolTableRecord
100
AcDbRegAppTableRecord
  2
GENIUS_GENCFG4_13
 70
     0
  0
APPID
  5
2D92
330
2CE1
100
AcDbSymbolTableRecord
100
AcDbRegAppTableRecord
  2
GENIUS_GEVCFG0_13
 70
     0
  0
APPID
  5
2D93
330
2CE1
100
AcDbSymbolTableRecord
100
AcDbRegAppTableRecord
  2
GENIUS_GENHINW_13
 70
     0
  0
APPID
  5
2D94
330
2CE1
100
AcDbSymbolTableRecord
100
AcDbRegAppTableRecord
  2
GENIUS_FIRSTVISTXT_14
 70
     0
  0
APPID
  5
2D95
330
2CE1
100
AcDbSymbolTableRecord
100
AcDbRegAppTableRecord
  2
GENIUS_GENOBJ-N-LEADER_13
 70
     0
  0
APPID
  5
2D96
330
2CE1
100
AcDbSymbolTableRecord
100
AcDbRegAppTableRecord
  2
GEV_VCCNULL_SWITCH_OFF
 70
     0
  0
APPID
  5
2D97
330
2CE1
100
AcDbSymbolTableRecord
100
AcDbRegAppTableRecord
  2
GENIUS_GEFCFG0_13
 70
     0
  0
APPID
  5
2D98
330
2CE1
100
AcDbSymbolTableRecord
100
AcDbRegAppTableRecord
  2
GENIUS_GENZVEED_13
 70
     0
  0
APPID
  5
2D99
330
2CE1
100
AcDbSymbolTableRecord
100
AcDbRegAppTableRecord
  2
GENIUS_GENSCREG_13
 70
     0
  0
APPID
  5
2D9A
330
2CE1
100
AcDbSymbolTableRecord
100
AcDbRegAppTableRecord
  2
GENIUS_DUMCFG0_13
 70
     0
  0
APPID
  5
2D9B
330
2CE1
100
AcDbSymbolTableRecord
100
AcDbRegAppTableRecord
  2
GEVID936201362
 70
     0
  0
APPID
  5
2D9C
330
2CE1
100
AcDbSymbolTableRecord
100
AcDbRegAppTableRecord
  2
GEVDC
 70
     0
  0
APPID
  5
2D9D
330
2CE1
100
AcDbSymbolTableRecord
100
AcDbRegAppTableRecord
  2
GEVCON
 70
     0
  0
APPID
  5
2D9E
330
2CE1
100
AcDbSymbolTableRecord
100
AcDbRegAppTableRecord
  2
VCC
 70
     0
  0
APPID
  5
2D9F
330
2CE1
100
AcDbSymbolTableRecord
100
AcDbRegAppTableRecord
  2
GEVPT
 70
     0
  0
APPID
  5
2DA0
330
2CE1
100
AcDbSymbolTableRecord
100
AcDbRegAppTableRecord
  2
GEVIT
 70
     0
  0
APPID
  5
2DA1
330
2CE1
100
AcDbSymbolTableRecord
100
AcDbRegAppTableRecord
  2
GENBH
 70
     0
  0
APPID
  5
2DA2
330
2CE1
100
AcDbSymbolTableRecord
100
AcDbRegAppTableRecord
  2
GEVMK
 70
     0
  0
APPID
  5
2DA3
330
2CE1
100
AcDbSymbolTableRecord
100
AcDbRegAppTableRecord
  2
GENIUS_GENBH_13
 70
     0
  0
APPID
  5
2DA4
330
2CE1
100
AcDbSymbolTableRecord
100
AcDbRegAppTableRecord
  2
GENIUS_GENOBJ-NBEHI-BHF_13
 70
     0
  0
APPID
  5
2DA5
330
2CE1
100
AcDbSymbolTableRecord
100
AcDbRegAppTableRecord
  2
GENIUS_GENOBJ-NBEHI-BHB_13
 70
     0
  0
APPID
  5
2DA6
330
2CE1
100
AcDbSymbolTableRecord
100
AcDbRegAppTableRecord
  2
GENIUS_GENOBJ-F-DESC_13
 70
     0
  0
APPID
  5
2DA7
330
2CE1
100
AcDbSymbolTableRecord
100
AcDbRegAppTableRecord
  2
GENIUS_GEFDESC_14
 70
     0
  0
APPID
  5
2DA8
330
2CE1
100
AcDbSymbolTableRecord
100
AcDbRegAppTableRecord
  2
GENIUS_GENOBJ-F-PART_13
 70
     0
  0
APPID
  5
2DA9
330
2CE1
100
AcDbSymbolTableRecord
100
AcDbRegAppTableRecord
  2
GENIUS_GEFSTDP_13
 70
     0
  0
APPID
  5
2DAA
330
2CE1
100
AcDbSymbolTableRecord
100
AcDbRegAppTableRecord
  2
GENIUS_GEFPARTINS_13
 70
     0
  0
APPID
  5
2DAB
330
2CE1
100
AcDbSymbolTableRecord
100
AcDbRegAppTableRecord
  2
GENIUS_GENTRA_14
 70
     0
  0
APPID
  5
2DAC
330
2CE1
100
AcDbSymbolTableRecord
100
AcDbRegAppTableRecord
  2
GENIUS_GENINF13_13
 70
     0
  0
APPID
  5
2DAD
330
2CE1
100
AcDbSymbolTableRecord
100
AcDbRegAppTableRecord
  2
GENIUS_GENOBJ-N-INFOPT_13
 70
     0
  0
APPID
  5
2DAE
330
2CE1
100
AcDbSymbolTableRecord
100
AcDbRegAppTableRecord
  2
GENIUS_GENOBJ-N-RSSYM_13
 70
     0
  0
APPID
  5
2DAF
330
2CE1
100
AcDbSymbolTableRecord
100
AcDbRegAppTableRecord
  2
GENIUS_GENSYMENT_13
 70
     0
  0
APPID
  5
2DB0
330
2CE1
100
AcDbSymbolTableRecord
100
AcDbRegAppTableRecord
  2
GENIUS_GENSCSYM_13
 70
     0
  0
APPID
  5
2DB1
330
2CE1
100
AcDbSymbolTableRecord
100
AcDbRegAppTableRecord
  2
GENIUS_GEFINFNAM_13
 70
     0
  0
APPID
  5
2DB2
330
2CE1
100
AcDbSymbolTableRecord
100
AcDbRegAppTableRecord
  2
GENIUS_GENOBJ-N-CEN_13
 70
     0
  0
APPID
  5
2DB3
330
2CE1
100
AcDbSymbolTableRecord
100
AcDbRegAppTableRecord
  2
GENIUS_GENOBJ-N-CRS_13
 70
     0
  0
APPID
  5
2DB4
330
2CE1
100
AcDbSymbolTableRecord
100
AcDbRegAppTableRecord
  2
GENIUS_GENOBJ-N-CRC_13
 70
     0
  0
APPID
  5
2DB5
330
2CE1
100
AcDbSymbolTableRecord
100
AcDbRegAppTableRecord
  2
GENIUS_GENCRC_14
 70
     0
  0
APPID
  5
2DB6
330
2CE1
100
AcDbSymbolTableRecord
100
AcDbRegAppTableRecord
  2
GEVID942827039
 70
     0
  0
APPID
  5
2DB7
330
2CE1
100
AcDbSymbolTableRecord
100
AcDbRegAppTableRecord
  2
GEVID942827040
 70
     0
  0
APPID
  5
2DB8
330
2CE1
100
AcDbSymbolTableRecord
100
AcDbRegAppTableRecord
  2
GEVID942827041
 70
     0
  0
APPID
  5
2DB9
330
2CE1
100
AcDbSymbolTableRecord
100
AcDbRegAppTableRecord
  2
GENIUS_GENOBJ-F-SCPASSM_13
 70
     0
  0
APPID
  5
2DBA
330
2CE1
100
AcDbSymbolTableRecord
100
AcDbRegAppTableRecord
  2
GENIUS_GENDIMSH_14
 70
     0
  0
APPID
  5
2DBB
330
2CE1
100
AcDbSymbolTableRecord
100
AcDbRegAppTableRecord
  2
GEVID942827042
 70
     0
  0
APPID
  5
2DBC
330
2CE1
100
AcDbSymbolTableRecord
100
AcDbRegAppTableRecord
  2
GEVID946020473
 70
     0
  0
APPID
  5
2DBD
330
2CE1
100
AcDbSymbolTableRecord
100
AcDbRegAppTableRecord
  2
GEVID946020474
 70
     0
  0
APPID
  5
2DBE
330
2CE1
100
AcDbSymbolTableRecord
100
AcDbRegAppTableRecord
  2
GEVID946020475
 70
     0
  0
APPID
  5
2DBF
330
2CE1
100
AcDbSymbolTableRecord
100
AcDbRegAppTableRecord
  2
GENIUS_GENOBJ-N-HTC_13
 70
     0
  0
APPID
  5
2DC0
330
2CE1
100
AcDbSymbolTableRecord
100
AcDbRegAppTableRecord
  2
GENIUS_GENHATCH_13
 70
     0
  0
APPID
  5
2DC1
330
2CE1
100
AcDbSymbolTableRecord
100
AcDbRegAppTableRecord
  2
GEVID948854295
 70
     0
  0
APPID
  5
2DC2
330
2CE1
100
AcDbSymbolTableRecord
100
AcDbRegAppTableRecord
  2
GEVID939402019
 70
     0
  0
APPID
  5
2DC3
330
2CE1
100
AcDbSymbolTableRecord
100
AcDbRegAppTableRecord
  2
GEVID952919491
 70
     0
  0
APPID
  5
2DC4
330
2CE1
100
AcDbSymbolTableRecord
100
AcDbRegAppTableRecord
  2
GEVID952919492
 70
     0
  0
APPID
  5
2DC5
330
2CE1
100
AcDbSymbolTableRecord
100
AcDbRegAppTableRecord
  2
GENIUS_GEFWELD_13
 70
     0
  0
APPID
  5
2DC6
330
2CE1
100
AcDbSymbolTableRecord
100
AcDbRegAppTableRecord
  2
GENIUS_GENOBJ-F-WELS_13
 70
     0
  0
APPID
  5
2DC7
330
2CE1
100
AcDbSymbolTableRecord
100
AcDbRegAppTableRecord
  2
GEVID952919493
 70
     0
  0
APPID
  5
2DC8
330
2CE1
100
AcDbSymbolTableRecord
100
AcDbRegAppTableRecord
  2
GENIUS_GENOBJ-N-RSBK_13
 70
     0
  0
APPID
  5
2DC9
330
2CE1
100
AcDbSymbolTableRecord
100
AcDbRegAppTableRecord
  2
GENIUS_GENOBJ-N-LIB_13
 70
     0
  0
APPID
  5
2DCA
330
2CE1
100
AcDbSymbolTableRecord
100
AcDbRegAppTableRecord
  2
GENIUS_GENSCALE_13
 70
     0
  0
APPID
  5
2DCB
330
2CE1
100
AcDbSymbolTableRecord
100
AcDbRegAppTableRecord
  2
GEVID986376691
 70
     0
  0
APPID
  5
2DCC
330
2CE1
100
AcDbSymbolTableRecord
100
AcDbRegAppTableRecord
  2
DCO15
 70
     0
  0
APPID
  5
2DCD
330
2CE1
100
AcDbSymbolTableRecord
100
AcDbRegAppTableRecord
  2
ACAD_DSTYLE_DIMBREAK
 70
     0
  0
APPID
  5
2DCE
330
2CE1
100
AcDbSymbolTableRecord
100
AcDbRegAppTableRecord
  2
ACAD_DSTYLE_DIMJAG
 70
     0
  0
APPID
  5
2DCF
330
2CE1
100
AcDbSymbolTableRecord
100
AcDbRegAppTableRecord
  2
ACAD_NAV_VCDISPLAY
 70
     0
  0
APPID
  5
2DD0
330
2CE1
100
AcDbSymbolTableRecord
100
AcDbRegAppTableRecord
  2
ACADANNOPO
 70
     0
  0
APPID
  5
2DD1
330
2CE1
100
AcDbSymbolTableRecord
100
AcDbRegAppTableRecord
  2
ACAD_EXEMPT_FROM_CAD_STANDARDS
 70
     0
  0
APPID
  5
2DD2
330
2CE1
100
AcDbSymbolTableRecord
100
AcDbRegAppTableRecord
  2
ACAD_MLEADERVER
 70
     0
  0
APPID
  5
2E8E
330
2CE1
100
AcDbSymbolTableRecord
100
AcDbRegAppTableRecord
  2
AcAecLayerStandard
 70
     0
  0
ENDTAB
  0
TABLE
  2
DIMSTYLE
  5
2CE2
330
0
100
AcDbSymbolTable
 70
     8
100
AcDbDimStyleTable
 71
     0
  0
DIMSTYLE
105
2D2F
330
2CE2
100
AcDbSymbolTableRecord
100
AcDbDimStyleTableRecord
  2
STANDARD
 70
     0
271
     2
272
     2
279
     2
284
     8
285
     8
286
     8
340
2D2D
  0
DIMSTYLE
105
2DD3
330
2CE2
100
AcDbSymbolTableRecord
100
AcDbDimStyleTableRecord
  2
AM_ISO
 70
     0
  4
"
 41
2.5
 42
1.0
 43
8.0
 44
0.6
 47
0.1
 48
0.1
 73
     0
 74
     0
 77
     1
 78
     8
140
2.5
141
0.0
143
0.0393701
146
0.71
147
0.8
172
     1
176
   256
177
   256
178
     4
271
     2
272
     2
279
     2
284
     8
285
     8
286
     8
340
2D2D
  0
DIMSTYLE
105
2DE1
102
{ACAD_REACTORS
330
2FFA
102
}
330
2CE2
100
AcDbSymbolTableRecord
100
AcDbDimStyleTableRecord
  2
AM_ANSI
 70
     0
  4
mm
 41
0.1
 42
0.05
 43
0.5
 44
0.1
 47
0.1
 48
0.1
 78
     7
140
0.12
141
0.0
146
0.71
147
0.06
176
   256
177
   256
178
     2
271
     2
272
     2
279
     2
284
     8
285
     8
286
     8
340
2D2D
  0
DIMSTYLE
105
2DE2
330
2CE2
100
AcDbSymbolTableRecord
100
AcDbDimStyleTableRecord
  2
AM_ANSI$3
 70
     0
  4
mm
 41
0.1
 42
0.05
 43
0.5
 44
0.1
 47
0.1
 48
0.1
 78
     7
140
0.12
141
0.0
146
0.71
147
0.06
176
   256
177
   256
178
     2
271
     2
272
     2
279
     2
284
     8
285
     8
286
     8
340
2D2D
  0
DIMSTYLE
105
2DE3
330
2CE2
100
AcDbSymbolTableRecord
100
AcDbDimStyleTableRecord
  2
AM_ANSI$4
 70
     0
  4
mm
 41
0.1
 42
0.05
 43
0.5
 44
0.1
 47
0.1
 48
0.1
 78
     7
140
0.12
141
0.0
146
0.71
147
0.06
176
   256
177
   256
178
     2
271
     2
272
     2
279
     2
284
     8
285
     8
286
     8
340
2D2D
  0
DIMSTYLE
105
2DE4
330
2CE2
100
AcDbSymbolTableRecord
100
AcDbDimStyleTableRecord
  2
AM_ANSI$7
 70
     0
  4
mm
 41
0.1
 42
0.05
 43
0.5
 44
0.1
 47
0.1
 48
0.1
 78
     7
140
0.24
141
0.0
146
0.71
147
0.06
176
   256
177
   256
178
     2
271
     2
272
     2
279
     2
284
     8
285
     8
286
     8
340
2D2D
  0
DIMSTYLE
105
2DE5
330
2CE2
100
AcDbSymbolTableRecord
100
AcDbDimStyleTableRecord
  2
AM_ANSI$SF
 70
     0
  4
mm
 41
0.1
 42
0.05
 43
0.5
 44
0.1
 47
0.1
 48
0.1
 75
     1
 76
     1
 78
     7
140
0.12
141
0.0
146
0.71
147
0.06
176
   256
177
   256
178
     2
271
     2
272
     2
279
     2
284
     8
285
     8
286
     8
340
2D2D
  0
DIMSTYLE
105
2DE6
330
2CE2
100
AcDbSymbolTableRecord
100
AcDbDimStyleTableRecord
  2
AM_ANSI$SH
 70
     0
  4
mm
 41
0.1
 42
0.05
 43
0.5
 44
0.1
 47
0.1
 48
0.1
 75
     1
 76
     1
 78
     7
140
0.12
141
0.0
146
0.71
147
0.06
173
     1
176
   256
177
   256
178
     2
271
     2
272
     2
279
     2
284
     8
285
     8
286
     8
340
2D2D
  0
ENDTAB
  0
TABLE
  2
BLOCK_RECORD
  5
2CD9
330
0
100
AcDbSymbolTable
 70
     2
  0
BLOCK_RECORD
  5
2D47
102
{ACAD_XDICTIONARY
360
2E90
102
}
330
2CD9
100
AcDbSymbolTableRecord
100
AcDbBlockTableRecord
  2
*Model_Space
340
2D4A
 70
     0
280
     1
281
     0
  0
BLOCK_RECORD
  5
2D43
330
2CD9
100
AcDbSymbolTableRecord
100
AcDbBlockTableRecord
  2
*Paper_Space
340
2D46
 70
     0
280
     1
281
     0
  0
BLOCK_RECORD
  5
2DFA
330
2CD9
100
AcDbSymbolTableRecord
100
AcDbBlockTableRecord
  2
_ACMFILLEDHALF
340
0
 70
     0
280
     1
281
     0
  0
ENDTAB
  0
ENDSEC
  0
SECTION
  2
BLOCKS
  0
BLOCK
  5
2D48
330
2D47
100
AcDbEntity
  8
0
100
AcDbBlockBegin
  2
*Model_Space
 70
     0
 10
0.0
 20
0.0
 30
0.0
  3
*Model_Space
  1

  0
ENDBLK
  5
2D49
330
2D47
100
AcDbEntity
  8
0
100
AcDbBlockEnd
  0
BLOCK
  5
2D44
330
2D43
100
AcDbEntity
 67
     1
  8
0
100
AcDbBlockBegin
  2
*Paper_Space
 70
     0
 10
0.0
 20
0.0
 30
0.0
  3
*Paper_Space
  1

  0
ENDBLK
  5
2D45
330
2D43
100
AcDbEntity
 67
     1
  8
0
100
AcDbBlockEnd
  0
BLOCK
  5
2DFB
330
2DFA
100
AcDbEntity
  8
0
100
AcDbBlockBegin
  2
_ACMFILLEDHALF
 70
     0
 10
0.0
 20
0.0
 30
0.0
  3
_ACMFILLEDHALF
  1

  0
TRACE
  5
2C43
330
2DFA
100
AcDbEntity
  8
AM_0
 62
     0
100
AcDbTrace
 10
-0.8
 20
0.0
 30
0.0
 11
-1.0
 21
0.166666666
 31
0.0
 12
0.0
 22
0.0
 32
0.0
 13
0.0
 23
0.0
 33
0.0
  0
LINE
  5
2C44
330
2DFA
100
AcDbEntity
  8
AM_0
 62
     0
100
AcDbLine
 10
-1.0
 20
0.0
 30
0.0
 11
-0.8
 21
0.0
 31
0.0
  0
ENDBLK
  5
2C42
330
2DFA
100
AcDbEntity
  8
0
100
AcDbBlockEnd
  0
ENDSEC
  0
SECTION
  2
ENTITIES
  0
ARC
  5
28FC
330
2D47
100
AcDbEntity
  8
AM_0
100
AcDbCircle
 10
756.2194626133621
 20
374.1254696206214
 30
0.0
 40
99.500004
100
AcDbArc
 50
8.4654901
 51
171.5345
  0
LINE
  5
28FD
330
2D47
100
AcDbEntity
  8
AM_0
100
AcDbLine
 10
687.2194626133618
 20
280.1254796206213
 30
0.0
 11
644.219451613362
 21
280.1254796206213
 31
0.0
  0
LINE
  5
28FE
330
2D47
100
AcDbEntity
  8
AM_0
100
AcDbLine
 10
641.219451613362
 20
262.1254946206213
 30
0.0
 11
691.2194466133621
 21
262.1254946206213
 31
0.0
  0
ARC
  5
28FF
330
2D47
100
AcDbEntity
  8
AM_0
100
AcDbCircle
 10
689.751399613362
 20
440.5935056206215
 30
0.0
 40
16.0000005
100
AcDbArc
 50
107.0794599999999
 51
162.92053
  0
LINE
  5
2900
330
2D47
100
AcDbEntity
  8
ﾁｭｳｼﾝｾﾝ1
100
AcDbLine
 10
662.3473514541776
 20
374.1254696206214
 30
0.0
 11
851.432140411739
 21
374.1254696206214
 31
0.0
  0
LINE
  5
2901
330
2D47
100
AcDbEntity
  8
AM_0
100
AcDbLine
 10
449.8619333522099
 20
302.5831856206212
 30
0.0
 11
449.8619333522099
 21
463.6063856206215
 31
0.0
  0
LINE
  5
2902
330
2D47
100
AcDbEntity
  8
AM_0
100
AcDbLine
 10
354.8619533522099
 20
286.3754816206212
 30
0.0
 11
354.8619533522099
 21
471.4153256206213
 31
0.0
  0
LINE
  5
2903
330
2D47
100
AcDbEntity
  8
AM_0
100
AcDbLine
 10
364.8619433522097
 20
317.6254676206212
 30
0.0
 11
364.8619433522097
 21
473.6255156206213
 31
0.0
  0
POLYLINE
  5
2904
330
2D47
100
AcDbEntity
  8
AM_0
100
AcDb2dPolyline
 66
     1
 10
0.0
 20
0.0
 30
0.0
  0
VERTEX
  5
2905
330
2904
100
AcDbEntity
  8
AM_0
100
AcDbVertex
100
AcDb2dVertex
 10
392.6311433522098
 20
429.5977856206213
 30
0.0
 42
0.038759421
  0
VERTEX
  5
2906
330
2904
100
AcDbEntity
  8
AM_0
100
AcDbVertex
100
AcDb2dVertex
 10
395.3789633522097
 20
432.5086256206211
 30
0.0
 42
0.045306431
  0
VERTEX
  5
2907
330
2904
100
AcDbEntity
  8
AM_0
100
AcDbVertex
100
AcDb2dVertex
 10
397.6011533522099
 20
435.8363456206213
 30
0.0
 42
0.052171531
  0
VERTEX
  5
2908
330
2904
100
AcDbEntity
  8
AM_0
100
AcDbVertex
100
AcDb2dVertex
 10
399.13784335221
 20
439.5341756206213
 30
0.0
 42
0.057266811
  0
VERTEX
  5
2909
330
2904
100
AcDbEntity
  8
AM_0
100
AcDbVertex
100
AcDb2dVertex
 10
399.8321033522099
 20
443.4729356206212
 30
0.0
 42
0.058402468
  0
VERTEX
  5
290A
330
2904
100
AcDbEntity
  8
AM_0
100
AcDbVertex
100
AcDb2dVertex
 10
399.6013433522097
 20
447.4611356206215
 30
0.0
 42
0.055045376
  0
VERTEX
  5
290B
330
2904
100
AcDbEntity
  8
AM_0
100
AcDbVertex
100
AcDb2dVertex
 10
398.4758333522099
 20
451.2962756206213
 30
0.0
 42
0.048778144
  0
VERTEX
  5
290C
330
2904
100
AcDbEntity
  8
AM_0
100
AcDbVertex
100
AcDb2dVertex
 10
396.5829533522097
 20
454.8168056206212
 30
0.0
 42
0.041944129
  0
VERTEX
  5
290D
330
2904
100
AcDbEntity
  8
AM_0
100
AcDbVertex
100
AcDb2dVertex
 10
394.0854533522099
 20
457.9398356206215
 30
0.0
 42
0.035908173
  0
VERTEX
  5
290E
330
2904
100
AcDbEntity
  8
AM_0
100
AcDbVertex
100
AcDb2dVertex
 10
391.1328533522098
 20
460.6406156206213
 30
0.0
 42
0.031063132
  0
VERTEX
  5
290F
330
2904
100
AcDbEntity
  8
AM_0
100
AcDbVertex
100
AcDb2dVertex
 10
387.8461733522101
 20
462.9245756206215
 30
0.0
 42
0.027381811
  0
VERTEX
  5
2910
330
2904
100
AcDbEntity
  8
AM_0
100
AcDbVertex
100
AcDb2dVertex
 10
384.3142433522099
 20
464.8116956206215
 30
0.0
 42
0.024647367
  0
VERTEX
  5
2911
330
2904
100
AcDbEntity
  8
AM_0
100
AcDbVertex
100
AcDb2dVertex
 10
380.6052233522099
 20
466.3228256206213
 30
0.0
 42
0.022677544
  0
VERTEX
  5
2912
330
2904
100
AcDbEntity
  8
AM_0
100
AcDbVertex
100
AcDb2dVertex
 10
376.7698433522097
 20
467.4774956206213
 30
0.0
 42
0.021321505
  0
VERTEX
  5
2913
330
2904
100
AcDbEntity
  8
AM_0
100
AcDbVertex
100
AcDb2dVertex
 10
372.8474333522099
 20
468.2913356206213
 30
0.0
 42
0.020471099
  0
VERTEX
  5
2914
330
2904
100
AcDbEntity
  8
AM_0
100
AcDbVertex
100
AcDb2dVertex
 10
368.8705433522097
 20
468.7753856206215
 30
0.0
 42
0.020088536
  0
VERTEX
  5
2915
330
2904
100
AcDbEntity
  8
AM_0
100
AcDbVertex
100
AcDb2dVertex
 10
364.8619133522099
 20
468.9363056206213
 30
0.0
  0
SEQEND
  5
2916
330
2904
100
AcDbEntity
  8
AM_0
  0
LINE
  5
2917
330
2D47
100
AcDbEntity
  8
AM_0
100
AcDbLine
 10
240.82650835221
 20
331.9515376206215
 30
0.0
 11
270.0598163522099
 21
331.4412686206213
 31
0.0
  0
LINE
  5
2918
330
2D47
100
AcDbEntity
  8
AM_0
100
AcDbLine
 10
270.0598163522099
 20
416.809670620621
 30
0.0
 11
240.82650835221
 21
416.2994016206215
 31
0.0
  0
LINE
  5
2919
330
2D47
100
AcDbEntity
  8
ﾁｭｳｼﾝｾﾝ1
100
AcDbLine
 10
185.7468371662648
 20
374.1254696206215
 30
0.0
 11
359.7542329884122
 21
374.1254696206214
 31
0.0
  0
LINE
  5
291A
330
2D47
100
AcDbEntity
  8
AM_0
100
AcDbLine
 10
228.86195335221
 20
346.6254696206214
 30
0.0
 11
228.86195335221
 21
401.625469620621
 31
0.0
  0
LINE
  5
291B
330
2D47
100
AcDbEntity
  8
AM_0
100
AcDbLine
 10
230.86195335221
 20
339.4348706206215
 30
0.0
 11
230.86195335221
 21
408.8160686206212
 31
0.0
  0
LINE
  5
291C
330
2D47
100
AcDbEntity
  8
AM_0
100
AcDbLine
 10
239.7921953522098
 20
334.9700486206213
 30
0.0
 11
239.7921953522098
 21
413.2808906206212
 31
0.0
  0
LINE
  5
291D
330
2D47
100
AcDbEntity
  8
AM_0
100
AcDbLine
 10
190.8619533522099
 20
362.1254696206213
 30
0.0
 11
226.8619533522099
 21
362.1254696206213
 31
0.0
  0
LINE
  5
291E
330
2D47
100
AcDbEntity
  8
AM_0
100
AcDbLine
 10
190.8619533522099
 20
386.1254696206214
 30
0.0
 11
226.8619533522099
 21
386.1254696206214
 31
0.0
  0
LINE
  5
2920
330
2D47
100
AcDbEntity
  8
AM_0
100
AcDbLine
 10
190.8619533522099
 20
362.1254696206213
 30
0.0
 11
190.8619533522099
 21
386.1254696206214
 31
0.0
  0
LINE
  5
2921
330
2D47
100
AcDbEntity
  8
AM_0
100
AcDbLine
 10
190.8619533522099
 20
386.1254696206214
 30
0.0
 11
190.8619533522099
 21
389.1254696206212
 31
0.0
  0
ARC
  5
2922
330
2D47
100
AcDbEntity
  8
AM_0
100
AcDbCircle
 10
240.8963183522099
 20
335.9509286206214
 30
0.0
 40
4.0
100
AcDbArc
 50
239.9999999999995
 51
269.0000000000015
  0
ARC
  5
2923
330
2D47
100
AcDbEntity
  8
AM_0
100
AcDbCircle
 10
234.86195335221
 20
339.4348706206215
 30
0.0
 40
4.0
100
AcDbArc
 50
180.0
 51
239.9999999999995
  0
LINE
  5
2924
330
2D47
100
AcDbEntity
  8
AM_0
100
AcDbLine
 10
232.86195335221
 20
335.9707696206213
 30
0.0
 11
238.8963183522099
 21
332.4868266206215
 31
0.0
  0
LINE
  5
2925
330
2D47
100
AcDbEntity
  8
AM_0
100
AcDbLine
 10
228.86195335221
 20
346.6254696206214
 30
0.0
 11
230.86195335221
 21
344.6254696206214
 31
0.0
  0
LINE
  5
2926
330
2D47
100
AcDbEntity
  8
AM_0
100
AcDbLine
 10
226.8619533522099
 20
359.1254696206214
 30
0.0
 11
226.8619533522099
 21
389.1254696206214
 31
0.0
  0
LINE
  5
2927
330
2D47
100
AcDbEntity
  8
AM_0
100
AcDbLine
 10
226.8619533522099
 20
359.1254696206214
 30
0.0
 11
228.86195335221
 21
359.1254696206214
 31
0.0
  0
LINE
  5
2928
330
2D47
100
AcDbEntity
  8
AM_0
100
AcDbLine
 10
218.8619533522099
 20
386.1254696206214
 30
0.0
 11
218.8619533522099
 21
389.1254696206212
 31
0.0
  0
LINE
  5
2929
330
2D47
100
AcDbEntity
  8
AM_0
100
AcDbLine
 10
226.8619533522099
 20
389.1254696206214
 30
0.0
 11
228.86195335221
 21
389.1254696206214
 31
0.0
  0
ARC
  5
292A
330
2D47
100
AcDbEntity
  8
AM_0
100
AcDbCircle
 10
240.8963183522099
 20
412.3000106206212
 30
0.0
 40
4.0
100
AcDbArc
 50
90.99999999999845
 51
120.0000000000005
  0
LINE
  5
292B
330
2D47
100
AcDbEntity
  8
AM_0
100
AcDbLine
 10
230.86195335221
 20
403.6254696206213
 30
0.0
 11
228.86195335221
 21
401.625469620621
 31
0.0
  0
ARC
  5
292C
330
2D47
100
AcDbEntity
  8
AM_0
100
AcDbCircle
 10
234.86195335221
 20
408.8160686206212
 30
0.0
 40
4.0
100
AcDbArc
 50
120.0000000000005
 51
180.0
  0
LINE
  5
292D
330
2D47
100
AcDbEntity
  8
AM_0
100
AcDbLine
 10
238.8963183522099
 20
415.7641126206215
 30
0.0
 11
232.86195335221
 21
412.2801706206215
 31
0.0
  0
LINE
  5
292E
330
2D47
100
AcDbEntity
  8
AM_0
100
AcDbLine
 10
539.8619333522097
 20
418.125455620621
 30
0.0
 11
481.8619133522099
 21
418.125455620621
 31
0.0
  0
LINE
  5
292F
330
2D47
100
AcDbEntity
  8
AM_0
100
AcDbLine
 10
539.8619333522097
 20
386.1254696206214
 30
0.0
 11
481.8619133522099
 21
386.1254696206214
 31
0.0
  0
LINE
  5
2930
330
2D47
100
AcDbEntity
  8
ﾁｭｳｼﾝｾﾝ1
100
AcDbLine
 10
333.6524638596396
 20
402.1254386206213
 30
0.0
 11
542.6411633522099
 21
402.1254386206213
 31
0.0
  0
LINE
  5
2931
330
2D47
100
AcDbEntity
  8
AM_0
100
AcDbLine
 10
470.8619333522099
 20
287.6648636206215
 30
0.0
 11
470.8619333522099
 21
446.1254756206215
 31
0.0
  0
LINE
  5
2932
330
2D47
100
AcDbEntity
  8
AM_0
100
AcDbLine
 10
429.8619533522098
 20
295.1254676206214
 30
0.0
 11
429.8619533522098
 21
433.5681956206212
 31
0.0
  0
LINE
  5
2933
330
2D47
100
AcDbEntity
  8
AM_0
100
AcDbLine
 10
339.8619533522099
 20
300.1254506206214
 30
0.0
 11
339.8619533522099
 21
448.1254856206215
 31
0.0
  0
LINE
  5
2934
330
2D47
100
AcDbEntity
  8
AM_0
100
AcDbLine
 10
327.8619533522099
 20
305.3701226206213
 30
0.0
 11
327.8619533522099
 21
442.8808176206215
 31
0.0
  0
LINE
  5
2935
330
2D47
100
AcDbEntity
  8
AM_0
100
AcDbLine
 10
353.7517733522098
 20
282.9063806206212
 30
0.0
 11
368.6715833522097
 21
329.5307876206214
 31
0.0
  0
LINE
  5
2936
330
2D47
100
AcDbEntity
  8
AM_0
100
AcDbLine
 10
274.4251973522099
 20
330.3528566206215
 30
0.0
 11
326.8433843522099
 21
303.6444566206215
 31
0.0
  0
LINE
  5
2937
330
2D47
100
AcDbEntity
  8
AM_0
100
AcDbLine
 10
337.8619533522098
 20
312.6162446206214
 30
0.0
 11
337.8619533522098
 21
332.6507946206213
 31
0.0
  0
LINE
  5
2938
330
2D47
100
AcDbEntity
  8
AM_0
100
AcDbLine
 10
354.8619533522099
 20
264.1254956206214
 30
0.0
 11
439.8619133522099
 21
264.1254956206214
 31
0.0
  0
LINE
  5
2939
330
2D47
100
AcDbEntity
  8
AM_0
100
AcDbLine
 10
316.8619433522099
 20
262.1254946206213
 30
0.0
 11
352.8619433522098
 21
262.1254946206213
 31
0.0
  0
LINE
  5
293A
330
2D47
100
AcDbEntity
  8
AM_0
100
AcDbLine
 10
318.8619533522099
 20
280.1254796206213
 30
0.0
 11
349.94213335221
 21
280.1254796206213
 31
0.0
  0
LINE
  5
293B
330
2D47
100
AcDbEntity
  8
AM_0
100
AcDbLine
 10
316.8619433522099
 20
262.1254946206213
 30
0.0
 11
316.8619433522099
 21
278.1254966206213
 31
0.0
  0
ARC
  5
293C
330
2D47
100
AcDbEntity
  8
AM_0
100
AcDbCircle
 10
318.8619533522099
 20
278.1254966206213
 30
0.0
 40
2.00000007
100
AcDbArc
 50
90.00000300000001
 51
180.00001
  0
LINE
  5
293D
330
2D47
100
AcDbEntity
  8
ﾁｭｳｼﾝｾﾝ1
100
AcDbLine
 10
334.86194335221
 20
260.2625728076425
 30
0.0
 11
334.8619433522097
 21
282.5231208435851
 31
0.0
  0
ARC
  5
293E
330
2D47
100
AcDbEntity
  8
AM_0
100
AcDbCircle
 10
349.94213335221
 20
284.1254966206213
 30
0.0
 40
4.000000199999997
100
AcDbArc
 50
270.0
 51
342.2553299999999
  0
LINE
  5
293F
330
2D47
100
AcDbEntity
  8
ｶｸﾚｾﾝ2
100
AcDbLine
 10
342.3619433522099
 20
280.1254796206213
 30
0.0
 11
342.3619433522099
 21
262.1254946206213
 31
0.0
  0
LINE
  5
2940
330
2D47
100
AcDbEntity
  8
ｶｸﾚｾﾝ2
100
AcDbLine
 10
327.3619433522099
 20
280.1254796206213
 30
0.0
 11
327.3619433522099
 21
262.1254946206213
 31
0.0
  0
ARC
  5
2941
330
2D47
100
AcDbEntity
  8
AM_0
100
AcDbCircle
 10
354.8619533522099
 20
262.1254946206213
 30
0.0
 40
2.00000007
100
AcDbArc
 50
90.00000300000001
 51
180.00001
  0
LINE
  5
2942
330
2D47
100
AcDbEntity
  8
AM_0
100
AcDbLine
 10
352.8619433522098
 20
308.8541186206215
 30
0.0
 11
344.86193335221
 21
308.8541186206215
 31
0.0
  0
LINE
  5
2943
330
2D47
100
AcDbEntity
  8
AM_0
100
AcDbLine
 10
352.8619433522098
 20
295.8541346206215
 30
0.0
 11
344.86193335221
 21
295.8541346206215
 31
0.0
  0
LINE
  5
2944
330
2D47
100
AcDbEntity
  8
AM_0
100
AcDbLine
 10
339.8619533522099
 20
312.5454956206214
 30
0.0
 11
354.8619533522099
 21
312.5454956206214
 31
0.0
  0
LINE
  5
2945
330
2D47
100
AcDbEntity
  8
AM_0
100
AcDbLine
 10
344.86193335221
 20
308.8541186206215
 30
0.0
 11
344.86193335221
 21
295.8541346206215
 31
0.0
  0
LINE
  5
2946
330
2D47
100
AcDbEntity
  8
AM_0
100
AcDbLine
 10
329.8619533522099
 20
300.6254696206215
 30
0.0
 11
339.8619533522099
 21
300.6254696206215
 31
0.0
  0
ARC
  5
2947
330
2D47
100
AcDbEntity
  8
AM_0
100
AcDbCircle
 10
335.8619533522098
 20
312.6162446206214
 30
0.0
 40
2.0
100
AcDbArc
 50
270.0
 51
0.0
  0
ARC
  5
2948
330
2D47
100
AcDbEntity
  8
AM_0
100
AcDbCircle
 10
329.8619533522099
 20
302.6254696206215
 30
0.0
 40
2.0
100
AcDbArc
 50
190.9969430000004
 51
270.0
  0
ARC
  5
2949
330
2D47
100
AcDbEntity
  8
AM_0
100
AcDbCircle
 10
325.9354033522097
 20
301.8624436206215
 30
0.0
 40
2.0
100
AcDbArc
 50
10.99694300000052
 51
62.99999999999824
  0
LINE
  5
294A
330
2D47
100
AcDbEntity
  8
AM_0
100
AcDbLine
 10
329.8619533522099
 20
310.6162446206214
 30
0.0
 11
335.8619533522098
 21
310.6162446206214
 31
0.0
  0
ARC
  5
294B
330
2D47
100
AcDbEntity
  8
AM_0
100
AcDbCircle
 10
329.8619533522099
 20
312.6162446206214
 30
0.0
 40
2.0
100
AcDbArc
 50
180.0
 51
270.0
  0
LINE
  5
294C
330
2D47
100
AcDbEntity
  8
AM_0
100
AcDbLine
 10
339.86189335221
 20
300.1254806206213
 30
0.0
 11
344.8618733522098
 21
299.9945606206214
 31
0.0
  0
LINE
  5
294D
330
2D47
100
AcDbEntity
  8
AM_0
100
AcDbLine
 10
352.8619433522098
 20
309.8541206206215
 30
0.0
 11
352.8619433522098
 21
294.8541356206213
 31
0.0
  0
LINE
  5
294E
330
2D47
100
AcDbEntity
  8
AM_0
100
AcDbLine
 10
354.8619533522099
 20
294.8541356206213
 30
0.0
 11
352.8619433522098
 21
294.8541356206213
 31
0.0
  0
LINE
  5
294F
330
2D47
100
AcDbEntity
  8
AM_0
100
AcDbLine
 10
354.8619533522099
 20
293.7076796206213
 30
0.0
 11
357.2082533522098
 21
293.7076796206213
 31
0.0
  0
LINE
  5
2950
330
2D47
100
AcDbEntity
  8
AM_0
100
AcDbLine
 10
354.8619533522099
 20
310.2660926206212
 30
0.0
 11
362.50697335221
 21
310.2660926206212
 31
0.0
  0
LINE
  5
2951
330
2D47
100
AcDbEntity
  8
AM_0
100
AcDbLine
 10
354.8619533522099
 20
309.8541206206215
 30
0.0
 11
352.8619433522098
 21
309.8541206206215
 31
0.0
  0
ARC
  5
2952
330
2D47
100
AcDbEntity
  8
AM_0
100
AcDbCircle
 10
444.8619533522099
 20
295.1254676206214
 30
0.0
 40
15.00000029999998
100
AcDbArc
 50
179.9999899999999
 51
270.0
  0
LINE
  5
2953
330
2D47
100
AcDbEntity
  8
ﾁｭｳｼﾝｾﾝ1
100
AcDbLine
 10
459.8619533522101
 20
260.2625728076425
 30
0.0
 11
459.8619533522096
 21
282.5231208435851
 31
0.0
  0
ARC
  5
2954
330
2D47
100
AcDbEntity
  8
AM_0
100
AcDbCircle
 10
478.8619133522098
 20
287.6648636206215
 30
0.0
 40
8.000000099999997
100
AcDbArc
 50
179.9999899999999
 51
252.54239
  0
LINE
  5
2955
330
2D47
100
AcDbEntity
  8
AM_0
100
AcDbLine
 10
444.8619533522099
 20
280.1254796206213
 30
0.0
 11
475.8619133522098
 21
280.1254796206213
 31
0.0
  0
LINE
  5
2956
330
2D47
100
AcDbEntity
  8
AM_0
100
AcDbLine
 10
441.8619533522099
 20
262.1254946206213
 30
0.0
 11
477.8619533522099
 21
262.1254946206213
 31
0.0
  0
LINE
  5
2957
330
2D47
100
AcDbEntity
  8
ｶｸﾚｾﾝ2
100
AcDbLine
 10
452.3619533522099
 20
280.1254796206213
 30
0.0
 11
452.3619533522099
 21
262.1254946206213
 31
0.0
  0
ARC
  5
2958
330
2D47
100
AcDbEntity
  8
AM_0
100
AcDbCircle
 10
439.8619133522099
 20
262.1254946206213
 30
0.0
 40
2.00000007
100
AcDbArc
 50
0.0
 51
90.00000300000001
  0
LINE
  5
2959
330
2D47
100
AcDbEntity
  8
AM_0
100
AcDbLine
 10
441.8619533522099
 20
262.1254946206213
 30
0.0
 11
441.8619533522099
 21
262.1254946206213
 31
0.0
  0
LINE
  5
295A
330
2D47
100
AcDbEntity
  8
ｶｸﾚｾﾝ2
100
AcDbLine
 10
467.3619533522098
 20
280.1254796206213
 30
0.0
 11
467.3619533522098
 21
262.1254946206213
 31
0.0
  0
LINE
  5
295B
330
2D47
100
AcDbEntity
  8
AM_0
100
AcDbLine
 10
477.8619533522099
 20
262.1254946206213
 30
0.0
 11
477.8619533522099
 21
278.1254966206213
 31
0.0
  0
ARC
  5
295C
330
2D47
100
AcDbEntity
  8
AM_0
100
AcDbCircle
 10
475.8619133522098
 20
278.1254966206213
 30
0.0
 40
2.00000007
100
AcDbArc
 50
0.0
 51
90.00000300000001
  0
ARC
  5
295D
330
2D47
100
AcDbEntity
  8
AM_0
100
AcDbCircle
 10
441.8619533522099
 20
302.5831856206212
 30
0.0
 40
8.000000099999997
100
AcDbArc
 50
270.0
 51
0.0
  0
LINE
  5
295E
330
2D47
100
AcDbEntity
  8
AM_0
100
AcDbLine
 10
434.9369333522098
 20
294.5831996206213
 30
0.0
 11
441.8619533522099
 21
294.5831996206213
 31
0.0
  0
LINE
  5
295F
330
2D47
100
AcDbEntity
  8
AM_0
100
AcDbLine
 10
364.8619433522097
 20
404.3107736206215
 30
0.0
 11
392.6306033522097
 21
429.5972756206213
 31
0.0
  0
POLYLINE
  5
2960
330
2D47
100
AcDbEntity
  8
AM_0
100
AcDb2dPolyline
 66
     1
 10
0.0
 20
0.0
 30
0.0
  0
VERTEX
  5
2961
330
2960
100
AcDbEntity
  8
AM_0
100
AcDbVertex
100
AcDb2dVertex
 10
398.3186033522097
 20
446.7668756206213
 30
0.0
 42
0.046333928
  0
VERTEX
  5
2962
330
2960
100
AcDbEntity
  8
AM_0
100
AcDbVertex
100
AcDb2dVertex
 10
396.4667933522097
 20
447.8244956206212
 30
0.0
 42
0.024113287
  0
VERTEX
  5
2963
330
2960
100
AcDbEntity
  8
AM_0
100
AcDbVertex
100
AcDb2dVertex
 10
394.48730335221
 20
448.6243556206215
 30
0.0
 42
0.015482173
  0
VERTEX
  5
2964
330
2960
100
AcDbEntity
  8
AM_0
100
AcDbVertex
100
AcDb2dVertex
 10
392.4503633522097
 20
449.2690256206213
 30
0.0
 42
0.01117072
  0
VERTEX
  5
2965
330
2960
100
AcDbEntity
  8
AM_0
100
AcDbVertex
100
AcDb2dVertex
 10
390.3826433522099
 20
449.8055156206213
 30
0.0
 42
0.0086851636
  0
VERTEX
  5
2966
330
2960
100
AcDbEntity
  8
AM_0
100
AcDbVertex
100
AcDb2dVertex
 10
388.2950633522099
 20
450.2601956206213
 30
0.0
 42
0.0071112813
  0
VERTEX
  5
2967
330
2960
100
AcDbEntity
  8
AM_0
100
AcDbVertex
100
AcDb2dVertex
 10
386.1933833522097
 20
450.649205620621
 30
0.0
 42
0.0060487741
  0
VERTEX
  5
2968
330
2960
100
AcDbEntity
  8
AM_0
100
AcDbVertex
100
AcDb2dVertex
 10
384.0806633522099
 20
450.9832256206212
 30
0.0
 42
0.0052886701
  0
VERTEX
  5
2969
330
2960
100
AcDbEntity
  8
AM_0
100
AcDbVertex
100
AcDb2dVertex
 10
381.9632933522099
 20
451.2690656206212
 30
0.0
 42
0.0047450804
  0
VERTEX
  5
296A
330
2960
100
AcDbEntity
  8
AM_0
100
AcDbVertex
100
AcDb2dVertex
 10
379.8381833522098
 20
451.5127256206215
 30
0.0
 42
0.004337472
  0
VERTEX
  5
296B
330
2960
100
AcDbEntity
  8
AM_0
100
AcDbVertex
100
AcDb2dVertex
 10
377.70848335221
 20
451.7178656206215
 30
0.0
 42
0.0040309329
  0
VERTEX
  5
296C
330
2960
100
AcDbEntity
  8
AM_0
100
AcDbVertex
100
AcDb2dVertex
 10
375.5756933522098
 20
451.8873956206213
 30
0.0
 42
0.0038017188
  0
VERTEX
  5
296D
330
2960
100
AcDbEntity
  8
AM_0
100
AcDbVertex
100
AcDb2dVertex
 10
373.4404733522097
 20
452.023505620621
 30
0.0
 42
0.0036333127
  0
VERTEX
  5
296E
330
2960
100
AcDbEntity
  8
AM_0
100
AcDbVertex
100
AcDb2dVertex
 10
371.3033933522098
 20
452.1279056206215
 30
0.0
 42
0.0035147917
  0
VERTEX
  5
296F
330
2960
100
AcDbEntity
  8
AM_0
100
AcDbVertex
100
AcDb2dVertex
 10
369.1649933522097
 20
452.2017656206213
 30
0.0
 42
0.0034390753
  0
VERTEX
  5
2970
330
2960
100
AcDbEntity
  8
AM_0
100
AcDbVertex
100
AcDb2dVertex
 10
367.0257533522098
 20
452.2458956206214
 30
0.0
 42
0.0034021186
  0
VERTEX
  5
2971
330
2960
100
AcDbEntity
  8
AM_0
100
AcDbVertex
100
AcDb2dVertex
 10
364.8860633522097
 20
452.2607456206213
 30
0.0
  0
SEQEND
  5
2972
330
2960
100
AcDbEntity
  8
AM_0
  0
LINE
  5
2973
330
2D47
100
AcDbEntity
  8
AM_0
100
AcDbLine
 10
272.3681463522099
 20
334.4014336206214
 30
0.0
 11
272.3681463522099
 21
413.8495056206213
 31
0.0
  0
ARC
  5
2974
330
2D47
100
AcDbEntity
  8
AM_0
100
AcDbCircle
 10
269.8852923522097
 20
321.4427916206215
 30
0.0
 40
10.0
100
AcDbArc
 50
62.99999999999824
 51
89.00000000000151
  0
LINE
  5
2975
330
2D47
100
AcDbEntity
  8
AM_0
100
AcDbLine
 10
368.86193335221
 20
330.7498706206215
 30
0.0
 11
368.86193335221
 21
388.7732036206214
 31
0.0
  0
LINE
  5
2976
330
2D47
100
AcDbEntity
  8
AM_0
100
AcDbLine
 10
339.8619533522099
 20
334.6507976206212
 30
0.0
 11
354.8619533522099
 21
334.6507976206212
 31
0.0
  0
LINE
  5
2977
330
2D47
100
AcDbEntity
  8
AM_0
100
AcDbLine
 10
329.8619533522099
 20
334.6507946206213
 30
0.0
 11
337.8619533522098
 21
334.6507946206213
 31
0.0
  0
ARC
  5
2978
330
2D47
100
AcDbEntity
  8
AM_0
100
AcDbCircle
 10
339.8619533522099
 20
332.6507946206213
 30
0.0
 40
2.0
100
AcDbArc
 50
120.0000000000005
 51
180.0
  0
ARC
  5
2979
330
2D47
100
AcDbEntity
  8
AM_0
100
AcDbCircle
 10
364.8619433522097
 20
330.7498706206215
 30
0.0
 40
4.000000199999997
100
AcDbArc
 50
342.2553299999999
 51
0.0
  0
LINE
  5
297A
330
2D47
100
AcDbEntity
  8
AM_0
100
AcDbLine
 10
364.8619433522097
 20
388.7732036206214
 30
0.0
 11
368.86193335221
 21
388.7732036206214
 31
0.0
  0
LINE
  5
297B
330
2D47
100
AcDbEntity
  8
AM_0
100
AcDbLine
 10
326.8433843522099
 20
444.6064836206215
 30
0.0
 11
274.4251973522099
 21
417.8980826206212
 31
0.0
  0
ARC
  5
297C
330
2D47
100
AcDbEntity
  8
AM_0
100
AcDbCircle
 10
269.8852923522097
 20
426.8081476206213
 30
0.0
 40
10.0
100
AcDbArc
 50
270.9999999999984
 51
296.9999999999988
  0
LINE
  5
297D
330
2D47
100
AcDbEntity
  8
AM_0
100
AcDbLine
 10
337.8619533522098
 20
435.6346946206214
 30
0.0
 11
337.8619533522098
 21
415.6001456206213
 31
0.0
  0
LINE
  5
297E
330
2D47
100
AcDbEntity
  8
AM_0
100
AcDbLine
 10
339.8619533522099
 20
413.6001356206215
 30
0.0
 11
354.8619533522099
 21
413.6001356206215
 31
0.0
  0
LINE
  5
297F
330
2D47
100
AcDbEntity
  8
AM_0
100
AcDbLine
 10
329.8619533522099
 20
413.6001456206215
 30
0.0
 11
337.8619533522098
 21
413.6001456206215
 31
0.0
  0
ARC
  5
2980
330
2D47
100
AcDbEntity
  8
AM_0
100
AcDbCircle
 10
339.8619533522099
 20
415.6001456206213
 30
0.0
 40
2.0
100
AcDbArc
 50
180.0
 51
239.9999999999995
  0
LINE
  5
2981
330
2D47
100
AcDbEntity
  8
AM_0
100
AcDbLine
 10
364.8618833522097
 20
404.3107736206215
 30
0.0
 11
364.86347335221
 21
404.3107736206215
 31
0.0
  0
LINE
  5
2982
330
2D47
100
AcDbEntity
  8
AM_0
100
AcDbLine
 10
339.8619533522099
 20
435.7055156206213
 30
0.0
 11
354.8619533522099
 21
435.7055156206213
 31
0.0
  0
LINE
  5
2983
330
2D47
100
AcDbEntity
  8
AM_0
100
AcDbLine
 10
352.8619433522098
 20
452.3967956206215
 30
0.0
 11
344.86193335221
 21
452.3967956206215
 31
0.0
  0
LINE
  5
2984
330
2D47
100
AcDbEntity
  8
AM_0
100
AcDbLine
 10
352.8619433522098
 20
439.3968056206214
 30
0.0
 11
344.86193335221
 21
439.3968056206214
 31
0.0
  0
LINE
  5
2985
330
2D47
100
AcDbEntity
  8
AM_0
100
AcDbLine
 10
344.86193335221
 20
439.3968056206214
 30
0.0
 11
344.86193335221
 21
452.3967956206215
 31
0.0
  0
ARC
  5
2986
330
2D47
100
AcDbEntity
  8
AM_0
100
AcDbCircle
 10
335.8619533522098
 20
435.6346946206214
 30
0.0
 40
2.0
100
AcDbArc
 50
0.0
 51
90.0
  0
LINE
  5
2987
330
2D47
100
AcDbEntity
  8
AM_0
100
AcDbLine
 10
329.8619533522099
 20
437.6346946206213
 30
0.0
 11
335.8619533522098
 21
437.6346946206213
 31
0.0
  0
ARC
  5
2988
330
2D47
100
AcDbEntity
  8
AM_0
100
AcDbCircle
 10
329.8619533522099
 20
435.6346946206214
 30
0.0
 40
2.0
100
AcDbArc
 50
90.0
 51
180.0
  0
LINE
  5
2989
330
2D47
100
AcDbEntity
  8
AM_0
100
AcDbLine
 10
329.8619533522099
 20
447.6254696206215
 30
0.0
 11
339.8619533522099
 21
447.6254696206215
 31
0.0
  0
ARC
  5
298A
330
2D47
100
AcDbEntity
  8
AM_0
100
AcDbCircle
 10
329.8619533522099
 20
445.6254696206213
 30
0.0
 40
2.0
100
AcDbArc
 50
90.0
 51
169.0030569999995
  0
ARC
  5
298B
330
2D47
100
AcDbEntity
  8
AM_0
100
AcDbCircle
 10
325.9354033522097
 20
446.3884966206213
 30
0.0
 40
2.0
100
AcDbArc
 50
296.9999999999988
 51
349.0030569999992
  0
LINE
  5
298C
330
2D47
100
AcDbEntity
  8
AM_0
100
AcDbLine
 10
339.8620133522097
 20
448.1255156206213
 30
0.0
 11
344.8619933522099
 21
448.2564356206212
 31
0.0
  0
LINE
  5
298D
330
2D47
100
AcDbEntity
  8
AM_0
100
AcDbLine
 10
352.8619433522098
 20
438.3968156206215
 30
0.0
 11
352.8619433522098
 21
453.3968156206213
 31
0.0
  0
LINE
  5
298E
330
2D47
100
AcDbEntity
  8
AM_0
100
AcDbLine
 10
354.8619533522099
 20
438.3968156206215
 30
0.0
 11
352.8619433522098
 21
438.3968156206215
 31
0.0
  0
LINE
  5
298F
330
2D47
100
AcDbEntity
  8
AM_0
100
AcDbLine
 10
356.0417033522099
 20
452.2607456206213
 30
0.0
 11
364.8619433522097
 21
452.2607456206213
 31
0.0
  0
LINE
  5
2990
330
2D47
100
AcDbEntity
  8
AM_0
100
AcDbLine
 10
354.8619533522099
 20
453.3968156206213
 30
0.0
 11
352.8619433522098
 21
453.3968156206213
 31
0.0
  0
LINE
  5
2991
330
2D47
100
AcDbEntity
  8
AM_0
100
AcDbLine
 10
477.8619533522099
 20
374.8575236206213
 30
0.0
 11
477.8619533522099
 21
402.1254386206213
 31
0.0
  0
LINE
  5
2992
330
2D47
100
AcDbEntity
  8
AM_0
100
AcDbLine
 10
481.8619133522099
 20
384.6254696206214
 30
0.0
 11
481.8619133522099
 21
419.6254556206212
 31
0.0
  0
LINE
  5
2993
330
2D47
100
AcDbEntity
  8
AM_0
100
AcDbLine
 10
472.3619333522099
 20
369.9501146206213
 30
0.0
 11
476.3619533522098
 21
372.2595026206213
 31
0.0
  0
ARC
  5
2994
330
2D47
100
AcDbEntity
  8
AM_0
100
AcDbCircle
 10
474.8619533522099
 20
374.8575236206213
 30
0.0
 40
3.0
100
AcDbArc
 50
300.0
 51
0.0
  0
ARC
  5
2995
330
2D47
100
AcDbEntity
  8
AM_0
100
AcDbCircle
 10
473.8619333522099
 20
367.3519706206213
 30
0.0
 40
3.0
100
AcDbArc
 50
119.9999999999999
 51
180.00001
  0
LINE
  5
2996
330
2D47
100
AcDbEntity
  8
AM_0
100
AcDbLine
 10
481.8619133522099
 20
384.6254696206214
 30
0.0
 11
477.8619533522099
 21
384.6254696206214
 31
0.0
  0
ARC
  5
2997
330
2D47
100
AcDbEntity
  8
AM_0
100
AcDbCircle
 10
437.86193335221
 20
433.5681956206212
 30
0.0
 40
8.000000099999997
100
AcDbArc
 50
90.00000300000001
 51
180.00001
  0
LINE
  5
2998
330
2D47
100
AcDbEntity
  8
AM_0
100
AcDbLine
 10
477.8619533522099
 20
402.1254386206213
 30
0.0
 11
477.8619533522099
 21
429.393425620621
 31
0.0
  0
LINE
  5
2999
330
2D47
100
AcDbEntity
  8
AM_0
100
AcDbLine
 10
481.8619133522099
 20
419.6254556206212
 30
0.0
 11
477.8619533522099
 21
419.6254556206212
 31
0.0
  0
LINE
  5
299A
330
2D47
100
AcDbEntity
  8
AM_0
100
AcDbLine
 10
457.8619133522098
 20
450.1254656206215
 30
0.0
 11
466.8619133522097
 21
450.1254656206215
 31
0.0
  0
LINE
  5
299B
330
2D47
100
AcDbEntity
  8
AM_0
100
AcDbLine
 10
437.86193335221
 20
441.568175620621
 30
0.0
 11
446.2614233522097
 21
441.568175620621
 31
0.0
  0
ARC
  5
299C
330
2D47
100
AcDbEntity
  8
AM_0
100
AcDbCircle
 10
457.8619133522098
 20
458.1254756206215
 30
0.0
 40
8.000000099999997
100
AcDbArc
 50
179.9999899999999
 51
270.0
  0
LINE
  5
299D
330
2D47
100
AcDbEntity
  8
AM_0
100
AcDbLine
 10
472.3619933522098
 20
434.3008856206215
 30
0.0
 11
476.3619833522098
 21
431.9914856206215
 31
0.0
  0
ARC
  5
299E
330
2D47
100
AcDbEntity
  8
AM_0
100
AcDbCircle
 10
473.8619333522099
 20
436.8989756206213
 30
0.0
 40
3.0
100
AcDbArc
 50
179.9999899999999
 51
240.00001
  0
ARC
  5
299F
330
2D47
100
AcDbEntity
  8
AM_0
100
AcDbCircle
 10
474.8619533522099
 20
429.393425620621
 30
0.0
 40
3.0
100
AcDbArc
 50
0.0
 51
60.000002
  0
ARC
  5
29A0
330
2D47
100
AcDbEntity
  8
AM_0
100
AcDbCircle
 10
466.8619133522097
 20
446.1254756206215
 30
0.0
 40
4.000000199999997
100
AcDbArc
 50
0.0
 51
90.00000300000001
  0
LINE
  5
29A1
330
2D47
100
AcDbEntity
  8
AM_0
100
AcDbLine
 10
641.2521816133621
 20
277.5671156206214
 30
0.0
 11
657.8035686133621
 21
388.7732666206213
 31
0.0
  0
LINE
  5
29A2
330
2D47
100
AcDbEntity
  8
ﾁｭｳｼﾝｾﾝ1
100
AcDbLine
 10
661.2194616133621
 20
282.5231208435851
 30
0.0
 11
661.219461613362
 21
260.2625728076425
 31
0.0
  0
LINE
  5
29A3
330
2D47
100
AcDbEntity
  8
AM_0
100
AcDbLine
 10
641.219451613362
 20
277.1254796206214
 30
0.0
 11
641.219451613362
 21
262.1254946206213
 31
0.0
  0
ARC
  5
29A4
330
2D47
100
AcDbEntity
  8
AM_0
100
AcDbCircle
 10
644.219451613362
 20
277.1254796206214
 30
0.0
 40
3.0
100
AcDbArc
 50
90.00000300000001
 51
180.00001
  0
LINE
  5
29A5
330
2D47
100
AcDbEntity
  8
ｶｸﾚｾﾝ2
100
AcDbLine
 10
653.719461613362
 20
280.1254796206213
 30
0.0
 11
653.719461613362
 21
262.1254946206213
 31
0.0
  0
LINE
  5
29A6
330
2D47
100
AcDbEntity
  8
ｶｸﾚｾﾝ2
100
AcDbLine
 10
668.719461613362
 20
280.1254796206213
 30
0.0
 11
668.719461613362
 21
262.1254946206213
 31
0.0
  0
LINE
  5
29A7
330
2D47
100
AcDbEntity
  8
AM_0
100
AcDbLine
 10
539.8619333522097
 20
386.1254696206214
 30
0.0
 11
539.8619333522097
 21
421.1254556206212
 31
0.0
  0
LINE
  5
29A8
330
2D47
100
AcDbEntity
  8
AM_0
100
AcDbLine
 10
539.8619333522097
 20
421.1254556206212
 30
0.0
 11
494.8619333522099
 21
421.1254556206212
 31
0.0
  0
LINE
  5
29A9
330
2D47
100
AcDbEntity
  8
AM_0
100
AcDbLine
 10
494.8619333522099
 20
418.125455620621
 30
0.0
 11
494.8619333522099
 21
421.1254556206212
 31
0.0
  0
LINE
  5
29AA
330
2D47
100
AcDbEntity
  8
AM_0
100
AcDbLine
 10
674.5054416133621
 20
445.4475056206215
 30
0.0
 11
661.4086086133621
 21
404.3108636206212
 31
0.0
  0
LINE
  5
29AB
330
2D47
100
AcDbEntity
  8
AM_0
100
AcDbLine
 10
364.8618833522097
 20
473.6254856206215
 30
0.0
 11
442.0712933522098
 21
471.6036956206213
 31
0.0
  0
LINE
  5
29AC
330
2D47
100
AcDbEntity
  8
AM_0
100
AcDbLine
 10
364.8620033522099
 20
473.6255456206213
 30
0.0
 11
356.8096433522098
 21
473.4146756206213
 31
0.0
  0
ARC
  5
29AD
330
2D47
100
AcDbEntity
  8
AM_0
100
AcDbCircle
 10
356.8619333522101
 20
471.4153256206213
 30
0.0
 40
2.00000007
100
AcDbArc
 50
91.50000099999996
 51
180.00001
  0
ARC
  5
29AE
330
2D47
100
AcDbEntity
  8
AM_0
100
AcDbCircle
 10
441.8619533522099
 20
463.6063856206215
 30
0.0
 40
8.000000099999997
100
AcDbArc
 50
0.0
 51
88.49999699999996
  0
LINE
  5
29AF
330
2D47
100
AcDbEntity
  8
AM_0
100
AcDbLine
 10
827.7402336133619
 20
456.2414756206215
 30
0.0
 11
785.4424116133619
 21
469.2373856206216
 31
0.0
  0
LINE
  5
29B0
330
2D47
100
AcDbEntity
  8
AM_0
100
AcDbLine
 10
684.897501613362
 20
455.8395356206215
 30
0.0
 11
726.0341136133618
 21
468.9363656206213
 31
0.0
  0
LINE
  5
29B1
330
2D47
100
AcDbEntity
  8
ﾁｭｳｼﾝｾﾝ1
100
AcDbLine
 10
756.2194626133621
 20
261.4859849194
 30
0.0
 11
756.2194626133621
 21
480.1242656206212
 31
0.0
  0
ARC
  5
29B2
330
2D47
100
AcDbEntity
  8
AM_0
100
AcDbCircle
 10
756.2194626133621
 20
335.8627256206214
 30
0.0
 40
77.00000099999998
100
AcDbArc
 50
327.5815999999999
 51
0.0
  0
ARC
  5
29B3
330
2D47
100
AcDbEntity
  8
AM_0
100
AcDbCircle
 10
756.2194626133621
 20
335.8627256206214
 30
0.0
 40
77.00000099999998
100
AcDbArc
 50
179.9999899999999
 51
212.4183899999997
  0
LINE
  5
29B4
330
2D47
100
AcDbEntity
  8
AM_0
100
AcDbLine
 10
691.2194466133621
 20
385.1254676206214
 30
0.0
 11
691.2194466133621
 21
295.1254676206214
 31
0.0
  0
LINE
  5
29B5
330
2D47
100
AcDbEntity
  8
AM_0
100
AcDbLine
 10
821.2194576133621
 20
385.1254676206214
 30
0.0
 11
821.2194576133621
 21
295.1254676206214
 31
0.0
  0
LINE
  5
29B6
330
2D47
100
AcDbEntity
  8
AM_0
100
AcDbLine
 10
871.186776613362
 20
277.5671306206214
 30
0.0
 11
854.6353746133618
 21
388.7732966206213
 31
0.0
  0
LINE
  5
29B7
330
2D47
100
AcDbEntity
  8
AM_0
100
AcDbLine
 10
693.2194476133621
 20
264.1254956206214
 30
0.0
 11
819.2194596133616
 21
264.1254956206214
 31
0.0
  0
ARC
  5
29B8
330
2D47
100
AcDbEntity
  8
AM_0
100
AcDbCircle
 10
676.2194616133615
 20
295.1254676206214
 30
0.0
 40
15.00000029999998
100
AcDbArc
 50
270.0
 51
0.0
  0
ARC
  5
29B9
330
2D47
100
AcDbEntity
  8
AM_0
100
AcDbCircle
 10
693.2194476133621
 20
262.1254946206213
 30
0.0
 40
2.00000007
100
AcDbArc
 50
90.00000300000001
 51
180.00001
  0
LINE
  5
29BA
330
2D47
100
AcDbEntity
  8
AM_0
100
AcDbLine
 10
691.2194466133621
 20
276.1254806206213
 30
0.0
 11
691.2194466133621
 21
262.1254946206213
 31
0.0
  0
ARC
  5
29BB
330
2D47
100
AcDbEntity
  8
AM_0
100
AcDbCircle
 10
687.2194626133618
 20
276.1254806206213
 30
0.0
 40
4.000000199999997
100
AcDbArc
 50
0.0
 51
90.00000300000001
  0
LINE
  5
29BC
330
2D47
100
AcDbEntity
  8
AM_0
100
AcDbLine
 10
825.2194596133618
 20
280.1254796206213
 30
0.0
 11
868.2194586133617
 21
280.1254796206213
 31
0.0
  0
LINE
  5
29BD
330
2D47
100
AcDbEntity
  8
AM_0
100
AcDbLine
 10
821.2194576133621
 20
262.1254946206213
 30
0.0
 11
871.2194586133621
 21
262.1254946206213
 31
0.0
  0
ARC
  5
29BE
330
2D47
100
AcDbEntity
  8
AM_0
100
AcDbCircle
 10
836.2194576133616
 20
295.1254676206214
 30
0.0
 40
15.00000029999998
100
AcDbArc
 50
179.9999899999999
 51
270.0
  0
LINE
  5
29BF
330
2D47
100
AcDbEntity
  8
AM_0
100
AcDbLine
 10
821.2194576133621
 20
276.1254806206213
 30
0.0
 11
821.2194576133621
 21
262.1254946206213
 31
0.0
  0
ARC
  5
29C0
330
2D47
100
AcDbEntity
  8
AM_0
100
AcDbCircle
 10
819.2194596133616
 20
262.1254946206213
 30
0.0
 40
2.00000007
100
AcDbArc
 50
0.0
 51
90.00000300000001
  0
ARC
  5
29C1
330
2D47
100
AcDbEntity
  8
AM_0
100
AcDbCircle
 10
825.2194596133618
 20
276.1254806206213
 30
0.0
 40
4.000000199999997
100
AcDbArc
 50
90.00000300000001
 51
180.00001
  0
LINE
  5
29C2
330
2D47
100
AcDbEntity
  8
ﾁｭｳｼﾝｾﾝ1
100
AcDbLine
 10
851.2194576133618
 20
282.5231208435848
 30
0.0
 11
851.2194576133618
 21
260.2625728076425
 31
0.0
  0
ARC
  5
29C3
330
2D47
100
AcDbEntity
  8
AM_0
100
AcDbCircle
 10
868.2194586133617
 20
277.1254796206214
 30
0.0
 40
3.0
100
AcDbArc
 50
0.0
 51
90.00000300000001
  0
LINE
  5
29C4
330
2D47
100
AcDbEntity
  8
ｶｸﾚｾﾝ2
100
AcDbLine
 10
843.7194576133617
 20
280.1254796206213
 30
0.0
 11
843.7194576133617
 21
262.1254946206213
 31
0.0
  0
LINE
  5
29C5
330
2D47
100
AcDbEntity
  8
ｶｸﾚｾﾝ2
100
AcDbLine
 10
858.7194606133621
 20
280.1254796206213
 30
0.0
 11
858.7194606133621
 21
262.1254946206213
 31
0.0
  0
LINE
  5
29C6
330
2D47
100
AcDbEntity
  8
AM_0
100
AcDbLine
 10
871.2194586133621
 20
277.1254796206214
 30
0.0
 11
871.2194586133621
 21
262.1254946206213
 31
0.0
  0
ARC
  5
29C7
330
2D47
100
AcDbEntity
  8
AM_0
100
AcDbCircle
 10
756.2194626133621
 20
385.1254676206214
 30
0.0
 40
65.000001
100
AcDbArc
 50
0.0
 51
180.00001
  0
LINE
  5
29C8
330
2D47
100
AcDbEntity
  8
ﾁｭｳｼﾝｾﾝ1
100
AcDbLine
 10
702.6669030103069
 20
402.1254386206213
 30
0.0
 11
810.4174237055296
 21
402.1254386206213
 31
0.0
  0
CIRCLE
  5
29C9
330
2D47
100
AcDbEntity
  8
AM_0
100
AcDbCircle
 10
756.2194626133621
 20
402.1254386206213
 30
0.0
 40
29.000001
  0
LINE
  5
29CA
330
2D47
100
AcDbEntity
  8
AM_0
100
AcDbLine
 10
679.2194616133619
 20
434.2191656206213
 30
0.0
 11
679.2194616133619
 21
335.8627256206214
 31
0.0
  0
ARC
  5
29CB
330
2D47
100
AcDbEntity
  8
AM_0
100
AcDbCircle
 10
756.2194626133621
 20
402.1254386206213
 30
0.0
 40
16.0000005
100
AcDbArc
 50
108.20996
 51
71.790052
  0
ARC
  5
29CC
330
2D47
100
AcDbEntity
  8
AM_0
100
AcDbCircle
 10
687.2194626133618
 20
434.2191656206213
 30
0.0
 40
8.000000099999997
100
AcDbArc
 50
138.94665
 51
180.00001
  0
LINE
  5
29CD
330
2D47
100
AcDbEntity
  8
AM_0
100
AcDbLine
 10
751.2194496133617
 20
421.1254556206212
 30
0.0
 11
761.2194486133618
 21
421.1254556206212
 31
0.0
  0
LINE
  5
29CE
330
2D47
100
AcDbEntity
  8
AM_0
100
AcDbLine
 10
751.2194496133617
 20
413.125475620621
 30
0.0
 11
761.2194486133618
 21
413.125475620621
 31
0.0
  0
CIRCLE
  5
29CF
330
2D47
100
AcDbEntity
  8
AM_5
100
AcDbCircle
 10
756.2194626133621
 20
402.1254386206213
 30
0.0
 40
4.000000199999997
  0
CIRCLE
  5
29D0
330
2D47
100
AcDbEntity
  8
AM_0
100
AcDbCircle
 10
756.2194626133621
 20
402.1254386206213
 30
0.0
 40
2.75000007
  0
LINE
  5
29D1
330
2D47
100
AcDbEntity
  8
AM_0
100
AcDbLine
 10
751.2194496133617
 20
413.125475620621
 30
0.0
 11
751.2194496133617
 21
421.1254556206212
 31
0.0
  0
LINE
  5
29D2
330
2D47
100
AcDbEntity
  8
AM_0
100
AcDbLine
 10
761.2194486133618
 20
413.125475620621
 30
0.0
 11
761.2194486133618
 21
421.1254556206212
 31
0.0
  0
LINE
  5
29D3
330
2D47
100
AcDbEntity
  8
AM_0
100
AcDbLine
 10
833.2194576133618
 20
434.2191656206213
 30
0.0
 11
833.2194576133618
 21
335.8627256206214
 31
0.0
  0
LINE
  5
29D4
330
2D47
100
AcDbEntity
  8
AM_0
100
AcDbLine
 10
838.3354176133618
 20
445.6462856206213
 30
0.0
 11
851.3313366133617
 21
403.3484306206212
 31
0.0
  0
ARC
  5
29D5
330
2D47
100
AcDbEntity
  8
AM_0
100
AcDbCircle
 10
825.2194596133618
 20
434.2191656206213
 30
0.0
 40
8.000000099999997
100
AcDbArc
 50
0.0
 51
41.053351
  0
ARC
  5
29D6
330
2D47
100
AcDbEntity
  8
AM_0
100
AcDbCircle
 10
823.0410516133618
 20
440.9470556206215
 30
0.0
 40
16.0000005
100
AcDbArc
 50
17.079463
 51
72.920534
  0
ARC
  5
29D7
330
2D47
100
AcDbEntity
  8
AM_0
100
AcDbCircle
 10
218.8619333522098
 20
690.425997857669
 30
0.0
 40
4.000000000000055
100
AcDbArc
 50
270.0
 51
90.0
  0
LINE
  5
29D8
330
2D47
100
AcDbEntity
  8
AM_0
100
AcDbLine
 10
190.8619333522098
 20
702.425997857669
 30
0.0
 11
226.8619333522098
 21
702.425997857669
 31
0.0
  0
LINE
  5
29D9
330
2D47
100
AcDbEntity
  8
AM_0
100
AcDbLine
 10
190.8619333522098
 20
678.425997857669
 30
0.0
 11
226.8619333522098
 21
678.425997857669
 31
0.0
  0
LINE
  5
29DA
330
2D47
100
AcDbEntity
  8
AM_0
100
AcDbLine
 10
190.8619333522098
 20
678.425997857669
 30
0.0
 11
190.8619333522098
 21
702.425997857669
 31
0.0
  0
LINE
  5
29DB
330
2D47
100
AcDbEntity
  8
AM_0
100
AcDbLine
 10
190.8619333522098
 20
686.425997857669
 30
0.0
 11
218.8619333522098
 21
686.425997857669
 31
0.0
  0
LINE
  5
29DC
330
2D47
100
AcDbEntity
  8
AM_0
100
AcDbLine
 10
190.8619333522098
 20
694.425997857669
 30
0.0
 11
218.8619333522098
 21
694.425997857669
 31
0.0
  0
LINE
  5
29DD
330
2D47
100
AcDbEntity
  8
AM_0
100
AcDbLine
 10
218.8619333522098
 20
686.425997857669
 30
0.0
 11
218.8619333522098
 21
694.425997857669
 31
0.0
  0
LINE
  5
29DE
330
2D47
100
AcDbEntity
  8
AM_0
100
AcDbLine
 10
337.8619333522099
 20
628.916772857669
 30
0.0
 11
337.8619333522099
 21
648.9513228576687
 31
0.0
  0
LINE
  5
29DF
330
2D47
100
AcDbEntity
  8
AM_0
100
AcDbLine
 10
274.4251773522098
 20
646.6533848576688
 30
0.0
 11
326.8433643522099
 21
619.9449848576688
 31
0.0
  0
LINE
  5
29E0
330
2D47
100
AcDbEntity
  8
AM_0
100
AcDbLine
 10
327.8619333522099
 20
621.670650857669
 30
0.0
 11
327.8619333522099
 21
759.181345857669
 31
0.0
  0
ARC
  5
29E1
330
2D47
100
AcDbEntity
  8
AM_0
100
AcDbCircle
 10
335.8619333522099
 20
628.916772857669
 30
0.0
 40
2.0
100
AcDbArc
 50
270.0
 51
0.0
  0
LINE
  5
29E2
330
2D47
100
AcDbEntity
  8
AM_0
100
AcDbLine
 10
329.8619333522099
 20
616.925997857669
 30
0.0
 11
339.8619333522099
 21
616.925997857669
 31
0.0
  0
ARC
  5
29E3
330
2D47
100
AcDbEntity
  8
AM_0
100
AcDbCircle
 10
329.8619333522099
 20
618.925997857669
 30
0.0
 40
2.0
100
AcDbArc
 50
190.9969430000004
 51
270.0
  0
ARC
  5
29E4
330
2D47
100
AcDbEntity
  8
AM_0
100
AcDbCircle
 10
325.9353833522097
 20
618.1629718576687
 30
0.0
 40
2.0
100
AcDbArc
 50
10.99694300000052
 51
62.99999999999824
  0
ARC
  5
29E5
330
2D47
100
AcDbEntity
  8
AM_0
100
AcDbCircle
 10
329.8619333522099
 20
628.916772857669
 30
0.0
 40
2.0
100
AcDbArc
 50
180.0
 51
270.0
  0
LINE
  5
29E6
330
2D47
100
AcDbEntity
  8
AM_0
100
AcDbLine
 10
329.8619333522099
 20
626.916772857669
 30
0.0
 11
335.8619333522099
 21
626.916772857669
 31
0.0
  0
LINE
  5
29E7
330
2D47
100
AcDbEntity
  8
AM_0
100
AcDbLine
 10
230.8619333522099
 20
719.925997857669
 30
0.0
 11
228.8619333522099
 21
717.9259978576689
 31
0.0
  0
LINE
  5
29E8
330
2D47
100
AcDbEntity
  8
AM_0
100
AcDbLine
 10
272.3681263522099
 20
650.7019618576688
 30
0.0
 11
272.3681263522099
 21
730.1500338576691
 31
0.0
  0
LINE
  5
29E9
330
2D47
100
AcDbEntity
  8
AM_0
100
AcDbLine
 10
239.7921753522098
 20
651.2705768576687
 30
0.0
 11
239.7921753522098
 21
729.5814188576691
 31
0.0
  0
LINE
  5
29EA
330
2D47
100
AcDbEntity
  8
AM_0
100
AcDbLine
 10
230.8619333522099
 20
655.7353988576688
 30
0.0
 11
230.8619333522099
 21
725.116596857669
 31
0.0
  0
LINE
  5
29EB
330
2D47
100
AcDbEntity
  8
AM_0
100
AcDbLine
 10
228.8619333522099
 20
662.925997857669
 30
0.0
 11
228.8619333522099
 21
717.9259978576689
 31
0.0
  0
LINE
  5
29EC
330
2D47
100
AcDbEntity
  8
AM_0
100
AcDbLine
 10
240.8264883522097
 20
648.252065857669
 30
0.0
 11
270.0597963522099
 21
647.7417968576689
 31
0.0
  0
ARC
  5
29ED
330
2D47
100
AcDbEntity
  8
AM_0
100
AcDbCircle
 10
234.8619333522099
 20
655.7353988576688
 30
0.0
 40
4.0
100
AcDbArc
 50
180.0
 51
239.9999999999995
  0
LINE
  5
29EE
330
2D47
100
AcDbEntity
  8
AM_0
100
AcDbLine
 10
232.8619333522099
 20
652.271297857669
 30
0.0
 11
238.8962983522099
 21
648.787354857669
 31
0.0
  0
ARC
  5
29EF
330
2D47
100
AcDbEntity
  8
AM_0
100
AcDbCircle
 10
240.8962983522099
 20
652.2514568576688
 30
0.0
 40
4.0
100
AcDbArc
 50
239.9999999999995
 51
269.0000000000015
  0
LINE
  5
29F0
330
2D47
100
AcDbEntity
  8
AM_0
100
AcDbLine
 10
228.8619333522099
 20
662.925997857669
 30
0.0
 11
230.8619333522099
 21
660.925997857669
 31
0.0
  0
ARC
  5
29F1
330
2D47
100
AcDbEntity
  8
AM_0
100
AcDbCircle
 10
269.8852723522099
 20
637.743319857669
 30
0.0
 40
10.0
100
AcDbArc
 50
62.99999999999824
 51
89.00000000000151
  0
LINE
  5
29F2
330
2D47
100
AcDbEntity
  8
AM_0
100
AcDbLine
 10
226.8619333522098
 20
675.425997857669
 30
0.0
 11
226.8619333522098
 21
705.4259978576689
 31
0.0
  0
LINE
  5
29F3
330
2D47
100
AcDbEntity
  8
AM_0
100
AcDbLine
 10
226.8619333522098
 20
675.425997857669
 30
0.0
 11
228.8619333522099
 21
675.425997857669
 31
0.0
  0
LINE
  5
29F4
330
2D47
100
AcDbEntity
  8
AM_0
100
AcDbLine
 10
226.8619333522098
 20
705.4259978576689
 30
0.0
 11
228.8619333522099
 21
705.4259978576689
 31
0.0
  0
LINE
  5
29F5
330
2D47
100
AcDbEntity
  8
AM_0
100
AcDbLine
 10
329.8619333522099
 20
650.951322857669
 30
0.0
 11
337.8619333522099
 21
650.951322857669
 31
0.0
  0
ARC
  5
29F6
330
2D47
100
AcDbEntity
  8
AM_0
100
AcDbCircle
 10
339.8619333522099
 20
648.9513228576687
 30
0.0
 40
2.0
100
AcDbArc
 50
120.0000000000005
 51
180.0
  0
LINE
  5
29F7
330
2D47
100
AcDbEntity
  8
AM_0
100
AcDbLine
 10
326.8433643522099
 20
760.9070118576686
 30
0.0
 11
274.4251773522098
 21
734.1986108576686
 31
0.0
  0
LINE
  5
29F8
330
2D47
100
AcDbEntity
  8
AM_0
100
AcDbLine
 10
270.0597963522099
 20
733.1101988576691
 30
0.0
 11
240.8264883522097
 21
732.599929857669
 31
0.0
  0
LINE
  5
29F9
330
2D47
100
AcDbEntity
  8
AM_0
100
AcDbLine
 10
238.8962983522099
 20
732.064640857669
 30
0.0
 11
232.8619333522099
 21
728.580698857669
 31
0.0
  0
ARC
  5
29FA
330
2D47
100
AcDbEntity
  8
AM_0
100
AcDbCircle
 10
234.8619333522099
 20
725.116596857669
 30
0.0
 40
4.0
100
AcDbArc
 50
120.0000000000005
 51
180.0
  0
ARC
  5
29FB
330
2D47
100
AcDbEntity
  8
AM_0
100
AcDbCircle
 10
240.8962983522099
 20
728.6005388576686
 30
0.0
 40
4.0
100
AcDbArc
 50
90.9999999999985
 51
120.0000000000005
  0
ARC
  5
29FC
330
2D47
100
AcDbEntity
  8
AM_0
100
AcDbCircle
 10
269.8852723522099
 20
743.1086758576689
 30
0.0
 40
10.0
100
AcDbArc
 50
270.9999999999984
 51
296.999999999998
  0
ARC
  5
29FD
330
2D47
100
AcDbEntity
  8
AM_0
100
AcDbCircle
 10
325.9353833522097
 20
762.6890248576691
 30
0.0
 40
2.0
100
AcDbArc
 50
296.999999999998
 51
349.0030569999992
  0
LINE
  5
29FE
330
2D47
100
AcDbEntity
  8
AM_0
100
AcDbLine
 10
337.8619333522099
 20
751.935222857669
 30
0.0
 11
337.8619333522099
 21
731.900673857669
 31
0.0
  0
LINE
  5
29FF
330
2D47
100
AcDbEntity
  8
AM_0
100
AcDbLine
 10
329.8619333522099
 20
729.900673857669
 30
0.0
 11
337.8619333522099
 21
729.900673857669
 31
0.0
  0
ARC
  5
2A00
330
2D47
100
AcDbEntity
  8
AM_0
100
AcDbCircle
 10
339.8619333522099
 20
731.900673857669
 30
0.0
 40
2.0
100
AcDbArc
 50
180.0
 51
239.9999999999995
  0
ARC
  5
2A01
330
2D47
100
AcDbEntity
  8
AM_0
100
AcDbCircle
 10
335.8619333522099
 20
751.935222857669
 30
0.0
 40
2.0
100
AcDbArc
 50
0.0
 51
90.0
  0
ARC
  5
2A02
330
2D47
100
AcDbEntity
  8
AM_0
100
AcDbCircle
 10
329.8619333522099
 20
751.935222857669
 30
0.0
 40
2.0
100
AcDbArc
 50
90.0
 51
180.0
  0
LINE
  5
2A03
330
2D47
100
AcDbEntity
  8
AM_0
100
AcDbLine
 10
329.8619333522099
 20
753.935222857669
 30
0.0
 11
335.8619333522099
 21
753.935222857669
 31
0.0
  0
LINE
  5
2A04
330
2D47
100
AcDbEntity
  8
AM_0
100
AcDbLine
 10
329.8619333522099
 20
763.9259978576689
 30
0.0
 11
339.8619333522099
 21
763.9259978576689
 31
0.0
  0
ARC
  5
2A05
330
2D47
100
AcDbEntity
  8
AM_0
100
AcDbCircle
 10
329.8619333522099
 20
761.925997857669
 30
0.0
 40
2.0
100
AcDbArc
 50
90.0
 51
169.0030569999995
  0
ARC
  5
2A07
330
2D47
100
AcDbEntity
  8
AM_0
100
AcDbCircle
 10
473.8619633522097
 20
583.0252683576689
 30
0.0
 40
4.0
100
AcDbArc
 50
271.9999999999971
 51
0.0
  0
ARC
  5
2A08
330
2D47
100
AcDbEntity
  8
AM_0
100
AcDbCircle
 10
473.8619633522097
 20
621.4259983576687
 30
0.0
 40
4.0
100
AcDbArc
 50
0.0
 51
82.81924700000343
  0
ARC
  5
2A09
330
2D47
100
AcDbEntity
  8
AM_0
100
AcDbCircle
 10
473.8619633522097
 20
759.4259983576685
 30
0.0
 40
4.0
100
AcDbArc
 50
277.1807500000036
 51
0.0
  0
ARC
  5
2A0A
330
2D47
100
AcDbEntity
  8
AM_0
100
AcDbCircle
 10
473.8619633522097
 20
797.826688357669
 30
0.0
 40
4.0
100
AcDbArc
 50
0.0
 51
88.00000000000279
  0
LINE
  5
2A0B
330
2D47
100
AcDbEntity
  8
AM_0
100
AcDbLine
 10
481.8619633522096
 20
672.9259983576687
 30
0.0
 11
477.8619333522098
 21
672.9259983576687
 31
0.0
  0
LINE
  5
2A0C
330
2D47
100
AcDbEntity
  8
AM_0
100
AcDbLine
 10
481.8619633522096
 20
707.9259983576689
 30
0.0
 11
477.8619333522098
 21
707.9259983576689
 31
0.0
  0
LINE
  5
2A0D
330
2D47
100
AcDbEntity
  8
ﾁｭｳｼﾝｾﾝ1
100
AcDbLine
 10
185.7468371662648
 20
690.425998357669
 30
0.0
 11
547.7747733522098
 21
690.425998357669
 31
0.0
  0
LINE
  5
2A0E
330
2D47
100
AcDbEntity
  8
AM_0
100
AcDbLine
 10
339.8619333522099
 20
616.9259983576687
 30
0.0
 11
339.8619333522099
 21
763.9259983576685
 31
0.0
  0
LINE
  5
2A0F
330
2D47
100
AcDbEntity
  8
AM_0
100
AcDbLine
 10
354.8619333522099
 20
594.1722683576688
 30
0.0
 11
354.8619333522099
 21
786.6797183576691
 31
0.0
  0
LINE
  5
2A10
330
2D47
100
AcDbEntity
  8
AM_0
100
AcDbLine
 10
449.8619633522097
 20
621.2192683576687
 30
0.0
 11
449.8619633522097
 21
759.6327183576691
 31
0.0
  0
LINE
  5
2A11
330
2D47
100
AcDbEntity
  8
AM_0
100
AcDbLine
 10
477.8619333522098
 20
690.425998357669
 30
0.0
 11
477.8619333522098
 21
717.693938357669
 31
0.0
  0
LINE
  5
2A12
330
2D47
100
AcDbEntity
  8
AM_0
100
AcDbLine
 10
470.8619633522097
 20
629.3226283576688
 30
0.0
 11
470.8619633522097
 21
751.529388357669
 31
0.0
  0
LINE
  5
2A13
330
2D47
100
AcDbEntity
  8
AM_0
100
AcDbLine
 10
364.8619333522099
 20
590.9259983576687
 30
0.0
 11
364.8619333522099
 21
789.9259983576691
 31
0.0
  0
POLYLINE
  5
2A14
330
2D47
100
AcDbEntity
  8
AM_0
100
AcDb2dPolyline
 66
     1
 10
0.0
 20
0.0
 30
0.0
  0
VERTEX
  5
2A15
330
2A14
100
AcDbEntity
  8
AM_0
100
AcDbVertex
100
AcDb2dVertex
 10
364.8619333522099
 20
660.1495683576688
 30
0.0
 42
-0.07005559
  0
VERTEX
  5
2A16
330
2A14
100
AcDbEntity
  8
AM_0
100
AcDbVertex
100
AcDb2dVertex
 10
391.2225933522099
 20
639.9522283576687
 30
0.0
 42
-0.27110578
  0
VERTEX
  5
2A17
330
2A14
100
AcDbEntity
  8
AM_0
100
AcDbVertex
100
AcDb2dVertex
 10
399.8619333522098
 20
620.0688783576688
 30
0.0
 42
-0.21303172
  0
VERTEX
  5
2A18
330
2A14
100
AcDbEntity
  8
AM_0
100
AcDbVertex
100
AcDb2dVertex
 10
380.27149335221
 20
601.9340683576687
 30
0.0
  0
VERTEX
  5
2A19
330
2A14
100
AcDbEntity
  8
AM_0
100
AcDbVertex
100
AcDb2dVertex
 10
364.8619333522099
 20
595.635808357669
 30
0.0
 42
-1.0
  0
SEQEND
  5
2A1A
330
2A14
100
AcDbEntity
  8
AM_0
  0
CIRCLE
  5
2A1B
330
2D47
100
AcDbEntity
  8
AM_0
100
AcDbCircle
 10
459.8619633522098
 20
595.4259983576687
 30
0.0
 40
7.5
  0
LINE
  5
2A1C
330
2D47
100
AcDbEntity
  8
AM_0
100
AcDbLine
 10
429.8619333522098
 20
585.7705683576688
 30
0.0
 11
429.8619333522098
 21
601.2123983576688
 31
0.0
  0
LINE
  5
2A1D
330
2D47
100
AcDbEntity
  8
AM_0
100
AcDbLine
 10
477.8619633522096
 20
621.4259983576687
 30
0.0
 11
477.8619633522096
 21
583.0252683576689
 31
0.0
  0
LINE
  5
2A1E
330
2D47
100
AcDbEntity
  8
ﾁｭｳｼﾝｾﾝ1
100
AcDbLine
 10
459.8619633522098
 20
608.9259983576687
 30
0.0
 11
459.8619633522098
 21
581.925998357669
 31
0.0
  0
LINE
  5
2A1F
330
2D47
100
AcDbEntity
  8
AM_0
100
AcDbLine
 10
370.8619333522098
 20
575.425968357669
 30
0.0
 11
474.0015533522098
 21
579.0276783576688
 31
0.0
  0
ARC
  5
2A20
330
2D47
100
AcDbEntity
  8
AM_0
100
AcDbCircle
 10
357.8619333522099
 20
594.1722683576688
 30
0.0
 40
3.0
100
AcDbArc
 50
180.0000100000009
 51
268.0000000000026
  0
ARC
  5
2A21
330
2D47
100
AcDbEntity
  8
AM_0
100
AcDbCircle
 10
355.8619333522099
 20
579.7497883576689
 30
0.0
 40
3.0
100
AcDbArc
 50
85.00000400000415
 51
265.0
  0
LINE
  5
2A22
330
2D47
100
AcDbEntity
  8
AM_0
100
AcDbLine
 10
364.8619333522099
 20
595.635808357669
 30
0.0
 11
354.8619333522099
 21
595.635808357669
 31
0.0
  0
ARC
  5
2A23
330
2D47
100
AcDbEntity
  8
AM_0
100
AcDbCircle
 10
364.8619333522099
 20
585.989108357669
 30
0.0
 40
4.0
100
AcDbArc
 50
265.0000100000003
 51
0.0000006832495047
  0
LINE
  5
2A24
330
2D47
100
AcDbEntity
  8
AM_0
100
AcDbLine
 10
368.8619333522098
 20
590.9259983576687
 30
0.0
 11
368.8619333522098
 21
581.0575283576687
 31
0.0
  0
ARC
  5
2A25
330
2D47
100
AcDbEntity
  8
AM_0
100
AcDbCircle
 10
363.8619333522099
 20
581.0575283576687
 30
0.0
 40
5.0
100
AcDbArc
 50
265.0000100000003
 51
0.0000006832495047
  0
LINE
  5
2A26
330
2D47
100
AcDbEntity
  8
AM_0
100
AcDbLine
 10
356.1234133522097
 20
582.738378357669
 30
0.0
 11
364.5133633522097
 21
582.0043383576686
 31
0.0
  0
LINE
  5
2A27
330
2D47
100
AcDbEntity
  8
AM_0
100
AcDbLine
 10
357.7572633522099
 20
591.1741083576688
 30
0.0
 11
364.86187335221
 21
590.9259983576687
 31
0.0
  0
LINE
  5
2A28
330
2D47
100
AcDbEntity
  8
AM_0
100
AcDbLine
 10
364.8619333522099
 20
590.9259983576687
 30
0.0
 11
368.8619333522098
 21
590.9259983576687
 31
0.0
  0
ARC
  5
2A29
330
2D47
100
AcDbEntity
  8
AM_0
100
AcDbCircle
 10
437.8619333522098
 20
585.7705683576688
 30
0.0
 40
8.0
100
AcDbArc
 50
180.0000100000009
 51
271.9999900000014
  0
LINE
  5
2A2A
330
2D47
100
AcDbEntity
  8
ﾁｭｳｼﾝｾﾝ1
100
AcDbLine
 10
446.3619633522098
 20
595.4259983576687
 30
0.0
 11
473.3619633522097
 21
595.4259983576687
 31
0.0
  0
POLYLINE
  5
2A2B
330
2D47
100
AcDbEntity
  8
AM_0
100
AcDb2dPolyline
 66
     1
 10
0.0
 20
0.0
 30
0.0
  0
VERTEX
  5
2A2C
330
2A2B
100
AcDbEntity
  8
AM_0
100
AcDbVertex
100
AcDb2dVertex
 10
364.8619333522099
 20
613.009188357669
 30
0.0
 42
0.040443759
  0
VERTEX
  5
2A2D
330
2A2B
100
AcDbEntity
  8
AM_0
100
AcDbVertex
100
AcDb2dVertex
 10
376.3901133522097
 20
613.2325583576688
 30
0.0
 42
0.042469384
  0
VERTEX
  5
2A2E
330
2A2B
100
AcDbEntity
  8
AM_0
100
AcDbVertex
100
AcDb2dVertex
 10
387.7238033522099
 20
615.3460683576687
 30
0.0
 42
0.022671411
  0
VERTEX
  5
2A2F
330
2A2B
100
AcDbEntity
  8
AM_0
100
AcDbVertex
100
AcDb2dVertex
 10
393.2082933522099
 20
617.137008357669
 30
0.0
  0
VERTEX
  5
2A30
330
2A2B
100
AcDbEntity
  8
AM_0
100
AcDbVertex
100
AcDb2dVertex
 10
398.5139133522098
 20
619.4058483576688
 30
0.0
 42
-1.0
  0
SEQEND
  5
2A31
330
2A2B
100
AcDbEntity
  8
AM_0
  0
LINE
  5
2A32
330
2D47
100
AcDbEntity
  8
AM_0
100
AcDbLine
 10
364.8619333522099
 20
613.009188357669
 30
0.0
 11
354.8619333522099
 21
613.009188357669
 31
0.0
  0
LINE
  5
2A33
330
2D47
100
AcDbEntity
  8
AM_0
100
AcDbLine
 10
339.8619333522099
 20
616.9259983576687
 30
0.0
 11
349.9928533522099
 21
616.660708357669
 31
0.0
  0
ARC
  5
2A34
330
2D47
100
AcDbEntity
  8
AM_0
100
AcDbCircle
 10
349.8619333522098
 20
611.6624483576688
 30
0.0
 40
5.0
100
AcDbArc
 50
0.0
 51
88.49999700000065
  0
LINE
  5
2A35
330
2D47
100
AcDbEntity
  8
AM_0
100
AcDbLine
 10
339.86187335221
 20
628.8460383576688
 30
0.0
 11
354.8619333522099
 21
628.8460383576688
 31
0.0
  0
LINE
  5
2A36
330
2D47
100
AcDbEntity
  8
AM_0
100
AcDbLine
 10
364.8619333522099
 20
660.1495683576688
 30
0.0
 11
354.8619333522099
 21
660.1495683576688
 31
0.0
  0
LINE
  5
2A37
330
2D47
100
AcDbEntity
  8
AM_0
100
AcDbLine
 10
339.8619333522099
 20
650.9513283576687
 30
0.0
 11
354.8619333522099
 21
650.9513283576687
 31
0.0
  0
ARC
  5
2A38
330
2D47
100
AcDbEntity
  8
AM_0
100
AcDbCircle
 10
441.8619633522097
 20
621.2192683576687
 30
0.0
 40
8.0
100
AcDbArc
 50
271.5000000000026
 51
0.0
  0
ARC
  5
2A39
330
2D47
100
AcDbEntity
  8
AM_0
100
AcDbCircle
 10
441.8619333522098
 20
601.2123983576688
 30
0.0
 40
12.0
100
AcDbArc
 50
91.50000100000154
 51
180.0000100000009
  0
LINE
  5
2A3A
330
2D47
100
AcDbEntity
  8
AM_0
100
AcDbLine
 10
442.0713733522098
 20
613.222018357669
 30
0.0
 11
441.5477833522096
 21
613.2083183576687
 31
0.0
  0
ARC
  5
2A3B
330
2D47
100
AcDbEntity
  8
AM_0
100
AcDbCircle
 10
457.3141733522096
 20
617.068508357669
 30
0.0
 40
8.0
100
AcDbArc
 50
91.50000100000154
 51
164.964200000003
  0
LINE
  5
2A3C
330
2D47
100
AcDbEntity
  8
AM_0
100
AcDbLine
 10
466.9666433522099
 20
625.3240083576687
 30
0.0
 11
457.1047633522097
 21
625.0657683576687
 31
0.0
  0
ARC
  5
2A3D
330
2D47
100
AcDbEntity
  8
AM_0
100
AcDbCircle
 10
466.8619633522097
 20
629.3226283576688
 30
0.0
 40
4.0
100
AcDbArc
 50
271.5000000000026
 51
0.0
  0
ARC
  5
2A3E
330
2D47
100
AcDbEntity
  8
AM_0
100
AcDbCircle
 10
474.8619633522097
 20
629.3632483576687
 30
0.0
 40
4.0
100
AcDbArc
 50
180.0000100000009
 51
262.8192499999964
  0
LINE
  5
2A3F
330
2D47
100
AcDbEntity
  8
AM_0
100
AcDbLine
 10
477.8619333522098
 20
663.1580483576688
 30
0.0
 11
477.8619333522098
 21
690.425998357669
 31
0.0
  0
ARC
  5
2A40
330
2D47
100
AcDbEntity
  8
AM_0
100
AcDbCircle
 10
474.8619333522098
 20
663.1580483576688
 30
0.0
 40
3.0
100
AcDbArc
 50
300.0000100000008
 51
0.0
  0
ARC
  5
2A41
330
2D47
100
AcDbEntity
  8
AM_0
100
AcDbCircle
 10
473.8619633522097
 20
655.6524983576688
 30
0.0
 40
3.0
100
AcDbArc
 50
120.0000000000005
 51
180.0000100000009
  0
LINE
  5
2A42
330
2D47
100
AcDbEntity
  8
AM_0
100
AcDbLine
 10
472.3619033522097
 20
658.2506083576689
 30
0.0
 11
476.3619033522097
 21
660.559998357669
 31
0.0
  0
CIRCLE
  5
2A43
330
2D47
100
AcDbEntity
  8
AM_0
100
AcDbCircle
 10
334.8619333522099
 20
785.4259983576691
 30
0.0
 40
7.5
  0
LINE
  5
2A44
330
2D47
100
AcDbEntity
  8
AM_0
100
AcDbLine
 10
319.8255903969719
 20
769.1011510518205
 30
0.0
 11
339.1395833522099
 21
763.9259983576685
 31
0.0
  0
LINE
  5
2A45
330
2D47
100
AcDbEntity
  8
ﾁｭｳｼﾝｾﾝ1
100
AcDbLine
 10
321.3619333522099
 20
785.4259983576691
 30
0.0
 11
348.3619333522099
 21
785.4259983576691
 31
0.0
  0
LINE
  5
2A46
330
2D47
100
AcDbEntity
  8
AM_0
100
AcDbLine
 10
320.5133033522097
 20
801.0210283576689
 30
0.0
 11
370.8619933522097
 21
805.425998357669
 31
0.0
  0
ARC
  5
2A47
330
2D47
100
AcDbEntity
  8
AM_0
100
AcDbCircle
 10
320.8619333522099
 20
797.036288357669
 30
0.0
 40
4.0
100
AcDbArc
 50
95.00000199999858
 51
180.0000100000009
  0
LINE
  5
2A48
330
2D47
100
AcDbEntity
  8
ﾁｭｳｼﾝｾﾝ1
100
AcDbLine
 10
334.8619333522099
 20
771.9259983576685
 30
0.0
 11
334.8619333522099
 21
798.9259983576686
 31
0.0
  0
LINE
  5
2A49
330
2D47
100
AcDbEntity
  8
AM_0
100
AcDbLine
 10
316.8619333522099
 20
772.9645683576691
 30
0.0
 11
316.8619333522099
 21
797.036288357669
 31
0.0
  0
ARC
  5
2A4A
330
2D47
100
AcDbEntity
  8
AM_0
100
AcDbCircle
 10
320.8619333522099
 20
772.9645683576691
 30
0.0
 40
4.0
100
AcDbArc
 50
180.0000100000009
 51
254.9841799557635
  0
ARC
  5
2A4B
330
2D47
100
AcDbEntity
  8
AM_0
100
AcDbCircle
 10
363.8619333522099
 20
799.7944683576686
 30
0.0
 40
5.0
100
AcDbArc
 50
0.0
 51
95.00000199999858
  0
ARC
  5
2A4C
330
2D47
100
AcDbEntity
  8
AM_0
100
AcDbCircle
 10
437.8619333522098
 20
795.081448357669
 30
0.0
 40
8.0
100
AcDbArc
 50
88.00000000000279
 51
180.0000100000009
  0
ARC
  5
2A4D
330
2D47
100
AcDbEntity
  8
AM_0
100
AcDbCircle
 10
355.8619333522099
 20
801.102208357669
 30
0.0
 40
3.0
100
AcDbArc
 50
95.00000199999858
 51
275.0
  0
POLYLINE
  5
2A4E
330
2D47
100
AcDbEntity
  8
AM_0
100
AcDb2dPolyline
 66
     1
 10
0.0
 20
0.0
 30
0.0
  0
VERTEX
  5
2A4F
330
2A4E
100
AcDbEntity
  8
AM_0
100
AcDbVertex
100
AcDb2dVertex
 10
364.8619333522099
 20
720.7024283576686
 30
0.0
 42
0.070055609
  0
VERTEX
  5
2A50
330
2A4E
100
AcDbEntity
  8
AM_0
100
AcDbVertex
100
AcDb2dVertex
 10
391.2225933522099
 20
740.8997683576687
 30
0.0
 42
0.27110581
  0
VERTEX
  5
2A51
330
2A4E
100
AcDbEntity
  8
AM_0
100
AcDbVertex
100
AcDb2dVertex
 10
399.8619333522098
 20
760.7831083576691
 30
0.0
 42
0.21303143
  0
VERTEX
  5
2A52
330
2A4E
100
AcDbEntity
  8
AM_0
100
AcDbVertex
100
AcDb2dVertex
 10
380.27149335221
 20
778.917948357669
 30
0.0
  0
VERTEX
  5
2A53
330
2A4E
100
AcDbEntity
  8
AM_0
100
AcDbVertex
100
AcDb2dVertex
 10
364.8619333522099
 20
785.216218357669
 30
0.0
 42
-1.0
  0
SEQEND
  5
2A54
330
2A4E
100
AcDbEntity
  8
AM_0
  0
LINE
  5
2A55
330
2D47
100
AcDbEntity
  8
AM_0
100
AcDbLine
 10
364.8619333522099
 20
720.7024283576686
 30
0.0
 11
354.8619333522099
 21
720.7024283576686
 31
0.0
  0
LINE
  5
2A56
330
2D47
100
AcDbEntity
  8
AM_0
100
AcDbLine
 10
339.8619333522099
 20
729.9006683576688
 30
0.0
 11
354.8619333522099
 21
729.9006683576688
 31
0.0
  0
POLYLINE
  5
2A57
330
2D47
100
AcDbEntity
  8
AM_0
100
AcDb2dPolyline
 66
     1
 10
0.0
 20
0.0
 30
0.0
  0
VERTEX
  5
2A58
330
2A57
100
AcDbEntity
  8
AM_0
100
AcDbVertex
100
AcDb2dVertex
 10
364.8619333522099
 20
767.842808357669
 30
0.0
 42
-0.040443759
  0
VERTEX
  5
2A59
330
2A57
100
AcDbEntity
  8
AM_0
100
AcDbVertex
100
AcDb2dVertex
 10
376.3901133522097
 20
767.6194383576691
 30
0.0
 42
-0.042469384
  0
VERTEX
  5
2A5A
330
2A57
100
AcDbEntity
  8
AM_0
100
AcDbVertex
100
AcDb2dVertex
 10
387.7238033522099
 20
765.5059183576686
 30
0.0
 42
-0.022671411
  0
VERTEX
  5
2A5B
330
2A57
100
AcDbEntity
  8
AM_0
100
AcDbVertex
100
AcDb2dVertex
 10
393.2082933522099
 20
763.7149783576687
 30
0.0
  0
VERTEX
  5
2A5C
330
2A57
100
AcDbEntity
  8
AM_0
100
AcDbVertex
100
AcDb2dVertex
 10
398.5139133522098
 20
761.4461483576689
 30
0.0
 42
-1.0
  0
SEQEND
  5
2A5D
330
2A57
100
AcDbEntity
  8
AM_0
  0
LINE
  5
2A5E
330
2D47
100
AcDbEntity
  8
AM_0
100
AcDbLine
 10
364.8619333522099
 20
767.842808357669
 30
0.0
 11
354.8619333522099
 21
767.842808357669
 31
0.0
  0
ARC
  5
2A5F
330
2D47
100
AcDbEntity
  8
AM_0
100
AcDbCircle
 10
349.8619333522098
 20
769.189608357669
 30
0.0
 40
5.0
100
AcDbArc
 50
271.5000000000026
 51
0.0
  0
LINE
  5
2A60
330
2D47
100
AcDbEntity
  8
AM_0
100
AcDbLine
 10
339.8619933522098
 20
752.0060783576687
 30
0.0
 11
354.8619333522099
 21
752.0060783576687
 31
0.0
  0
LINE
  5
2A61
330
2D47
100
AcDbEntity
  8
AM_0
100
AcDbLine
 10
339.8619933522098
 20
763.9259983576685
 30
0.0
 11
349.9928533522099
 21
764.191318357669
 31
0.0
  0
ARC
  5
2A62
330
2D47
100
AcDbEntity
  8
AM_0
100
AcDbCircle
 10
357.8619333522099
 20
786.6797183576691
 30
0.0
 40
3.0
100
AcDbArc
 50
91.99999800000055
 51
180.0000100000009
  0
LINE
  5
2A63
330
2D47
100
AcDbEntity
  8
AM_0
100
AcDbLine
 10
364.8619333522099
 20
785.2161583576686
 30
0.0
 11
354.8619333522099
 21
785.2161583576686
 31
0.0
  0
ARC
  5
2A64
330
2D47
100
AcDbEntity
  8
AM_0
100
AcDbCircle
 10
364.8619333522099
 20
794.862888357669
 30
0.0
 40
4.0
100
AcDbArc
 50
0.0
 51
95.00000199999858
  0
LINE
  5
2A65
330
2D47
100
AcDbEntity
  8
AM_0
100
AcDbLine
 10
357.7572033522098
 20
789.6778883576686
 30
0.0
 11
364.86187335221
 21
789.9259983576691
 31
0.0
  0
LINE
  5
2A66
330
2D47
100
AcDbEntity
  8
AM_0
100
AcDbLine
 10
356.1234733522098
 20
798.113618357669
 30
0.0
 11
364.5133633522097
 21
798.8476283576683
 31
0.0
  0
LINE
  5
2A67
330
2D47
100
AcDbEntity
  8
AM_0
100
AcDbLine
 10
368.8619333522098
 20
789.9259983576691
 30
0.0
 11
368.8619333522098
 21
799.7944683576686
 31
0.0
  0
LINE
  5
2A68
330
2D47
100
AcDbEntity
  8
AM_0
100
AcDbLine
 10
364.8619333522099
 20
789.9259983576691
 30
0.0
 11
368.8619333522098
 21
789.9259983576691
 31
0.0
  0
ARC
  5
2A69
330
2D47
100
AcDbEntity
  8
AM_0
100
AcDbCircle
 10
473.8619633522097
 20
725.1994983576691
 30
0.0
 40
3.0
100
AcDbArc
 50
179.9999899999988
 51
240.0000099999997
  0
ARC
  5
2A6A
330
2D47
100
AcDbEntity
  8
AM_0
100
AcDbCircle
 10
474.8619333522098
 20
717.693938357669
 30
0.0
 40
3.0
100
AcDbArc
 50
0.0
 51
60.0000020000013
  0
LINE
  5
2A6B
330
2D47
100
AcDbEntity
  8
AM_0
100
AcDbLine
 10
472.3619633522098
 20
722.6014683576686
 30
0.0
 11
476.3619333522099
 21
720.292088357669
 31
0.0
  0
ARC
  5
2A6C
330
2D47
100
AcDbEntity
  8
AM_0
100
AcDbCircle
 10
441.8619633522097
 20
759.6327183576691
 30
0.0
 40
8.0
100
AcDbArc
 50
0.0
 51
88.49999700000065
  0
ARC
  5
2A6D
330
2D47
100
AcDbEntity
  8
AM_0
100
AcDbCircle
 10
441.8619333522098
 20
779.639618357669
 30
0.0
 40
12.0
100
AcDbArc
 50
180.0000100000009
 51
268.4999999999973
  0
LINE
  5
2A6E
330
2D47
100
AcDbEntity
  8
AM_0
100
AcDbLine
 10
442.0713733522098
 20
767.6299783576686
 30
0.0
 11
441.5478533522098
 21
767.6437083576686
 31
0.0
  0
LINE
  5
2A6F
330
2D47
100
AcDbEntity
  8
AM_0
100
AcDbLine
 10
429.8619333522098
 20
779.639618357669
 30
0.0
 11
429.8619333522098
 21
795.081448357669
 31
0.0
  0
LINE
  5
2A70
330
2D47
100
AcDbEntity
  8
ﾁｭｳｼﾝｾﾝ1
100
AcDbLine
 10
459.8619633522098
 20
771.9259983576685
 30
0.0
 11
459.8619633522098
 21
798.9259983576686
 31
0.0
  0
LINE
  5
2A71
330
2D47
100
AcDbEntity
  8
AM_0
100
AcDbLine
 10
477.8619633522096
 20
759.4259983576685
 30
0.0
 11
477.8619633522096
 21
797.826688357669
 31
0.0
  0
LINE
  5
2A72
330
2D47
100
AcDbEntity
  8
AM_0
100
AcDbLine
 10
466.9666733522098
 20
755.5279883576686
 30
0.0
 11
457.1047633522097
 21
755.7862283576686
 31
0.0
  0
ARC
  5
2A73
330
2D47
100
AcDbEntity
  8
AM_0
100
AcDbCircle
 10
457.3141733522096
 20
763.7834783576683
 30
0.0
 40
8.0
100
AcDbArc
 50
195.0357999999969
 51
268.4999999999973
  0
ARC
  5
2A74
330
2D47
100
AcDbEntity
  8
AM_0
100
AcDbCircle
 10
466.8619633522097
 20
751.529388357669
 30
0.0
 40
4.0
100
AcDbArc
 50
0.0
 51
88.49999700000065
  0
ARC
  5
2A75
330
2D47
100
AcDbEntity
  8
AM_0
100
AcDbCircle
 10
474.8619633522097
 20
751.488738357669
 30
0.0
 40
4.0
100
AcDbArc
 50
97.18075800000082
 51
180.0000100000009
  0
CIRCLE
  5
2A76
330
2D47
100
AcDbEntity
  8
AM_0
100
AcDbCircle
 10
459.8619633522098
 20
785.4259983576691
 30
0.0
 40
7.5
  0
LINE
  5
2A77
330
2D47
100
AcDbEntity
  8
ﾁｭｳｼﾝｾﾝ1
100
AcDbLine
 10
446.3619633522098
 20
785.4259983576691
 30
0.0
 11
473.3619633522097
 21
785.4259983576691
 31
0.0
  0
LINE
  5
2A78
330
2D47
100
AcDbEntity
  8
AM_0
100
AcDbLine
 10
370.8619333522098
 20
805.425998357669
 30
0.0
 11
474.0015533522098
 21
801.8242483576688
 31
0.0
  0
LINE
  5
2A79
330
2D47
100
AcDbEntity
  8
AM_0
100
AcDbLine
 10
481.8619633522096
 20
672.9259983576687
 30
0.0
 11
481.8619633522096
 21
707.9259983576689
 31
0.0
  0
LINE
  5
2A7A
330
2D47
100
AcDbEntity
  8
AM_0
100
AcDbLine
 10
539.8619333522097
 20
674.4259983576687
 30
0.0
 11
539.8619333522097
 21
706.4259983576691
 31
0.0
  0
LINE
  5
2A7B
330
2D47
100
AcDbEntity
  8
AM_0
100
AcDbLine
 10
494.8619333522098
 20
695.4259983576689
 30
0.0
 11
539.8619333522097
 21
695.4259983576689
 31
0.0
  0
LINE
  5
2A7C
330
2D47
100
AcDbEntity
  8
AM_0
100
AcDbLine
 10
494.8619333522098
 20
685.4259983576687
 30
0.0
 11
539.8619333522097
 21
685.4259983576687
 31
0.0
  0
LINE
  5
2A7D
330
2D47
100
AcDbEntity
  8
AM_0
100
AcDbLine
 10
539.8619333522097
 20
674.4259983576687
 30
0.0
 11
481.8619633522096
 21
674.4259983576687
 31
0.0
  0
ARC
  5
2A7E
330
2D47
100
AcDbEntity
  8
AM_0
100
AcDbCircle
 10
494.8619333522098
 20
690.425998357669
 30
0.0
 40
4.9999924
100
AcDbArc
 50
90.00000299999769
 51
270.0
  0
LINE
  5
2A7F
330
2D47
100
AcDbEntity
  8
AM_0
100
AcDbLine
 10
494.8619633522097
 20
685.4259983576687
 30
0.0
 11
494.8619633522097
 21
695.4259983576689
 31
0.0
  0
LINE
  5
2A80
330
2D47
100
AcDbEntity
  8
AM_0
100
AcDbLine
 10
539.8619333522097
 20
706.4259983576691
 30
0.0
 11
481.8619633522096
 21
706.4259983576691
 31
0.0
  0
LINE
  5
2A81
330
2D47
100
AcDbEntity
  8
AM_0
100
AcDbLine
 10
319.8255903969719
 20
611.7508456635172
 30
0.0
 11
339.1395833522099
 21
616.9259983576687
 31
0.0
  0
LINE
  5
2A82
330
2D47
100
AcDbEntity
  8
AM_0
100
AcDbLine
 10
320.5133033522097
 20
579.830968357669
 30
0.0
 11
370.8619933522097
 21
575.4259983576686
 31
0.0
  0
LINE
  5
2A83
330
2D47
100
AcDbEntity
  8
ﾁｭｳｼﾝｾﾝ1
100
AcDbLine
 10
321.3619333522099
 20
595.4259983576687
 30
0.0
 11
348.3619333522099
 21
595.4259983576687
 31
0.0
  0
ARC
  5
2A84
330
2D47
100
AcDbEntity
  8
AM_0
100
AcDbCircle
 10
320.8619333522099
 20
607.8874283576688
 30
0.0
 40
4.0
100
AcDbArc
 50
105.0158200442364
 51
179.9999899999988
  0
LINE
  5
2A85
330
2D47
100
AcDbEntity
  8
AM_0
100
AcDbLine
 10
316.8619333522099
 20
607.8874283576688
 30
0.0
 11
316.8619333522099
 21
583.815708357669
 31
0.0
  0
ARC
  5
2A86
330
2D47
100
AcDbEntity
  8
AM_0
100
AcDbCircle
 10
320.8619333522099
 20
583.815708357669
 30
0.0
 40
4.0
100
AcDbArc
 50
179.9999899999988
 51
264.9999980000014
  0
CIRCLE
  5
2A87
330
2D47
100
AcDbEntity
  8
AM_0
100
AcDbCircle
 10
334.8619333522099
 20
595.4259983576687
 30
0.0
 40
7.5
  0
LINE
  5
2A88
330
2D47
100
AcDbEntity
  8
ﾁｭｳｼﾝｾﾝ1
100
AcDbLine
 10
334.8619333522099
 20
608.9259983576687
 30
0.0
 11
334.8619333522099
 21
581.925998357669
 31
0.0
  0
TEXT
  5
2C6A
330
2D47
100
AcDbEntity
  8
AM_0
100
AcDbText
 10
624.5182264869222
 20
696.6947701810032
 30
0.0
 40
15.0
  1
VX15-003G~VX15-030G
100
AcDbText
  0
LINE
  5
2E93
330
2D47
100
AcDbEntity
  8
AM_0
100
AcDbLine
 10
190.8619533522099
 20
389.1254696206214
 30
0.0
 11
218.8619533522099
 21
389.1254696206214
 31
0.0
  0
ENDSEC
  0
SECTION
  2
OBJECTS
  0
DICTIONARY
  5
2CE4
330
0
100
AcDbDictionary
281
     1
  3
ACAD_CIP_PREVIOUS_PRODUCT_INFO
350
2DFD
  3
ACAD_COLOR
350
2D3A
  3
ACAD_DETAILVIEWSTYLE
350
2D41
  3
ACAD_FIELDLIST
350
2E47
  3
ACAD_GROUP
350
2CE5
  3
ACAD_LAYOUT
350
2D39
  3
ACAD_MATERIAL
350
2CE8
  3
ACAD_MLEADERSTYLE
350
2D3D
  3
ACAD_MLINESTYLE
350
2D36
  3
ACAD_PLOTSETTINGS
350
2D38
  3
ACAD_PLOTSTYLENAME
350
2CE6
  3
ACAD_SCALELIST
350
2D1A
  3
ACAD_SECTIONVIEWSTYLE
350
2D3F
  3
ACAD_TABLESTYLE
350
2D3B
  3
ACAD_VISUALSTYLE
350
2D01
  3
ACDB_RECOMPOSE_DATA
350
3084
  3
AcDbVariableDictionary
350
2F7D
  3
AcmDictionary
350
2E23
  3
AMG
350
2DFE
  3
AMGSNAPSETTINGS
350
2E58
  0
DICTIONARY
  5
2F77
330
2CDA
100
AcDbDictionary
280
     1
281
     1
  3
ACAD_LAYERSTATES
360
2F78
  0
DICTIONARY
  5
2F6A
330
2D2C
100
AcDbDictionary
280
     1
281
     1
  3
ADSK_XREC_LAYER_RECONCILED
360
2F6B
  0
DICTIONARY
  5
2F6C
330
2D4B
100
AcDbDictionary
280
     1
281
     1
  3
ADSK_XREC_LAYER_RECONCILED
360
2F6D
  0
DICTIONARY
  5
2F6E
330
2D65
100
AcDbDictionary
280
     1
281
     1
  3
ADSK_XREC_LAYER_RECONCILED
360
2F6F
  0
DICTIONARY
  5
2F70
330
2D67
100
AcDbDictionary
280
     1
281
     1
  3
ADSK_XREC_LAYER_RECONCILED
360
2F71
  0
DICTIONARY
  5
2F72
330
2D68
100
AcDbDictionary
280
     1
281
     1
  3
ADSK_XREC_LAYER_RECONCILED
360
2F73
  0
DICTIONARY
  5
2E90
330
2D47
100
AcDbDictionary
280
     1
281
     1
  3
ACAD_SORTENTS
360
2E91
  0
XRECORD
  5
2DFD
102
{ACAD_REACTORS
330
2CE4
102
}
330
2CE4
100
AcDbXrecord
280
     1
300
AMECH_PP
300
2019
300

  0
DICTIONARY
  5
2D3A
102
{ACAD_REACTORS
330
2CE4
102
}
330
2CE4
100
AcDbDictionary
281
     1
  0
DICTIONARY
  5
2D41
102
{ACAD_REACTORS
330
2CE4
102
}
330
2CE4
100
AcDbDictionary
281
     1
  3
Imperial24
350
2D42
  0
FIELDLIST
  5
2E47
102
{ACAD_REACTORS
330
2CE4
102
}
330
2CE4
100
AcDbIdSet
 90
        8
330
3018
330
3019
330
301A
330
301B
330
301F
330
3020
330
3021
330
3022
100
AcDbFieldList
  0
DICTIONARY
  5
2CE5
102
{ACAD_REACTORS
330
2CE4
102
}
330
2CE4
100
AcDbDictionary
281
     1
  0
DICTIONARY
  5
2D39
102
{ACAD_REACTORS
330
2CE4
102
}
330
2CE4
100
AcDbDictionary
281
     1
  3
Model
350
2D4A
  3
レイアウト1
350
2D46
  0
DICTIONARY
  5
2CE8
102
{ACAD_REACTORS
330
2CE4
102
}
330
2CE4
100
AcDbDictionary
281
     1
  3
ByBlock
350
2CF1
  3
ByLayer
350
2CE9
  3
Global
350
2CF9
  0
DICTIONARY
  5
2D3D
102
{ACAD_REACTORS
330
2CE4
102
}
330
2CE4
100
AcDbDictionary
281
     1
  3
Standard
350
2D3E
  0
DICTIONARY
  5
2D36
102
{ACAD_REACTORS
330
2CE4
102
}
330
2CE4
100
AcDbDictionary
281
     1
  3
Standard
350
2D37
  0
DICTIONARY
  5
2D38
102
{ACAD_REACTORS
330
2CE4
102
}
330
2CE4
100
AcDbDictionary
281
     1
  0
ACDBDICTIONARYWDFLT
  5
2CE6
102
{ACAD_REACTORS
330
2CE4
102
}
330
2CE4
100
AcDbDictionary
281
     1
  3
Normal
350
2CE7
100
AcDbDictionaryWithDefault
340
2CE7
  0
DICTIONARY
  5
2D1A
102
{ACAD_REACTORS
330
2CE4
102
}
330
2CE4
100
AcDbDictionary
281
     1
  3
A0
350
2D1B
  3
A1
350
2D1C
  3
A2
350
2D1D
  3
A3
350
2D1E
  3
A4
350
2D1F
  3
A5
350
2D20
  3
A6
350
2D21
  3
A7
350
2D22
  3
A8
350
2D23
  3
A9
350
2D24
  3
B0
350
2D25
  3
B1
350
2D26
  3
B2
350
2D27
  3
B3
350
2D28
  3
B4
350
2D29
  3
B5
350
2D2A
  3
B6
350
2D2B
  0
DICTIONARY
  5
2D3F
102
{ACAD_REACTORS
330
2CE4
102
}
330
2CE4
100
AcDbDictionary
281
     1
  3
Imperial24
350
2D40
  0
DICTIONARY
  5
2D3B
102
{ACAD_REACTORS
330
2CE4
102
}
330
2CE4
100
AcDbDictionary
281
     1
  3
Standard
350
2D3C
  0
DICTIONARY
  5
2D01
102
{ACAD_REACTORS
330
2CE4
102
}
330
2CE4
100
AcDbDictionary
281
     1
  3
2dWireframe
350
2D07
  3
Basic
350
2D06
  3
Brighten
350
2D0D
  3
ColorChange
350
2D11
  3
Conceptual
350
2D0A
  3
Dim
350
2D0C
  3
EdgeColorOff
350
2D19
  3
Facepattern
350
2D10
  3
Flat
350
2D02
  3
FlatWithEdges
350
2D03
  3
Gouraud
350
2D04
  3
GouraudWithEdges
350
2D05
  3
Hidden
350
2D09
  3
JitterOff
350
2D17
  3
Linepattern
350
2D0F
  3
OverhangOff
350
2D18
  3
Realistic
350
2D0B
  3
Shaded
350
2D16
  3
Shaded with edges
350
2D15
  3
Shades of Gray
350
2D12
  3
Sketchy
350
2D13
  3
Thicken
350
2D0E
  3
Wireframe
350
2D08
  3
X-Ray
350
2D14
  0
XRECORD
  5
3084
102
{ACAD_REACTORS
330
2CE4
102
}
330
2CE4
100
AcDbXrecord
280
     1
 90
        1
330
2D3C
  0
DICTIONARY
  5
2F7D
102
{ACAD_REACTORS
330
2CE4
102
}
330
2CE4
100
AcDbDictionary
281
     1
  3
CANNOSCALE
350
2F83
  3
CMLEADERSTYLE
350
2F7F
  3
CTABLESTYLE
350
2F7E
  3
CVIEWDETAILSTYLE
350
2F80
  3
CVIEWSECTIONSTYLE
350
2F81
  3
LAYEREVAL
350
2F85
  3
LAYERNOTIFY
350
2F86
  3
LIGHTINGUNITS
350
2F84
  3
MSLTSCALE
350
2F82
  0
DICTIONARY
  5
2E23
102
{ACAD_REACTORS
330
2CE4
102
}
330
2CE4
100
AcDbDictionary
281
     1
  3
AcmStdDictionary
350
2E2C
  0
DICTIONARY
  5
2DFE
102
{ACAD_REACTORS
330
2CE4
102
}
330
2CE4
100
AcDbDictionary
281
     1
  0
DICTIONARY
  5
2E58
102
{ACAD_REACTORS
330
2CE4
102
}
330
2CE4
100
AcDbDictionary
281
     1
  0
DICTIONARY
  5
2F78
102
{ACAD_REACTORS
330
2F77
102
}
330
2F77
100
AcDbDictionary
281
     1
  0
XRECORD
  5
2F6B
102
{ACAD_REACTORS
330
2F6A
102
}
330
2F6A
100
AcDbXrecord
280
     1
290
     1
  0
XRECORD
  5
2F6D
102
{ACAD_REACTORS
330
2F6C
102
}
330
2F6C
100
AcDbXrecord
280
     1
290
     1
  0
XRECORD
  5
2F6F
102
{ACAD_REACTORS
330
2F6E
102
}
330
2F6E
100
AcDbXrecord
280
     1
290
     1
  0
XRECORD
  5
2F71
102
{ACAD_REACTORS
330
2F70
102
}
330
2F70
100
AcDbXrecord
280
     1
290
     1
  0
XRECORD
  5
2F73
102
{ACAD_REACTORS
330
2F72
102
}
330
2F72
100
AcDbXrecord
280
     1
290
     1
  0
SORTENTSTABLE
  5
2E91
102
{ACAD_REACTORS
330
2E90
102
}
330
2E90
100
AcDbSortentsTable
330
2D47
331
28FC
  5
28FD
331
28FD
  5
28FE
331
28FE
  5
28FF
331
28FF
  5
2900
331
2900
  5
2901
331
2901
  5
2902
331
2902
  5
2903
331
2903
  5
2904
331
2904
  5
2917
331
2917
  5
2918
331
2918
  5
2919
331
2919
  5
291A
331
291A
  5
291B
331
291B
  5
291C
331
291C
  5
291D
331
291D
  5
291E
331
291E
  5
291F
331
2920
  5
2923
331
2921
  5
2924
331
2922
  5
2925
331
2923
  5
2926
331
2924
  5
2927
331
2925
  5
2928
331
2926
  5
2929
331
2927
  5
292A
331
2928
  5
292B
331
2929
  5
292C
331
292A
  5
292D
331
292B
  5
292E
331
292C
  5
292F
331
292D
  5
2930
331
292E
  5
2931
331
292F
  5
2932
331
2930
  5
2933
331
2931
  5
2934
331
2932
  5
2935
331
2933
  5
2936
331
2934
  5
2937
331
2935
  5
2938
331
2936
  5
2939
331
2937
  5
293A
331
2938
  5
293B
331
2939
  5
293C
331
293A
  5
293D
331
293B
  5
293E
331
293C
  5
293F
331
293D
  5
2940
331
293E
  5
2941
331
293F
  5
2942
331
2940
  5
2943
331
2941
  5
2944
331
2942
  5
2945
331
2943
  5
2946
331
2944
  5
2947
331
2945
  5
2948
331
2946
  5
2949
331
2947
  5
294A
331
2948
  5
294B
331
2949
  5
294C
331
294A
  5
294D
331
294B
  5
294E
331
294C
  5
294F
331
294D
  5
2950
331
294E
  5
2951
331
294F
  5
2952
331
2950
  5
2953
331
2951
  5
2954
331
2952
  5
2955
331
2953
  5
2956
331
2954
  5
2957
331
2955
  5
2958
331
2956
  5
2959
331
2957
  5
295A
331
2958
  5
295B
331
2959
  5
295C
331
295A
  5
295D
331
295B
  5
295E
331
295C
  5
295F
331
295D
  5
2960
331
295E
  5
2973
331
295F
  5
2974
331
2960
  5
2975
331
2973
  5
2976
331
2974
  5
2977
331
2975
  5
2978
331
2976
  5
2979
331
2977
  5
297A
331
2978
  5
297B
331
2979
  5
297C
331
297A
  5
297D
331
297B
  5
297E
331
297C
  5
297F
331
297D
  5
2980
331
297E
  5
2981
331
297F
  5
2982
331
2980
  5
2983
331
2981
  5
2984
331
2982
  5
2985
331
2983
  5
2986
331
2984
  5
2987
331
2985
  5
2988
331
2986
  5
2989
331
2987
  5
298A
331
2988
  5
298B
331
2989
  5
298C
331
298A
  5
298D
331
298B
  5
298E
331
298C
  5
298F
331
298D
  5
2990
331
298E
  5
2991
331
298F
  5
2992
331
2990
  5
2993
331
2991
  5
2994
331
2992
  5
2995
331
2993
  5
2996
331
2994
  5
2997
331
2995
  5
2998
331
2996
  5
2999
331
2997
  5
299A
331
2998
  5
299B
331
2999
  5
299C
331
299A
  5
299D
331
299B
  5
299E
331
299C
  5
299F
331
299D
  5
29A0
331
299E
  5
29A1
331
299F
  5
29A2
331
29A0
  5
29A3
331
29A1
  5
29A4
331
29A2
  5
29A5
331
29A3
  5
29A6
331
29A4
  5
29A7
331
29A5
  5
29A8
331
29A6
  5
29A9
331
29A7
  5
29AA
331
29A8
  5
29AB
331
29A9
  5
29AC
331
29AA
  5
29AD
331
29AB
  5
29AE
331
29AC
  5
29AF
331
29AD
  5
29B0
331
29AE
  5
29B1
331
29AF
  5
29B2
331
29B0
  5
29B3
331
29B1
  5
29B4
331
29B2
  5
29B5
331
29B3
  5
29B6
331
29B4
  5
29B7
331
29B5
  5
29B8
331
29B6
  5
29B9
331
29B7
  5
29BA
331
29B8
  5
29BB
331
29B9
  5
29BC
331
29BA
  5
29BD
331
29BB
  5
29BE
331
29BC
  5
29BF
331
29BD
  5
29C0
331
29BE
  5
29C1
331
29BF
  5
29C2
331
29C0
  5
29C3
331
29C1
  5
29C4
331
29C2
  5
29C5
331
29C3
  5
29C6
331
29C4
  5
29C7
331
29C5
  5
29C8
331
29C6
  5
29C9
331
29C7
  5
29CA
331
29C8
  5
29CB
331
29C9
  5
29CC
331
29CA
  5
29CD
331
29CB
  5
29CE
331
29CC
  5
29CF
331
29CD
  5
29D0
331
29CE
  5
29D1
331
29CF
  5
29D2
331
29D0
  5
29D3
331
29D1
  5
29D4
331
29D2
  5
29D5
331
29D3
  5
29D6
331
29D4
  5
29D7
331
29D5
  5
29D8
331
29D6
  5
29D9
331
29D7
  5
29DA
331
29D8
  5
29DB
331
29D9
  5
29DC
331
29DA
  5
29DD
331
29DB
  5
29DE
331
29DC
  5
29DF
331
29DD
  5
29E0
331
29DE
  5
29E1
331
29DF
  5
29E2
331
29E0
  5
29E3
331
29E1
  5
29E4
331
29E2
  5
29E5
331
29E3
  5
29E6
331
29E4
  5
29E7
331
29E5
  5
29E8
331
29E6
  5
29E9
331
29E7
  5
29EA
331
29E8
  5
29EB
331
29E9
  5
29EC
331
29EA
  5
29ED
331
29EB
  5
29EE
331
29EC
  5
29EF
331
29ED
  5
29F0
331
29EE
  5
29F1
331
29EF
  5
29F2
331
29F0
  5
29F3
331
29F1
  5
29F4
331
29F2
  5
29F5
331
29F3
  5
29F6
331
29F4
  5
29F7
331
29F5
  5
29F8
331
29F6
  5
29F9
331
29F7
  5
29FA
331
29F8
  5
29FB
331
29F9
  5
29FC
331
29FA
  5
29FD
331
29FB
  5
29FE
331
29FC
  5
29FF
331
29FD
  5
2A00
331
29FE
  5
2A01
331
29FF
  5
2A02
331
2A00
  5
2A03
331
2A01
  5
2A04
331
2A02
  5
2A05
331
2A03
  5
2A07
331
2A04
  5
2A08
331
2A05
  5
2A09
331
2A07
  5
2A0A
331
2A08
  5
2A0B
331
2A09
  5
2A0C
331
2A0A
  5
2A0D
331
2A0B
  5
2A0E
331
2A0C
  5
2A0F
331
2A0D
  5
2A10
331
2A0E
  5
2A11
331
2A0F
  5
2A12
331
2A10
  5
2A13
331
2A11
  5
2A14
331
2A12
  5
2A1B
331
2A13
  5
2A1C
331
2A14
  5
2A1D
331
2A1B
  5
2A1E
331
2A1C
  5
2A1F
331
2A1D
  5
2A20
331
2A1E
  5
2A21
331
2A1F
  5
2A22
331
2A20
  5
2A23
331
2A21
  5
2A24
331
2A22
  5
2A25
331
2A23
  5
2A26
331
2A24
  5
2A27
331
2A25
  5
2A28
331
2A26
  5
2A29
331
2A27
  5
2A2A
331
2A28
  5
2A2B
331
2A29
  5
2A32
331
2A2A
  5
2A33
331
2A2B
  5
2A34
331
2A32
  5
2A35
331
2A33
  5
2A36
331
2A34
  5
2A37
331
2A35
  5
2A38
331
2A36
  5
2A39
331
2A37
  5
2A3A
331
2A38
  5
2A3B
331
2A39
  5
2A3C
331
2A3A
  5
2A3D
331
2A3B
  5
2A3E
331
2A3C
  5
2A3F
331
2A3D
  5
2A40
331
2A3E
  5
2A41
331
2A3F
  5
2A42
331
2A40
  5
2A43
331
2A41
  5
2A44
331
2A42
  5
2A45
331
2A43
  5
2A46
331
2A44
  5
2A47
331
2A45
  5
2A48
331
2A46
  5
2A49
331
2A47
  5
2A4A
331
2A48
  5
2A4B
331
2A49
  5
2A4C
331
2A4A
  5
2A4D
331
2A4B
  5
2A4E
331
2A4C
  5
2A55
331
2A4D
  5
2A56
331
2A4E
  5
2A57
331
2A55
  5
2A5E
331
2A56
  5
2A5F
331
2A57
  5
2A60
331
2A5E
  5
2A61
331
2A5F
  5
2A62
331
2A60
  5
2A63
331
2A61
  5
2A64
331
2A62
  5
2A65
331
2A63
  5
2A66
331
2A64
  5
2A67
331
2A65
  5
2A68
331
2A66
  5
2A69
331
2A67
  5
2A6A
331
2A68
  5
2A6B
331
2A69
  5
2A6C
331
2A6A
  5
2A6D
331
2A6B
  5
2A6E
331
2A6C
  5
2A6F
331
2A6D
  5
2A70
331
2A6E
  5
2A71
331
2A6F
  5
2A72
331
2A70
  5
2A73
331
2A71
  5
2A74
331
2A72
  5
2A75
331
2A73
  5
2A76
331
2A74
  5
2A77
331
2A75
  5
2A78
331
2A76
  5
2A79
331
2A77
  5
2A7A
331
2A78
  5
2A7B
331
2A79
  5
2A7C
331
2A7A
  5
2A7D
331
2A7B
  5
2A7E
331
2A7C
  5
2A7F
331
2A7D
  5
2A80
331
2A7E
  5
2A81
331
2A7F
  5
2A82
331
2A80
  5
2A83
331
2A81
  5
2A84
331
2A82
  5
2A85
331
2A83
  5
2A86
331
2A84
  5
2A87
331
2A85
  5
2A88
331
2A86
  5
2C6A
331
2A87
  5
2E8F
331
2A88
  5
2E92
331
2C6A
  5
2E93
331
2E93
  5
2921
  0
ACDBDETAILVIEWSTYLE
  5
2D42
102
{ACAD_XDICTIONARY
360
30B7
102
}
102
{ACAD_REACTORS
330
2D41
330
3013
102
}
330
2D41
100
AcDbModelDocViewStyle
 70
     0
  3
Imperial24
290
     0
100
AcDbDetailViewStyle
 70
     0
 71
     0
 90
        3
 71
     1
340
2D2D
 62
   256
 40
0.24
340
0
 62
   256
 40
0.24
300

 40
0.36
280
     3
 71
     2
340
2D34
 90
       25
 62
   256
 71
     3
340
2D2D
 62
   256
 40
0.24
 90
        1
 40
0.75
 90
        1
300
%<\AcVar ViewType \f "%tc1">% %<\AcVar ViewDetailId>%\PSCALE %<\AcVar ViewScale \f "%sn">%
 71
     4
340
2D34
 90
       25
 62
   256
340
2D34
 90
       25
 62
   256
280
     0
  0
LAYOUT
  5
2D4A
102
{ACAD_REACTORS
330
2D39
102
}
330
2D39
100
AcDbPlotSettings
  1

  2
JUST PDF 3
  4

  6

 40
0.0
 41
0.0
 42
0.0
 43
0.0
 44
0.0
 45
0.0
 46
0.0
 47
0.0
 48
0.0
 49
0.0
140
0.0
141
0.0
142
1.0
143
1.0
 70
  1712
 72
     0
 73
     0
 74
     0
  7

 75
     0
147
1.0
 76
     0
 77
     2
 78
   300
148
0.0
149
0.0
100
AcDbLayout
  1
Model
 70
     1
 71
     0
 10
0.0
 20
0.0
 11
12.0
 21
9.0
 12
0.0
 22
0.0
 32
0.0
 14
0.0
 24
0.0
 34
0.0
 15
0.0
 25
0.0
 35
0.0
146
0.0
 13
0.0
 23
0.0
 33
0.0
 16
1.0
 26
0.0
 36
0.0
 17
0.0
 27
1.0
 37
0.0
 76
     0
330
2D47
331
2D4C
  0
LAYOUT
  5
2D46
102
{ACAD_REACTORS
330
2D39
102
}
330
2D39
100
AcDbPlotSettings
  1

  2
JUST PDF 3
  4

  6

 40
0.0
 41
0.0
 42
0.0
 43
0.0
 44
0.0
 45
0.0
 46
0.0
 47
0.0
 48
0.0
 49
0.0
140
0.0
141
0.0
142
1.0
143
1.0
 70
   688
 72
     0
 73
     0
 74
     5
  7

 75
    16
147
1.0
 76
     0
 77
     2
 78
   300
148
0.0
149
0.0
100
AcDbLayout
  1
レイアウト1
 70
     1
 71
     1
 10
0.0
 20
0.0
 11
420.0
 21
297.0
 12
0.0
 22
0.0
 32
0.0
 14
1.000000000000000E+20
 24
1.000000000000000E+20
 34
1.000000000000000E+20
 15
-1.000000000000000E+20
 25
-1.000000000000000E+20
 35
-1.000000000000000E+20
146
0.0
 13
0.0
 23
0.0
 33
0.0
 16
1.0
 26
0.0
 36
0.0
 17
0.0
 27
1.0
 37
0.0
 76
     0
330
2D43
  0
MATERIAL
  5
2CF1
102
{ACAD_XDICTIONARY
360
2CF2
102
}
102
{ACAD_REACTORS
330
2CE8
102
}
330
2CE8
100
AcDbMaterial
  1
ByBlock
 72
     0
 43
0.0208333333333333
 43
0.0
 43
0.0
 43
0.0
 43
0.0
 43
0.0208333333333333
 43
0.0
 43
0.0
 43
0.0
 43
0.0
 43
1.0
 43
0.0
 43
0.0
 43
0.0
 43
0.0
 43
1.0
 77
     0
 47
0.0208333333333333
 47
0.0
 47
0.0
 47
0.0
 47
0.0
 47
0.0208333333333333
 47
0.0
 47
0.0
 47
0.0
 47
0.0
 47
1.0
 47
0.0
 47
0.0
 47
0.0
 47
0.0
 47
1.0
171
     0
 49
0.0208333333333333
 49
0.0
 49
0.0
 49
0.0
 49
0.0
 49
0.0208333333333333
 49
0.0
 49
0.0
 49
0.0
 49
0.0
 49
1.0
 49
0.0
 49
0.0
 49
0.0
 49
0.0
 49
1.0
175
     0
142
0.0208333333333333
142
0.0
142
0.0
142
0.0
142
0.0
142
0.0208333333333333
142
0.0
142
0.0
142
0.0
142
0.0
142
1.0
142
0.0
142
0.0
142
0.0
142
0.0
142
1.0
179
     0
144
0.0208333333333333
144
0.0
144
0.0
144
0.0
144
0.0
144
0.0208333333333333
144
0.0
144
0.0
144
0.0
144
0.0
144
1.0
144
0.0
144
0.0
144
0.0
144
0.0
144
1.0
147
0.0208333333333333
147
0.0
147
0.0
147
0.0
147
0.0
147
0.0208333333333333
147
0.0
147
0.0
147
0.0
147
0.0
147
1.0
147
0.0
147
0.0
147
0.0
147
0.0
147
1.0
  0
MATERIAL
  5
2CE9
102
{ACAD_XDICTIONARY
360
2CEA
102
}
102
{ACAD_REACTORS
330
2CE8
102
}
330
2CE8
100
AcDbMaterial
  1
ByLayer
 72
     0
 43
0.0208333333333333
 43
0.0
 43
0.0
 43
0.0
 43
0.0
 43
0.0208333333333333
 43
0.0
 43
0.0
 43
0.0
 43
0.0
 43
1.0
 43
0.0
 43
0.0
 43
0.0
 43
0.0
 43
1.0
 77
     0
 47
0.0208333333333333
 47
0.0
 47
0.0
 47
0.0
 47
0.0
 47
0.0208333333333333
 47
0.0
 47
0.0
 47
0.0
 47
0.0
 47
1.0
 47
0.0
 47
0.0
 47
0.0
 47
0.0
 47
1.0
171
     0
 49
0.0208333333333333
 49
0.0
 49
0.0
 49
0.0
 49
0.0
 49
0.0208333333333333
 49
0.0
 49
0.0
 49
0.0
 49
0.0
 49
1.0
 49
0.0
 49
0.0
 49
0.0
 49
0.0
 49
1.0
175
     0
142
0.0208333333333333
142
0.0
142
0.0
142
0.0
142
0.0
142
0.0208333333333333
142
0.0
142
0.0
142
0.0
142
0.0
142
1.0
142
0.0
142
0.0
142
0.0
142
0.0
142
1.0
179
     0
144
0.0208333333333333
144
0.0
144
0.0
144
0.0
144
0.0
144
0.0208333333333333
144
0.0
144
0.0
144
0.0
144
0.0
144
1.0
144
0.0
144
0.0
144
0.0
144
0.0
144
1.0
147
0.0208333333333333
147
0.0
147
0.0
147
0.0
147
0.0
147
0.0208333333333333
147
0.0
147
0.0
147
0.0
147
0.0
147
1.0
147
0.0
147
0.0
147
0.0
147
0.0
147
1.0
  0
MATERIAL
  5
2CF9
102
{ACAD_XDICTIONARY
360
2CFA
102
}
102
{ACAD_REACTORS
330
2CE8
102
}
330
2CE8
100
AcDbMaterial
  1
Global
 72
     0
 43
0.0208333333333333
 43
0.0
 43
0.0
 43
0.0
 43
0.0
 43
0.0208333333333333
 43
0.0
 43
0.0
 43
0.0
 43
0.0
 43
1.0
 43
0.0
 43
0.0
 43
0.0
 43
0.0
 43
1.0
 77
     0
 47
0.0208333333333333
 47
0.0
 47
0.0
 47
0.0
 47
0.0
 47
0.0208333333333333
 47
0.0
 47
0.0
 47
0.0
 47
0.0
 47
1.0
 47
0.0
 47
0.0
 47
0.0
 47
0.0
 47
1.0
171
     0
 49
0.0208333333333333
 49
0.0
 49
0.0
 49
0.0
 49
0.0
 49
0.0208333333333333
 49
0.0
 49
0.0
 49
0.0
 49
0.0
 49
1.0
 49
0.0
 49
0.0
 49
0.0
 49
0.0
 49
1.0
175
     0
142
0.0208333333333333
142
0.0
142
0.0
142
0.0
142
0.0
142
0.0208333333333333
142
0.0
142
0.0
142
0.0
142
0.0
142
1.0
142
0.0
142
0.0
142
0.0
142
0.0
142
1.0
179
     0
144
0.0208333333333333
144
0.0
144
0.0
144
0.0
144
0.0
144
0.0208333333333333
144
0.0
144
0.0
144
0.0
144
0.0
144
1.0
144
0.0
144
0.0
144
0.0
144
0.0
144
1.0
147
0.0208333333333333
147
0.0
147
0.0
147
0.0
147
0.0
147
0.0208333333333333
147
0.0
147
0.0
147
0.0
147
0.0
147
1.0
147
0.0
147
0.0
147
0.0
147
0.0
147
1.0
  0
MLEADERSTYLE
  5
2D3E
102
{ACAD_REACTORS
330
2D3D
102
}
330
2D3D
100
AcDbMLeaderStyle
179
     2
170
     2
171
     1
172
     0
 90
        2
 40
0.0
 41
0.0
173
     1
 91
-1056964608
340
2D32
 92
       -2
290
     1
 42
0.09
291
     1
 43
0.36
  3
Standard
 44
0.18
300

342
2D2D
174
     1
178
     6
175
     1
176
     0
 93
-1056964608
 45
0.18
292
     0
297
     0
 46
0.18
 94
-1056964608
 47
1.0
 49
1.0
140
1.0
293
     1
141
0.0
294
     1
177
     0
142
1.0
295
     0
296
     0
143
0.125
271
     0
272
     9
273
     9
  0
MLINESTYLE
  5
2D37
102
{ACAD_REACTORS
330
2D36
102
}
330
2D36
100
AcDbMlineStyle
  2
STANDARD
 70
     0
  3

 62
   256
 51
90.0
 52
90.0
 71
     2
 49
0.5
 62
   256
  6
BYLAYER
 49
-0.5
 62
   256
  6
BYLAYER
  0
ACDBPLACEHOLDER
  5
2CE7
102
{ACAD_REACTORS
330
2CE6
102
}
330
2CE6
  0
SCALE
  5
2D1B
102
{ACAD_REACTORS
330
2D1A
102
}
330
2D1A
100
AcDbScale
 70
     0
300
1:1
140
1.0
141
1.0
290
     1
  0
SCALE
  5
2D1C
102
{ACAD_REACTORS
330
2D1A
102
}
330
2D1A
100
AcDbScale
 70
     0
300
1/128" = 1'-0"
140
0.0078125
141
12.0
290
     0
  0
SCALE
  5
2D1D
102
{ACAD_REACTORS
330
2D1A
102
}
330
2D1A
100
AcDbScale
 70
     0
300
1/64" = 1'-0"
140
0.015625
141
12.0
290
     0
  0
SCALE
  5
2D1E
102
{ACAD_REACTORS
330
2D1A
102
}
330
2D1A
100
AcDbScale
 70
     0
300
1/32" = 1'-0"
140
0.03125
141
12.0
290
     0
  0
SCALE
  5
2D1F
102
{ACAD_REACTORS
330
2D1A
102
}
330
2D1A
100
AcDbScale
 70
     0
300
1/16" = 1'-0"
140
0.0625
141
12.0
290
     0
  0
SCALE
  5
2D20
102
{ACAD_REACTORS
330
2D1A
102
}
330
2D1A
100
AcDbScale
 70
     0
300
3/32" = 1'-0"
140
0.09375
141
12.0
290
     0
  0
SCALE
  5
2D21
102
{ACAD_REACTORS
330
2D1A
102
}
330
2D1A
100
AcDbScale
 70
     0
300
1/8" = 1'-0"
140
0.125
141
12.0
290
     0
  0
SCALE
  5
2D22
102
{ACAD_REACTORS
330
2D1A
102
}
330
2D1A
100
AcDbScale
 70
     0
300
3/16" = 1'-0"
140
0.1875
141
12.0
290
     0
  0
SCALE
  5
2D23
102
{ACAD_REACTORS
330
2D1A
102
}
330
2D1A
100
AcDbScale
 70
     0
300
1/4" = 1'-0"
140
0.25
141
12.0
290
     0
  0
SCALE
  5
2D24
102
{ACAD_REACTORS
330
2D1A
102
}
330
2D1A
100
AcDbScale
 70
     0
300
3/8" = 1'-0"
140
0.375
141
12.0
290
     0
  0
SCALE
  5
2D25
102
{ACAD_REACTORS
330
2D1A
102
}
330
2D1A
100
AcDbScale
 70
     0
300
1/2" = 1'-0"
140
0.5
141
12.0
290
     0
  0
SCALE
  5
2D26
102
{ACAD_REACTORS
330
2D1A
102
}
330
2D1A
100
AcDbScale
 70
     0
300
3/4" = 1'-0"
140
0.75
141
12.0
290
     0
  0
SCALE
  5
2D27
102
{ACAD_REACTORS
330
2D1A
102
}
330
2D1A
100
AcDbScale
 70
     0
300
1" = 1'-0"
140
1.0
141
12.0
290
     0
  0
SCALE
  5
2D28
102
{ACAD_REACTORS
330
2D1A
102
}
330
2D1A
100
AcDbScale
 70
     0
300
1-1/2" = 1'-0"
140
1.5
141
12.0
290
     0
  0
SCALE
  5
2D29
102
{ACAD_REACTORS
330
2D1A
102
}
330
2D1A
100
AcDbScale
 70
     0
300
3" = 1'-0"
140
3.0
141
12.0
290
     0
  0
SCALE
  5
2D2A
102
{ACAD_REACTORS
330
2D1A
102
}
330
2D1A
100
AcDbScale
 70
     0
300
6" = 1'-0"
140
6.0
141
12.0
290
     0
  0
SCALE
  5
2D2B
102
{ACAD_REACTORS
330
2D1A
102
}
330
2D1A
100
AcDbScale
 70
     0
300
1'-0" = 1'-0"
140
12.0
141
12.0
290
     0
  0
ACDBSECTIONVIEWSTYLE
  5
2D40
102
{ACAD_XDICTIONARY
360
30B5
102
}
102
{ACAD_REACTORS
330
2D3F
330
3012
102
}
330
2D3F
100
AcDbModelDocViewStyle
 70
     0
  3
Imperial24
290
     0
100
AcDbSectionViewStyle
 70
     0
 71
     0
 90
       78
 71
     1
340
2D2D
 62
   256
 40
0.24
340
0
340
0
 62
   256
 40
0.24
300
I, O, Q, S, X, Z
 40
0.48
 90
        3
 40
0.18
 90
        1
 71
     2
340
2D34
 90
       25
 62
   256
340
2D34
 90
       50
 62
   256
 40
0.24
 40
0.0
 40
0.24
 71
     3
340
2D2D
 62
   256
 40
0.24
 90
        1
 40
0.75
 90
        1
300
%<\AcVar ViewType \f "%tc1">% %<\AcVar ViewSectionStartId>%-%<\AcVar ViewSectionEndId>%\PSCALE %<\AcVar ViewScale \f "%sn">%
 71
     4
 62
   256
 62
   257
300
ANSI31
 40
1.0
 90
        0
290
     0
290
     0
 90
        6
 40
0.0
 40
1.570796326794896
 40
0.2617993877991494
 40
1.308996938995747
 40
-0.2617993877991494
 40
1.832595714594045
  0
TABLESTYLE
  5
2D3C
102
{ACAD_XDICTIONARY
360
2F87
102
}
102
{ACAD_REACTORS
330
2D3B
102
}
330
2D3B
100
AcDbTableStyle
280
     0
  3
Standard
 70
     0
 71
     0
 40
0.06
 41
0.06
280
     0
281
     0
  7
STANDARD
140
0.18
170
     2
 62
     0
 63
     7
283
     0
 90
      512
 91
        0
  1

274
    -2
284
     1
 64
     0
275
    -2
285
     1
 65
     0
276
    -2
286
     1
 66
     0
277
    -2
287
     1
 67
     0
278
    -2
288
     1
 68
     0
279
    -2
289
     1
 69
     0
  7
STANDARD
140
0.25
170
     5
 62
     0
 63
     7
283
     0
 90
      512
 91
        0
  1

274
    -2
284
     1
 64
     0
275
    -2
285
     1
 65
     0
276
    -2
286
     1
 66
     0
277
    -2
287
     1
 67
     0
278
    -2
288
     1
 68
     0
279
    -2
289
     1
 69
     0
  7
STANDARD
140
0.18
170
     5
 62
     0
 63
     7
283
     0
 90
      512
 91
        0
  1

274
    -2
284
     1
 64
     0
275
    -2
285
     1
 65
     0
276
    -2
286
     1
 66
     0
277
    -2
287
     1
 67
     0
278
    -2
288
     1
 68
     0
279
    -2
289
     1
 69
     0
  0
VISUALSTYLE
  5
2D07
102
{ACAD_XDICTIONARY
360
308F
102
}
102
{ACAD_REACTORS
330
2D01
102
}
330
2D01
100
AcDbVisualStyle
  2
2dWireframe
 70
     4
177
     2
291
     0
 71
     0
176
     1
 72
     2
176
     1
 73
     0
176
     1
 90
        0
176
     1
 40
0.6
176
     1
 41
30.0
176
     1
 63
     7
421
 16777215
176
     1
 74
     1
176
     1
 91
        4
176
     1
 64
     7
176
     1
 65
   257
176
     1
 75
     1
176
     1
175
     1
176
     1
 42
1.0
176
     1
 92
        0
176
     1
 66
   257
176
     1
 43
1.0
176
     1
 76
     1
176
     1
 77
     6
176
     1
 78
     2
176
     1
 67
     7
176
     1
 79
     5
176
     1
170
     0
176
     1
171
     0
176
     1
290
     0
176
     1
 93
        1
176
     1
 44
0.0
176
     1
173
     0
176
     1
1001
ACAD
1000
AcDbSavedByObjectVersion
1070
     0
  0
VISUALSTYLE
  5
2D06
102
{ACAD_XDICTIONARY
360
308D
102
}
102
{ACAD_REACTORS
330
2D01
102
}
330
2D01
100
AcDbVisualStyle
  2
Basic
 70
     7
177
     2
291
     1
 71
     1
176
     1
 72
     0
176
     1
 73
     1
176
     1
 90
        0
176
     1
 40
0.6
176
     1
 41
30.0
176
     1
 63
     7
421
 16777215
176
     1
 74
     0
176
     1
 91
        4
176
     1
 64
     7
176
     1
 65
   257
176
     1
 75
     1
176
     1
175
     1
176
     1
 42
1.0
176
     1
 92
        8
176
     1
 66
     7
176
     1
 43
1.0
176
     1
 76
     1
176
     1
 77
     6
176
     1
 78
     2
176
     1
 67
     7
176
     1
 79
     5
176
     1
170
     0
176
     1
171
     0
176
     1
290
     0
176
     1
 93
        1
176
     1
 44
0.0
176
     1
173
     0
176
     1
1001
ACAD
1000
AcDbSavedByObjectVersion
1070
     0
  0
VISUALSTYLE
  5
2D0D
102
{ACAD_XDICTIONARY
360
309B
102
}
102
{ACAD_REACTORS
330
2D01
102
}
330
2D01
100
AcDbVisualStyle
  2
Brighten
 70
    12
177
     2
291
     1
 71
     2
176
     1
 72
     2
176
     1
 73
     0
176
     1
 90
        0
176
     1
 40
0.6
176
     1
 41
30.0
176
     1
 63
     7
421
 16777215
176
     1
 74
     1
176
     1
 91
        4
176
     1
 64
     7
176
     1
 65
   257
176
     1
 75
     1
176
     1
175
     1
176
     1
 42
1.0
176
     1
 92
        8
176
     1
 66
     7
176
     1
 43
1.0
176
     1
 76
     1
176
     1
 77
     6
176
     1
 78
     2
176
     1
 67
     7
176
     1
 79
     5
176
     1
170
     0
176
     1
171
     0
176
     1
290
     0
176
     1
 93
        1
176
     1
 44
50.0
176
     1
173
     0
176
     1
1001
ACAD
1000
AcDbSavedByObjectVersion
1070
     0
  0
VISUALSTYLE
  5
2D11
102
{ACAD_XDICTIONARY
360
30A3
102
}
102
{ACAD_REACTORS
330
2D01
102
}
330
2D01
100
AcDbVisualStyle
  2
ColorChange
 70
    16
177
     2
291
     1
 71
     2
176
     1
 72
     2
176
     1
 73
     3
176
     1
 90
        0
176
     1
 40
0.6
176
     1
 41
30.0
176
     1
 63
     8
421
  8421504
176
     1
 74
     1
176
     1
 91
        4
176
     1
 64
     7
176
     1
 65
   257
176
     1
 75
     1
176
     1
175
     1
176
     1
 42
1.0
176
     1
 92
        8
176
     1
 66
     8
424
  8421504
176
     1
 43
1.0
176
     1
 76
     1
176
     1
 77
     6
176
     1
 78
     2
176
     1
 67
     7
176
     1
 79
     5
176
     1
170
     0
176
     1
171
     0
176
     1
290
     0
176
     1
 93
        1
176
     1
 44
0.0
176
     1
173
     0
176
     1
1001
ACAD
1000
AcDbSavedByObjectVersion
1070
     0
  0
VISUALSTYLE
  5
2D0A
102
{ACAD_XDICTIONARY
360
3095
102
}
102
{ACAD_REACTORS
330
2D01
102
}
330
2D01
100
AcDbVisualStyle
  2
Conceptual
 70
     9
177
     2
291
     0
 71
     3
176
     1
 72
     2
176
     1
 73
     0
176
     1
 90
        0
176
     1
 40
0.6
176
     1
 41
30.0
176
     1
 63
     7
421
 16777215
176
     1
 74
     2
176
     1
 91
        2
176
     1
 64
     7
176
     1
 65
   257
176
     1
 75
     1
176
     1
175
     1
176
     1
 42
179.0
176
     1
 92
        8
176
     1
 66
     7
176
     1
 43
1.0
176
     1
 76
     1
176
     1
 77
     6
176
     1
 78
     2
176
     1
 67
     7
176
     1
 79
     3
176
     1
170
     0
176
     1
171
     0
176
     1
290
     0
176
     1
 93
        1
176
     1
 44
0.0
176
     1
173
     0
176
     1
1001
ACAD
1000
AcDbSavedByObjectVersion
1070
     0
  0
VISUALSTYLE
  5
2D0C
102
{ACAD_XDICTIONARY
360
3099
102
}
102
{ACAD_REACTORS
330
2D01
102
}
330
2D01
100
AcDbVisualStyle
  2
Dim
 70
    11
177
     2
291
     1
 71
     2
176
     1
 72
     2
176
     1
 73
     0
176
     1
 90
        0
176
     1
 40
0.6
176
     1
 41
30.0
176
     1
 63
     7
421
 16777215
176
     1
 74
     1
176
     1
 91
        4
176
     1
 64
     7
176
     1
 65
   257
176
     1
 75
     1
176
     1
175
     1
176
     1
 42
1.0
176
     1
 92
        8
176
     1
 66
     7
176
     1
 43
1.0
176
     1
 76
     1
176
     1
 77
     6
176
     1
 78
     2
176
     1
 67
     7
176
     1
 79
     5
176
     1
170
     0
176
     1
171
     0
176
     1
290
     0
176
     1
 93
        1
176
     1
 44
-50.0
176
     1
173
     0
176
     1
1001
ACAD
1000
AcDbSavedByObjectVersion
1070
     0
  0
VISUALSTYLE
  5
2D19
102
{ACAD_XDICTIONARY
360
30B3
102
}
102
{ACAD_REACTORS
330
2D01
102
}
330
2D01
100
AcDbVisualStyle
  2
EdgeColorOff
 70
    22
177
     2
291
     1
 71
     2
176
     0
 72
     2
176
     0
 73
     0
176
     0
 90
        0
176
     0
 40
0.6
176
     0
 41
30.0
176
     0
 63
     7
421
 16777215
176
     0
 74
     1
176
     0
 91
        4
176
     0
 64
     7
176
     0
 65
   257
176
     0
 75
     1
176
     0
175
     1
176
     0
 42
1.0
176
     0
 92
        8
176
     2
 66
     7
176
     0
 43
1.0
176
     0
 76
     1
176
     0
 77
     6
176
     0
 78
     2
176
     0
 67
     7
176
     0
 79
     5
176
     0
170
     0
176
     0
171
     0
176
     0
290
     0
176
     0
 93
        1
176
     0
 44
0.0
176
     0
173
     0
176
     0
1001
ACAD
1000
AcDbSavedByObjectVersion
1070
     0
  0
VISUALSTYLE
  5
2D10
102
{ACAD_XDICTIONARY
360
30A1
102
}
102
{ACAD_REACTORS
330
2D01
102
}
330
2D01
100
AcDbVisualStyle
  2
Facepattern
 70
    15
177
     2
291
     1
 71
     2
176
     1
 72
     2
176
     1
 73
     0
176
     1
 90
        0
176
     1
 40
0.6
176
     1
 41
30.0
176
     1
 63
     7
421
 16777215
176
     1
 74
     1
176
     1
 91
        4
176
     1
 64
     7
176
     1
 65
   257
176
     1
 75
     1
176
     1
175
     1
176
     1
 42
1.0
176
     1
 92
        8
176
     1
 66
     7
176
     1
 43
1.0
176
     1
 76
     1
176
     1
 77
     6
176
     1
 78
     2
176
     1
 67
     7
176
     1
 79
     5
176
     1
170
     0
176
     1
171
     0
176
     1
290
     0
176
     1
 93
        1
176
     1
 44
0.0
176
     1
173
     0
176
     1
1001
ACAD
1000
AcDbSavedByObjectVersion
1070
     0
  0
VISUALSTYLE
  5
2D02
102
{ACAD_XDICTIONARY
360
3085
102
}
102
{ACAD_REACTORS
330
2D01
102
}
330
2D01
100
AcDbVisualStyle
  2
Flat
 70
     0
177
     2
291
     1
 71
     2
176
     1
 72
     1
176
     1
 73
     1
176
     1
 90
        2
176
     1
 40
0.6
176
     1
 41
30.0
176
     1
 63
     7
421
 16777215
176
     1
 74
     0
176
     1
 91
        0
176
     1
 64
     7
176
     1
 65
   257
176
     1
 75
     1
176
     1
175
     1
176
     1
 42
1.0
176
     1
 92
        8
176
     1
 66
     7
176
     1
 43
1.0
176
     1
 76
     1
176
     1
 77
     6
176
     1
 78
     2
176
     1
 67
     7
176
     1
 79
     5
176
     1
170
     0
176
     1
171
     0
176
     1
290
     0
176
     1
 93
       13
176
     1
 44
0.0
176
     1
173
     0
176
     1
1001
ACAD
1000
AcDbSavedByObjectVersion
1070
     0
  0
VISUALSTYLE
  5
2D03
102
{ACAD_XDICTIONARY
360
3087
102
}
102
{ACAD_REACTORS
330
2D01
102
}
330
2D01
100
AcDbVisualStyle
  2
FlatWithEdges
 70
     1
177
     2
291
     1
 71
     2
176
     1
 72
     1
176
     1
 73
     1
176
     1
 90
        2
176
     1
 40
0.6
176
     1
 41
30.0
176
     1
 63
     7
421
 16777215
176
     1
 74
     1
176
     1
 91
        0
176
     1
 64
     7
176
     1
 65
   257
176
     1
 75
     1
176
     1
175
     1
176
     1
 42
1.0
176
     1
 92
        0
176
     1
 66
   257
176
     1
 43
1.0
176
     1
 76
     1
176
     1
 77
     6
176
     1
 78
     2
176
     1
 67
     7
176
     1
 79
     5
176
     1
170
     0
176
     1
171
     0
176
     1
290
     0
176
     1
 93
       13
176
     1
 44
0.0
176
     1
173
     0
176
     1
1001
ACAD
1000
AcDbSavedByObjectVersion
1070
     0
  0
VISUALSTYLE
  5
2D04
102
{ACAD_XDICTIONARY
360
3089
102
}
102
{ACAD_REACTORS
330
2D01
102
}
330
2D01
100
AcDbVisualStyle
  2
Gouraud
 70
     2
177
     2
291
     1
 71
     2
176
     1
 72
     2
176
     1
 73
     1
176
     1
 90
        2
176
     1
 40
0.6
176
     1
 41
30.0
176
     1
 63
     7
421
 16777215
176
     1
 74
     0
176
     1
 91
        0
176
     1
 64
     7
176
     1
 65
   257
176
     1
 75
     1
176
     1
175
     1
176
     1
 42
1.0
176
     1
 92
        0
176
     1
 66
     7
176
     1
 43
1.0
176
     1
 76
     1
176
     1
 77
     6
176
     1
 78
     2
176
     1
 67
     7
176
     1
 79
     5
176
     1
170
     0
176
     1
171
     0
176
     1
290
     0
176
     1
 93
       13
176
     1
 44
0.0
176
     1
173
     0
176
     1
1001
ACAD
1000
AcDbSavedByObjectVersion
1070
     0
  0
VISUALSTYLE
  5
2D05
102
{ACAD_XDICTIONARY
360
308B
102
}
102
{ACAD_REACTORS
330
2D01
102
}
330
2D01
100
AcDbVisualStyle
  2
GouraudWithEdges
 70
     3
177
     2
291
     1
 71
     2
176
     1
 72
     2
176
     1
 73
     1
176
     1
 90
        2
176
     1
 40
0.6
176
     1
 41
30.0
176
     1
 63
     7
421
 16777215
176
     1
 74
     1
176
     1
 91
        0
176
     1
 64
     7
176
     1
 65
   257
176
     1
 75
     1
176
     1
175
     1
176
     1
 42
1.0
176
     1
 92
        0
176
     1
 66
   257
176
     1
 43
1.0
176
     1
 76
     1
176
     1
 77
     6
176
     1
 78
     2
176
     1
 67
     7
176
     1
 79
     5
176
     1
170
     0
176
     1
171
     0
176
     1
290
     0
176
     1
 93
       13
176
     1
 44
0.0
176
     1
173
     0
176
     1
1001
ACAD
1000
AcDbSavedByObjectVersion
1070
     0
  0
VISUALSTYLE
  5
2D09
102
{ACAD_XDICTIONARY
360
3093
102
}
102
{ACAD_REACTORS
330
2D01
102
}
330
2D01
100
AcDbVisualStyle
  2
Hidden
 70
     6
177
     2
291
     0
 71
     1
176
     1
 72
     2
176
     1
 73
     2
176
     1
 90
        0
176
     1
 40
0.6
176
     1
 41
30.0
176
     1
 63
     7
421
 16777215
176
     1
 74
     2
176
     1
 91
        2
176
     1
 64
     7
176
     1
 65
   257
176
     1
 75
     2
176
     1
175
     1
176
     1
 42
40.0
176
     1
 92
        0
176
     1
 66
   257
176
     1
 43
1.0
176
     1
 76
     1
176
     1
 77
     6
176
     1
 78
     2
176
     1
 67
     7
176
     1
 79
     3
176
     1
170
     0
176
     1
171
     0
176
     1
290
     0
176
     1
 93
        1
176
     1
 44
0.0
176
     1
173
     0
176
     1
1001
ACAD
1000
AcDbSavedByObjectVersion
1070
     0
  0
VISUALSTYLE
  5
2D17
102
{ACAD_XDICTIONARY
360
30AF
102
}
102
{ACAD_REACTORS
330
2D01
102
}
330
2D01
100
AcDbVisualStyle
  2
JitterOff
 70
    20
177
     2
291
     1
 71
     2
176
     0
 72
     2
176
     0
 73
     0
176
     0
 90
        0
176
     0
 40
0.6
176
     0
 41
30.0
176
     0
 63
     7
421
 16777215
176
     0
 74
     1
176
     0
 91
        4
176
     0
 64
     7
176
     0
 65
   257
176
     0
 75
     1
176
     0
175
     1
176
     0
 42
1.0
176
     0
 92
       10
176
     2
 66
     7
176
     0
 43
1.0
176
     0
 76
     1
176
     0
 77
     6
176
     0
 78
     2
176
     0
 67
     7
176
     0
 79
     5
176
     0
170
     0
176
     0
171
     0
176
     0
290
     0
176
     0
 93
        1
176
     0
 44
0.0
176
     0
173
     0
176
     0
1001
ACAD
1000
AcDbSavedByObjectVersion
1070
     0
  0
VISUALSTYLE
  5
2D0F
102
{ACAD_XDICTIONARY
360
309F
102
}
102
{ACAD_REACTORS
330
2D01
102
}
330
2D01
100
AcDbVisualStyle
  2
Linepattern
 70
    14
177
     2
291
     1
 71
     2
176
     1
 72
     2
176
     1
 73
     0
176
     1
 90
        0
176
     1
 40
0.6
176
     1
 41
30.0
176
     1
 63
     7
421
 16777215
176
     1
 74
     1
176
     1
 91
        4
176
     1
 64
     7
176
     1
 65
   257
176
     1
 75
     7
176
     1
175
     7
176
     1
 42
1.0
176
     1
 92
        8
176
     1
 66
     7
176
     1
 43
1.0
176
     1
 76
     1
176
     1
 77
     6
176
     1
 78
     2
176
     1
 67
     7
176
     1
 79
     5
176
     1
170
     0
176
     1
171
     0
176
     1
290
     0
176
     1
 93
        1
176
     1
 44
0.0
176
     1
173
     0
176
     1
1001
ACAD
1000
AcDbSavedByObjectVersion
1070
     0
  0
VISUALSTYLE
  5
2D18
102
{ACAD_XDICTIONARY
360
30B1
102
}
102
{ACAD_REACTORS
330
2D01
102
}
330
2D01
100
AcDbVisualStyle
  2
OverhangOff
 70
    21
177
     2
291
     1
 71
     2
176
     0
 72
     2
176
     0
 73
     0
176
     0
 90
        0
176
     0
 40
0.6
176
     0
 41
30.0
176
     0
 63
     7
421
 16777215
176
     0
 74
     1
176
     0
 91
        4
176
     0
 64
     7
176
     0
 65
   257
176
     0
 75
     1
176
     0
175
     1
176
     0
 42
1.0
176
     0
 92
        9
176
     2
 66
     7
176
     0
 43
1.0
176
     0
 76
     1
176
     0
 77
     6
176
     0
 78
     2
176
     0
 67
     7
176
     0
 79
     5
176
     0
170
     0
176
     0
171
     0
176
     0
290
     0
176
     0
 93
        1
176
     0
 44
0.0
176
     0
173
     0
176
     0
1001
ACAD
1000
AcDbSavedByObjectVersion
1070
     0
  0
VISUALSTYLE
  5
2D0B
102
{ACAD_XDICTIONARY
360
3097
102
}
102
{ACAD_REACTORS
330
2D01
102
}
330
2D01
100
AcDbVisualStyle
  2
Realistic
 70
     8
177
     2
291
     0
 71
     2
176
     1
 72
     3
176
     1
 73
     0
176
     1
 90
        2
176
     1
 40
0.6
176
     1
 41
30.0
176
     1
 63
     7
421
 16777215
176
     1
 74
     0
176
     1
 91
        0
176
     1
 64
     7
176
     1
 65
   257
176
     1
 75
     1
176
     1
175
     1
176
     1
 42
1.0
176
     1
 92
        8
176
     1
 66
   257
176
     1
 43
1.0
176
     1
 76
     1
176
     1
 77
     6
176
     1
 78
     2
176
     1
 67
     7
176
     1
 79
     3
176
     1
170
     0
176
     1
171
     0
176
     1
290
     0
176
     1
 93
       13
176
     1
 44
0.0
176
     1
173
     0
176
     1
1001
ACAD
1000
AcDbSavedByObjectVersion
1070
     0
  0
VISUALSTYLE
  5
2D16
102
{ACAD_XDICTIONARY
360
30AD
102
}
102
{ACAD_REACTORS
330
2D01
102
}
330
2D01
100
AcDbVisualStyle
  2
Shaded
 70
    27
177
     2
291
     0
 71
     2
176
     1
 72
     2
176
     1
 73
     1
176
     1
 90
        2
176
     1
 40
0.6
176
     1
 41
30.0
176
     1
 63
     7
421
 16777215
176
     1
 74
     0
176
     1
 91
        4
176
     1
 64
     7
176
     1
 65
   257
176
     1
 75
     1
176
     1
175
     1
176
     1
 42
1.0
176
     1
 92
        8
176
     1
 66
   257
176
     1
 43
1.0
176
     1
 76
     1
176
     1
 77
     6
176
     1
 78
     2
176
     1
 67
     8
425
  7895160
176
     1
 79
     3
176
     1
170
     0
176
     1
171
     0
176
     1
290
     0
176
     1
 93
        5
176
     1
 44
0.0
176
     1
173
     0
176
     1
1001
ACAD
1000
AcDbSavedByObjectVersion
1070
     0
  0
VISUALSTYLE
  5
2D15
102
{ACAD_XDICTIONARY
360
30AB
102
}
102
{ACAD_REACTORS
330
2D01
102
}
330
2D01
100
AcDbVisualStyle
  2
Shaded with edges
 70
    26
177
     2
291
     0
 71
     2
176
     1
 72
     2
176
     1
 73
     1
176
     1
 90
        2
176
     1
 40
0.6
176
     1
 41
30.0
176
     1
 63
     7
421
 16777215
176
     1
 74
     1
176
     1
 91
        2
176
     1
 64
     7
176
     1
 65
   257
176
     1
 75
     2
176
     1
175
     1
176
     1
 42
1.0
176
     1
 92
        8
176
     1
 66
   257
176
     1
 43
1.0
176
     1
 76
     1
176
     1
 77
     6
176
     1
 78
     2
176
     1
 67
     7
176
     1
 79
     3
176
     1
170
     0
176
     1
171
     0
176
     1
290
     0
176
     1
 93
        5
176
     1
 44
0.0
176
     1
173
     0
176
     1
1001
ACAD
1000
AcDbSavedByObjectVersion
1070
     0
  0
VISUALSTYLE
  5
2D12
102
{ACAD_XDICTIONARY
360
30A5
102
}
102
{ACAD_REACTORS
330
2D01
102
}
330
2D01
100
AcDbVisualStyle
  2
Shades of Gray
 70
    23
177
     2
291
     0
 71
     2
176
     1
 72
     2
176
     1
 73
     3
176
     1
 90
        0
176
     1
 40
0.6
176
     1
 41
30.0
176
     1
 63
     7
421
 16777215
176
     1
 74
     2
176
     1
 91
        2
176
     1
 64
     7
176
     1
 65
     7
176
     1
 75
     1
176
     1
175
     1
176
     1
 42
40.0
176
     1
 92
        8
176
     1
 66
     7
176
     1
 43
1.0
176
     1
 76
     1
176
     1
 77
     6
176
     1
 78
     2
176
     1
 67
     7
176
     1
 79
     3
176
     1
170
     0
176
     1
171
     0
176
     1
290
     0
176
     1
 93
        1
176
     1
 44
0.0
176
     1
173
     0
176
     1
1001
ACAD
1000
AcDbSavedByObjectVersion
1070
     0
  0
VISUALSTYLE
  5
2D13
102
{ACAD_XDICTIONARY
360
30A7
102
}
102
{ACAD_REACTORS
330
2D01
102
}
330
2D01
100
AcDbVisualStyle
  2
Sketchy
 70
    24
177
     2
291
     0
 71
     1
176
     1
 72
     2
176
     1
 73
     2
176
     1
 90
        0
176
     1
 40
0.6
176
     1
 41
30.0
176
     1
 63
     7
421
 16777215
176
     1
 74
     2
176
     1
 91
        2
176
     1
 64
     7
176
     1
 65
     7
176
     1
 75
     1
176
     1
175
     1
176
     1
 42
40.0
176
     1
 92
       11
176
     1
 66
     7
176
     1
 43
1.0
176
     1
 76
     1
176
     1
 77
     6
176
     1
 78
     2
176
     1
 67
     7
176
     1
 79
     6
176
     1
170
     0
176
     1
171
     0
176
     1
290
     0
176
     1
 93
        1
176
     1
 44
0.0
176
     1
173
     0
176
     1
1001
ACAD
1000
AcDbSavedByObjectVersion
1070
     0
  0
VISUALSTYLE
  5
2D0E
102
{ACAD_XDICTIONARY
360
309D
102
}
102
{ACAD_REACTORS
330
2D01
102
}
330
2D01
100
AcDbVisualStyle
  2
Thicken
 70
    13
177
     2
291
     1
 71
     2
176
     1
 72
     2
176
     1
 73
     0
176
     1
 90
        0
176
     1
 40
0.6
176
     1
 41
30.0
176
     1
 63
     7
421
 16777215
176
     1
 74
     1
176
     1
 91
        4
176
     1
 64
     7
176
     1
 65
   257
176
     1
 75
     1
176
     1
175
     1
176
     1
 42
1.0
176
     1
 92
       12
176
     1
 66
     7
176
     1
 43
1.0
176
     1
 76
     1
176
     1
 77
     6
176
     1
 78
     2
176
     1
 67
     7
176
     1
 79
     5
176
     1
170
     0
176
     1
171
     0
176
     1
290
     0
176
     1
 93
        1
176
     1
 44
0.0
176
     1
173
     0
176
     1
1001
ACAD
1000
AcDbSavedByObjectVersion
1070
     0
  0
VISUALSTYLE
  5
2D08
102
{ACAD_XDICTIONARY
360
3091
102
}
102
{ACAD_REACTORS
330
2D01
102
}
330
2D01
100
AcDbVisualStyle
  2
Wireframe
 70
     5
177
     2
291
     0
 71
     0
176
     1
 72
     2
176
     1
 73
     0
176
     1
 90
        0
176
     1
 40
0.6
176
     1
 41
30.0
176
     1
 63
     7
421
 16777215
176
     1
 74
     1
176
     1
 91
        4
176
     1
 64
     7
176
     1
 65
   257
176
     1
 75
     1
176
     1
175
     1
176
     1
 42
1.0
176
     1
 92
        0
176
     1
 66
   257
176
     1
 43
1.0
176
     1
 76
     1
176
     1
 77
     6
176
     1
 78
     2
176
     1
 67
     7
176
     1
 79
     3
176
     1
170
     0
176
     1
171
     0
176
     1
290
     0
176
     1
 93
        1
176
     1
 44
0.0
176
     1
173
     0
176
     1
1001
ACAD
1000
AcDbSavedByObjectVersion
1070
     0
  0
VISUALSTYLE
  5
2D14
102
{ACAD_XDICTIONARY
360
30A9
102
}
102
{ACAD_REACTORS
330
2D01
102
}
330
2D01
100
AcDbVisualStyle
  2
X-Ray
 70
    25
177
     2
291
     0
 71
     2
176
     1
 72
     2
176
     1
 73
     1
176
     1
 90
        1
176
     1
 40
0.5
176
     1
 41
30.0
176
     1
 63
     7
421
 16777215
176
     1
 74
     1
176
     1
 91
        0
176
     1
 64
     7
176
     1
 65
   257
176
     1
 75
     1
176
     1
175
     1
176
     1
 42
1.0
176
     1
 92
        8
176
     1
 66
     7
176
     1
 43
1.0
176
     1
 76
     1
176
     1
 77
     6
176
     1
 78
     2
176
     1
 67
     7
176
     1
 79
     3
176
     1
170
     0
176
     1
171
     0
176
     1
290
     0
176
     1
 93
       13
176
     1
 44
0.0
176
     1
173
     0
176
     1
1001
ACAD
1000
AcDbSavedByObjectVersion
1070
     0
  0
DICTIONARYVAR
  5
2F83
102
{ACAD_REACTORS
330
2F7D
102
}
330
2F7D
100
DictionaryVariables
280
     0
  1
1:1
  0
DICTIONARYVAR
  5
2F7F
102
{ACAD_REACTORS
330
2F7D
102
}
330
2F7D
100
DictionaryVariables
280
     0
  1
STANDARD
  0
DICTIONARYVAR
  5
2F7E
102
{ACAD_REACTORS
330
2F7D
102
}
330
2F7D
100
DictionaryVariables
280
     0
  1
STANDARD
  0
DICTIONARYVAR
  5
2F80
102
{ACAD_REACTORS
330
2F7D
102
}
330
2F7D
100
DictionaryVariables
280
     0
  1
Imperial24
  0
DICTIONARYVAR
  5
2F81
102
{ACAD_REACTORS
330
2F7D
102
}
330
2F7D
100
DictionaryVariables
280
     0
  1
Imperial24
  0
DICTIONARYVAR
  5
2F85
102
{ACAD_REACTORS
330
2F7D
102
}
330
2F7D
100
DictionaryVariables
280
     0
  1
1
  0
DICTIONARYVAR
  5
2F86
102
{ACAD_REACTORS
330
2F7D
102
}
330
2F7D
100
DictionaryVariables
280
     0
  1
15
  0
DICTIONARYVAR
  5
2F84
102
{ACAD_REACTORS
330
2F7D
102
}
330
2F7D
100
DictionaryVariables
280
     0
  1
0
  0
DICTIONARYVAR
  5
2F82
102
{ACAD_REACTORS
330
2F7D
102
}
330
2F7D
100
DictionaryVariables
280
     0
  1
0
  0
DICTIONARY
  5
2E2C
102
{ACAD_REACTORS
330
2E23
102
}
330
2E23
100
AcDbDictionary
281
     1
  0
DICTIONARY
  5
30B7
330
2D42
100
AcDbDictionary
280
     1
281
     1
  3
ACAD_XREC_ROUNDTRIP
360
30B8
  0
DICTIONARY
  5
2CF2
330
2CF1
100
AcDbDictionary
280
     1
281
     1
  3
BUMPTILE
360
2CF4
  3
DIFFUSETILE
360
2CF3
  3
OPACITYTILE
360
2CF7
  3
REFLECTIONTILE
360
2CF6
  3
REFRACTIONTILE
360
2CF8
  3
SPECULARTILE
360
2CF5
  0
DICTIONARY
  5
2CEA
330
2CE9
100
AcDbDictionary
280
     1
281
     1
  3
BUMPTILE
360
2CEC
  3
DIFFUSETILE
360
2CEB
  3
OPACITYTILE
360
2CEF
  3
REFLECTIONTILE
360
2CEE
  3
REFRACTIONTILE
360
2CF0
  3
SPECULARTILE
360
2CED
  0
DICTIONARY
  5
2CFA
330
2CF9
100
AcDbDictionary
280
     1
281
     1
  3
BUMPTILE
360
2CFC
  3
DIFFUSETILE
360
2CFB
  3
OPACITYTILE
360
2CFF
  3
REFLECTIONTILE
360
2CFE
  3
REFRACTIONTILE
360
2D00
  3
SPECULARTILE
360
2CFD
  0
DICTIONARY
  5
30B5
330
2D40
100
AcDbDictionary
280
     1
281
     1
  3
ACAD_XREC_ROUNDTRIP
360
30B6
  0
DICTIONARY
  5
2F87
330
2D3C
100
AcDbDictionary
280
     1
281
     1
  3
ACAD_ROUNDTRIP_2008_TABLESTYLE_CELLSTYLEMAP
360
3083
  0
DICTIONARY
  5
308F
330
2D07
100
AcDbDictionary
280
     1
281
     1
  3
ACAD_XREC_ROUNDTRIP
360
3090
  0
DICTIONARY
  5
308D
330
2D06
100
AcDbDictionary
280
     1
281
     1
  3
ACAD_XREC_ROUNDTRIP
360
308E
  0
DICTIONARY
  5
309B
330
2D0D
100
AcDbDictionary
280
     1
281
     1
  3
ACAD_XREC_ROUNDTRIP
360
309C
  0
DICTIONARY
  5
30A3
330
2D11
100
AcDbDictionary
280
     1
281
     1
  3
ACAD_XREC_ROUNDTRIP
360
30A4
  0
DICTIONARY
  5
3095
330
2D0A
100
AcDbDictionary
280
     1
281
     1
  3
ACAD_XREC_ROUNDTRIP
360
3096
  0
DICTIONARY
  5
3099
330
2D0C
100
AcDbDictionary
280
     1
281
     1
  3
ACAD_XREC_ROUNDTRIP
360
309A
  0
DICTIONARY
  5
30B3
330
2D19
100
AcDbDictionary
280
     1
281
     1
  3
ACAD_XREC_ROUNDTRIP
360
30B4
  0
DICTIONARY
  5
30A1
330
2D10
100
AcDbDictionary
280
     1
281
     1
  3
ACAD_XREC_ROUNDTRIP
360
30A2
  0
DICTIONARY
  5
3085
330
2D02
100
AcDbDictionary
280
     1
281
     1
  3
ACAD_XREC_ROUNDTRIP
360
3086
  0
DICTIONARY
  5
3087
330
2D03
100
AcDbDictionary
280
     1
281
     1
  3
ACAD_XREC_ROUNDTRIP
360
3088
  0
DICTIONARY
  5
3089
330
2D04
100
AcDbDictionary
280
     1
281
     1
  3
ACAD_XREC_ROUNDTRIP
360
308A
  0
DICTIONARY
  5
308B
330
2D05
100
AcDbDictionary
280
     1
281
     1
  3
ACAD_XREC_ROUNDTRIP
360
308C
  0
DICTIONARY
  5
3093
330
2D09
100
AcDbDictionary
280
     1
281
     1
  3
ACAD_XREC_ROUNDTRIP
360
3094
  0
DICTIONARY
  5
30AF
330
2D17
100
AcDbDictionary
280
     1
281
     1
  3
ACAD_XREC_ROUNDTRIP
360
30B0
  0
DICTIONARY
  5
309F
330
2D0F
100
AcDbDictionary
280
     1
281
     1
  3
ACAD_XREC_ROUNDTRIP
360
30A0
  0
DICTIONARY
  5
30B1
330
2D18
100
AcDbDictionary
280
     1
281
     1
  3
ACAD_XREC_ROUNDTRIP
360
30B2
  0
DICTIONARY
  5
3097
330
2D0B
100
AcDbDictionary
280
     1
281
     1
  3
ACAD_XREC_ROUNDTRIP
360
3098
  0
DICTIONARY
  5
30AD
330
2D16
100
AcDbDictionary
280
     1
281
     1
  3
ACAD_XREC_ROUNDTRIP
360
30AE
  0
DICTIONARY
  5
30AB
330
2D15
100
AcDbDictionary
280
     1
281
     1
  3
ACAD_XREC_ROUNDTRIP
360
30AC
  0
DICTIONARY
  5
30A5
330
2D12
100
AcDbDictionary
280
     1
281
     1
  3
ACAD_XREC_ROUNDTRIP
360
30A6
  0
DICTIONARY
  5
30A7
330
2D13
100
AcDbDictionary
280
     1
281
     1
  3
ACAD_XREC_ROUNDTRIP
360
30A8
  0
DICTIONARY
  5
309D
330
2D0E
100
AcDbDictionary
280
     1
281
     1
  3
ACAD_XREC_ROUNDTRIP
360
309E
  0
DICTIONARY
  5
3091
330
2D08
100
AcDbDictionary
280
     1
281
     1
  3
ACAD_XREC_ROUNDTRIP
360
3092
  0
DICTIONARY
  5
30A9
330
2D14
100
AcDbDictionary
280
     1
281
     1
  3
ACAD_XREC_ROUNDTRIP
360
30AA
  0
XRECORD
  5
30B8
102
{ACAD_REACTORS
330
30B7
102
}
330
30B7
100
AcDbXrecord
280
     1
102
DISPLAYNAME
  1
Imperial24
102
FLAGS
 90
        0
  0
XRECORD
  5
2CF4
102
{ACAD_REACTORS
330
2CF2
102
}
330
2CF2
100
AcDbXrecord
280
     1
270
     1
271
     1
  0
XRECORD
  5
2CF3
102
{ACAD_REACTORS
330
2CF2
102
}
330
2CF2
100
AcDbXrecord
280
     1
270
     1
271
     1
  0
XRECORD
  5
2CF7
102
{ACAD_REACTORS
330
2CF2
102
}
330
2CF2
100
AcDbXrecord
280
     1
270
     1
271
     1
  0
XRECORD
  5
2CF6
102
{ACAD_REACTORS
330
2CF2
102
}
330
2CF2
100
AcDbXrecord
280
     1
270
     1
271
     1
  0
XRECORD
  5
2CF8
102
{ACAD_REACTORS
330
2CF2
102
}
330
2CF2
100
AcDbXrecord
280
     1
270
     1
271
     1
  0
XRECORD
  5
2CF5
102
{ACAD_REACTORS
330
2CF2
102
}
330
2CF2
100
AcDbXrecord
280
     1
270
     1
271
     1
  0
XRECORD
  5
2CEC
102
{ACAD_REACTORS
330
2CEA
102
}
330
2CEA
100
AcDbXrecord
280
     1
270
     1
271
     1
  0
XRECORD
  5
2CEB
102
{ACAD_REACTORS
330
2CEA
102
}
330
2CEA
100
AcDbXrecord
280
     1
270
     1
271
     1
  0
XRECORD
  5
2CEF
102
{ACAD_REACTORS
330
2CEA
102
}
330
2CEA
100
AcDbXrecord
280
     1
270
     1
271
     1
  0
XRECORD
  5
2CEE
102
{ACAD_REACTORS
330
2CEA
102
}
330
2CEA
100
AcDbXrecord
280
     1
270
     1
271
     1
  0
XRECORD
  5
2CF0
102
{ACAD_REACTORS
330
2CEA
102
}
330
2CEA
100
AcDbXrecord
280
     1
270
     1
271
     1
  0
XRECORD
  5
2CED
102
{ACAD_REACTORS
330
2CEA
102
}
330
2CEA
100
AcDbXrecord
280
     1
270
     1
271
     1
  0
XRECORD
  5
2CFC
102
{ACAD_REACTORS
330
2CFA
102
}
330
2CFA
100
AcDbXrecord
280
     1
270
     1
271
     1
  0
XRECORD
  5
2CFB
102
{ACAD_REACTORS
330
2CFA
102
}
330
2CFA
100
AcDbXrecord
280
     1
270
     1
271
     1
  0
XRECORD
  5
2CFF
102
{ACAD_REACTORS
330
2CFA
102
}
330
2CFA
100
AcDbXrecord
280
     1
270
     1
271
     1
  0
XRECORD
  5
2CFE
102
{ACAD_REACTORS
330
2CFA
102
}
330
2CFA
100
AcDbXrecord
280
     1
270
     1
271
     1
  0
XRECORD
  5
2D00
102
{ACAD_REACTORS
330
2CFA
102
}
330
2CFA
100
AcDbXrecord
280
     1
270
     1
271
     1
  0
XRECORD
  5
2CFD
102
{ACAD_REACTORS
330
2CFA
102
}
330
2CFA
100
AcDbXrecord
280
     1
270
     1
271
     1
  0
XRECORD
  5
30B6
102
{ACAD_REACTORS
330
30B5
102
}
330
30B5
100
AcDbXrecord
280
     1
102
DISPLAYNAME
  1
Imperial24
102
FLAGS
 90
        0
  0
CELLSTYLEMAP
  5
3083
102
{ACAD_REACTORS
330
2F87
102
}
330
2F87
100
AcDbCellStyleMap
 90
        3
300
CELLSTYLE
  1
TABLEFORMAT_BEGIN
 90
        5
170
     1
 91
        0
 92
    32768
 62
   257
 93
        1
300
CONTENTFORMAT
  1
CONTENTFORMAT_BEGIN
 90
        0
 91
        0
 92
      512
 93
        0
300

 40
0.0
140
1.0
 94
        5
 62
     0
340
2D2D
144
0.25
309
CONTENTFORMAT_END
171
     1
301
MARGIN
  1
CELLMARGIN_BEGIN
 40
0.06
 40
0.06
 40
0.06
 40
0.06
 40
0.18
 40
0.18
309
CELLMARGIN_END
 94
        6
 95
        1
302
GRIDFORMAT
  1
GRIDFORMAT_BEGIN
 90
        0
 91
        1
 62
     0
 92
       -2
340
0
 93
        0
 40
0.045
309
GRIDFORMAT_END
 95
        2
302
GRIDFORMAT
  1
GRIDFORMAT_BEGIN
 90
        0
 91
        1
 62
     0
 92
       -2
340
0
 93
        0
 40
0.045
309
GRIDFORMAT_END
 95
        4
302
GRIDFORMAT
  1
GRIDFORMAT_BEGIN
 90
        0
 91
        1
 62
     0
 92
       -2
340
0
 93
        0
 40
0.045
309
GRIDFORMAT_END
 95
        8
302
GRIDFORMAT
  1
GRIDFORMAT_BEGIN
 90
        0
 91
        1
 62
     0
 92
       -2
340
0
 93
        0
 40
0.045
309
GRIDFORMAT_END
 95
       16
302
GRIDFORMAT
  1
GRIDFORMAT_BEGIN
 90
        0
 91
        1
 62
     0
 92
       -2
340
0
 93
        0
 40
0.045
309
GRIDFORMAT_END
 95
       32
302
GRIDFORMAT
  1
GRIDFORMAT_BEGIN
 90
        0
 91
        1
 62
     0
 92
       -2
340
0
 93
        0
 40
0.045
309
GRIDFORMAT_END
309
TABLEFORMAT_END
  1
CELLSTYLE_BEGIN
 90
        1
 91
        1
300
_TITLE
309
CELLSTYLE_END
300
CELLSTYLE
  1
TABLEFORMAT_BEGIN
 90
        5
170
     1
 91
        0
 92
        0
 62
   257
 93
        1
300
CONTENTFORMAT
  1
CONTENTFORMAT_BEGIN
 90
        0
 91
        0
 92
      512
 93
        0
300

 40
0.0
140
1.0
 94
        5
 62
     0
340
2D2D
144
0.18
309
CONTENTFORMAT_END
171
     1
301
MARGIN
  1
CELLMARGIN_BEGIN
 40
0.06
 40
0.06
 40
0.06
 40
0.06
 40
0.18
 40
0.18
309
CELLMARGIN_END
 94
        6
 95
        1
302
GRIDFORMAT
  1
GRIDFORMAT_BEGIN
 90
        0
 91
        1
 62
     0
 92
       -2
340
0
 93
        0
 40
0.045
309
GRIDFORMAT_END
 95
        2
302
GRIDFORMAT
  1
GRIDFORMAT_BEGIN
 90
        0
 91
        1
 62
     0
 92
       -2
340
0
 93
        0
 40
0.045
309
GRIDFORMAT_END
 95
        4
302
GRIDFORMAT
  1
GRIDFORMAT_BEGIN
 90
        0
 91
        1
 62
     0
 92
       -2
340
0
 93
        0
 40
0.045
309
GRIDFORMAT_END
 95
        8
302
GRIDFORMAT
  1
GRIDFORMAT_BEGIN
 90
        0
 91
        1
 62
     0
 92
       -2
340
0
 93
        0
 40
0.045
309
GRIDFORMAT_END
 95
       16
302
GRIDFORMAT
  1
GRIDFORMAT_BEGIN
 90
        0
 91
        1
 62
     0
 92
       -2
340
0
 93
        0
 40
0.045
309
GRIDFORMAT_END
 95
       32
302
GRIDFORMAT
  1
GRIDFORMAT_BEGIN
 90
        0
 91
        1
 62
     0
 92
       -2
340
0
 93
        0
 40
0.045
309
GRIDFORMAT_END
309
TABLEFORMAT_END
  1
CELLSTYLE_BEGIN
 90
        2
 91
        1
300
_HEADER
309
CELLSTYLE_END
300
CELLSTYLE
  1
TABLEFORMAT_BEGIN
 90
        5
170
     1
 91
        0
 92
        0
 62
   257
 93
        1
300
CONTENTFORMAT
  1
CONTENTFORMAT_BEGIN
 90
        0
 91
        0
 92
      512
 93
        0
300

 40
0.0
140
1.0
 94
        2
 62
     0
340
2D2D
144
0.18
309
CONTENTFORMAT_END
171
     1
301
MARGIN
  1
CELLMARGIN_BEGIN
 40
0.06
 40
0.06
 40
0.06
 40
0.06
 40
0.18
 40
0.18
309
CELLMARGIN_END
 94
        6
 95
        1
302
GRIDFORMAT
  1
GRIDFORMAT_BEGIN
 90
        0
 91
        1
 62
     0
 92
       -2
340
0
 93
        0
 40
0.045
309
GRIDFORMAT_END
 95
        2
302
GRIDFORMAT
  1
GRIDFORMAT_BEGIN
 90
        0
 91
        1
 62
     0
 92
       -2
340
0
 93
        0
 40
0.045
309
GRIDFORMAT_END
 95
        4
302
GRIDFORMAT
  1
GRIDFORMAT_BEGIN
 90
        0
 91
        1
 62
     0
 92
       -2
340
0
 93
        0
 40
0.045
309
GRIDFORMAT_END
 95
        8
302
GRIDFORMAT
  1
GRIDFORMAT_BEGIN
 90
        0
 91
        1
 62
     0
 92
       -2
340
0
 93
        0
 40
0.045
309
GRIDFORMAT_END
 95
       16
302
GRIDFORMAT
  1
GRIDFORMAT_BEGIN
 90
        0
 91
        1
 62
     0
 92
       -2
340
0
 93
        0
 40
0.045
309
GRIDFORMAT_END
 95
       32
302
GRIDFORMAT
  1
GRIDFORMAT_BEGIN
 90
        0
 91
        1
 62
     0
 92
       -2
340
0
 93
        0
 40
0.045
309
GRIDFORMAT_END
309
TABLEFORMAT_END
  1
CELLSTYLE_BEGIN
 90
        3
 91
        2
300
_DATA
309
CELLSTYLE_END
  0
XRECORD
  5
3090
102
{ACAD_REACTORS
330
308F
102
}
330
308F
100
AcDbXrecord
280
     1
102
RTVSPost2010Prop28
280
     1
102
RTVSPost2010PropOp28
 70
     1
102
RTVSPost2010Prop29
280
     1
102
RTVSPost2010PropOp29
 70
     1
102
RTVSPost2010Prop30
280
     0
102
RTVSPost2010PropOp30
 70
     1
102
RTVSPost2010Prop31
280
     0
102
RTVSPost2010PropOp31
 70
     1
102
RTVSPost2010Prop32
280
     0
102
RTVSPost2010PropOp32
 70
     1
102
RTVSPost2010Prop33
280
     0
102
RTVSPost2010PropOp33
 70
     1
102
RTVSPost2010Prop34
280
     0
102
RTVSPost2010PropOp34
 70
     1
102
RTVSPost2010Prop35
280
     0
102
RTVSPost2010PropOp35
 70
     1
102
RTVSPost2010Prop36
280
     0
102
RTVSPost2010PropOp36
 70
     1
102
RTVSPost2010Prop37
 90
       50
102
RTVSPost2010PropOp37
 70
     1
102
RTVSPost2010Prop38
140
0.0
102
RTVSPost2010PropOp38
 70
     1
102
RTVSPost2010Prop39
140
1.0
102
RTVSPost2010PropOp39
 70
     1
102
RTVSPost2010Prop40
 90
        0
102
RTVSPost2010PropOp40
 70
     1
102
RTVSPost2010Prop41ColorIndex
 90
       18
102
RTVSPost2010Prop41ColorRGB
 90
        0
102
RTVSPost2010PropOp41
 70
     1
102
RTVSPost2010Prop42
 90
       50
102
RTVSPost2010PropOp42
 70
     1
102
RTVSPost2010Prop43
 90
        3
102
RTVSPost2010PropOp43
 70
     1
102
RTVSPost2010Prop44ColorIndex
 90
        5
102
RTVSPost2010Prop44ColorRGB
 90
      255
102
RTVSPost2010PropOp44
 70
     1
102
RTVSPost2010Prop45
280
     0
102
RTVSPost2010PropOp45
 70
     1
102
RTVSPost2010Prop46
 90
       50
102
RTVSPost2010PropOp46
 70
     1
102
RTVSPost2010Prop47
 90
       50
102
RTVSPost2010PropOp47
 70
     1
102
RTVSPost2010Prop48
 90
       50
102
RTVSPost2010PropOp48
 70
     1
102
RTVSPost2010Prop49
280
     0
102
RTVSPost2010PropOp49
 70
     1
102
RTVSPost2010Prop50
 90
       50
102
RTVSPost2010PropOp50
 70
     1
102
RTVSPost2010Prop51ColorIndex
 90
      256
102
RTVSPost2010Prop51ColorRGB
 90
-16777216
102
RTVSPost2010PropOp51
 70
     0
102
RTVSPost2010Prop52
140
1.0
102
RTVSPost2010PropOp52
 70
     0
102
RTVSPost2010Prop53
 90
        2
102
RTVSPost2010PropOp53
 70
     1
102
RTVSPost2010Prop54
  1
strokes_ogs.tif
102
RTVSPost2010PropOp54
 70
     1
102
RTVSPost2010Prop55
280
     0
102
RTVSPost2010PropOp55
 70
     1
102
RTVSPost2010Prop56
140
1.0
102
RTVSPost2010PropOp56
 70
     1
102
RTVSPost2010Prop57
140
1.0
102
RTVSPost2010PropOp57
 70
     1
  0
XRECORD
  5
308E
102
{ACAD_REACTORS
330
308D
102
}
330
308D
100
AcDbXrecord
280
     1
102
RTVSPost2010Prop28
280
     0
102
RTVSPost2010PropOp28
 70
     1
102
RTVSPost2010Prop29
280
     1
102
RTVSPost2010PropOp29
 70
     1
102
RTVSPost2010Prop30
280
     1
102
RTVSPost2010PropOp30
 70
     1
102
RTVSPost2010Prop31
280
     0
102
RTVSPost2010PropOp31
 70
     1
102
RTVSPost2010Prop32
280
     0
102
RTVSPost2010PropOp32
 70
     1
102
RTVSPost2010Prop33
280
     0
102
RTVSPost2010PropOp33
 70
     1
102
RTVSPost2010Prop34
280
     0
102
RTVSPost2010PropOp34
 70
     1
102
RTVSPost2010Prop35
280
     0
102
RTVSPost2010PropOp35
 70
     1
102
RTVSPost2010Prop36
280
     0
102
RTVSPost2010PropOp36
 70
     1
102
RTVSPost2010Prop37
 90
       50
102
RTVSPost2010PropOp37
 70
     1
102
RTVSPost2010Prop38
140
0.0
102
RTVSPost2010PropOp38
 70
     1
102
RTVSPost2010Prop39
140
1.0
102
RTVSPost2010PropOp39
 70
     1
102
RTVSPost2010Prop40
 90
        0
102
RTVSPost2010PropOp40
 70
     1
102
RTVSPost2010Prop41ColorIndex
 90
       18
102
RTVSPost2010Prop41ColorRGB
 90
        0
102
RTVSPost2010PropOp41
 70
     1
102
RTVSPost2010Prop42
 90
       50
102
RTVSPost2010PropOp42
 70
     1
102
RTVSPost2010Prop43
 90
        3
102
RTVSPost2010PropOp43
 70
     1
102
RTVSPost2010Prop44ColorIndex
 90
        5
102
RTVSPost2010Prop44ColorRGB
 90
      255
102
RTVSPost2010PropOp44
 70
     1
102
RTVSPost2010Prop45
280
     0
102
RTVSPost2010PropOp45
 70
     1
102
RTVSPost2010Prop46
 90
       50
102
RTVSPost2010PropOp46
 70
     1
102
RTVSPost2010Prop47
 90
       50
102
RTVSPost2010PropOp47
 70
     1
102
RTVSPost2010Prop48
 90
       50
102
RTVSPost2010PropOp48
 70
     1
102
RTVSPost2010Prop49
280
     0
102
RTVSPost2010PropOp49
 70
     1
102
RTVSPost2010Prop50
 90
       50
102
RTVSPost2010PropOp50
 70
     1
102
RTVSPost2010Prop51ColorIndex
 90
      256
102
RTVSPost2010Prop51ColorRGB
 90
-16777216
102
RTVSPost2010PropOp51
 70
     0
102
RTVSPost2010Prop52
140
1.0
102
RTVSPost2010PropOp52
 70
     0
102
RTVSPost2010Prop53
 90
        2
102
RTVSPost2010PropOp53
 70
     1
102
RTVSPost2010Prop54
  1
strokes_ogs.tif
102
RTVSPost2010PropOp54
 70
     1
102
RTVSPost2010Prop55
280
     0
102
RTVSPost2010PropOp55
 70
     1
102
RTVSPost2010Prop56
140
1.0
102
RTVSPost2010PropOp56
 70
     1
102
RTVSPost2010Prop57
140
1.0
102
RTVSPost2010PropOp57
 70
     1
  0
XRECORD
  5
309C
102
{ACAD_REACTORS
330
309B
102
}
330
309B
100
AcDbXrecord
280
     1
102
RTVSPost2010Prop28
280
     0
102
RTVSPost2010PropOp28
 70
     1
102
RTVSPost2010Prop29
280
     1
102
RTVSPost2010PropOp29
 70
     1
102
RTVSPost2010Prop30
280
     1
102
RTVSPost2010PropOp30
 70
     1
102
RTVSPost2010Prop31
280
     0
102
RTVSPost2010PropOp31
 70
     1
102
RTVSPost2010Prop32
280
     0
102
RTVSPost2010PropOp32
 70
     1
102
RTVSPost2010Prop33
280
     0
102
RTVSPost2010PropOp33
 70
     1
102
RTVSPost2010Prop34
280
     0
102
RTVSPost2010PropOp34
 70
     1
102
RTVSPost2010Prop35
280
     0
102
RTVSPost2010PropOp35
 70
     1
102
RTVSPost2010Prop36
280
     0
102
RTVSPost2010PropOp36
 70
     1
102
RTVSPost2010Prop37
 90
       50
102
RTVSPost2010PropOp37
 70
     1
102
RTVSPost2010Prop38
140
0.0
102
RTVSPost2010PropOp38
 70
     1
102
RTVSPost2010Prop39
140
1.0
102
RTVSPost2010PropOp39
 70
     1
102
RTVSPost2010Prop40
 90
        0
102
RTVSPost2010PropOp40
 70
     1
102
RTVSPost2010Prop41ColorIndex
 90
       18
102
RTVSPost2010Prop41ColorRGB
 90
        0
102
RTVSPost2010PropOp41
 70
     1
102
RTVSPost2010Prop42
 90
       50
102
RTVSPost2010PropOp42
 70
     1
102
RTVSPost2010Prop43
 90
        3
102
RTVSPost2010PropOp43
 70
     1
102
RTVSPost2010Prop44ColorIndex
 90
        5
102
RTVSPost2010Prop44ColorRGB
 90
      255
102
RTVSPost2010PropOp44
 70
     1
102
RTVSPost2010Prop45
280
     0
102
RTVSPost2010PropOp45
 70
     1
102
RTVSPost2010Prop46
 90
       50
102
RTVSPost2010PropOp46
 70
     1
102
RTVSPost2010Prop47
 90
       50
102
RTVSPost2010PropOp47
 70
     1
102
RTVSPost2010Prop48
 90
       50
102
RTVSPost2010PropOp48
 70
     1
102
RTVSPost2010Prop49
280
     0
102
RTVSPost2010PropOp49
 70
     1
102
RTVSPost2010Prop50
 90
       50
102
RTVSPost2010PropOp50
 70
     1
102
RTVSPost2010Prop51ColorIndex
 90
      256
102
RTVSPost2010Prop51ColorRGB
 90
-16777216
102
RTVSPost2010PropOp51
 70
     0
102
RTVSPost2010Prop52
140
1.0
102
RTVSPost2010PropOp52
 70
     0
102
RTVSPost2010Prop53
 90
        2
102
RTVSPost2010PropOp53
 70
     1
102
RTVSPost2010Prop54
  1
strokes_ogs.tif
102
RTVSPost2010PropOp54
 70
     1
102
RTVSPost2010Prop55
280
     0
102
RTVSPost2010PropOp55
 70
     1
102
RTVSPost2010Prop56
140
1.0
102
RTVSPost2010PropOp56
 70
     1
102
RTVSPost2010Prop57
140
1.0
102
RTVSPost2010PropOp57
 70
     1
  0
XRECORD
  5
30A4
102
{ACAD_REACTORS
330
30A3
102
}
330
30A3
100
AcDbXrecord
280
     1
102
RTVSPost2010Prop28
280
     0
102
RTVSPost2010PropOp28
 70
     1
102
RTVSPost2010Prop29
280
     1
102
RTVSPost2010PropOp29
 70
     1
102
RTVSPost2010Prop30
280
     1
102
RTVSPost2010PropOp30
 70
     1
102
RTVSPost2010Prop31
280
     0
102
RTVSPost2010PropOp31
 70
     1
102
RTVSPost2010Prop32
280
     0
102
RTVSPost2010PropOp32
 70
     1
102
RTVSPost2010Prop33
280
     0
102
RTVSPost2010PropOp33
 70
     1
102
RTVSPost2010Prop34
280
     0
102
RTVSPost2010PropOp34
 70
     1
102
RTVSPost2010Prop35
280
     0
102
RTVSPost2010PropOp35
 70
     1
102
RTVSPost2010Prop36
280
     0
102
RTVSPost2010PropOp36
 70
     1
102
RTVSPost2010Prop37
 90
       50
102
RTVSPost2010PropOp37
 70
     1
102
RTVSPost2010Prop38
140
0.0
102
RTVSPost2010PropOp38
 70
     1
102
RTVSPost2010Prop39
140
1.0
102
RTVSPost2010PropOp39
 70
     1
102
RTVSPost2010Prop40
 90
        0
102
RTVSPost2010PropOp40
 70
     1
102
RTVSPost2010Prop41ColorIndex
 90
       18
102
RTVSPost2010Prop41ColorRGB
 90
        0
102
RTVSPost2010PropOp41
 70
     1
102
RTVSPost2010Prop42
 90
       50
102
RTVSPost2010PropOp42
 70
     1
102
RTVSPost2010Prop43
 90
        3
102
RTVSPost2010PropOp43
 70
     1
102
RTVSPost2010Prop44ColorIndex
 90
        5
102
RTVSPost2010Prop44ColorRGB
 90
      255
102
RTVSPost2010PropOp44
 70
     1
102
RTVSPost2010Prop45
280
     0
102
RTVSPost2010PropOp45
 70
     1
102
RTVSPost2010Prop46
 90
       50
102
RTVSPost2010PropOp46
 70
     1
102
RTVSPost2010Prop47
 90
       50
102
RTVSPost2010PropOp47
 70
     1
102
RTVSPost2010Prop48
 90
       50
102
RTVSPost2010PropOp48
 70
     1
102
RTVSPost2010Prop49
280
     0
102
RTVSPost2010PropOp49
 70
     1
102
RTVSPost2010Prop50
 90
       50
102
RTVSPost2010PropOp50
 70
     1
102
RTVSPost2010Prop51ColorIndex
 90
      256
102
RTVSPost2010Prop51ColorRGB
 90
-16777216
102
RTVSPost2010PropOp51
 70
     0
102
RTVSPost2010Prop52
140
1.0
102
RTVSPost2010PropOp52
 70
     0
102
RTVSPost2010Prop53
 90
        2
102
RTVSPost2010PropOp53
 70
     1
102
RTVSPost2010Prop54
  1
strokes_ogs.tif
102
RTVSPost2010PropOp54
 70
     1
102
RTVSPost2010Prop55
280
     0
102
RTVSPost2010PropOp55
 70
     1
102
RTVSPost2010Prop56
140
1.0
102
RTVSPost2010PropOp56
 70
     1
102
RTVSPost2010Prop57
140
1.0
102
RTVSPost2010PropOp57
 70
     1
  0
XRECORD
  5
3096
102
{ACAD_REACTORS
330
3095
102
}
330
3095
100
AcDbXrecord
280
     1
102
RTVSPost2010Prop28
280
     0
102
RTVSPost2010PropOp28
 70
     1
102
RTVSPost2010Prop29
280
     1
102
RTVSPost2010PropOp29
 70
     1
102
RTVSPost2010Prop30
280
     1
102
RTVSPost2010PropOp30
 70
     1
102
RTVSPost2010Prop31
280
     0
102
RTVSPost2010PropOp31
 70
     1
102
RTVSPost2010Prop32
280
     0
102
RTVSPost2010PropOp32
 70
     1
102
RTVSPost2010Prop33
280
     0
102
RTVSPost2010PropOp33
 70
     1
102
RTVSPost2010Prop34
280
     0
102
RTVSPost2010PropOp34
 70
     1
102
RTVSPost2010Prop35
280
     0
102
RTVSPost2010PropOp35
 70
     1
102
RTVSPost2010Prop36
280
     0
102
RTVSPost2010PropOp36
 70
     1
102
RTVSPost2010Prop37
 90
       50
102
RTVSPost2010PropOp37
 70
     1
102
RTVSPost2010Prop38
140
0.0
102
RTVSPost2010PropOp38
 70
     1
102
RTVSPost2010Prop39
140
1.0
102
RTVSPost2010PropOp39
 70
     1
102
RTVSPost2010Prop40
 90
        0
102
RTVSPost2010PropOp40
 70
     1
102
RTVSPost2010Prop41ColorIndex
 90
       18
102
RTVSPost2010Prop41ColorRGB
 90
        0
102
RTVSPost2010PropOp41
 70
     1
102
RTVSPost2010Prop42
 90
       50
102
RTVSPost2010PropOp42
 70
     1
102
RTVSPost2010Prop43
 90
        3
102
RTVSPost2010PropOp43
 70
     1
102
RTVSPost2010Prop44ColorIndex
 90
        5
102
RTVSPost2010Prop44ColorRGB
 90
      255
102
RTVSPost2010PropOp44
 70
     1
102
RTVSPost2010Prop45
280
     0
102
RTVSPost2010PropOp45
 70
     1
102
RTVSPost2010Prop46
 90
       50
102
RTVSPost2010PropOp46
 70
     1
102
RTVSPost2010Prop47
 90
       50
102
RTVSPost2010PropOp47
 70
     1
102
RTVSPost2010Prop48
 90
       50
102
RTVSPost2010PropOp48
 70
     1
102
RTVSPost2010Prop49
280
     0
102
RTVSPost2010PropOp49
 70
     1
102
RTVSPost2010Prop50
 90
       50
102
RTVSPost2010PropOp50
 70
     1
102
RTVSPost2010Prop51ColorIndex
 90
      256
102
RTVSPost2010Prop51ColorRGB
 90
-16777216
102
RTVSPost2010PropOp51
 70
     0
102
RTVSPost2010Prop52
140
1.0
102
RTVSPost2010PropOp52
 70
     0
102
RTVSPost2010Prop53
 90
        2
102
RTVSPost2010PropOp53
 70
     1
102
RTVSPost2010Prop54
  1
strokes_ogs.tif
102
RTVSPost2010PropOp54
 70
     1
102
RTVSPost2010Prop55
280
     0
102
RTVSPost2010PropOp55
 70
     1
102
RTVSPost2010Prop56
140
1.0
102
RTVSPost2010PropOp56
 70
     1
102
RTVSPost2010Prop57
140
1.0
102
RTVSPost2010PropOp57
 70
     1
  0
XRECORD
  5
309A
102
{ACAD_REACTORS
330
3099
102
}
330
3099
100
AcDbXrecord
280
     1
102
RTVSPost2010Prop28
280
     0
102
RTVSPost2010PropOp28
 70
     1
102
RTVSPost2010Prop29
280
     1
102
RTVSPost2010PropOp29
 70
     1
102
RTVSPost2010Prop30
280
     1
102
RTVSPost2010PropOp30
 70
     1
102
RTVSPost2010Prop31
280
     0
102
RTVSPost2010PropOp31
 70
     1
102
RTVSPost2010Prop32
280
     0
102
RTVSPost2010PropOp32
 70
     1
102
RTVSPost2010Prop33
280
     0
102
RTVSPost2010PropOp33
 70
     1
102
RTVSPost2010Prop34
280
     0
102
RTVSPost2010PropOp34
 70
     1
102
RTVSPost2010Prop35
280
     0
102
RTVSPost2010PropOp35
 70
     1
102
RTVSPost2010Prop36
280
     0
102
RTVSPost2010PropOp36
 70
     1
102
RTVSPost2010Prop37
 90
       50
102
RTVSPost2010PropOp37
 70
     1
102
RTVSPost2010Prop38
140
0.0
102
RTVSPost2010PropOp38
 70
     1
102
RTVSPost2010Prop39
140
1.0
102
RTVSPost2010PropOp39
 70
     1
102
RTVSPost2010Prop40
 90
        0
102
RTVSPost2010PropOp40
 70
     1
102
RTVSPost2010Prop41ColorIndex
 90
       18
102
RTVSPost2010Prop41ColorRGB
 90
        0
102
RTVSPost2010PropOp41
 70
     1
102
RTVSPost2010Prop42
 90
       50
102
RTVSPost2010PropOp42
 70
     1
102
RTVSPost2010Prop43
 90
        3
102
RTVSPost2010PropOp43
 70
     1
102
RTVSPost2010Prop44ColorIndex
 90
        5
102
RTVSPost2010Prop44ColorRGB
 90
      255
102
RTVSPost2010PropOp44
 70
     1
102
RTVSPost2010Prop45
280
     0
102
RTVSPost2010PropOp45
 70
     1
102
RTVSPost2010Prop46
 90
       50
102
RTVSPost2010PropOp46
 70
     1
102
RTVSPost2010Prop47
 90
       50
102
RTVSPost2010PropOp47
 70
     1
102
RTVSPost2010Prop48
 90
       50
102
RTVSPost2010PropOp48
 70
     1
102
RTVSPost2010Prop49
280
     0
102
RTVSPost2010PropOp49
 70
     1
102
RTVSPost2010Prop50
 90
       50
102
RTVSPost2010PropOp50
 70
     1
102
RTVSPost2010Prop51ColorIndex
 90
      256
102
RTVSPost2010Prop51ColorRGB
 90
-16777216
102
RTVSPost2010PropOp51
 70
     0
102
RTVSPost2010Prop52
140
1.0
102
RTVSPost2010PropOp52
 70
     0
102
RTVSPost2010Prop53
 90
        2
102
RTVSPost2010PropOp53
 70
     1
102
RTVSPost2010Prop54
  1
strokes_ogs.tif
102
RTVSPost2010PropOp54
 70
     1
102
RTVSPost2010Prop55
280
     0
102
RTVSPost2010PropOp55
 70
     1
102
RTVSPost2010Prop56
140
1.0
102
RTVSPost2010PropOp56
 70
     1
102
RTVSPost2010Prop57
140
1.0
102
RTVSPost2010PropOp57
 70
     1
  0
XRECORD
  5
30B4
102
{ACAD_REACTORS
330
30B3
102
}
330
30B3
100
AcDbXrecord
280
     1
102
RTVSPost2010Prop28
280
     0
102
RTVSPost2010PropOp28
 70
     1
102
RTVSPost2010Prop29
280
     1
102
RTVSPost2010PropOp29
 70
     1
102
RTVSPost2010Prop30
280
     1
102
RTVSPost2010PropOp30
 70
     1
102
RTVSPost2010Prop31
280
     0
102
RTVSPost2010PropOp31
 70
     1
102
RTVSPost2010Prop32
280
     0
102
RTVSPost2010PropOp32
 70
     1
102
RTVSPost2010Prop33
280
     0
102
RTVSPost2010PropOp33
 70
     1
102
RTVSPost2010Prop34
280
     0
102
RTVSPost2010PropOp34
 70
     1
102
RTVSPost2010Prop35
280
     0
102
RTVSPost2010PropOp35
 70
     1
102
RTVSPost2010Prop36
280
     0
102
RTVSPost2010PropOp36
 70
     1
102
RTVSPost2010Prop37
 90
       50
102
RTVSPost2010PropOp37
 70
     0
102
RTVSPost2010Prop38
140
0.0
102
RTVSPost2010PropOp38
 70
     0
102
RTVSPost2010Prop39
140
1.0
102
RTVSPost2010PropOp39
 70
     0
102
RTVSPost2010Prop40
 90
        0
102
RTVSPost2010PropOp40
 70
     0
102
RTVSPost2010Prop41ColorIndex
 90
       18
102
RTVSPost2010Prop41ColorRGB
 90
        0
102
RTVSPost2010PropOp41
 70
     0
102
RTVSPost2010Prop42
 90
       50
102
RTVSPost2010PropOp42
 70
     0
102
RTVSPost2010Prop43
 90
        3
102
RTVSPost2010PropOp43
 70
     0
102
RTVSPost2010Prop44ColorIndex
 90
        5
102
RTVSPost2010Prop44ColorRGB
 90
      255
102
RTVSPost2010PropOp44
 70
     0
102
RTVSPost2010Prop45
280
     0
102
RTVSPost2010PropOp45
 70
     1
102
RTVSPost2010Prop46
 90
       50
102
RTVSPost2010PropOp46
 70
     0
102
RTVSPost2010Prop47
 90
       50
102
RTVSPost2010PropOp47
 70
     0
102
RTVSPost2010Prop48
 90
       50
102
RTVSPost2010PropOp48
 70
     0
102
RTVSPost2010Prop49
280
     0
102
RTVSPost2010PropOp49
 70
     1
102
RTVSPost2010Prop50
 90
       50
102
RTVSPost2010PropOp50
 70
     0
102
RTVSPost2010Prop51ColorIndex
 90
      256
102
RTVSPost2010Prop51ColorRGB
 90
-16777216
102
RTVSPost2010PropOp51
 70
     0
102
RTVSPost2010Prop52
140
1.0
102
RTVSPost2010PropOp52
 70
     0
102
RTVSPost2010Prop53
 90
        2
102
RTVSPost2010PropOp53
 70
     0
102
RTVSPost2010Prop54
  1
strokes_ogs.tif
102
RTVSPost2010PropOp54
 70
     0
102
RTVSPost2010Prop55
280
     0
102
RTVSPost2010PropOp55
 70
     1
102
RTVSPost2010Prop56
140
1.0
102
RTVSPost2010PropOp56
 70
     0
102
RTVSPost2010Prop57
140
1.0
102
RTVSPost2010PropOp57
 70
     0
  0
XRECORD
  5
30A2
102
{ACAD_REACTORS
330
30A1
102
}
330
30A1
100
AcDbXrecord
280
     1
102
RTVSPost2010Prop28
280
     0
102
RTVSPost2010PropOp28
 70
     1
102
RTVSPost2010Prop29
280
     1
102
RTVSPost2010PropOp29
 70
     1
102
RTVSPost2010Prop30
280
     1
102
RTVSPost2010PropOp30
 70
     1
102
RTVSPost2010Prop31
280
     0
102
RTVSPost2010PropOp31
 70
     1
102
RTVSPost2010Prop32
280
     0
102
RTVSPost2010PropOp32
 70
     1
102
RTVSPost2010Prop33
280
     0
102
RTVSPost2010PropOp33
 70
     1
102
RTVSPost2010Prop34
280
     0
102
RTVSPost2010PropOp34
 70
     1
102
RTVSPost2010Prop35
280
     0
102
RTVSPost2010PropOp35
 70
     1
102
RTVSPost2010Prop36
280
     0
102
RTVSPost2010PropOp36
 70
     1
102
RTVSPost2010Prop37
 90
       50
102
RTVSPost2010PropOp37
 70
     1
102
RTVSPost2010Prop38
140
0.0
102
RTVSPost2010PropOp38
 70
     1
102
RTVSPost2010Prop39
140
1.0
102
RTVSPost2010PropOp39
 70
     1
102
RTVSPost2010Prop40
 90
        0
102
RTVSPost2010PropOp40
 70
     1
102
RTVSPost2010Prop41ColorIndex
 90
       18
102
RTVSPost2010Prop41ColorRGB
 90
        0
102
RTVSPost2010PropOp41
 70
     1
102
RTVSPost2010Prop42
 90
       50
102
RTVSPost2010PropOp42
 70
     1
102
RTVSPost2010Prop43
 90
        3
102
RTVSPost2010PropOp43
 70
     1
102
RTVSPost2010Prop44ColorIndex
 90
        5
102
RTVSPost2010Prop44ColorRGB
 90
      255
102
RTVSPost2010PropOp44
 70
     1
102
RTVSPost2010Prop45
280
     0
102
RTVSPost2010PropOp45
 70
     1
102
RTVSPost2010Prop46
 90
       50
102
RTVSPost2010PropOp46
 70
     1
102
RTVSPost2010Prop47
 90
       50
102
RTVSPost2010PropOp47
 70
     1
102
RTVSPost2010Prop48
 90
       50
102
RTVSPost2010PropOp48
 70
     1
102
RTVSPost2010Prop49
280
     0
102
RTVSPost2010PropOp49
 70
     1
102
RTVSPost2010Prop50
 90
       50
102
RTVSPost2010PropOp50
 70
     1
102
RTVSPost2010Prop51ColorIndex
 90
      256
102
RTVSPost2010Prop51ColorRGB
 90
-16777216
102
RTVSPost2010PropOp51
 70
     0
102
RTVSPost2010Prop52
140
1.0
102
RTVSPost2010PropOp52
 70
     0
102
RTVSPost2010Prop53
 90
        2
102
RTVSPost2010PropOp53
 70
     1
102
RTVSPost2010Prop54
  1
strokes_ogs.tif
102
RTVSPost2010PropOp54
 70
     1
102
RTVSPost2010Prop55
280
     0
102
RTVSPost2010PropOp55
 70
     1
102
RTVSPost2010Prop56
140
1.0
102
RTVSPost2010PropOp56
 70
     1
102
RTVSPost2010Prop57
140
1.0
102
RTVSPost2010PropOp57
 70
     1
  0
XRECORD
  5
3086
102
{ACAD_REACTORS
330
3085
102
}
330
3085
100
AcDbXrecord
280
     1
102
RTVSPost2010Prop28
280
     0
102
RTVSPost2010PropOp28
 70
     1
102
RTVSPost2010Prop29
280
     1
102
RTVSPost2010PropOp29
 70
     1
102
RTVSPost2010Prop30
280
     1
102
RTVSPost2010PropOp30
 70
     1
102
RTVSPost2010Prop31
280
     0
102
RTVSPost2010PropOp31
 70
     1
102
RTVSPost2010Prop32
280
     0
102
RTVSPost2010PropOp32
 70
     1
102
RTVSPost2010Prop33
280
     0
102
RTVSPost2010PropOp33
 70
     1
102
RTVSPost2010Prop34
280
     0
102
RTVSPost2010PropOp34
 70
     1
102
RTVSPost2010Prop35
280
     0
102
RTVSPost2010PropOp35
 70
     1
102
RTVSPost2010Prop36
280
     0
102
RTVSPost2010PropOp36
 70
     1
102
RTVSPost2010Prop37
 90
       50
102
RTVSPost2010PropOp37
 70
     1
102
RTVSPost2010Prop38
140
0.0
102
RTVSPost2010PropOp38
 70
     1
102
RTVSPost2010Prop39
140
1.0
102
RTVSPost2010PropOp39
 70
     1
102
RTVSPost2010Prop40
 90
        0
102
RTVSPost2010PropOp40
 70
     1
102
RTVSPost2010Prop41ColorIndex
 90
       18
102
RTVSPost2010Prop41ColorRGB
 90
        0
102
RTVSPost2010PropOp41
 70
     1
102
RTVSPost2010Prop42
 90
       50
102
RTVSPost2010PropOp42
 70
     1
102
RTVSPost2010Prop43
 90
        3
102
RTVSPost2010PropOp43
 70
     1
102
RTVSPost2010Prop44ColorIndex
 90
        5
102
RTVSPost2010Prop44ColorRGB
 90
      255
102
RTVSPost2010PropOp44
 70
     1
102
RTVSPost2010Prop45
280
     0
102
RTVSPost2010PropOp45
 70
     1
102
RTVSPost2010Prop46
 90
       50
102
RTVSPost2010PropOp46
 70
     1
102
RTVSPost2010Prop47
 90
       50
102
RTVSPost2010PropOp47
 70
     1
102
RTVSPost2010Prop48
 90
       50
102
RTVSPost2010PropOp48
 70
     1
102
RTVSPost2010Prop49
280
     0
102
RTVSPost2010PropOp49
 70
     1
102
RTVSPost2010Prop50
 90
       50
102
RTVSPost2010PropOp50
 70
     1
102
RTVSPost2010Prop51ColorIndex
 90
      256
102
RTVSPost2010Prop51ColorRGB
 90
-16777216
102
RTVSPost2010PropOp51
 70
     0
102
RTVSPost2010Prop52
140
1.0
102
RTVSPost2010PropOp52
 70
     0
102
RTVSPost2010Prop53
 90
        2
102
RTVSPost2010PropOp53
 70
     1
102
RTVSPost2010Prop54
  1
strokes_ogs.tif
102
RTVSPost2010PropOp54
 70
     1
102
RTVSPost2010Prop55
280
     0
102
RTVSPost2010PropOp55
 70
     1
102
RTVSPost2010Prop56
140
1.0
102
RTVSPost2010PropOp56
 70
     1
102
RTVSPost2010Prop57
140
1.0
102
RTVSPost2010PropOp57
 70
     1
  0
XRECORD
  5
3088
102
{ACAD_REACTORS
330
3087
102
}
330
3087
100
AcDbXrecord
280
     1
102
RTVSPost2010Prop28
280
     0
102
RTVSPost2010PropOp28
 70
     1
102
RTVSPost2010Prop29
280
     1
102
RTVSPost2010PropOp29
 70
     1
102
RTVSPost2010Prop30
280
     1
102
RTVSPost2010PropOp30
 70
     1
102
RTVSPost2010Prop31
280
     0
102
RTVSPost2010PropOp31
 70
     1
102
RTVSPost2010Prop32
280
     0
102
RTVSPost2010PropOp32
 70
     1
102
RTVSPost2010Prop33
280
     0
102
RTVSPost2010PropOp33
 70
     1
102
RTVSPost2010Prop34
280
     0
102
RTVSPost2010PropOp34
 70
     1
102
RTVSPost2010Prop35
280
     0
102
RTVSPost2010PropOp35
 70
     1
102
RTVSPost2010Prop36
280
     0
102
RTVSPost2010PropOp36
 70
     1
102
RTVSPost2010Prop37
 90
       50
102
RTVSPost2010PropOp37
 70
     1
102
RTVSPost2010Prop38
140
0.0
102
RTVSPost2010PropOp38
 70
     1
102
RTVSPost2010Prop39
140
1.0
102
RTVSPost2010PropOp39
 70
     1
102
RTVSPost2010Prop40
 90
        0
102
RTVSPost2010PropOp40
 70
     1
102
RTVSPost2010Prop41ColorIndex
 90
       18
102
RTVSPost2010Prop41ColorRGB
 90
        0
102
RTVSPost2010PropOp41
 70
     1
102
RTVSPost2010Prop42
 90
       50
102
RTVSPost2010PropOp42
 70
     1
102
RTVSPost2010Prop43
 90
        3
102
RTVSPost2010PropOp43
 70
     1
102
RTVSPost2010Prop44ColorIndex
 90
        5
102
RTVSPost2010Prop44ColorRGB
 90
      255
102
RTVSPost2010PropOp44
 70
     1
102
RTVSPost2010Prop45
280
     0
102
RTVSPost2010PropOp45
 70
     1
102
RTVSPost2010Prop46
 90
       50
102
RTVSPost2010PropOp46
 70
     1
102
RTVSPost2010Prop47
 90
       50
102
RTVSPost2010PropOp47
 70
     1
102
RTVSPost2010Prop48
 90
       50
102
RTVSPost2010PropOp48
 70
     1
102
RTVSPost2010Prop49
280
     0
102
RTVSPost2010PropOp49
 70
     1
102
RTVSPost2010Prop50
 90
       50
102
RTVSPost2010PropOp50
 70
     1
102
RTVSPost2010Prop51ColorIndex
 90
      256
102
RTVSPost2010Prop51ColorRGB
 90
-16777216
102
RTVSPost2010PropOp51
 70
     0
102
RTVSPost2010Prop52
140
1.0
102
RTVSPost2010PropOp52
 70
     0
102
RTVSPost2010Prop53
 90
        2
102
RTVSPost2010PropOp53
 70
     1
102
RTVSPost2010Prop54
  1
strokes_ogs.tif
102
RTVSPost2010PropOp54
 70
     1
102
RTVSPost2010Prop55
280
     0
102
RTVSPost2010PropOp55
 70
     1
102
RTVSPost2010Prop56
140
1.0
102
RTVSPost2010PropOp56
 70
     1
102
RTVSPost2010Prop57
140
1.0
102
RTVSPost2010PropOp57
 70
     1
  0
XRECORD
  5
308A
102
{ACAD_REACTORS
330
3089
102
}
330
3089
100
AcDbXrecord
280
     1
102
RTVSPost2010Prop28
280
     0
102
RTVSPost2010PropOp28
 70
     1
102
RTVSPost2010Prop29
280
     1
102
RTVSPost2010PropOp29
 70
     1
102
RTVSPost2010Prop30
280
     1
102
RTVSPost2010PropOp30
 70
     1
102
RTVSPost2010Prop31
280
     0
102
RTVSPost2010PropOp31
 70
     1
102
RTVSPost2010Prop32
280
     0
102
RTVSPost2010PropOp32
 70
     1
102
RTVSPost2010Prop33
280
     0
102
RTVSPost2010PropOp33
 70
     1
102
RTVSPost2010Prop34
280
     0
102
RTVSPost2010PropOp34
 70
     1
102
RTVSPost2010Prop35
280
     0
102
RTVSPost2010PropOp35
 70
     1
102
RTVSPost2010Prop36
280
     0
102
RTVSPost2010PropOp36
 70
     1
102
RTVSPost2010Prop37
 90
       50
102
RTVSPost2010PropOp37
 70
     1
102
RTVSPost2010Prop38
140
0.0
102
RTVSPost2010PropOp38
 70
     1
102
RTVSPost2010Prop39
140
1.0
102
RTVSPost2010PropOp39
 70
     1
102
RTVSPost2010Prop40
 90
        0
102
RTVSPost2010PropOp40
 70
     1
102
RTVSPost2010Prop41ColorIndex
 90
       18
102
RTVSPost2010Prop41ColorRGB
 90
        0
102
RTVSPost2010PropOp41
 70
     1
102
RTVSPost2010Prop42
 90
       50
102
RTVSPost2010PropOp42
 70
     1
102
RTVSPost2010Prop43
 90
        3
102
RTVSPost2010PropOp43
 70
     1
102
RTVSPost2010Prop44ColorIndex
 90
        5
102
RTVSPost2010Prop44ColorRGB
 90
      255
102
RTVSPost2010PropOp44
 70
     1
102
RTVSPost2010Prop45
280
     0
102
RTVSPost2010PropOp45
 70
     1
102
RTVSPost2010Prop46
 90
       50
102
RTVSPost2010PropOp46
 70
     1
102
RTVSPost2010Prop47
 90
       50
102
RTVSPost2010PropOp47
 70
     1
102
RTVSPost2010Prop48
 90
       50
102
RTVSPost2010PropOp48
 70
     1
102
RTVSPost2010Prop49
280
     0
102
RTVSPost2010PropOp49
 70
     1
102
RTVSPost2010Prop50
 90
       50
102
RTVSPost2010PropOp50
 70
     1
102
RTVSPost2010Prop51ColorIndex
 90
      256
102
RTVSPost2010Prop51ColorRGB
 90
-16777216
102
RTVSPost2010PropOp51
 70
     0
102
RTVSPost2010Prop52
140
1.0
102
RTVSPost2010PropOp52
 70
     0
102
RTVSPost2010Prop53
 90
        2
102
RTVSPost2010PropOp53
 70
     1
102
RTVSPost2010Prop54
  1
strokes_ogs.tif
102
RTVSPost2010PropOp54
 70
     1
102
RTVSPost2010Prop55
280
     0
102
RTVSPost2010PropOp55
 70
     1
102
RTVSPost2010Prop56
140
1.0
102
RTVSPost2010PropOp56
 70
     1
102
RTVSPost2010Prop57
140
1.0
102
RTVSPost2010PropOp57
 70
     1
  0
XRECORD
  5
308C
102
{ACAD_REACTORS
330
308B
102
}
330
308B
100
AcDbXrecord
280
     1
102
RTVSPost2010Prop28
280
     0
102
RTVSPost2010PropOp28
 70
     1
102
RTVSPost2010Prop29
280
     1
102
RTVSPost2010PropOp29
 70
     1
102
RTVSPost2010Prop30
280
     1
102
RTVSPost2010PropOp30
 70
     1
102
RTVSPost2010Prop31
280
     0
102
RTVSPost2010PropOp31
 70
     1
102
RTVSPost2010Prop32
280
     0
102
RTVSPost2010PropOp32
 70
     1
102
RTVSPost2010Prop33
280
     0
102
RTVSPost2010PropOp33
 70
     1
102
RTVSPost2010Prop34
280
     0
102
RTVSPost2010PropOp34
 70
     1
102
RTVSPost2010Prop35
280
     0
102
RTVSPost2010PropOp35
 70
     1
102
RTVSPost2010Prop36
280
     0
102
RTVSPost2010PropOp36
 70
     1
102
RTVSPost2010Prop37
 90
       50
102
RTVSPost2010PropOp37
 70
     1
102
RTVSPost2010Prop38
140
0.0
102
RTVSPost2010PropOp38
 70
     1
102
RTVSPost2010Prop39
140
1.0
102
RTVSPost2010PropOp39
 70
     1
102
RTVSPost2010Prop40
 90
        0
102
RTVSPost2010PropOp40
 70
     1
102
RTVSPost2010Prop41ColorIndex
 90
       18
102
RTVSPost2010Prop41ColorRGB
 90
        0
102
RTVSPost2010PropOp41
 70
     1
102
RTVSPost2010Prop42
 90
       50
102
RTVSPost2010PropOp42
 70
     1
102
RTVSPost2010Prop43
 90
        3
102
RTVSPost2010PropOp43
 70
     1
102
RTVSPost2010Prop44ColorIndex
 90
        5
102
RTVSPost2010Prop44ColorRGB
 90
      255
102
RTVSPost2010PropOp44
 70
     1
102
RTVSPost2010Prop45
280
     0
102
RTVSPost2010PropOp45
 70
     1
102
RTVSPost2010Prop46
 90
       50
102
RTVSPost2010PropOp46
 70
     1
102
RTVSPost2010Prop47
 90
       50
102
RTVSPost2010PropOp47
 70
     1
102
RTVSPost2010Prop48
 90
       50
102
RTVSPost2010PropOp48
 70
     1
102
RTVSPost2010Prop49
280
     0
102
RTVSPost2010PropOp49
 70
     1
102
RTVSPost2010Prop50
 90
       50
102
RTVSPost2010PropOp50
 70
     1
102
RTVSPost2010Prop51ColorIndex
 90
      256
102
RTVSPost2010Prop51ColorRGB
 90
-16777216
102
RTVSPost2010PropOp51
 70
     0
102
RTVSPost2010Prop52
140
1.0
102
RTVSPost2010PropOp52
 70
     0
102
RTVSPost2010Prop53
 90
        2
102
RTVSPost2010PropOp53
 70
     1
102
RTVSPost2010Prop54
  1
strokes_ogs.tif
102
RTVSPost2010PropOp54
 70
     1
102
RTVSPost2010Prop55
280
     0
102
RTVSPost2010PropOp55
 70
     1
102
RTVSPost2010Prop56
140
1.0
102
RTVSPost2010PropOp56
 70
     1
102
RTVSPost2010Prop57
140
1.0
102
RTVSPost2010PropOp57
 70
     1
  0
XRECORD
  5
3094
102
{ACAD_REACTORS
330
3093
102
}
330
3093
100
AcDbXrecord
280
     1
102
RTVSPost2010Prop28
280
     0
102
RTVSPost2010PropOp28
 70
     1
102
RTVSPost2010Prop29
280
     1
102
RTVSPost2010PropOp29
 70
     1
102
RTVSPost2010Prop30
280
     1
102
RTVSPost2010PropOp30
 70
     1
102
RTVSPost2010Prop31
280
     0
102
RTVSPost2010PropOp31
 70
     1
102
RTVSPost2010Prop32
280
     0
102
RTVSPost2010PropOp32
 70
     1
102
RTVSPost2010Prop33
280
     0
102
RTVSPost2010PropOp33
 70
     1
102
RTVSPost2010Prop34
280
     0
102
RTVSPost2010PropOp34
 70
     1
102
RTVSPost2010Prop35
280
     0
102
RTVSPost2010PropOp35
 70
     1
102
RTVSPost2010Prop36
280
     0
102
RTVSPost2010PropOp36
 70
     1
102
RTVSPost2010Prop37
 90
       50
102
RTVSPost2010PropOp37
 70
     1
102
RTVSPost2010Prop38
140
0.0
102
RTVSPost2010PropOp38
 70
     1
102
RTVSPost2010Prop39
140
1.0
102
RTVSPost2010PropOp39
 70
     1
102
RTVSPost2010Prop40
 90
        0
102
RTVSPost2010PropOp40
 70
     1
102
RTVSPost2010Prop41ColorIndex
 90
       18
102
RTVSPost2010Prop41ColorRGB
 90
        0
102
RTVSPost2010PropOp41
 70
     1
102
RTVSPost2010Prop42
 90
       50
102
RTVSPost2010PropOp42
 70
     1
102
RTVSPost2010Prop43
 90
        3
102
RTVSPost2010PropOp43
 70
     1
102
RTVSPost2010Prop44ColorIndex
 90
        5
102
RTVSPost2010Prop44ColorRGB
 90
      255
102
RTVSPost2010PropOp44
 70
     1
102
RTVSPost2010Prop45
280
     0
102
RTVSPost2010PropOp45
 70
     1
102
RTVSPost2010Prop46
 90
       50
102
RTVSPost2010PropOp46
 70
     1
102
RTVSPost2010Prop47
 90
       50
102
RTVSPost2010PropOp47
 70
     1
102
RTVSPost2010Prop48
 90
       50
102
RTVSPost2010PropOp48
 70
     1
102
RTVSPost2010Prop49
280
     0
102
RTVSPost2010PropOp49
 70
     1
102
RTVSPost2010Prop50
 90
       50
102
RTVSPost2010PropOp50
 70
     1
102
RTVSPost2010Prop51ColorIndex
 90
      256
102
RTVSPost2010Prop51ColorRGB
 90
-16777216
102
RTVSPost2010PropOp51
 70
     0
102
RTVSPost2010Prop52
140
1.0
102
RTVSPost2010PropOp52
 70
     0
102
RTVSPost2010Prop53
 90
        2
102
RTVSPost2010PropOp53
 70
     1
102
RTVSPost2010Prop54
  1
strokes_ogs.tif
102
RTVSPost2010PropOp54
 70
     1
102
RTVSPost2010Prop55
280
     0
102
RTVSPost2010PropOp55
 70
     1
102
RTVSPost2010Prop56
140
1.0
102
RTVSPost2010PropOp56
 70
     1
102
RTVSPost2010Prop57
140
1.0
102
RTVSPost2010PropOp57
 70
     1
  0
XRECORD
  5
30B0
102
{ACAD_REACTORS
330
30AF
102
}
330
30AF
100
AcDbXrecord
280
     1
102
RTVSPost2010Prop28
280
     0
102
RTVSPost2010PropOp28
 70
     1
102
RTVSPost2010Prop29
280
     1
102
RTVSPost2010PropOp29
 70
     1
102
RTVSPost2010Prop30
280
     1
102
RTVSPost2010PropOp30
 70
     1
102
RTVSPost2010Prop31
280
     0
102
RTVSPost2010PropOp31
 70
     1
102
RTVSPost2010Prop32
280
     0
102
RTVSPost2010PropOp32
 70
     1
102
RTVSPost2010Prop33
280
     0
102
RTVSPost2010PropOp33
 70
     1
102
RTVSPost2010Prop34
280
     0
102
RTVSPost2010PropOp34
 70
     1
102
RTVSPost2010Prop35
280
     0
102
RTVSPost2010PropOp35
 70
     1
102
RTVSPost2010Prop36
280
     0
102
RTVSPost2010PropOp36
 70
     1
102
RTVSPost2010Prop37
 90
       50
102
RTVSPost2010PropOp37
 70
     0
102
RTVSPost2010Prop38
140
0.0
102
RTVSPost2010PropOp38
 70
     0
102
RTVSPost2010Prop39
140
1.0
102
RTVSPost2010PropOp39
 70
     0
102
RTVSPost2010Prop40
 90
        0
102
RTVSPost2010PropOp40
 70
     0
102
RTVSPost2010Prop41ColorIndex
 90
       18
102
RTVSPost2010Prop41ColorRGB
 90
        0
102
RTVSPost2010PropOp41
 70
     0
102
RTVSPost2010Prop42
 90
       50
102
RTVSPost2010PropOp42
 70
     0
102
RTVSPost2010Prop43
 90
        3
102
RTVSPost2010PropOp43
 70
     0
102
RTVSPost2010Prop44ColorIndex
 90
        5
102
RTVSPost2010Prop44ColorRGB
 90
      255
102
RTVSPost2010PropOp44
 70
     0
102
RTVSPost2010Prop45
280
     0
102
RTVSPost2010PropOp45
 70
     1
102
RTVSPost2010Prop46
 90
       50
102
RTVSPost2010PropOp46
 70
     0
102
RTVSPost2010Prop47
 90
       50
102
RTVSPost2010PropOp47
 70
     0
102
RTVSPost2010Prop48
 90
       50
102
RTVSPost2010PropOp48
 70
     0
102
RTVSPost2010Prop49
280
     0
102
RTVSPost2010PropOp49
 70
     1
102
RTVSPost2010Prop50
 90
       50
102
RTVSPost2010PropOp50
 70
     0
102
RTVSPost2010Prop51ColorIndex
 90
      256
102
RTVSPost2010Prop51ColorRGB
 90
-16777216
102
RTVSPost2010PropOp51
 70
     0
102
RTVSPost2010Prop52
140
1.0
102
RTVSPost2010PropOp52
 70
     0
102
RTVSPost2010Prop53
 90
        2
102
RTVSPost2010PropOp53
 70
     0
102
RTVSPost2010Prop54
  1
strokes_ogs.tif
102
RTVSPost2010PropOp54
 70
     0
102
RTVSPost2010Prop55
280
     0
102
RTVSPost2010PropOp55
 70
     1
102
RTVSPost2010Prop56
140
1.0
102
RTVSPost2010PropOp56
 70
     0
102
RTVSPost2010Prop57
140
1.0
102
RTVSPost2010PropOp57
 70
     0
  0
XRECORD
  5
30A0
102
{ACAD_REACTORS
330
309F
102
}
330
309F
100
AcDbXrecord
280
     1
102
RTVSPost2010Prop28
280
     0
102
RTVSPost2010PropOp28
 70
     1
102
RTVSPost2010Prop29
280
     1
102
RTVSPost2010PropOp29
 70
     1
102
RTVSPost2010Prop30
280
     1
102
RTVSPost2010PropOp30
 70
     1
102
RTVSPost2010Prop31
280
     0
102
RTVSPost2010PropOp31
 70
     1
102
RTVSPost2010Prop32
280
     0
102
RTVSPost2010PropOp32
 70
     1
102
RTVSPost2010Prop33
280
     0
102
RTVSPost2010PropOp33
 70
     1
102
RTVSPost2010Prop34
280
     0
102
RTVSPost2010PropOp34
 70
     1
102
RTVSPost2010Prop35
280
     0
102
RTVSPost2010PropOp35
 70
     1
102
RTVSPost2010Prop36
280
     0
102
RTVSPost2010PropOp36
 70
     1
102
RTVSPost2010Prop37
 90
       50
102
RTVSPost2010PropOp37
 70
     1
102
RTVSPost2010Prop38
140
0.0
102
RTVSPost2010PropOp38
 70
     1
102
RTVSPost2010Prop39
140
1.0
102
RTVSPost2010PropOp39
 70
     1
102
RTVSPost2010Prop40
 90
        0
102
RTVSPost2010PropOp40
 70
     1
102
RTVSPost2010Prop41ColorIndex
 90
       18
102
RTVSPost2010Prop41ColorRGB
 90
        0
102
RTVSPost2010PropOp41
 70
     1
102
RTVSPost2010Prop42
 90
       50
102
RTVSPost2010PropOp42
 70
     1
102
RTVSPost2010Prop43
 90
        3
102
RTVSPost2010PropOp43
 70
     1
102
RTVSPost2010Prop44ColorIndex
 90
        5
102
RTVSPost2010Prop44ColorRGB
 90
      255
102
RTVSPost2010PropOp44
 70
     1
102
RTVSPost2010Prop45
280
     0
102
RTVSPost2010PropOp45
 70
     1
102
RTVSPost2010Prop46
 90
       50
102
RTVSPost2010PropOp46
 70
     1
102
RTVSPost2010Prop47
 90
       50
102
RTVSPost2010PropOp47
 70
     1
102
RTVSPost2010Prop48
 90
       50
102
RTVSPost2010PropOp48
 70
     1
102
RTVSPost2010Prop49
280
     0
102
RTVSPost2010PropOp49
 70
     1
102
RTVSPost2010Prop50
 90
       50
102
RTVSPost2010PropOp50
 70
     1
102
RTVSPost2010Prop51ColorIndex
 90
      256
102
RTVSPost2010Prop51ColorRGB
 90
-16777216
102
RTVSPost2010PropOp51
 70
     0
102
RTVSPost2010Prop52
140
1.0
102
RTVSPost2010PropOp52
 70
     0
102
RTVSPost2010Prop53
 90
        2
102
RTVSPost2010PropOp53
 70
     1
102
RTVSPost2010Prop54
  1
strokes_ogs.tif
102
RTVSPost2010PropOp54
 70
     1
102
RTVSPost2010Prop55
280
     0
102
RTVSPost2010PropOp55
 70
     1
102
RTVSPost2010Prop56
140
1.0
102
RTVSPost2010PropOp56
 70
     1
102
RTVSPost2010Prop57
140
1.0
102
RTVSPost2010PropOp57
 70
     1
  0
XRECORD
  5
30B2
102
{ACAD_REACTORS
330
30B1
102
}
330
30B1
100
AcDbXrecord
280
     1
102
RTVSPost2010Prop28
280
     0
102
RTVSPost2010PropOp28
 70
     1
102
RTVSPost2010Prop29
280
     1
102
RTVSPost2010PropOp29
 70
     1
102
RTVSPost2010Prop30
280
     1
102
RTVSPost2010PropOp30
 70
     1
102
RTVSPost2010Prop31
280
     0
102
RTVSPost2010PropOp31
 70
     1
102
RTVSPost2010Prop32
280
     0
102
RTVSPost2010PropOp32
 70
     1
102
RTVSPost2010Prop33
280
     0
102
RTVSPost2010PropOp33
 70
     1
102
RTVSPost2010Prop34
280
     0
102
RTVSPost2010PropOp34
 70
     1
102
RTVSPost2010Prop35
280
     0
102
RTVSPost2010PropOp35
 70
     1
102
RTVSPost2010Prop36
280
     0
102
RTVSPost2010PropOp36
 70
     1
102
RTVSPost2010Prop37
 90
       50
102
RTVSPost2010PropOp37
 70
     0
102
RTVSPost2010Prop38
140
0.0
102
RTVSPost2010PropOp38
 70
     0
102
RTVSPost2010Prop39
140
1.0
102
RTVSPost2010PropOp39
 70
     0
102
RTVSPost2010Prop40
 90
        0
102
RTVSPost2010PropOp40
 70
     0
102
RTVSPost2010Prop41ColorIndex
 90
       18
102
RTVSPost2010Prop41ColorRGB
 90
        0
102
RTVSPost2010PropOp41
 70
     0
102
RTVSPost2010Prop42
 90
       50
102
RTVSPost2010PropOp42
 70
     0
102
RTVSPost2010Prop43
 90
        3
102
RTVSPost2010PropOp43
 70
     0
102
RTVSPost2010Prop44ColorIndex
 90
        5
102
RTVSPost2010Prop44ColorRGB
 90
      255
102
RTVSPost2010PropOp44
 70
     0
102
RTVSPost2010Prop45
280
     0
102
RTVSPost2010PropOp45
 70
     1
102
RTVSPost2010Prop46
 90
       50
102
RTVSPost2010PropOp46
 70
     0
102
RTVSPost2010Prop47
 90
       50
102
RTVSPost2010PropOp47
 70
     0
102
RTVSPost2010Prop48
 90
       50
102
RTVSPost2010PropOp48
 70
     0
102
RTVSPost2010Prop49
280
     0
102
RTVSPost2010PropOp49
 70
     1
102
RTVSPost2010Prop50
 90
       50
102
RTVSPost2010PropOp50
 70
     0
102
RTVSPost2010Prop51ColorIndex
 90
      256
102
RTVSPost2010Prop51ColorRGB
 90
-16777216
102
RTVSPost2010PropOp51
 70
     0
102
RTVSPost2010Prop52
140
1.0
102
RTVSPost2010PropOp52
 70
     0
102
RTVSPost2010Prop53
 90
        2
102
RTVSPost2010PropOp53
 70
     0
102
RTVSPost2010Prop54
  1
strokes_ogs.tif
102
RTVSPost2010PropOp54
 70
     0
102
RTVSPost2010Prop55
280
     0
102
RTVSPost2010PropOp55
 70
     1
102
RTVSPost2010Prop56
140
1.0
102
RTVSPost2010PropOp56
 70
     0
102
RTVSPost2010Prop57
140
1.0
102
RTVSPost2010PropOp57
 70
     0
  0
XRECORD
  5
3098
102
{ACAD_REACTORS
330
3097
102
}
330
3097
100
AcDbXrecord
280
     1
102
RTVSPost2010Prop28
280
     0
102
RTVSPost2010PropOp28
 70
     1
102
RTVSPost2010Prop29
280
     1
102
RTVSPost2010PropOp29
 70
     1
102
RTVSPost2010Prop30
280
     1
102
RTVSPost2010PropOp30
 70
     1
102
RTVSPost2010Prop31
280
     0
102
RTVSPost2010PropOp31
 70
     1
102
RTVSPost2010Prop32
280
     0
102
RTVSPost2010PropOp32
 70
     1
102
RTVSPost2010Prop33
280
     0
102
RTVSPost2010PropOp33
 70
     1
102
RTVSPost2010Prop34
280
     0
102
RTVSPost2010PropOp34
 70
     1
102
RTVSPost2010Prop35
280
     0
102
RTVSPost2010PropOp35
 70
     1
102
RTVSPost2010Prop36
280
     0
102
RTVSPost2010PropOp36
 70
     1
102
RTVSPost2010Prop37
 90
       50
102
RTVSPost2010PropOp37
 70
     1
102
RTVSPost2010Prop38
140
0.0
102
RTVSPost2010PropOp38
 70
     1
102
RTVSPost2010Prop39
140
1.0
102
RTVSPost2010PropOp39
 70
     1
102
RTVSPost2010Prop40
 90
        0
102
RTVSPost2010PropOp40
 70
     1
102
RTVSPost2010Prop41ColorIndex
 90
       18
102
RTVSPost2010Prop41ColorRGB
 90
        0
102
RTVSPost2010PropOp41
 70
     1
102
RTVSPost2010Prop42
 90
       50
102
RTVSPost2010PropOp42
 70
     1
102
RTVSPost2010Prop43
 90
        3
102
RTVSPost2010PropOp43
 70
     1
102
RTVSPost2010Prop44ColorIndex
 90
        5
102
RTVSPost2010Prop44ColorRGB
 90
      255
102
RTVSPost2010PropOp44
 70
     1
102
RTVSPost2010Prop45
280
     0
102
RTVSPost2010PropOp45
 70
     1
102
RTVSPost2010Prop46
 90
       50
102
RTVSPost2010PropOp46
 70
     1
102
RTVSPost2010Prop47
 90
       50
102
RTVSPost2010PropOp47
 70
     1
102
RTVSPost2010Prop48
 90
       50
102
RTVSPost2010PropOp48
 70
     1
102
RTVSPost2010Prop49
280
     0
102
RTVSPost2010PropOp49
 70
     1
102
RTVSPost2010Prop50
 90
       50
102
RTVSPost2010PropOp50
 70
     1
102
RTVSPost2010Prop51ColorIndex
 90
      256
102
RTVSPost2010Prop51ColorRGB
 90
-16777216
102
RTVSPost2010PropOp51
 70
     0
102
RTVSPost2010Prop52
140
1.0
102
RTVSPost2010PropOp52
 70
     0
102
RTVSPost2010Prop53
 90
        2
102
RTVSPost2010PropOp53
 70
     1
102
RTVSPost2010Prop54
  1
strokes_ogs.tif
102
RTVSPost2010PropOp54
 70
     1
102
RTVSPost2010Prop55
280
     0
102
RTVSPost2010PropOp55
 70
     1
102
RTVSPost2010Prop56
140
1.0
102
RTVSPost2010PropOp56
 70
     1
102
RTVSPost2010Prop57
140
1.0
102
RTVSPost2010PropOp57
 70
     1
  0
XRECORD
  5
30AE
102
{ACAD_REACTORS
330
30AD
102
}
330
30AD
100
AcDbXrecord
280
     1
102
RTVSPost2010Prop28
280
     0
102
RTVSPost2010PropOp28
 70
     1
102
RTVSPost2010Prop29
280
     1
102
RTVSPost2010PropOp29
 70
     1
102
RTVSPost2010Prop30
280
     1
102
RTVSPost2010PropOp30
 70
     1
102
RTVSPost2010Prop31
280
     0
102
RTVSPost2010PropOp31
 70
     1
102
RTVSPost2010Prop32
280
     0
102
RTVSPost2010PropOp32
 70
     1
102
RTVSPost2010Prop33
280
     0
102
RTVSPost2010PropOp33
 70
     1
102
RTVSPost2010Prop34
280
     0
102
RTVSPost2010PropOp34
 70
     1
102
RTVSPost2010Prop35
280
     0
102
RTVSPost2010PropOp35
 70
     1
102
RTVSPost2010Prop36
280
     0
102
RTVSPost2010PropOp36
 70
     1
102
RTVSPost2010Prop37
 90
       50
102
RTVSPost2010PropOp37
 70
     1
102
RTVSPost2010Prop38
140
0.0
102
RTVSPost2010PropOp38
 70
     1
102
RTVSPost2010Prop39
140
1.0
102
RTVSPost2010PropOp39
 70
     1
102
RTVSPost2010Prop40
 90
        0
102
RTVSPost2010PropOp40
 70
     1
102
RTVSPost2010Prop41ColorIndex
 90
       18
102
RTVSPost2010Prop41ColorRGB
 90
        0
102
RTVSPost2010PropOp41
 70
     1
102
RTVSPost2010Prop42
 90
       50
102
RTVSPost2010PropOp42
 70
     1
102
RTVSPost2010Prop43
 90
        3
102
RTVSPost2010PropOp43
 70
     1
102
RTVSPost2010Prop44ColorIndex
 90
        5
102
RTVSPost2010Prop44ColorRGB
 90
      255
102
RTVSPost2010PropOp44
 70
     1
102
RTVSPost2010Prop45
280
     0
102
RTVSPost2010PropOp45
 70
     1
102
RTVSPost2010Prop46
 90
       50
102
RTVSPost2010PropOp46
 70
     1
102
RTVSPost2010Prop47
 90
       50
102
RTVSPost2010PropOp47
 70
     1
102
RTVSPost2010Prop48
 90
       50
102
RTVSPost2010PropOp48
 70
     1
102
RTVSPost2010Prop49
280
     0
102
RTVSPost2010PropOp49
 70
     1
102
RTVSPost2010Prop50
 90
       50
102
RTVSPost2010PropOp50
 70
     1
102
RTVSPost2010Prop51ColorIndex
 90
      256
102
RTVSPost2010Prop51ColorRGB
 90
-16777216
102
RTVSPost2010PropOp51
 70
     0
102
RTVSPost2010Prop52
140
1.0
102
RTVSPost2010PropOp52
 70
     0
102
RTVSPost2010Prop53
 90
        2
102
RTVSPost2010PropOp53
 70
     1
102
RTVSPost2010Prop54
  1
strokes_ogs.tif
102
RTVSPost2010PropOp54
 70
     1
102
RTVSPost2010Prop55
280
     0
102
RTVSPost2010PropOp55
 70
     1
102
RTVSPost2010Prop56
140
1.0
102
RTVSPost2010PropOp56
 70
     1
102
RTVSPost2010Prop57
140
1.0
102
RTVSPost2010PropOp57
 70
     1
  0
XRECORD
  5
30AC
102
{ACAD_REACTORS
330
30AB
102
}
330
30AB
100
AcDbXrecord
280
     1
102
RTVSPost2010Prop28
280
     0
102
RTVSPost2010PropOp28
 70
     1
102
RTVSPost2010Prop29
280
     1
102
RTVSPost2010PropOp29
 70
     1
102
RTVSPost2010Prop30
280
     1
102
RTVSPost2010PropOp30
 70
     1
102
RTVSPost2010Prop31
280
     0
102
RTVSPost2010PropOp31
 70
     1
102
RTVSPost2010Prop32
280
     0
102
RTVSPost2010PropOp32
 70
     1
102
RTVSPost2010Prop33
280
     0
102
RTVSPost2010PropOp33
 70
     1
102
RTVSPost2010Prop34
280
     0
102
RTVSPost2010PropOp34
 70
     1
102
RTVSPost2010Prop35
280
     0
102
RTVSPost2010PropOp35
 70
     1
102
RTVSPost2010Prop36
280
     0
102
RTVSPost2010PropOp36
 70
     1
102
RTVSPost2010Prop37
 90
       50
102
RTVSPost2010PropOp37
 70
     1
102
RTVSPost2010Prop38
140
0.0
102
RTVSPost2010PropOp38
 70
     1
102
RTVSPost2010Prop39
140
1.0
102
RTVSPost2010PropOp39
 70
     1
102
RTVSPost2010Prop40
 90
        0
102
RTVSPost2010PropOp40
 70
     1
102
RTVSPost2010Prop41ColorIndex
 90
       18
102
RTVSPost2010Prop41ColorRGB
 90
        0
102
RTVSPost2010PropOp41
 70
     1
102
RTVSPost2010Prop42
 90
       50
102
RTVSPost2010PropOp42
 70
     1
102
RTVSPost2010Prop43
 90
        3
102
RTVSPost2010PropOp43
 70
     1
102
RTVSPost2010Prop44ColorIndex
 90
        5
102
RTVSPost2010Prop44ColorRGB
 90
      255
102
RTVSPost2010PropOp44
 70
     1
102
RTVSPost2010Prop45
280
     0
102
RTVSPost2010PropOp45
 70
     1
102
RTVSPost2010Prop46
 90
       50
102
RTVSPost2010PropOp46
 70
     1
102
RTVSPost2010Prop47
 90
       50
102
RTVSPost2010PropOp47
 70
     1
102
RTVSPost2010Prop48
 90
       50
102
RTVSPost2010PropOp48
 70
     1
102
RTVSPost2010Prop49
280
     0
102
RTVSPost2010PropOp49
 70
     1
102
RTVSPost2010Prop50
 90
       50
102
RTVSPost2010PropOp50
 70
     1
102
RTVSPost2010Prop51ColorIndex
 90
      256
102
RTVSPost2010Prop51ColorRGB
 90
-16777216
102
RTVSPost2010PropOp51
 70
     0
102
RTVSPost2010Prop52
140
1.0
102
RTVSPost2010PropOp52
 70
     0
102
RTVSPost2010Prop53
 90
        2
102
RTVSPost2010PropOp53
 70
     1
102
RTVSPost2010Prop54
  1
strokes_ogs.tif
102
RTVSPost2010PropOp54
 70
     1
102
RTVSPost2010Prop55
280
     0
102
RTVSPost2010PropOp55
 70
     1
102
RTVSPost2010Prop56
140
1.0
102
RTVSPost2010PropOp56
 70
     1
102
RTVSPost2010Prop57
140
1.0
102
RTVSPost2010PropOp57
 70
     1
  0
XRECORD
  5
30A6
102
{ACAD_REACTORS
330
30A5
102
}
330
30A5
100
AcDbXrecord
280
     1
102
RTVSPost2010Prop28
280
     0
102
RTVSPost2010PropOp28
 70
     1
102
RTVSPost2010Prop29
280
     1
102
RTVSPost2010PropOp29
 70
     1
102
RTVSPost2010Prop30
280
     1
102
RTVSPost2010PropOp30
 70
     1
102
RTVSPost2010Prop31
280
     0
102
RTVSPost2010PropOp31
 70
     1
102
RTVSPost2010Prop32
280
     0
102
RTVSPost2010PropOp32
 70
     1
102
RTVSPost2010Prop33
280
     0
102
RTVSPost2010PropOp33
 70
     1
102
RTVSPost2010Prop34
280
     0
102
RTVSPost2010PropOp34
 70
     1
102
RTVSPost2010Prop35
280
     0
102
RTVSPost2010PropOp35
 70
     1
102
RTVSPost2010Prop36
280
     0
102
RTVSPost2010PropOp36
 70
     1
102
RTVSPost2010Prop37
 90
       50
102
RTVSPost2010PropOp37
 70
     1
102
RTVSPost2010Prop38
140
0.0
102
RTVSPost2010PropOp38
 70
     1
102
RTVSPost2010Prop39
140
1.0
102
RTVSPost2010PropOp39
 70
     1
102
RTVSPost2010Prop40
 90
        0
102
RTVSPost2010PropOp40
 70
     1
102
RTVSPost2010Prop41ColorIndex
 90
       18
102
RTVSPost2010Prop41ColorRGB
 90
        0
102
RTVSPost2010PropOp41
 70
     1
102
RTVSPost2010Prop42
 90
       50
102
RTVSPost2010PropOp42
 70
     1
102
RTVSPost2010Prop43
 90
        3
102
RTVSPost2010PropOp43
 70
     1
102
RTVSPost2010Prop44ColorIndex
 90
        5
102
RTVSPost2010Prop44ColorRGB
 90
      255
102
RTVSPost2010PropOp44
 70
     1
102
RTVSPost2010Prop45
280
     0
102
RTVSPost2010PropOp45
 70
     1
102
RTVSPost2010Prop46
 90
       50
102
RTVSPost2010PropOp46
 70
     1
102
RTVSPost2010Prop47
 90
       50
102
RTVSPost2010PropOp47
 70
     1
102
RTVSPost2010Prop48
 90
       50
102
RTVSPost2010PropOp48
 70
     1
102
RTVSPost2010Prop49
280
     0
102
RTVSPost2010PropOp49
 70
     1
102
RTVSPost2010Prop50
 90
       50
102
RTVSPost2010PropOp50
 70
     1
102
RTVSPost2010Prop51ColorIndex
 90
      256
102
RTVSPost2010Prop51ColorRGB
 90
-16777216
102
RTVSPost2010PropOp51
 70
     0
102
RTVSPost2010Prop52
140
1.0
102
RTVSPost2010PropOp52
 70
     0
102
RTVSPost2010Prop53
 90
        2
102
RTVSPost2010PropOp53
 70
     1
102
RTVSPost2010Prop54
  1
strokes_ogs.tif
102
RTVSPost2010PropOp54
 70
     1
102
RTVSPost2010Prop55
280
     0
102
RTVSPost2010PropOp55
 70
     1
102
RTVSPost2010Prop56
140
1.0
102
RTVSPost2010PropOp56
 70
     1
102
RTVSPost2010Prop57
140
1.0
102
RTVSPost2010PropOp57
 70
     1
  0
XRECORD
  5
30A8
102
{ACAD_REACTORS
330
30A7
102
}
330
30A7
100
AcDbXrecord
280
     1
102
RTVSPost2010Prop28
280
     0
102
RTVSPost2010PropOp28
 70
     1
102
RTVSPost2010Prop29
280
     1
102
RTVSPost2010PropOp29
 70
     1
102
RTVSPost2010Prop30
280
     1
102
RTVSPost2010PropOp30
 70
     1
102
RTVSPost2010Prop31
280
     0
102
RTVSPost2010PropOp31
 70
     1
102
RTVSPost2010Prop32
280
     0
102
RTVSPost2010PropOp32
 70
     1
102
RTVSPost2010Prop33
280
     0
102
RTVSPost2010PropOp33
 70
     1
102
RTVSPost2010Prop34
280
     0
102
RTVSPost2010PropOp34
 70
     1
102
RTVSPost2010Prop35
280
     0
102
RTVSPost2010PropOp35
 70
     1
102
RTVSPost2010Prop36
280
     0
102
RTVSPost2010PropOp36
 70
     1
102
RTVSPost2010Prop37
 90
       50
102
RTVSPost2010PropOp37
 70
     1
102
RTVSPost2010Prop38
140
0.0
102
RTVSPost2010PropOp38
 70
     1
102
RTVSPost2010Prop39
140
1.0
102
RTVSPost2010PropOp39
 70
     1
102
RTVSPost2010Prop40
 90
        0
102
RTVSPost2010PropOp40
 70
     1
102
RTVSPost2010Prop41ColorIndex
 90
       18
102
RTVSPost2010Prop41ColorRGB
 90
        0
102
RTVSPost2010PropOp41
 70
     1
102
RTVSPost2010Prop42
 90
       50
102
RTVSPost2010PropOp42
 70
     1
102
RTVSPost2010Prop43
 90
        3
102
RTVSPost2010PropOp43
 70
     1
102
RTVSPost2010Prop44ColorIndex
 90
        5
102
RTVSPost2010Prop44ColorRGB
 90
      255
102
RTVSPost2010PropOp44
 70
     1
102
RTVSPost2010Prop45
280
     0
102
RTVSPost2010PropOp45
 70
     1
102
RTVSPost2010Prop46
 90
       50
102
RTVSPost2010PropOp46
 70
     1
102
RTVSPost2010Prop47
 90
       50
102
RTVSPost2010PropOp47
 70
     1
102
RTVSPost2010Prop48
 90
       50
102
RTVSPost2010PropOp48
 70
     1
102
RTVSPost2010Prop49
280
     0
102
RTVSPost2010PropOp49
 70
     1
102
RTVSPost2010Prop50
 90
       50
102
RTVSPost2010PropOp50
 70
     1
102
RTVSPost2010Prop51ColorIndex
 90
      256
102
RTVSPost2010Prop51ColorRGB
 90
-16777216
102
RTVSPost2010PropOp51
 70
     0
102
RTVSPost2010Prop52
140
1.0
102
RTVSPost2010PropOp52
 70
     0
102
RTVSPost2010Prop53
 90
        2
102
RTVSPost2010PropOp53
 70
     1
102
RTVSPost2010Prop54
  1
strokes_ogs.tif
102
RTVSPost2010PropOp54
 70
     1
102
RTVSPost2010Prop55
280
     0
102
RTVSPost2010PropOp55
 70
     1
102
RTVSPost2010Prop56
140
1.0
102
RTVSPost2010PropOp56
 70
     1
102
RTVSPost2010Prop57
140
1.0
102
RTVSPost2010PropOp57
 70
     1
  0
XRECORD
  5
309E
102
{ACAD_REACTORS
330
309D
102
}
330
309D
100
AcDbXrecord
280
     1
102
RTVSPost2010Prop28
280
     0
102
RTVSPost2010PropOp28
 70
     1
102
RTVSPost2010Prop29
280
     1
102
RTVSPost2010PropOp29
 70
     1
102
RTVSPost2010Prop30
280
     1
102
RTVSPost2010PropOp30
 70
     1
102
RTVSPost2010Prop31
280
     0
102
RTVSPost2010PropOp31
 70
     1
102
RTVSPost2010Prop32
280
     0
102
RTVSPost2010PropOp32
 70
     1
102
RTVSPost2010Prop33
280
     0
102
RTVSPost2010PropOp33
 70
     1
102
RTVSPost2010Prop34
280
     0
102
RTVSPost2010PropOp34
 70
     1
102
RTVSPost2010Prop35
280
     0
102
RTVSPost2010PropOp35
 70
     1
102
RTVSPost2010Prop36
280
     0
102
RTVSPost2010PropOp36
 70
     1
102
RTVSPost2010Prop37
 90
       50
102
RTVSPost2010PropOp37
 70
     1
102
RTVSPost2010Prop38
140
0.0
102
RTVSPost2010PropOp38
 70
     1
102
RTVSPost2010Prop39
140
1.0
102
RTVSPost2010PropOp39
 70
     1
102
RTVSPost2010Prop40
 90
        0
102
RTVSPost2010PropOp40
 70
     1
102
RTVSPost2010Prop41ColorIndex
 90
       18
102
RTVSPost2010Prop41ColorRGB
 90
        0
102
RTVSPost2010PropOp41
 70
     1
102
RTVSPost2010Prop42
 90
       50
102
RTVSPost2010PropOp42
 70
     1
102
RTVSPost2010Prop43
 90
        3
102
RTVSPost2010PropOp43
 70
     1
102
RTVSPost2010Prop44ColorIndex
 90
        5
102
RTVSPost2010Prop44ColorRGB
 90
      255
102
RTVSPost2010PropOp44
 70
     1
102
RTVSPost2010Prop45
280
     0
102
RTVSPost2010PropOp45
 70
     1
102
RTVSPost2010Prop46
 90
       50
102
RTVSPost2010PropOp46
 70
     1
102
RTVSPost2010Prop47
 90
       50
102
RTVSPost2010PropOp47
 70
     1
102
RTVSPost2010Prop48
 90
       50
102
RTVSPost2010PropOp48
 70
     1
102
RTVSPost2010Prop49
280
     0
102
RTVSPost2010PropOp49
 70
     1
102
RTVSPost2010Prop50
 90
       50
102
RTVSPost2010PropOp50
 70
     1
102
RTVSPost2010Prop51ColorIndex
 90
      256
102
RTVSPost2010Prop51ColorRGB
 90
-16777216
102
RTVSPost2010PropOp51
 70
     0
102
RTVSPost2010Prop52
140
1.0
102
RTVSPost2010PropOp52
 70
     0
102
RTVSPost2010Prop53
 90
        2
102
RTVSPost2010PropOp53
 70
     1
102
RTVSPost2010Prop54
  1
strokes_ogs.tif
102
RTVSPost2010PropOp54
 70
     1
102
RTVSPost2010Prop55
280
     0
102
RTVSPost2010PropOp55
 70
     1
102
RTVSPost2010Prop56
140
1.0
102
RTVSPost2010PropOp56
 70
     1
102
RTVSPost2010Prop57
140
1.0
102
RTVSPost2010PropOp57
 70
     1
  0
XRECORD
  5
3092
102
{ACAD_REACTORS
330
3091
102
}
330
3091
100
AcDbXrecord
280
     1
102
RTVSPost2010Prop28
280
     0
102
RTVSPost2010PropOp28
 70
     1
102
RTVSPost2010Prop29
280
     1
102
RTVSPost2010PropOp29
 70
     1
102
RTVSPost2010Prop30
280
     1
102
RTVSPost2010PropOp30
 70
     1
102
RTVSPost2010Prop31
280
     0
102
RTVSPost2010PropOp31
 70
     1
102
RTVSPost2010Prop32
280
     0
102
RTVSPost2010PropOp32
 70
     1
102
RTVSPost2010Prop33
280
     0
102
RTVSPost2010PropOp33
 70
     1
102
RTVSPost2010Prop34
280
     0
102
RTVSPost2010PropOp34
 70
     1
102
RTVSPost2010Prop35
280
     0
102
RTVSPost2010PropOp35
 70
     1
102
RTVSPost2010Prop36
280
     0
102
RTVSPost2010PropOp36
 70
     1
102
RTVSPost2010Prop37
 90
       50
102
RTVSPost2010PropOp37
 70
     1
102
RTVSPost2010Prop38
140
0.0
102
RTVSPost2010PropOp38
 70
     1
102
RTVSPost2010Prop39
140
1.0
102
RTVSPost2010PropOp39
 70
     1
102
RTVSPost2010Prop40
 90
        0
102
RTVSPost2010PropOp40
 70
     1
102
RTVSPost2010Prop41ColorIndex
 90
       18
102
RTVSPost2010Prop41ColorRGB
 90
        0
102
RTVSPost2010PropOp41
 70
     1
102
RTVSPost2010Prop42
 90
       50
102
RTVSPost2010PropOp42
 70
     1
102
RTVSPost2010Prop43
 90
        3
102
RTVSPost2010PropOp43
 70
     1
102
RTVSPost2010Prop44ColorIndex
 90
        5
102
RTVSPost2010Prop44ColorRGB
 90
      255
102
RTVSPost2010PropOp44
 70
     1
102
RTVSPost2010Prop45
280
     0
102
RTVSPost2010PropOp45
 70
     1
102
RTVSPost2010Prop46
 90
       50
102
RTVSPost2010PropOp46
 70
     1
102
RTVSPost2010Prop47
 90
       50
102
RTVSPost2010PropOp47
 70
     1
102
RTVSPost2010Prop48
 90
       50
102
RTVSPost2010PropOp48
 70
     1
102
RTVSPost2010Prop49
280
     0
102
RTVSPost2010PropOp49
 70
     1
102
RTVSPost2010Prop50
 90
       50
102
RTVSPost2010PropOp50
 70
     1
102
RTVSPost2010Prop51ColorIndex
 90
      256
102
RTVSPost2010Prop51ColorRGB
 90
-16777216
102
RTVSPost2010PropOp51
 70
     0
102
RTVSPost2010Prop52
140
1.0
102
RTVSPost2010PropOp52
 70
     0
102
RTVSPost2010Prop53
 90
        2
102
RTVSPost2010PropOp53
 70
     1
102
RTVSPost2010Prop54
  1
strokes_ogs.tif
102
RTVSPost2010PropOp54
 70
     1
102
RTVSPost2010Prop55
280
     0
102
RTVSPost2010PropOp55
 70
     1
102
RTVSPost2010Prop56
140
1.0
102
RTVSPost2010PropOp56
 70
     1
102
RTVSPost2010Prop57
140
1.0
102
RTVSPost2010PropOp57
 70
     1
  0
XRECORD
  5
30AA
102
{ACAD_REACTORS
330
30A9
102
}
330
30A9
100
AcDbXrecord
280
     1
102
RTVSPost2010Prop28
280
     0
102
RTVSPost2010PropOp28
 70
     1
102
RTVSPost2010Prop29
280
     1
102
RTVSPost2010PropOp29
 70
     1
102
RTVSPost2010Prop30
280
     1
102
RTVSPost2010PropOp30
 70
     1
102
RTVSPost2010Prop31
280
     0
102
RTVSPost2010PropOp31
 70
     1
102
RTVSPost2010Prop32
280
     0
102
RTVSPost2010PropOp32
 70
     1
102
RTVSPost2010Prop33
280
     0
102
RTVSPost2010PropOp33
 70
     1
102
RTVSPost2010Prop34
280
     0
102
RTVSPost2010PropOp34
 70
     1
102
RTVSPost2010Prop35
280
     0
102
RTVSPost2010PropOp35
 70
     1
102
RTVSPost2010Prop36
280
     0
102
RTVSPost2010PropOp36
 70
     1
102
RTVSPost2010Prop37
 90
       50
102
RTVSPost2010PropOp37
 70
     1
102
RTVSPost2010Prop38
140
0.0
102
RTVSPost2010PropOp38
 70
     1
102
RTVSPost2010Prop39
140
1.0
102
RTVSPost2010PropOp39
 70
     1
102
RTVSPost2010Prop40
 90
        0
102
RTVSPost2010PropOp40
 70
     1
102
RTVSPost2010Prop41ColorIndex
 90
       18
102
RTVSPost2010Prop41ColorRGB
 90
        0
102
RTVSPost2010PropOp41
 70
     1
102
RTVSPost2010Prop42
 90
       50
102
RTVSPost2010PropOp42
 70
     1
102
RTVSPost2010Prop43
 90
        3
102
RTVSPost2010PropOp43
 70
     1
102
RTVSPost2010Prop44ColorIndex
 90
        5
102
RTVSPost2010Prop44ColorRGB
 90
      255
102
RTVSPost2010PropOp44
 70
     1
102
RTVSPost2010Prop45
280
     0
102
RTVSPost2010PropOp45
 70
     1
102
RTVSPost2010Prop46
 90
       50
102
RTVSPost2010PropOp46
 70
     1
102
RTVSPost2010Prop47
 90
       50
102
RTVSPost2010PropOp47
 70
     1
102
RTVSPost2010Prop48
 90
       50
102
RTVSPost2010PropOp48
 70
     1
102
RTVSPost2010Prop49
280
     0
102
RTVSPost2010PropOp49
 70
     1
102
RTVSPost2010Prop50
 90
       50
102
RTVSPost2010PropOp50
 70
     1
102
RTVSPost2010Prop51ColorIndex
 90
      256
102
RTVSPost2010Prop51ColorRGB
 90
-16777216
102
RTVSPost2010PropOp51
 70
     0
102
RTVSPost2010Prop52
140
1.0
102
RTVSPost2010PropOp52
 70
     0
102
RTVSPost2010Prop53
 90
        2
102
RTVSPost2010PropOp53
 70
     1
102
RTVSPost2010Prop54
  1
strokes_ogs.tif
102
RTVSPost2010PropOp54
 70
     1
102
RTVSPost2010Prop55
280
     0
102
RTVSPost2010PropOp55
 70
     1
102
RTVSPost2010Prop56
140
1.0
102
RTVSPost2010PropOp56
 70
     1
102
RTVSPost2010Prop57
140
1.0
102
RTVSPost2010PropOp57
 70
     1
  0
ENDSEC
  0
EOF
