  0
SECTION
  2
HEADER
  9
$ACADVER
  1
AC1024
  9
$ACADMAINTVER
 70
   226
  9
$DWGCODEPAGE
  3
ANSI_932
  9
$LASTSAVEDBY
  1
y-sakai
  9
$INSBASE
 10
0.0
 20
0.0
 30
0.0
  9
$EXTMIN
 10
165.072486872344
 20
258.7589288465201
 30
-0.0015258207003583
  9
$EXTMAX
 10
954.5700863854376
 20
805.8322926643681
 30
0.0000000349246037
  9
$LIMMIN
 10
0.0
 20
0.0
  9
$LIMMAX
 10
1422.5
 20
925.0
  9
$ORTHOMODE
 70
     0
  9
$REGENMODE
 70
     1
  9
$FILLMODE
 70
     1
  9
$QTEXTMODE
 70
     0
  9
$MIRRTEXT
 70
     1
  9
$LTSCALE
 40
5.0
  9
$ATTMODE
 70
     1
  9
$TEXTSIZE
 40
2.5
  9
$TRACEWID
 40
1.0
  9
$TEXTSTYLE
  7
STANDARD
  9
$CLAYER
  8
AM_0
  9
$CELTYPE
  6
ByLayer
  9
$CECOLOR
 62
   256
  9
$CELTSCALE
 40
1.0
  9
$DISPSILH
 70
     0
  9
$DIMSCALE
 40
1.0
  9
$DIMASZ
 40
2.5
  9
$DIMEXO
 40
1.0
  9
$DIMDLI
 40
8.0
  9
$DIMRND
 40
0.0
  9
$DIMDLE
 40
0.0
  9
$DIMEXE
 40
0.6
  9
$DIMTP
 40
0.1
  9
$DIMTM
 40
0.1
  9
$DIMTXT
 40
2.5
  9
$DIMCEN
 40
0.0
  9
$DIMTSZ
 40
0.0
  9
$DIMTOL
 70
     0
  9
$DIMLIM
 70
     0
  9
$DIMTIH
 70
     0
  9
$DIMTOH
 70
     0
  9
$DIMSE1
 70
     0
  9
$DIMSE2
 70
     0
  9
$DIMTAD
 70
     1
  9
$DIMZIN
 70
     8
  9
$DIMBLK
  1

  9
$DIMASO
 70
     1
  9
$DIMSHO
 70
     1
  9
$DIMPOST
  1

  9
$DIMAPOST
  1
"
  9
$DIMALT
 70
     0
  9
$DIMALTD
 70
     2
  9
$DIMALTF
 40
0.0393701
  9
$DIMLFAC
 40
1.0
  9
$DIMTOFL
 70
     1
  9
$DIMTVP
 40
0.0
  9
$DIMTIX
 70
     0
  9
$DIMSOXD
 70
     0
  9
$DIMSAH
 70
     0
  9
$DIMBLK1
  1

  9
$DIMBLK2
  1

  9
$DIMSTYLE
  2
AM_ISO
  9
$DIMCLRD
 70
   256
  9
$DIMCLRE
 70
   256
  9
$DIMCLRT
 70
     4
  9
$DIMTFAC
 40
0.71
  9
$DIMGAP
 40
0.8
  9
$DIMJUST
 70
     0
  9
$DIMSD1
 70
     0
  9
$DIMSD2
 70
     0
  9
$DIMTOLJ
 70
     1
  9
$DIMTZIN
 70
     0
  9
$DIMALTZ
 70
     0
  9
$DIMALTTZ
 70
     0
  9
$DIMUPT
 70
     0
  9
$DIMDEC
 70
     4
  9
$DIMTDEC
 70
     4
  9
$DIMALTU
 70
     2
  9
$DIMALTTD
 70
     2
  9
$DIMTXSTY
  7
STANDARD
  9
$DIMAUNIT
 70
     0
  9
$DIMADEC
 70
     0
  9
$DIMALTRND
 40
0.0
  9
$DIMAZIN
 70
     0
  9
$DIMDSEP
 70
    46
  9
$DIMATFIT
 70
     3
  9
$DIMFRAC
 70
     0
  9
$DIMLDRBLK
  1

  9
$DIMLUNIT
 70
     2
  9
$DIMLWD
 70
    -2
  9
$DIMLWE
 70
    -2
  9
$DIMTMOVE
 70
     0
  9
$DIMFXL
 40
1.0
  9
$DIMFXLON
 70
     0
  9
$DIMJOGANG
 40
0.7853981633974483
  9
$DIMTFILL
 70
     0
  9
$DIMTFILLCLR
 70
     0
  9
$DIMARCSYM
 70
     0
  9
$DIMLTYPE
  6

  9
$DIMLTEX1
  6

  9
$DIMLTEX2
  6

  9
$DIMTXTDIRECTION
 70
     0
  9
$LUNITS
 70
     2
  9
$LUPREC
 70
     2
  9
$SKETCHINC
 40
1.0
  9
$FILLETRAD
 40
25.0
  9
$AUNITS
 70
     0
  9
$AUPREC
 70
     0
  9
$MENU
  1
.
  9
$ELEVATION
 40
0.0
  9
$PELEVATION
 40
0.0
  9
$THICKNESS
 40
0.0
  9
$LIMCHECK
 70
     0
  9
$CHAMFERA
 40
10.0
  9
$CHAMFERB
 40
5.0
  9
$CHAMFERC
 40
0.0
  9
$CHAMFERD
 40
0.0
  9
$SKPOLY
 70
     0
  9
$TDCREATE
 40
2452066.561469908
  9
$TDUCREATE
 40
2452066.186469908
  9
$TDUPDATE
 40
2460362.584259259
  9
$TDUUPDATE
 40
2460362.209259259
  9
$TDINDWG
 40
0.0978165509
  9
$TDUSRTIMER
 40
0.0978163542
  9
$USRTIMER
 70
     1
  9
$ANGBASE
 50
0.0
  9
$ANGDIR
 70
     0
  9
$PDMODE
 70
     0
  9
$PDSIZE
 40
0.0
  9
$PLINEWID
 40
0.0
  9
$SPLFRAME
 70
     0
  9
$SPLINETYPE
 70
     6
  9
$SPLINESEGS
 70
     8
  9
$HANDSEED
  5
301D
  9
$SURFTAB1
 70
     6
  9
$SURFTAB2
 70
     6
  9
$SURFTYPE
 70
     6
  9
$SURFU
 70
     6
  9
$SURFV
 70
     6
  9
$UCSBASE
  2

  9
$UCSNAME
  2

  9
$UCSORG
 10
0.0
 20
0.0
 30
0.0
  9
$UCSXDIR
 10
1.0
 20
0.0
 30
0.0
  9
$UCSYDIR
 10
0.0
 20
1.0
 30
0.0
  9
$UCSORTHOREF
  2

  9
$UCSORTHOVIEW
 70
     0
  9
$UCSORGTOP
 10
0.0
 20
0.0
 30
0.0
  9
$UCSORGBOTTOM
 10
0.0
 20
0.0
 30
0.0
  9
$UCSORGLEFT
 10
0.0
 20
0.0
 30
0.0
  9
$UCSORGRIGHT
 10
0.0
 20
0.0
 30
0.0
  9
$UCSORGFRONT
 10
0.0
 20
0.0
 30
0.0
  9
$UCSORGBACK
 10
0.0
 20
0.0
 30
0.0
  9
$PUCSBASE
  2

  9
$PUCSNAME
  2

  9
$PUCSORG
 10
0.0
 20
0.0
 30
0.0
  9
$PUCSXDIR
 10
1.0
 20
0.0
 30
0.0
  9
$PUCSYDIR
 10
0.0
 20
1.0
 30
0.0
  9
$PUCSORTHOREF
  2

  9
$PUCSORTHOVIEW
 70
     0
  9
$PUCSORGTOP
 10
0.0
 20
0.0
 30
0.0
  9
$PUCSORGBOTTOM
 10
0.0
 20
0.0
 30
0.0
  9
$PUCSORGLEFT
 10
0.0
 20
0.0
 30
0.0
  9
$PUCSORGRIGHT
 10
0.0
 20
0.0
 30
0.0
  9
$PUCSORGFRONT
 10
0.0
 20
0.0
 30
0.0
  9
$PUCSORGBACK
 10
0.0
 20
0.0
 30
0.0
  9
$USERI1
 70
     0
  9
$USERI2
 70
     0
  9
$USERI3
 70
     0
  9
$USERI4
 70
     0
  9
$USERI5
 70
     0
  9
$USERR1
 40
0.0
  9
$USERR2
 40
0.0
  9
$USERR3
 40
0.0
  9
$USERR4
 40
0.0
  9
$USERR5
 40
0.0
  9
$WORLDVIEW
 70
     1
  9
$SHADEDGE
 70
     3
  9
$SHADEDIF
 70
    70
  9
$TILEMODE
 70
     1
  9
$MAXACTVP
 70
    64
  9
$PINSBASE
 10
0.0
 20
0.0
 30
0.0
  9
$PLIMCHECK
 70
     0
  9
$PEXTMIN
 10
1.000000000000000E+20
 20
1.000000000000000E+20
 30
1.000000000000000E+20
  9
$PEXTMAX
 10
-1.000000000000000E+20
 20
-1.000000000000000E+20
 30
-1.000000000000000E+20
  9
$PLIMMIN
 10
0.0
 20
0.0
  9
$PLIMMAX
 10
420.0
 20
297.0
  9
$UNITMODE
 70
     0
  9
$VISRETAIN
 70
     1
  9
$PLINEGEN
 70
     0
  9
$PSLTSCALE
 70
     1
  9
$TREEDEPTH
 70
  3020
  9
$CMLSTYLE
  2
Standard
  9
$CMLJUST
 70
     0
  9
$CMLSCALE
 40
1.0
  9
$PROXYGRAPHICS
 70
     1
  9
$MEASUREMENT
 70
     0
  9
$CELWEIGHT
370
    -1
  9
$ENDCAPS
280
     0
  9
$JOINSTYLE
280
     0
  9
$LWDISPLAY
290
     0
  9
$INSUNITS
 70
     0
  9
$HYPERLINKBASE
  1

  9
$STYLESHEET
  1

  9
$XEDIT
290
     1
  9
$CEPSNTYPE
380
     0
  9
$PSTYLEMODE
290
     1
  9
$FINGERPRINTGUID
  2
{AB79437F-7943-894B-8883-7BC3A1216526}
  9
$VERSIONGUID
  2
{0B318BF0-B86B-1849-B311-F6C75046A695}
  9
$EXTNAMES
290
     1
  9
$PSVPSCALE
 40
0.0
  9
$OLESTARTUP
290
     0
  9
$SORTENTS
280
   127
  9
$INDEXCTL
280
     0
  9
$HIDETEXT
280
     0
  9
$XCLIPFRAME
280
     2
  9
$HALOGAP
280
     0
  9
$OBSCOLOR
 70
   257
  9
$OBSLTYPE
280
     0
  9
$INTERSECTIONDISPLAY
280
     0
  9
$INTERSECTIONCOLOR
 70
   257
  9
$DIMASSOC
280
     1
  9
$PROJECTNAME
  1

  9
$CAMERADISPLAY
290
     0
  9
$LENSLENGTH
 40
50.0
  9
$CAMERAHEIGHT
 40
0.0
  9
$STEPSPERSEC
 40
2.0
  9
$STEPSIZE
 40
6.0
  9
$3DDWFPREC
 40
2.0
  9
$PSOLWIDTH
 40
0.25
  9
$PSOLHEIGHT
 40
4.0
  9
$LOFTANG1
 40
1.570796326794896
  9
$LOFTANG2
 40
1.570796326794896
  9
$LOFTMAG1
 40
0.0
  9
$LOFTMAG2
 40
0.0
  9
$LOFTPARAM
 70
     7
  9
$LOFTNORMALS
280
     1
  9
$LATITUDE
 40
37.795
  9
$LONGITUDE
 40
-122.394
  9
$NORTHDIRECTION
 40
0.0
  9
$TIMEZONE
 70
 -8000
  9
$LIGHTGLYPHDISPLAY
280
     1
  9
$TILEMODELIGHTSYNCH
280
     1
  9
$CMATERIAL
347
2C39
  9
$SOLIDHIST
280
     0
  9
$SHOWHIST
280
     1
  9
$DWFFRAME
280
     2
  9
$DGNFRAME
280
     0
  9
$REALWORLDSCALE
290
     1
  9
$INTERFERECOLOR
 62
     1
  9
$INTERFEREOBJVS
345
2C5B
  9
$INTERFEREVPVS
346
2C58
  9
$CSHADOW
280
     0
  9
$SHADOWPLANELOCATION
 40
0.0
  0
ENDSEC
  0
SECTION
  2
CLASSES
  0
CLASS
  1
ACDBDICTIONARYWDFLT
  2
AcDbDictionaryWithDefault
  3
ObjectDBX Classes
 90
        0
 91
        1
280
     0
281
     0
  0
CLASS
  1
MATERIAL
  2
AcDbMaterial
  3
ObjectDBX Classes
 90
     1153
 91
        3
280
     0
281
     0
  0
CLASS
  1
VISUALSTYLE
  2
AcDbVisualStyle
  3
ObjectDBX Classes
 90
     4095
 91
       24
280
     0
281
     0
  0
CLASS
  1
SCALE
  2
AcDbScale
  3
ObjectDBX Classes
 90
     1153
 91
       17
280
     0
281
     0
  0
CLASS
  1
TABLESTYLE
  2
AcDbTableStyle
  3
ObjectDBX Classes
 90
     4095
 91
        1
280
     0
281
     0
  0
CLASS
  1
MLEADERSTYLE
  2
AcDbMLeaderStyle
  3
ACDB_MLEADERSTYLE_CLASS
 90
     4095
 91
        1
280
     0
281
     0
  0
CLASS
  1
ACDBSECTIONVIEWSTYLE
  2
AcDbSectionViewStyle
  3
ObjectDBX Classes
 90
     1025
 91
        2
280
     0
281
     0
  0
CLASS
  1
ACDBDETAILVIEWSTYLE
  2
AcDbDetailViewStyle
  3
ObjectDBX Classes
 90
     1025
 91
        2
280
     0
281
     0
  0
CLASS
  1
AMGSETTINGSOBJ
  2
AmgSettingsObj
  3
"AcadM|Product Description: AutoCAD Mechanical|Company: Autodesk, Inc."
 90
     1024
 91
        2
280
     0
281
     0
  0
CLASS
  1
ACME_DOCUMENT
  2
AcMeDbDoc
  3
AcMeServices
 90
     1024
 91
        1
280
     0
281
     0
  0
CLASS
  1
ACMESCOPE
  2
AcMeScope
  3
AcMeServices
 90
     1024
 91
        1
280
     0
281
     0
  0
CLASS
  1
ACMECOMMANDHISTORY
  2
AcMeCommandHistory
  3
AcMeServices
 90
     1024
 91
        1
280
     0
281
     0
  0
CLASS
  1
ACIMSYSVARMAN
  2
AcImSysVarManager
  3
AcMeServices
 90
     1024
 91
        3
280
     0
281
     0
  0
CLASS
  1
ACIMINTSYSVAR
  2
AcImIntSysVar
  3
AcMeServices
 90
     1024
 91
        3
280
     0
281
     0
  0
CLASS
  1
ACMESTATEMGR
  2
AcMeStateMgr
  3
AcMeServices
 90
     1024
 91
        1
280
     0
281
     0
  0
CLASS
  1
ACDBENTITYCACHE
  2
AcMeEntityCache
  3
AcMeServices
 90
     1024
 91
        1
280
     0
281
     0
  0
CLASS
  1
ACGREFMASTER
  2
AcGrefMaster
  3
AcAttribServices
 90
     1024
 91
        1
280
     0
281
     0
  0
CLASS
  1
ACME_DATABASE
  2
AcMeDbDatabase
  3
AcMeServices
 90
     1024
 91
        1
280
     0
281
     0
  0
CLASS
  1
ACRFINSADJUSTERMGR
  2
AcRfInsAdjusterMgr
  3
AcMeServices
 90
     1024
 91
        1
280
     0
281
     0
  0
CLASS
  1
ACGREFACADMASTER
  2
AcGrefacadMaster
  3
AcGrefServices
 90
     1024
 91
        1
280
     0
281
     0
  0
CLASS
  1
AMIMASTER
  2
AmiMaster
  3
AmiServices
 90
     1024
 91
        1
280
     0
281
     0
  0
CLASS
  1
AMDTMENUSTATEMGR
  2
AmdtMenuStateMgr
  3
McadcomServices
 90
     1024
 91
        1
280
     0
281
     0
  0
CLASS
  1
AMDTMCOMMENUSTATE
  2
AmdtMcomMenuState
  3
McadcomServices
 90
     1024
 91
        1
280
     0
281
     0
  0
CLASS
  1
MAPIAMMOUDLE
  2
MApiAmModule
  3
MApiAmServices
 90
     1024
 91
        1
280
     0
281
     0
  0
CLASS
  1
ACIMSTRSYSVAR
  2
AcImStrSysVar
  3
AcMeServices
 90
     1024
 91
        5
280
     0
281
     0
  0
CLASS
  1
AMDTAMMENUSTATE
  2
AmdtAmMenuState
  3
DesignerAssemblies_arx
 90
     1024
 91
        1
280
     0
281
     0
  0
CLASS
  1
ACAMPROJECT
  2
AcAmProject
  3
DesignerAssemblies
 90
     1024
 91
        1
280
     0
281
     0
  0
CLASS
  1
ACAMGRCOMPDEF
  2
AcAmGrCompDef
  3
DesignerAssemblies
 90
     1024
 91
        1
280
     0
281
     0
  0
CLASS
  1
ACAMCOMPDEF
  2
AcAmCompDef
  3
DesignerAssemblies
 90
     1024
 91
        1
280
     0
281
     0
  0
CLASS
  1
ACAMCOMPDEFMGR
  2
AcAmCompDefMgr
  3
DesignerAssemblies
 90
     1024
 91
        1
280
     0
281
     0
  0
CLASS
  1
AMCONTEXTMGR
  2
AcAmContextMgr
  3
DesignerAssemblies
 90
     1024
 91
        1
280
     0
281
     0
  0
CLASS
  1
ACAMCONTEXTMODELER
  2
AcAmContextModeler
  3
DesignerAssemblies
 90
     1024
 91
        1
280
     0
281
     0
  0
CLASS
  1
ACMDATADICTIONARY
  2
AcmDataDictionary
  3
"AcmSymBB|Product Description: AutoCAD Mechanical|Company: Autodesk, Inc."
 90
     1024
 91
        1
280
     0
281
     0
  0
CLASS
  1
ACAMGRCOMPDEFSET
  2
AcAmGrCompDefSet
  3
DesignerAssemblies
 90
     1024
 91
        1
280
     0
281
     0
  0
CLASS
  1
AMDTBROWSERDBTAB
  2
AmdtBrowserDbTab
  3
McadcomServices
 90
     1024
 91
        1
280
     0
281
     0
  0
CLASS
  1
CBROWSERAPPOBJECT
  2
CBrowserAppObject
  3
McadcomServices
 90
     1024
 91
        2
280
     0
281
     0
  0
CLASS
  1
DM_PLACEHOLDER
  2
AcDmSelsetPlaceholder
  3
McadcomServices
 90
     1024
 91
        1
280
     0
281
     0
  0
CLASS
  1
EXACXREFPANELOBJECT
  2
ExAcXREFPanelObject
  3
EXAC_ESW
 90
     1025
 91
        1
280
     0
281
     0
  0
CLASS
  1
NPOCOLLECTION
  2
AcDbImpNonPersistentObjectsCollection
  3
ObjectDBX Classes
 90
     1153
 91
        1
280
     0
281
     0
  0
CLASS
  1
ACMSTANDARDANSI
  2
AcmStandardANSI
  3
"Amdt_StdImp|Product Description: AutoCAD Mechanical|Company: Autodesk, Inc."
 90
     1024
 91
        1
280
     0
281
     0
  0
CLASS
  1
ACMSURFSTANDARDANSI
  2
AcmSurfTextStdANSI
  3
"Amdt_StdImp|Product Description: AutoCAD Mechanical|Company: Autodesk, Inc."
 90
     1024
 91
        1
280
     0
281
     0
  0
CLASS
  1
ACMFCFSTANDARDANSI
  2
AcmFCFStdANSI
  3
"Amdt_StdImp|Product Description: AutoCAD Mechanical|Company: Autodesk, Inc."
 90
     1024
 91
        1
280
     0
281
     0
  0
CLASS
  1
ACMWELDSTANDARDANSI
  2
AcmWeldingStdANSI
  3
"Amdt_StdImp|Product Description: AutoCAD Mechanical|Company: Autodesk, Inc."
 90
     1024
 91
        1
280
     0
281
     0
  0
CLASS
  1
ACMIDSTANDARDANSI
  2
AcmIdStdANSI
  3
"Amdt_StdImp|Product Description: AutoCAD Mechanical|Company: Autodesk, Inc."
 90
     1024
 91
        1
280
     0
281
     0
  0
CLASS
  1
ACMDATUMSTANDARDANSI
  2
AcmDatumStdANSI
  3
"Amdt_StdImp|Product Description: AutoCAD Mechanical|Company: Autodesk, Inc."
 90
     1024
 91
        1
280
     0
281
     0
  0
CLASS
  1
ACMBOMSTANDARDANSI
  2
AcmBOMStdANSI
  3
"Amdt_StdImp|Product Description: AutoCAD Mechanical|Company: Autodesk, Inc."
 90
     1024
 91
        1
280
     0
281
     0
  0
CLASS
  1
ACMDETAILSTANDARDANSI
  2
AmdtDetailSymStdANSI
  3
"Amdt_StdImp|Product Description: AutoCAD Mechanical|Company: Autodesk, Inc."
 90
     1024
 91
        1
280
     0
281
     0
  0
CLASS
  1
ACMSECTIONSTANDARDANSI
  2
AmdtSectionSymStdANSI
  3
"Amdt_StdImp|Product Description: AutoCAD Mechanical|Company: Autodesk, Inc."
 90
     1024
 91
        1
280
     0
281
     0
  0
CLASS
  1
ACMCENTERLINESTANDARDANSI
  2
AmdtCenterLineStdANSI
  3
"Amdt_StdImp|Product Description: AutoCAD Mechanical|Company: Autodesk, Inc."
 90
     1024
 91
        1
280
     0
281
     0
  0
CLASS
  1
ACMTHREADLINESTANDARDANSI
  2
AmdtThreadLineStdANSI
  3
"Amdt_StdImp|Product Description: AutoCAD Mechanical|Company: Autodesk, Inc."
 90
     1024
 91
        1
280
     0
281
     0
  0
CLASS
  1
ACMNOTESTANDARDANSI
  2
AmdtNoteStdANSI
  3
"Amdt_StdImp|Product Description: AutoCAD Mechanical|Company: Autodesk, Inc."
 90
     1024
 91
        1
280
     0
281
     0
  0
CLASS
  1
ACMTAPERSTANDARDANSI
  2
AcmTaperStdANSI
  3
"Amdt_StdImp|Product Description: AutoCAD Mechanical|Company: Autodesk, Inc."
 90
     1024
 91
        1
280
     0
281
     0
  0
CLASS
  1
ACMANOOTATIONVIEWSTANDARDANSI
  2
AmdtAnViewStdANSI
  3
"Amdt_StdImp|Product Description: AutoCAD Mechanical|Company: Autodesk, Inc."
 90
     1024
 91
        1
280
     0
281
     0
  0
CLASS
  1
ACAMGLAYSTD
  2
AcAmgLayStd
  3
"AmgLay|Product Description: AutoCAD Mechanical|Company: Autodesk, Inc."
 90
     1024
 91
        1
280
     0
281
     0
  0
CLASS
  1
ACAMGDIMSTD
  2
AcAmgDimStd
  3
"AmgDim|Product Description: AutoCAD Mechanical|Company: Autodesk, Inc."
 90
     1024
 91
        1
280
     0
281
     0
  0
CLASS
  1
ACAMGHOLECHARTSTDANSI
  2
AcAmgHoleChartStdANSI
  3
"AmgDim" "Product Description: AutoCAD Mechanical|Company: Autodesk, Inc."
 90
     1024
 91
        1
280
     0
281
     0
  0
CLASS
  1
AMGOBJPROPCFG
  2
AmgObjPropCfg
  3
"AmgLay|Product Description: AutoCAD Mechanical|Company: Autodesk, Inc."
 90
     1024
 91
        1
280
     0
281
     0
  0
CLASS
  1
ACAMGTITLESTD
  2
AcAmgTitleStd
  3
"AmgTitle|Product Description: AutoCAD Mechanical|Company: Autodesk, Inc."
 90
     1024
 91
        1
280
     0
281
     0
  0
CLASS
  1
ACMSECTIONSTANDARDCUSTOM
  2
AmdtSectionSymStdCustom
  3
"Amdt_StdImp|Product Description: AutoCAD Mechanical|Company: Autodesk, Inc."
 90
     1024
 91
        1
280
     0
281
     0
  0
CLASS
  1
ACMDETAILTANDARDCUSTOM
  2
AmdtDetailSymStdCustom
  3
"Amdt_StdImp|Product Description: AutoCAD Mechanical|Company: Autodesk, Inc."
 90
     1024
 91
        1
280
     0
281
     0
  0
CLASS
  1
FIELD
  2
AcDbField
  3
ObjectDBX Classes
 90
     1152
 91
        8
280
     0
281
     0
  0
CLASS
  1
FIELDLIST
  2
AcDbFieldList
  3
ObjectDBX Classes
 90
     1152
 91
        1
280
     0
281
     0
  0
CLASS
  1
AMDTNOTETEMPLATEDB
  2
AmdtNoteTemplateDB
  3
"AcmSymBB" "Product Description: AutoCAD Mechanical|Company: Autodesk, Inc."
 90
     1024
 91
        7
280
     0
281
     0
  0
CLASS
  1
ACAMGFILTERDAT
  2
AcAmgFilterDat
  3
"AcadM|Product Description: AutoCAD Mechanical|Company: Autodesk, Inc."
 90
     1024
 91
        0
280
     0
281
     0
  0
CLASS
  1
SORTENTSTABLE
  2
AcDbSortentsTable
  3
ObjectDBX Classes
 90
        0
 91
        0
280
     0
281
     0
  0
CLASS
  1
DICTIONARYVAR
  2
AcDbDictionaryVar
  3
ObjectDBX Classes
 90
        0
 91
        9
280
     0
281
     0
  0
CLASS
  1
CELLSTYLEMAP
  2
AcDbCellStyleMap
  3
ObjectDBX Classes
 90
     1152
 91
        2
280
     0
281
     0
  0
ENDSEC
  0
SECTION
  2
TABLES
  0
TABLE
  2
VPORT
  5
2C30
330
0
100
AcDbSymbolTable
 70
     1
  0
VPORT
  5
2C9C
330
2C30
100
AcDbSymbolTableRecord
100
AcDbViewportTableRecord
  2
*ACTIVE
 70
     0
 10
0.0
 20
0.0
 11
1.0
 21
1.0
 12
572.4425156626296
 22
532.2956107554441
 13
0.0
 23
0.0
 14
12.5
 24
12.5
 15
50.0
 25
50.0
 16
0.0
 26
0.0
 36
1.0
 17
0.0
 27
0.0
 37
0.0
 40
551.6323085163301
 41
2.197496522948539
 42
50.0
 43
0.0
 44
0.0
 50
0.0
 51
0.0
 71
     0
 72
   100
 73
     1
 74
     3
 75
     0
 76
     0
 77
     0
 78
     0
281
     0
 65
     0
110
0.0
120
0.0
130
0.0
111
1.0
121
0.0
131
0.0
112
0.0
122
1.0
132
0.0
 79
     0
146
0.0
348
2C57
 60
     3
 61
     5
292
     1
282
     0
141
0.0
142
0.0
 63
   250
421
  3355443
1001
ACAD_NAV_VCDISPLAY
1070
     3
  0
ENDTAB
  0
TABLE
  2
LTYPE
  5
2C2D
330
0
100
AcDbSymbolTable
 70
    18
  0
LTYPE
  5
2C82
330
2C2D
100
AcDbSymbolTableRecord
100
AcDbLinetypeTableRecord
  2
ByBlock
 70
     0
  3

 72
    65
 73
     0
 40
0.0
  0
LTYPE
  5
2C83
330
2C2D
100
AcDbSymbolTableRecord
100
AcDbLinetypeTableRecord
  2
ByLayer
 70
     0
  3

 72
    65
 73
     0
 40
0.0
  0
LTYPE
  5
2C84
330
2C2D
100
AcDbSymbolTableRecord
100
AcDbLinetypeTableRecord
  2
CONTINUOUS
 70
     0
  3
Solid line
 72
    65
 73
     0
 40
0.0
  0
LTYPE
  5
2CA0
330
2C2D
100
AcDbSymbolTableRecord
100
AcDbLinetypeTableRecord
  2
AMCONSTR
 70
     0
  3
_______________________
 72
    65
 73
     2
 40
9999.0
 49
9999.0
 74
     0
 49
0.0
 74
     0
  0
LTYPE
  5
2CA7
330
2C2D
100
AcDbSymbolTableRecord
100
AcDbLinetypeTableRecord
  2
CENTER
 70
     0
  3
__ . __
 72
    65
 73
     4
 40
7.0
 49
4.0
 74
     0
 49
-1.0
 74
     0
 49
1.0
 74
     0
 49
-1.0
 74
     0
  0
LTYPE
  5
2CA8
330
2C2D
100
AcDbSymbolTableRecord
100
AcDbLinetypeTableRecord
  2
PHANTOM2
 70
     0
  3
Phantom (.5x) ___ _ _ ___ _ _ ___ _ _ ___ _ _
 72
    65
 73
     6
 40
31.75
 49
15.875
 74
     0
 49
-3.174999999999998
 74
     0
 49
3.174999999999998
 74
     0
 49
-3.174999999999998
 74
     0
 49
3.174999999999998
 74
     0
 49
-3.174999999999998
 74
     0
  0
LTYPE
  5
2CAB
330
2C2D
100
AcDbSymbolTableRecord
100
AcDbLinetypeTableRecord
  2
GEN3B
 70
     0
  3
 - - - - -
 72
    65
 73
     2
 40
1.0
 49
0.5
 74
     0
 49
-0.5
 74
     0
  0
LTYPE
  5
2CAC
330
2C2D
100
AcDbSymbolTableRecord
100
AcDbLinetypeTableRecord
  2
GEN7A
 70
     0
  3
__ . __ . __
 72
    65
 73
     4
 40
7.375
 49
4.75
 74
     0
 49
-0.875
 74
     0
 49
0.875
 74
     0
 49
-0.875
 74
     0
  0
LTYPE
  5
2CAF
330
2C2D
100
AcDbSymbolTableRecord
100
AcDbLinetypeTableRecord
  2
HIDDEN
 70
     0
  3
Hidden __ __ __ __ __ __ __ __ __ __ __ __ __ _
 72
    65
 73
     2
 40
0.375
 49
0.25
 74
     0
 49
-0.125
 74
     0
  0
LTYPE
  5
2CB0
330
2C2D
100
AcDbSymbolTableRecord
100
AcDbLinetypeTableRecord
  2
CENTER2
 70
     0
  3
Center (.5x) ___ _ ___ _ ___ _ ___ _ ___ _ ___
 72
    65
 73
     4
 40
1.125
 49
0.75
 74
     0
 49
-0.125
 74
     0
 49
0.125
 74
     0
 49
-0.125
 74
     0
  0
LTYPE
  5
2CB1
330
2C2D
100
AcDbSymbolTableRecord
100
AcDbLinetypeTableRecord
  2
HIDDEN2
 70
     0
  3
Hidden (.5x) _ _ _ _ _ _ _ _ _ _ _ _ _ _ _ _ _
 72
    65
 73
     2
 40
0.1875
 49
0.125
 74
     0
 49
-0.0625
 74
     0
  0
LTYPE
  5
2CB2
330
2C2D
100
AcDbSymbolTableRecord
100
AcDbLinetypeTableRecord
  2
AMZIGZAG2
 70
     0
  3
/\/-/\/-/\/-/\/-/\/-/\/
 72
    65
 73
     2
 40
0.4401
 49
0.0001
 74
     0
 49
-0.4400000000000003
 74
     0
  0
LTYPE
  5
2CB3
330
2C2D
100
AcDbSymbolTableRecord
100
AcDbLinetypeTableRecord
  2
ACANSTGB
 70
     0
  3
__ . . __ . .
 72
    65
 73
     6
 40
0.35433070866
 49
0.15748031496
 74
     0
 49
-0.03937007874
 74
     0
 49
0.03937007874
 74
     0
 49
-0.03937007874
 74
     0
 49
0.03937007874
 74
     0
 49
-0.03937007874
 74
     0
  0
LTYPE
  5
2CB4
330
2C2D
100
AcDbSymbolTableRecord
100
AcDbLinetypeTableRecord
  2
ACANSTGL
 70
     0
  3
_ _ _ _ _
 72
    65
 73
     2
 40
0.11811023622
 49
0.07874015748
 74
     0
 49
-0.03937007874
 74
     0
  0
ENDTAB
  0
TABLE
  2
LAYER
  5
2C2A
102
{ACAD_XDICTIONARY
360
2E6F
102
}
330
0
100
AcDbSymbolTable
 70
     6
  0
LAYER
  5
2C7C
102
{ACAD_XDICTIONARY
360
2E62
102
}
330
2C2A
100
AcDbSymbolTableRecord
100
AcDbLayerTableRecord
  2
0
 70
     0
 62
     7
  6
CONTINUOUS
370
    -3
390
2C37
347
2C49
  0
LAYER
  5
2C9B
102
{ACAD_XDICTIONARY
360
2E64
102
}
330
2C2A
100
AcDbSymbolTableRecord
100
AcDbLayerTableRecord
  2
AM_0
 70
     0
 62
     7
  6
CONTINUOUS
370
    -3
390
2C37
347
2C49
  0
LAYER
  5
2CB5
102
{ACAD_XDICTIONARY
360
2E66
102
}
330
2C2A
100
AcDbSymbolTableRecord
100
AcDbLayerTableRecord
  2
AM_5
 70
     0
 62
     2
  6
CONTINUOUS
370
    -3
390
2C37
347
2C49
  0
LAYER
  5
2CB6
330
2C2A
100
AcDbSymbolTableRecord
100
AcDbLayerTableRecord
  2
DEFPOINTS
 70
     0
 62
     7
  6
CONTINUOUS
290
     0
370
    -3
390
2C37
347
2C49
  0
LAYER
  5
2CB7
102
{ACAD_XDICTIONARY
360
2E68
102
}
330
2C2A
100
AcDbSymbolTableRecord
100
AcDbLayerTableRecord
  2
ｶｸﾚｾﾝ2
 70
     0
 62
     3
  6
GEN3B
370
    -3
390
2C37
347
2C49
  0
LAYER
  5
2CB8
102
{ACAD_XDICTIONARY
360
2E6A
102
}
330
2C2A
100
AcDbSymbolTableRecord
100
AcDbLayerTableRecord
  2
ﾁｭｳｼﾝｾﾝ1
 70
     0
 62
     1
  6
GEN7A
370
    -3
390
2C37
347
2C49
  0
ENDTAB
  0
TABLE
  2
STYLE
  5
2C2B
330
0
100
AcDbSymbolTable
 70
     4
  0
STYLE
  5
2C7D
330
2C2B
100
AcDbSymbolTableRecord
100
AcDbTextStyleTableRecord
  2
STANDARD
 70
     0
 40
0.0
 41
0.8299999999999998
 50
0.0
 71
     0
 42
2.5
  3
txt.shx
  4
bigfont.shx
  0
STYLE
  5
2CBD
330
2C2B
100
AcDbSymbolTableRecord
100
AcDbTextStyleTableRecord
  2
ACANSGDT
 70
     0
 40
0.0
 41
1.0
 50
0.0
 71
     0
 42
2.5
  3
amgdt.shx
  4

  0
ENDTAB
  0
TABLE
  2
VIEW
  5
2C2E
330
0
100
AcDbSymbolTable
 70
     6
  0
VIEW
  5
2CC0
330
2C2E
100
AcDbSymbolTableRecord
100
AcDbViewTableRecord
  2
AM_VIEW1
 70
     0
 40
462.5
 10
416.0796500920808
 20
693.75
 41
832.1593001841621
 11
0.0
 21
0.0
 31
1.0
 12
0.0
 22
0.0
 32
0.0
 42
50.0
 43
0.0
 44
0.0
 50
0.0
 71
     0
281
     0
 72
     0
 73
     0
348
2C57
  0
VIEW
  5
2CC1
330
2C2E
100
AcDbSymbolTableRecord
100
AcDbViewTableRecord
  2
AM_VIEW2
 70
     0
 40
462.5
 10
1006.420349907918
 20
693.75
 41
832.1593001841621
 11
0.0
 21
0.0
 31
1.0
 12
0.0
 22
0.0
 32
0.0
 42
50.0
 43
0.0
 44
0.0
 50
0.0
 71
     0
281
     0
 72
     0
 73
     0
348
2C57
  0
VIEW
  5
2CC2
330
2C2E
100
AcDbSymbolTableRecord
100
AcDbViewTableRecord
  2
AM_VIEW3
 70
     0
 40
462.5
 10
416.0796500920808
 20
231.25
 41
832.1593001841621
 11
0.0
 21
0.0
 31
1.0
 12
0.0
 22
0.0
 32
0.0
 42
50.0
 43
0.0
 44
0.0
 50
0.0
 71
     0
281
     0
 72
     0
 73
     0
348
2C57
  0
VIEW
  5
2CC3
330
2C2E
100
AcDbSymbolTableRecord
100
AcDbViewTableRecord
  2
AM_VIEW4
 70
     0
 40
462.5
 10
1006.420349907918
 20
231.25
 41
832.1593001841621
 11
0.0
 21
0.0
 31
1.0
 12
0.0
 22
0.0
 32
0.0
 42
50.0
 43
0.0
 44
0.0
 50
0.0
 71
     0
281
     0
 72
     0
 73
     0
348
2C57
  0
VIEW
  5
2CC4
330
2C2E
100
AcDbSymbolTableRecord
100
AcDbViewTableRecord
  2
AM_VIEW5
 70
     0
 40
462.5
 10
711.2499999999997
 20
462.5
 41
832.1593001841616
 11
0.0
 21
0.0
 31
1.0
 12
0.0
 22
0.0
 32
0.0
 42
50.0
 43
0.0
 44
0.0
 50
0.0
 71
     0
281
     0
 72
     0
 73
     0
348
2C57
  0
VIEW
  5
2CC5
330
2C2E
100
AcDbSymbolTableRecord
100
AcDbViewTableRecord
  2
AM_VIEW6
 70
     0
 40
924.99075
 10
711.2499999999997
 20
462.5
 41
1664.30195718232
 11
0.0
 21
0.0
 31
1.0
 12
0.0
 22
0.0
 32
0.0
 42
50.0
 43
0.0
 44
0.0
 50
0.0
 71
     0
281
     0
 72
     0
 73
     0
348
2C57
  0
ENDTAB
  0
TABLE
  2
UCS
  5
2C2F
330
0
100
AcDbSymbolTable
 70
     0
  0
ENDTAB
  0
TABLE
  2
APPID
  5
2C31
330
0
100
AcDbSymbolTable
 70
    95
  0
APPID
  5
2C7E
330
2C31
100
AcDbSymbolTableRecord
100
AcDbRegAppTableRecord
  2
ACAD
 70
     0
  0
APPID
  5
2C85
330
2C31
100
AcDbSymbolTableRecord
100
AcDbRegAppTableRecord
  2
ACADANNOTATIVE
 70
     0
  0
APPID
  5
2CC6
330
2C31
100
AcDbSymbolTableRecord
100
AcDbRegAppTableRecord
  2
MCAD_NO_VIS
 70
     0
  0
APPID
  5
2CC7
330
2C31
100
AcDbSymbolTableRecord
100
AcDbRegAppTableRecord
  2
ACAD_TEMP_GRAPHIC
 70
     0
  0
APPID
  5
2CC8
330
2C31
100
AcDbSymbolTableRecord
100
AcDbRegAppTableRecord
  2
ACATTRIBSERVICES
 70
     0
  0
APPID
  5
2CC9
330
2C31
100
AcDbSymbolTableRecord
100
AcDbRegAppTableRecord
  2
GENIUS_GENREC_14
 70
     0
  0
APPID
  5
2CCA
330
2C31
100
AcDbSymbolTableRecord
100
AcDbRegAppTableRecord
  2
GENIUS_GENOBJ-N-REC_13
 70
     0
  0
APPID
  5
2CCB
330
2C31
100
AcDbSymbolTableRecord
100
AcDbRegAppTableRecord
  2
GENIUS_GENODEF_13
 70
     0
  0
APPID
  5
2CCC
330
2C31
100
AcDbSymbolTableRecord
100
AcDbRegAppTableRecord
  2
GENIUS_GENOLIS_13
 70
     0
  0
APPID
  5
2CCD
330
2C31
100
AcDbSymbolTableRecord
100
AcDbRegAppTableRecord
  2
GENIUS_GENOBJ-N-TIT_13
 70
     0
  0
APPID
  5
2CCE
330
2C31
100
AcDbSymbolTableRecord
100
AcDbRegAppTableRecord
  2
GENIUS_GENOENT_13
 70
     0
  0
APPID
  5
2CCF
330
2C31
100
AcDbSymbolTableRecord
100
AcDbRegAppTableRecord
  2
GENIUS_GENTITLE_13
 70
     0
  0
APPID
  5
2CD0
330
2C31
100
AcDbSymbolTableRecord
100
AcDbRegAppTableRecord
  2
GENIUS_GENOREF_13
 70
     0
  0
APPID
  5
2CD1
330
2C31
100
AcDbSymbolTableRecord
100
AcDbRegAppTableRecord
  2
GENIUS_GENSCREG_15
 70
     0
  0
APPID
  5
2CD2
330
2C31
100
AcDbSymbolTableRecord
100
AcDbRegAppTableRecord
  2
GENIUS_GENOBJ-N-SDF_13
 70
     0
  0
APPID
  5
2CD3
330
2C31
100
AcDbSymbolTableRecord
100
AcDbRegAppTableRecord
  2
GENIUS_GENFIL_13
 70
     0
  0
APPID
  5
2CD4
330
2C31
100
AcDbSymbolTableRecord
100
AcDbRegAppTableRecord
  2
GENIUS_GENOBJ-N-CHA_13
 70
     0
  0
APPID
  5
2CD5
330
2C31
100
AcDbSymbolTableRecord
100
AcDbRegAppTableRecord
  2
GENIUS_GENDTOL_13
 70
     0
  0
APPID
  5
2CD6
330
2C31
100
AcDbSymbolTableRecord
100
AcDbRegAppTableRecord
  2
GENIUS_GENOBJ-N-FIL_13
 70
     0
  0
APPID
  5
2CD7
330
2C31
100
AcDbSymbolTableRecord
100
AcDbRegAppTableRecord
  2
AD_DRAW
 70
     0
  0
APPID
  5
2CD8
330
2C31
100
AcDbSymbolTableRecord
100
AcDbRegAppTableRecord
  2
DESIGNERASSEMBLIES
 70
     0
  0
APPID
  5
2CD9
330
2C31
100
AcDbSymbolTableRecord
100
AcDbRegAppTableRecord
  2
ASURF_PCURVE_APPNAME
 70
     0
  0
APPID
  5
2CDA
330
2C31
100
AcDbSymbolTableRecord
100
AcDbRegAppTableRecord
  2
GENIUS_GE3SECT_13
 70
     0
  0
APPID
  5
2CDB
330
2C31
100
AcDbSymbolTableRecord
100
AcDbRegAppTableRecord
  2
GENIUS_GENCFG_13
 70
     0
  0
APPID
  5
2CDC
330
2C31
100
AcDbSymbolTableRecord
100
AcDbRegAppTableRecord
  2
GENIUS_GE3CFG0_13
 70
     0
  0
APPID
  5
2CDD
330
2C31
100
AcDbSymbolTableRecord
100
AcDbRegAppTableRecord
  2
GENIUS_GENCFG0_13
 70
     0
  0
APPID
  5
2CDE
330
2C31
100
AcDbSymbolTableRecord
100
AcDbRegAppTableRecord
  2
GENIUS_GENCFG1_13
 70
     0
  0
APPID
  5
2CDF
330
2C31
100
AcDbSymbolTableRecord
100
AcDbRegAppTableRecord
  2
GENIUS_GENCFG2_13
 70
     0
  0
APPID
  5
2CE0
330
2C31
100
AcDbSymbolTableRecord
100
AcDbRegAppTableRecord
  2
GENIUS_GENCFG3_13
 70
     0
  0
APPID
  5
2CE1
330
2C31
100
AcDbSymbolTableRecord
100
AcDbRegAppTableRecord
  2
GENIUS_GENCFG4_13
 70
     0
  0
APPID
  5
2CE2
330
2C31
100
AcDbSymbolTableRecord
100
AcDbRegAppTableRecord
  2
GENIUS_GEVCFG0_13
 70
     0
  0
APPID
  5
2CE3
330
2C31
100
AcDbSymbolTableRecord
100
AcDbRegAppTableRecord
  2
GENIUS_GENHINW_13
 70
     0
  0
APPID
  5
2CE4
330
2C31
100
AcDbSymbolTableRecord
100
AcDbRegAppTableRecord
  2
GENIUS_FIRSTVISTXT_14
 70
     0
  0
APPID
  5
2CE5
330
2C31
100
AcDbSymbolTableRecord
100
AcDbRegAppTableRecord
  2
GENIUS_GENOBJ-N-LEADER_13
 70
     0
  0
APPID
  5
2CE6
330
2C31
100
AcDbSymbolTableRecord
100
AcDbRegAppTableRecord
  2
GEV_VCCNULL_SWITCH_OFF
 70
     0
  0
APPID
  5
2CE7
330
2C31
100
AcDbSymbolTableRecord
100
AcDbRegAppTableRecord
  2
GENIUS_GEFCFG0_13
 70
     0
  0
APPID
  5
2CE8
330
2C31
100
AcDbSymbolTableRecord
100
AcDbRegAppTableRecord
  2
GENIUS_GENZVEED_13
 70
     0
  0
APPID
  5
2CE9
330
2C31
100
AcDbSymbolTableRecord
100
AcDbRegAppTableRecord
  2
GENIUS_GENSCREG_13
 70
     0
  0
APPID
  5
2CEA
330
2C31
100
AcDbSymbolTableRecord
100
AcDbRegAppTableRecord
  2
GENIUS_DUMCFG0_13
 70
     0
  0
APPID
  5
2CEB
330
2C31
100
AcDbSymbolTableRecord
100
AcDbRegAppTableRecord
  2
GEVID936201362
 70
     0
  0
APPID
  5
2CEC
330
2C31
100
AcDbSymbolTableRecord
100
AcDbRegAppTableRecord
  2
GEVDC
 70
     0
  0
APPID
  5
2CED
330
2C31
100
AcDbSymbolTableRecord
100
AcDbRegAppTableRecord
  2
GEVCON
 70
     0
  0
APPID
  5
2CEE
330
2C31
100
AcDbSymbolTableRecord
100
AcDbRegAppTableRecord
  2
VCC
 70
     0
  0
APPID
  5
2CEF
330
2C31
100
AcDbSymbolTableRecord
100
AcDbRegAppTableRecord
  2
GEVPT
 70
     0
  0
APPID
  5
2CF0
330
2C31
100
AcDbSymbolTableRecord
100
AcDbRegAppTableRecord
  2
GEVIT
 70
     0
  0
APPID
  5
2CF1
330
2C31
100
AcDbSymbolTableRecord
100
AcDbRegAppTableRecord
  2
GENBH
 70
     0
  0
APPID
  5
2CF2
330
2C31
100
AcDbSymbolTableRecord
100
AcDbRegAppTableRecord
  2
GEVMK
 70
     0
  0
APPID
  5
2CF3
330
2C31
100
AcDbSymbolTableRecord
100
AcDbRegAppTableRecord
  2
GENIUS_GENBH_13
 70
     0
  0
APPID
  5
2CF4
330
2C31
100
AcDbSymbolTableRecord
100
AcDbRegAppTableRecord
  2
GENIUS_GENOBJ-NBEHI-BHF_13
 70
     0
  0
APPID
  5
2CF5
330
2C31
100
AcDbSymbolTableRecord
100
AcDbRegAppTableRecord
  2
GENIUS_GENOBJ-NBEHI-BHB_13
 70
     0
  0
APPID
  5
2CF6
330
2C31
100
AcDbSymbolTableRecord
100
AcDbRegAppTableRecord
  2
GENIUS_GENOBJ-F-DESC_13
 70
     0
  0
APPID
  5
2CF7
330
2C31
100
AcDbSymbolTableRecord
100
AcDbRegAppTableRecord
  2
GENIUS_GEFDESC_14
 70
     0
  0
APPID
  5
2CF8
330
2C31
100
AcDbSymbolTableRecord
100
AcDbRegAppTableRecord
  2
GENIUS_GENOBJ-F-PART_13
 70
     0
  0
APPID
  5
2CF9
330
2C31
100
AcDbSymbolTableRecord
100
AcDbRegAppTableRecord
  2
GENIUS_GEFSTDP_13
 70
     0
  0
APPID
  5
2CFA
330
2C31
100
AcDbSymbolTableRecord
100
AcDbRegAppTableRecord
  2
GENIUS_GEFPARTINS_13
 70
     0
  0
APPID
  5
2CFB
330
2C31
100
AcDbSymbolTableRecord
100
AcDbRegAppTableRecord
  2
GENIUS_GENTRA_14
 70
     0
  0
APPID
  5
2CFC
330
2C31
100
AcDbSymbolTableRecord
100
AcDbRegAppTableRecord
  2
GENIUS_GENINF13_13
 70
     0
  0
APPID
  5
2CFD
330
2C31
100
AcDbSymbolTableRecord
100
AcDbRegAppTableRecord
  2
GENIUS_GENOBJ-N-INFOPT_13
 70
     0
  0
APPID
  5
2CFE
330
2C31
100
AcDbSymbolTableRecord
100
AcDbRegAppTableRecord
  2
GENIUS_GENOBJ-N-RSSYM_13
 70
     0
  0
APPID
  5
2CFF
330
2C31
100
AcDbSymbolTableRecord
100
AcDbRegAppTableRecord
  2
GENIUS_GENSYMENT_13
 70
     0
  0
APPID
  5
2D00
330
2C31
100
AcDbSymbolTableRecord
100
AcDbRegAppTableRecord
  2
GENIUS_GENSCSYM_13
 70
     0
  0
APPID
  5
2D01
330
2C31
100
AcDbSymbolTableRecord
100
AcDbRegAppTableRecord
  2
GENIUS_GEFINFNAM_13
 70
     0
  0
APPID
  5
2D02
330
2C31
100
AcDbSymbolTableRecord
100
AcDbRegAppTableRecord
  2
GENIUS_GENOBJ-N-CEN_13
 70
     0
  0
APPID
  5
2D03
330
2C31
100
AcDbSymbolTableRecord
100
AcDbRegAppTableRecord
  2
GENIUS_GENOBJ-N-CRS_13
 70
     0
  0
APPID
  5
2D04
330
2C31
100
AcDbSymbolTableRecord
100
AcDbRegAppTableRecord
  2
GENIUS_GENOBJ-N-CRC_13
 70
     0
  0
APPID
  5
2D05
330
2C31
100
AcDbSymbolTableRecord
100
AcDbRegAppTableRecord
  2
GENIUS_GENCRC_14
 70
     0
  0
APPID
  5
2D06
330
2C31
100
AcDbSymbolTableRecord
100
AcDbRegAppTableRecord
  2
GEVID942827039
 70
     0
  0
APPID
  5
2D07
330
2C31
100
AcDbSymbolTableRecord
100
AcDbRegAppTableRecord
  2
GEVID942827040
 70
     0
  0
APPID
  5
2D08
330
2C31
100
AcDbSymbolTableRecord
100
AcDbRegAppTableRecord
  2
GEVID942827041
 70
     0
  0
APPID
  5
2D09
330
2C31
100
AcDbSymbolTableRecord
100
AcDbRegAppTableRecord
  2
GENIUS_GENOBJ-F-SCPASSM_13
 70
     0
  0
APPID
  5
2D0A
330
2C31
100
AcDbSymbolTableRecord
100
AcDbRegAppTableRecord
  2
GENIUS_GENDIMSH_14
 70
     0
  0
APPID
  5
2D0B
330
2C31
100
AcDbSymbolTableRecord
100
AcDbRegAppTableRecord
  2
GEVID942827042
 70
     0
  0
APPID
  5
2D0C
330
2C31
100
AcDbSymbolTableRecord
100
AcDbRegAppTableRecord
  2
GEVID946020473
 70
     0
  0
APPID
  5
2D0D
330
2C31
100
AcDbSymbolTableRecord
100
AcDbRegAppTableRecord
  2
GEVID946020474
 70
     0
  0
APPID
  5
2D0E
330
2C31
100
AcDbSymbolTableRecord
100
AcDbRegAppTableRecord
  2
GEVID946020475
 70
     0
  0
APPID
  5
2D0F
330
2C31
100
AcDbSymbolTableRecord
100
AcDbRegAppTableRecord
  2
GENIUS_GENOBJ-N-HTC_13
 70
     0
  0
APPID
  5
2D10
330
2C31
100
AcDbSymbolTableRecord
100
AcDbRegAppTableRecord
  2
GENIUS_GENHATCH_13
 70
     0
  0
APPID
  5
2D11
330
2C31
100
AcDbSymbolTableRecord
100
AcDbRegAppTableRecord
  2
GEVID948854295
 70
     0
  0
APPID
  5
2D12
330
2C31
100
AcDbSymbolTableRecord
100
AcDbRegAppTableRecord
  2
GEVID939402019
 70
     0
  0
APPID
  5
2D13
330
2C31
100
AcDbSymbolTableRecord
100
AcDbRegAppTableRecord
  2
GEVID952919491
 70
     0
  0
APPID
  5
2D14
330
2C31
100
AcDbSymbolTableRecord
100
AcDbRegAppTableRecord
  2
GEVID952919492
 70
     0
  0
APPID
  5
2D15
330
2C31
100
AcDbSymbolTableRecord
100
AcDbRegAppTableRecord
  2
GENIUS_GEFWELD_13
 70
     0
  0
APPID
  5
2D16
330
2C31
100
AcDbSymbolTableRecord
100
AcDbRegAppTableRecord
  2
GENIUS_GENOBJ-F-WELS_13
 70
     0
  0
APPID
  5
2D17
330
2C31
100
AcDbSymbolTableRecord
100
AcDbRegAppTableRecord
  2
GEVID952919493
 70
     0
  0
APPID
  5
2D18
330
2C31
100
AcDbSymbolTableRecord
100
AcDbRegAppTableRecord
  2
GENIUS_GENOBJ-N-RSBK_13
 70
     0
  0
APPID
  5
2D19
330
2C31
100
AcDbSymbolTableRecord
100
AcDbRegAppTableRecord
  2
GENIUS_GENOBJ-N-LIB_13
 70
     0
  0
APPID
  5
2D1A
330
2C31
100
AcDbSymbolTableRecord
100
AcDbRegAppTableRecord
  2
GENIUS_GENSCALE_13
 70
     0
  0
APPID
  5
2D1B
330
2C31
100
AcDbSymbolTableRecord
100
AcDbRegAppTableRecord
  2
GEVID986376691
 70
     0
  0
APPID
  5
2D1C
330
2C31
100
AcDbSymbolTableRecord
100
AcDbRegAppTableRecord
  2
DCO15
 70
     0
  0
APPID
  5
2D1D
330
2C31
100
AcDbSymbolTableRecord
100
AcDbRegAppTableRecord
  2
ACAD_DSTYLE_DIMBREAK
 70
     0
  0
APPID
  5
2D1E
330
2C31
100
AcDbSymbolTableRecord
100
AcDbRegAppTableRecord
  2
ACAD_DSTYLE_DIMJAG
 70
     0
  0
APPID
  5
2D1F
330
2C31
100
AcDbSymbolTableRecord
100
AcDbRegAppTableRecord
  2
ACAD_NAV_VCDISPLAY
 70
     0
  0
APPID
  5
2D20
330
2C31
100
AcDbSymbolTableRecord
100
AcDbRegAppTableRecord
  2
ACADANNOPO
 70
     0
  0
APPID
  5
2D21
330
2C31
100
AcDbSymbolTableRecord
100
AcDbRegAppTableRecord
  2
ACAD_EXEMPT_FROM_CAD_STANDARDS
 70
     0
  0
APPID
  5
2D22
330
2C31
100
AcDbSymbolTableRecord
100
AcDbRegAppTableRecord
  2
ACAD_MLEADERVER
 70
     0
  0
ENDTAB
  0
TABLE
  2
DIMSTYLE
  5
2C32
330
0
100
AcDbSymbolTable
 70
     8
100
AcDbDimStyleTable
 71
     1
340
2D23
  0
DIMSTYLE
105
2C7F
330
2C32
100
AcDbSymbolTableRecord
100
AcDbDimStyleTableRecord
  2
STANDARD
 70
     0
271
     2
272
     2
279
     2
284
     8
285
     8
286
     8
340
2C7D
  0
DIMSTYLE
105
2D23
330
2C32
100
AcDbSymbolTableRecord
100
AcDbDimStyleTableRecord
  2
AM_ISO
 70
     0
  4
"
 41
2.5
 42
1.0
 43
8.0
 44
0.6
 47
0.1
 48
0.1
 73
     0
 74
     0
 77
     1
 78
     8
140
2.5
141
0.0
143
0.0393701
146
0.71
147
0.8
172
     1
176
   256
177
   256
178
     4
271
     2
272
     2
279
     2
284
     8
285
     8
286
     8
340
2C7D
  0
DIMSTYLE
105
2D31
102
{ACAD_REACTORS
330
2F86
102
}
330
2C32
100
AcDbSymbolTableRecord
100
AcDbDimStyleTableRecord
  2
AM_ANSI
 70
     0
  4
mm
 41
0.1
 42
0.05
 43
0.5
 44
0.1
 47
0.1
 48
0.1
 78
     7
140
0.12
141
0.0
146
0.71
147
0.06
176
   256
177
   256
178
     2
271
     2
272
     2
279
     2
284
     8
285
     8
286
     8
340
2C7D
  0
DIMSTYLE
105
2D32
330
2C32
100
AcDbSymbolTableRecord
100
AcDbDimStyleTableRecord
  2
AM_ANSI$3
 70
     0
  4
mm
 41
0.1
 42
0.05
 43
0.5
 44
0.1
 47
0.1
 48
0.1
 78
     7
140
0.12
141
0.0
146
0.71
147
0.06
176
   256
177
   256
178
     2
271
     2
272
     2
279
     2
284
     8
285
     8
286
     8
340
2C7D
  0
DIMSTYLE
105
2D33
330
2C32
100
AcDbSymbolTableRecord
100
AcDbDimStyleTableRecord
  2
AM_ANSI$4
 70
     0
  4
mm
 41
0.1
 42
0.05
 43
0.5
 44
0.1
 47
0.1
 48
0.1
 78
     7
140
0.12
141
0.0
146
0.71
147
0.06
176
   256
177
   256
178
     2
271
     2
272
     2
279
     2
284
     8
285
     8
286
     8
340
2C7D
  0
DIMSTYLE
105
2D34
330
2C32
100
AcDbSymbolTableRecord
100
AcDbDimStyleTableRecord
  2
AM_ANSI$7
 70
     0
  4
mm
 41
0.1
 42
0.05
 43
0.5
 44
0.1
 47
0.1
 48
0.1
 78
     7
140
0.24
141
0.0
146
0.71
147
0.06
176
   256
177
   256
178
     2
271
     2
272
     2
279
     2
284
     8
285
     8
286
     8
340
2C7D
  0
DIMSTYLE
105
2D35
330
2C32
100
AcDbSymbolTableRecord
100
AcDbDimStyleTableRecord
  2
AM_ANSI$SF
 70
     0
  4
mm
 41
0.1
 42
0.05
 43
0.5
 44
0.1
 47
0.1
 48
0.1
 75
     1
 76
     1
 78
     7
140
0.12
141
0.0
146
0.71
147
0.06
176
   256
177
   256
178
     2
271
     2
272
     2
279
     2
284
     8
285
     8
286
     8
340
2C7D
  0
DIMSTYLE
105
2D36
330
2C32
100
AcDbSymbolTableRecord
100
AcDbDimStyleTableRecord
  2
AM_ANSI$SH
 70
     0
  4
mm
 41
0.1
 42
0.05
 43
0.5
 44
0.1
 47
0.1
 48
0.1
 75
     1
 76
     1
 78
     7
140
0.12
141
0.0
146
0.71
147
0.06
173
     1
176
   256
177
   256
178
     2
271
     2
272
     2
279
     2
284
     8
285
     8
286
     8
340
2C7D
  0
ENDTAB
  0
TABLE
  2
BLOCK_RECORD
  5
2C29
330
0
100
AcDbSymbolTable
 70
     2
  0
BLOCK_RECORD
  5
2C97
330
2C29
100
AcDbSymbolTableRecord
100
AcDbBlockTableRecord
  2
*Model_Space
340
2C9A
 70
     0
280
     1
281
     0
  0
BLOCK_RECORD
  5
2C93
330
2C29
100
AcDbSymbolTableRecord
100
AcDbBlockTableRecord
  2
*Paper_Space
340
2C96
 70
     0
280
     1
281
     0
  0
BLOCK_RECORD
  5
2D4A
330
2C29
100
AcDbSymbolTableRecord
100
AcDbBlockTableRecord
  2
_ACMFILLEDHALF
340
0
 70
     0
280
     1
281
     0
  0
ENDTAB
  0
ENDSEC
  0
SECTION
  2
BLOCKS
  0
BLOCK
  5
2C98
330
2C97
100
AcDbEntity
  8
0
100
AcDbBlockBegin
  2
*Model_Space
 70
     0
 10
0.0
 20
0.0
 30
0.0
  3
*Model_Space
  1

  0
ENDBLK
  5
2C99
330
2C97
100
AcDbEntity
  8
0
100
AcDbBlockEnd
  0
BLOCK
  5
2C94
330
2C93
100
AcDbEntity
 67
     1
  8
0
100
AcDbBlockBegin
  2
*Paper_Space
 70
     0
 10
0.0
 20
0.0
 30
0.0
  3
*Paper_Space
  1

  0
ENDBLK
  5
2C95
330
2C93
100
AcDbEntity
 67
     1
  8
0
100
AcDbBlockEnd
  0
BLOCK
  5
2D4B
330
2D4A
100
AcDbEntity
  8
0
100
AcDbBlockBegin
  2
_ACMFILLEDHALF
 70
     0
 10
0.0
 20
0.0
 30
0.0
  3
_ACMFILLEDHALF
  1

  0
TRACE
  5
2B93
330
2D4A
100
AcDbEntity
  8
AM_0
 62
     0
100
AcDbTrace
 10
-0.8
 20
0.0
 30
0.0
 11
-1.0
 21
0.166666666
 31
0.0
 12
0.0
 22
0.0
 32
0.0
 13
0.0
 23
0.0
 33
0.0
  0
LINE
  5
2B94
330
2D4A
100
AcDbEntity
  8
AM_0
 62
     0
100
AcDbLine
 10
-1.0
 20
0.0
 30
0.0
 11
-0.8
 21
0.0
 31
0.0
  0
ENDBLK
  5
2B92
330
2D4A
100
AcDbEntity
  8
0
100
AcDbBlockEnd
  0
ENDSEC
  0
SECTION
  2
ENTITIES
  0
LINE
  5
2832
330
2C97
100
AcDbEntity
  8
AM_0
100
AcDbLine
 10
698.5885546771553
 20
277.5671156206214
 30
0.0
 11
715.1399416771553
 21
388.7732666206213
 31
0.0
  0
LINE
  5
2833
330
2C97
100
AcDbEntity
  8
AM_0
100
AcDbLine
 10
744.5558356771552
 20
280.1254796206213
 30
0.0
 11
701.5558246771553
 21
280.1254796206213
 31
0.0
  0
LINE
  5
2834
330
2C97
100
AcDbEntity
  8
AM_0
100
AcDbLine
 10
698.5558246771553
 20
262.1254946206213
 30
0.0
 11
748.5558196771553
 21
262.1254946206213
 31
0.0
  0
POLYLINE
  5
2835
330
2C97
100
AcDbEntity
  8
AM_0
100
AcDb2dPolyline
 66
     1
 10
0.0
 20
0.0
 30
0.0
  0
VERTEX
  5
2836
330
2835
100
AcDbEntity
  8
AM_0
100
AcDbVertex
100
AcDb2dVertex
 10
428.7252182291529
 20
429.5977856206213
 30
0.0
 42
0.038759451
  0
VERTEX
  5
2837
330
2835
100
AcDbEntity
  8
AM_0
100
AcDbVertex
100
AcDb2dVertex
 10
431.4730382291527
 20
432.5086256206216
 30
0.0
 42
0.045306413
  0
VERTEX
  5
2838
330
2835
100
AcDbEntity
  8
AM_0
100
AcDbVertex
100
AcDb2dVertex
 10
433.6952282291528
 20
435.8363456206213
 30
0.0
 42
0.052171431
  0
VERTEX
  5
2839
330
2835
100
AcDbEntity
  8
AM_0
100
AcDbVertex
100
AcDb2dVertex
 10
435.2319182291529
 20
439.5341456206215
 30
0.0
 42
0.057266618
  0
VERTEX
  5
283A
330
2835
100
AcDbEntity
  8
AM_0
100
AcDbVertex
100
AcDb2dVertex
 10
435.9261782291532
 20
443.4729056206213
 30
0.0
 42
0.058402263
  0
VERTEX
  5
283B
330
2835
100
AcDbEntity
  8
AM_0
100
AcDbVertex
100
AcDb2dVertex
 10
435.6954182291529
 20
447.4611056206216
 30
0.0
 42
0.055045302
  0
VERTEX
  5
283C
330
2835
100
AcDbEntity
  8
AM_0
100
AcDbVertex
100
AcDb2dVertex
 10
434.5699082291529
 20
451.2962756206213
 30
0.0
 42
0.048778173
  0
VERTEX
  5
283D
330
2835
100
AcDbEntity
  8
AM_0
100
AcDbVertex
100
AcDb2dVertex
 10
432.6770582291528
 20
454.8167756206215
 30
0.0
 42
0.041944207
  0
VERTEX
  5
283E
330
2835
100
AcDbEntity
  8
AM_0
100
AcDbVertex
100
AcDb2dVertex
 10
430.1795282291532
 20
457.9398056206215
 30
0.0
 42
0.035908261
  0
VERTEX
  5
283F
330
2835
100
AcDbEntity
  8
AM_0
100
AcDbVertex
100
AcDb2dVertex
 10
427.2269582291528
 20
460.6406156206213
 30
0.0
 42
0.031063208
  0
VERTEX
  5
2840
330
2835
100
AcDbEntity
  8
AM_0
100
AcDbVertex
100
AcDb2dVertex
 10
423.9402482291529
 20
462.9245456206215
 30
0.0
 42
0.027381869
  0
VERTEX
  5
2841
330
2835
100
AcDbEntity
  8
AM_0
100
AcDbVertex
100
AcDb2dVertex
 10
420.4083482291529
 20
464.8116656206215
 30
0.0
 42
0.024647405
  0
VERTEX
  5
2842
330
2835
100
AcDbEntity
  8
AM_0
100
AcDbVertex
100
AcDb2dVertex
 10
416.6993282291532
 20
466.322795620621
 30
0.0
 42
0.022677562
  0
VERTEX
  5
2843
330
2835
100
AcDbEntity
  8
AM_0
100
AcDbVertex
100
AcDb2dVertex
 10
412.8639482291528
 20
467.4774656206213
 30
0.0
 42
0.021321502
  0
VERTEX
  5
2844
330
2835
100
AcDbEntity
  8
AM_0
100
AcDbVertex
100
AcDb2dVertex
 10
408.9415382291528
 20
468.2913056206214
 30
0.0
 42
0.020471074
  0
VERTEX
  5
2845
330
2835
100
AcDbEntity
  8
AM_0
100
AcDbVertex
100
AcDb2dVertex
 10
404.9646482291525
 20
468.7753556206215
 30
0.0
 42
0.020088488
  0
VERTEX
  5
2846
330
2835
100
AcDbEntity
  8
AM_0
100
AcDbVertex
100
AcDb2dVertex
 10
400.9560482291531
 20
468.9362756206215
 30
0.0
  0
SEQEND
  5
2847
330
2835
100
AcDbEntity
  8
AM_0
  0
LINE
  5
2848
330
2C97
100
AcDbEntity
  8
AM_0
100
AcDbLine
 10
390.9560282291532
 20
471.3448556206213
 30
0.0
 11
390.9560282291532
 21
459.4281056206216
 31
0.0
  0
LINE
  5
2849
330
2C97
100
AcDbEntity
  8
AM_0
100
AcDbLine
 10
400.9560182291528
 20
317.6254526206215
 30
0.0
 11
400.9560182291528
 21
473.6254856206215
 31
0.0
  0
LINE
  5
284A
330
2C97
100
AcDbEntity
  8
AM_0
100
AcDbLine
 10
485.9560382291529
 20
302.5831856206214
 30
0.0
 11
485.9560382291529
 21
463.6063856206215
 31
0.0
  0
LINE
  5
284B
330
2C97
100
AcDbEntity
  8
AM_0
100
AcDbLine
 10
274.653891229153
 20
416.809670620621
 30
0.0
 11
245.4205832291531
 21
416.2994016206215
 31
0.0
  0
LINE
  5
284C
330
2C97
100
AcDbEntity
  8
AM_0
100
AcDbLine
 10
245.4205832291531
 20
331.9515376206215
 30
0.0
 11
274.653891229153
 21
331.4412686206213
 31
0.0
  0
LINE
  5
284D
330
2C97
100
AcDbEntity
  8
ﾁｭｳｼﾝｾﾝ1
100
AcDbLine
 10
190.3409120432077
 20
374.1254696206215
 30
0.0
 11
409.0653408717408
 21
374.1254696206214
 31
0.0
  0
LINE
  5
284E
330
2C97
100
AcDbEntity
  8
AM_0
100
AcDbLine
 10
235.4560282291531
 20
339.4348706206215
 30
0.0
 11
235.4560282291531
 21
408.8160686206212
 31
0.0
  0
LINE
  5
284F
330
2C97
100
AcDbEntity
  8
AM_0
100
AcDbLine
 10
233.4560282291531
 20
346.6254696206214
 30
0.0
 11
233.4560282291531
 21
401.625469620621
 31
0.0
  0
LINE
  5
2850
330
2C97
100
AcDbEntity
  8
AM_0
100
AcDbLine
 10
244.386270229153
 20
334.9700486206213
 30
0.0
 11
244.386270229153
 21
413.2808906206212
 31
0.0
  0
LINE
  5
2852
330
2C97
100
AcDbEntity
  8
AM_0
100
AcDbLine
 10
195.4560282291531
 20
386.1254696206214
 30
0.0
 11
231.4560282291531
 21
386.1254696206214
 31
0.0
  0
LINE
  5
2853
330
2C97
100
AcDbEntity
  8
AM_0
100
AcDbLine
 10
195.4560282291531
 20
362.1254696206213
 30
0.0
 11
231.4560282291531
 21
362.1254696206213
 31
0.0
  0
LINE
  5
2854
330
2C97
100
AcDbEntity
  8
AM_0
100
AcDbLine
 10
195.4560282291531
 20
362.1254696206213
 30
0.0
 11
195.4560282291531
 21
386.1254696206214
 31
0.0
  0
LINE
  5
2855
330
2C97
100
AcDbEntity
  8
AM_0
100
AcDbLine
 10
195.4560282291531
 20
386.1254696206214
 30
0.0
 11
195.4560282291531
 21
389.1254696206214
 31
0.0
  0
LINE
  5
2856
330
2C97
100
AcDbEntity
  8
AM_0
100
AcDbLine
 10
237.4560282291531
 20
335.9707696206213
 30
0.0
 11
243.4903932291531
 21
332.4868266206215
 31
0.0
  0
ARC
  5
2857
330
2C97
100
AcDbEntity
  8
AM_0
100
AcDbCircle
 10
239.4560282291531
 20
339.4348706206215
 30
0.0
 40
4.0
100
AcDbArc
 50
180.0
 51
239.9999999999995
  0
LINE
  5
2858
330
2C97
100
AcDbEntity
  8
AM_0
100
AcDbLine
 10
233.4560282291531
 20
346.6254696206214
 30
0.0
 11
235.4560282291531
 21
344.6254696206214
 31
0.0
  0
ARC
  5
2859
330
2C97
100
AcDbEntity
  8
AM_0
100
AcDbCircle
 10
245.4903932291531
 20
335.9509286206214
 30
0.0
 40
4.0
100
AcDbArc
 50
239.9999999999995
 51
269.0000000000015
  0
LINE
  5
285A
330
2C97
100
AcDbEntity
  8
AM_0
100
AcDbLine
 10
231.4560282291531
 20
359.1254696206214
 30
0.0
 11
231.4560282291531
 21
389.1254696206214
 31
0.0
  0
LINE
  5
285B
330
2C97
100
AcDbEntity
  8
AM_0
100
AcDbLine
 10
231.4560282291531
 20
359.1254696206214
 30
0.0
 11
233.4560282291531
 21
359.1254696206214
 31
0.0
  0
LINE
  5
285C
330
2C97
100
AcDbEntity
  8
AM_0
100
AcDbLine
 10
223.4560282291532
 20
386.1254696206214
 30
0.0
 11
223.4560282291532
 21
389.1254696206214
 31
0.0
  0
LINE
  5
285D
330
2C97
100
AcDbEntity
  8
AM_0
100
AcDbLine
 10
231.4560282291531
 20
389.1254696206214
 30
0.0
 11
233.4560282291531
 21
389.1254696206214
 31
0.0
  0
LINE
  5
285E
330
2C97
100
AcDbEntity
  8
AM_0
100
AcDbLine
 10
243.4903932291531
 20
415.7641126206215
 30
0.0
 11
237.4560282291531
 21
412.2801706206215
 31
0.0
  0
LINE
  5
285F
330
2C97
100
AcDbEntity
  8
AM_0
100
AcDbLine
 10
235.4560282291531
 20
403.6254696206213
 30
0.0
 11
233.4560282291531
 21
401.625469620621
 31
0.0
  0
ARC
  5
2860
330
2C97
100
AcDbEntity
  8
AM_0
100
AcDbCircle
 10
239.4560282291531
 20
408.8160686206212
 30
0.0
 40
4.0
100
AcDbArc
 50
120.0000000000005
 51
180.0
  0
ARC
  5
2861
330
2C97
100
AcDbEntity
  8
AM_0
100
AcDbCircle
 10
245.4903932291531
 20
412.3000106206212
 30
0.0
 40
4.0
100
AcDbArc
 50
90.99999999999843
 51
120.0000000000005
  0
ARC
  5
2862
330
2C97
100
AcDbEntity
  8
AM_0
100
AcDbCircle
 10
493.9560182291528
 20
458.1254756206215
 30
0.0
 40
8.000000099999997
100
AcDbArc
 50
179.9999899999999
 51
270.0
  0
LINE
  5
2863
330
2C97
100
AcDbEntity
  8
ﾁｭｳｼﾝｾﾝ1
100
AcDbLine
 10
368.5226481135658
 20
402.1254386206213
 30
0.0
 11
578.7352382291527
 21
402.1254386206213
 31
0.0
  0
LINE
  5
2864
330
2C97
100
AcDbEntity
  8
AM_0
100
AcDbLine
 10
480.9559982291529
 20
280.1254496206215
 30
0.0
 11
511.9560182291529
 21
280.1254496206215
 31
0.0
  0
LINE
  5
2865
330
2C97
100
AcDbEntity
  8
AM_0
100
AcDbLine
 10
477.9559982291528
 20
262.1254496206215
 30
0.0
 11
513.9559982291529
 21
262.1254496206215
 31
0.0
  0
LINE
  5
2866
330
2C97
100
AcDbEntity
  8
AM_0
100
AcDbLine
 10
342.4560282291531
 20
312.6162446206214
 30
0.0
 11
342.4560282291531
 21
332.6507946206213
 31
0.0
  0
LINE
  5
2867
330
2C97
100
AcDbEntity
  8
AM_0
100
AcDbLine
 10
344.4560282291529
 20
300.6254666206213
 30
0.0
 11
344.4560282291529
 21
447.6254756206213
 31
0.0
  0
LINE
  5
2868
330
2C97
100
AcDbEntity
  8
AM_0
100
AcDbLine
 10
332.4560282291532
 20
305.3701226206213
 30
0.0
 11
332.4560282291532
 21
442.8808176206215
 31
0.0
  0
LINE
  5
2869
330
2C97
100
AcDbEntity
  8
AM_0
100
AcDbLine
 10
389.8459082291529
 20
282.9063356206214
 30
0.0
 11
404.7657182291532
 21
329.5307426206214
 31
0.0
  0
LINE
  5
286A
330
2C97
100
AcDbEntity
  8
AM_0
100
AcDbLine
 10
390.9560282291532
 20
438.4575656206215
 30
0.0
 11
390.9560282291532
 21
312.4207106206215
 31
0.0
  0
LINE
  5
286B
330
2C97
100
AcDbEntity
  8
AM_0
100
AcDbLine
 10
378.9560282291532
 20
454.4281256206215
 30
0.0
 11
378.9560282291532
 21
314.3827766206214
 31
0.0
  0
LINE
  5
286C
330
2C97
100
AcDbEntity
  8
AM_0
100
AcDbLine
 10
465.9559982291528
 20
295.1254676206214
 30
0.0
 11
465.9559982291528
 21
433.5681956206212
 31
0.0
  0
LINE
  5
286D
330
2C97
100
AcDbEntity
  8
AM_0
100
AcDbLine
 10
279.0192722291531
 20
330.3528566206215
 30
0.0
 11
331.4374592291529
 21
303.6444566206215
 31
0.0
  0
ARC
  5
286E
330
2C97
100
AcDbEntity
  8
AM_0
100
AcDbCircle
 10
375.9560282291531
 20
296.5236296206215
 30
0.0
 40
3.0
100
AcDbArc
 50
0.0
 51
88.0
  0
LINE
  5
286F
330
2C97
100
AcDbEntity
  8
AM_0
100
AcDbLine
 10
344.4560282291529
 20
312.5454956206213
 30
0.0
 11
378.9560282291532
 21
312.5454956206213
 31
0.0
  0
LINE
  5
2870
330
2C97
100
AcDbEntity
  8
AM_0
100
AcDbLine
 10
352.9560182291529
 20
262.1254496206215
 30
0.0
 11
388.9560182291529
 21
262.1254496206215
 31
0.0
  0
LINE
  5
2871
330
2C97
100
AcDbEntity
  8
AM_0
100
AcDbLine
 10
354.9560282291529
 20
280.1254496206215
 30
0.0
 11
386.0362382291532
 21
280.1254496206215
 31
0.0
  0
LINE
  5
2872
330
2C97
100
AcDbEntity
  8
ﾁｭｳｼﾝｾﾝ1
100
AcDbLine
 10
370.9560182291529
 20
258.7941506206214
 30
0.0
 11
370.9560182291529
 21
284.3747786206214
 31
0.0
  0
LINE
  5
2873
330
2C97
100
AcDbEntity
  8
AM_0
100
AcDbLine
 10
352.9560182291529
 20
262.1254496206215
 30
0.0
 11
352.9560182291529
 21
278.1254666206214
 31
0.0
  0
LINE
  5
2874
330
2C97
100
AcDbEntity
  8
ｶｸﾚｾﾝ2
100
AcDbLine
 10
363.4560182291528
 20
280.1254496206215
 30
0.0
 11
363.4560182291528
 21
262.1254496206215
 31
0.0
  0
ARC
  5
2875
330
2C97
100
AcDbEntity
  8
AM_0
100
AcDbCircle
 10
354.9560282291529
 20
278.1254666206214
 30
0.0
 40
2.00000007
100
AcDbArc
 50
90.00000300000001
 51
180.00001
  0
LINE
  5
2876
330
2C97
100
AcDbEntity
  8
AM_0
100
AcDbLine
 10
344.4560282291529
 20
300.6254666206213
 30
0.0
 11
376.0607582291531
 21
299.5217996206215
 31
0.0
  0
LINE
  5
2877
330
2C97
100
AcDbEntity
  8
AM_0
100
AcDbLine
 10
334.4560282291532
 20
310.6162446206214
 30
0.0
 11
340.4560282291531
 21
310.6162446206214
 31
0.0
  0
LINE
  5
2878
330
2C97
100
AcDbEntity
  8
AM_0
100
AcDbLine
 10
334.4560282291532
 20
300.6254696206215
 30
0.0
 11
344.4560282291531
 21
300.6254696206215
 31
0.0
  0
ARC
  5
2879
330
2C97
100
AcDbEntity
  8
AM_0
100
AcDbCircle
 10
334.4560282291532
 20
312.6162446206214
 30
0.0
 40
2.0
100
AcDbArc
 50
180.0
 51
270.0
  0
ARC
  5
287A
330
2C97
100
AcDbEntity
  8
AM_0
100
AcDbCircle
 10
330.5294782291531
 20
301.8624436206215
 30
0.0
 40
2.0
100
AcDbArc
 50
10.99694300000052
 51
62.99999999999824
  0
ARC
  5
287B
330
2C97
100
AcDbEntity
  8
AM_0
100
AcDbCircle
 10
334.4560282291532
 20
302.6254696206215
 30
0.0
 40
2.0
100
AcDbArc
 50
190.9969430000004
 51
270.0
  0
ARC
  5
287C
330
2C97
100
AcDbEntity
  8
AM_0
100
AcDbCircle
 10
340.4560282291531
 20
312.6162446206214
 30
0.0
 40
2.0
100
AcDbArc
 50
270.0
 51
0.0
  0
LINE
  5
287D
330
2C97
100
AcDbEntity
  8
AM_0
100
AcDbLine
 10
390.9560282291532
 20
264.1254506206215
 30
0.0
 11
475.9560182291528
 21
264.1254506206215
 31
0.0
  0
ARC
  5
287E
330
2C97
100
AcDbEntity
  8
AM_0
100
AcDbCircle
 10
386.0362382291532
 20
284.1254666206213
 30
0.0
 40
4.000000199999997
100
AcDbArc
 50
270.0
 51
342.2553299999999
  0
LINE
  5
287F
330
2C97
100
AcDbEntity
  8
ｶｸﾚｾﾝ2
100
AcDbLine
 10
378.4560182291528
 20
280.1254496206215
 30
0.0
 11
378.4560182291528
 21
262.1254496206215
 31
0.0
  0
ARC
  5
2880
330
2C97
100
AcDbEntity
  8
AM_0
100
AcDbCircle
 10
390.9560282291532
 20
262.1254496206215
 30
0.0
 40
2.00000007
100
AcDbArc
 50
90.00000300000001
 51
180.00001
  0
LINE
  5
2881
330
2C97
100
AcDbEntity
  8
AM_0
100
AcDbLine
 10
378.9560282291532
 20
314.3827766206214
 30
0.0
 11
378.9560282291532
 21
296.7076646206214
 31
0.0
  0
ARC
  5
2882
330
2C97
100
AcDbEntity
  8
AM_0
100
AcDbCircle
 10
388.9560182291529
 20
291.7076816206213
 30
0.0
 40
2.00000007
100
AcDbArc
 50
0.0
 51
90.00000300000001
  0
LINE
  5
2883
330
2C97
100
AcDbEntity
  8
AM_0
100
AcDbLine
 10
390.9560282291532
 20
291.7076816206213
 30
0.0
 11
390.9560282291532
 21
286.3754666206213
 31
0.0
  0
ARC
  5
2884
330
2C97
100
AcDbEntity
  8
AM_0
100
AcDbCircle
 10
381.9560282291531
 20
296.7076646206214
 30
0.0
 40
3.0
100
AcDbArc
 50
179.9999899999999
 51
270.0
  0
LINE
  5
2885
330
2C97
100
AcDbEntity
  8
AM_0
100
AcDbLine
 10
381.9560282291531
 20
293.7076796206213
 30
0.0
 11
388.9560182291529
 21
293.7076796206213
 31
0.0
  0
LINE
  5
2886
330
2C97
100
AcDbEntity
  8
AM_0
100
AcDbLine
 10
390.9560282291532
 20
310.4206946206215
 30
0.0
 11
398.6505482291531
 21
310.4206946206215
 31
0.0
  0
ARC
  5
2887
330
2C97
100
AcDbEntity
  8
AM_0
100
AcDbCircle
 10
388.9560182291529
 20
312.4207106206215
 30
0.0
 40
2.00000007
100
AcDbArc
 50
270.0
 51
0.0
  0
LINE
  5
2888
330
2C97
100
AcDbEntity
  8
AM_0
100
AcDbLine
 10
381.9560282291531
 20
314.3827766206214
 30
0.0
 11
388.9560182291529
 21
314.3827766206214
 31
0.0
  0
ARC
  5
2889
330
2C97
100
AcDbEntity
  8
AM_0
100
AcDbCircle
 10
480.9559982291529
 20
295.1254676206214
 30
0.0
 40
15.00000029999998
100
AcDbArc
 50
179.9999899999999
 51
270.0
  0
LINE
  5
288A
330
2C97
100
AcDbEntity
  8
ｶｸﾚｾﾝ2
100
AcDbLine
 10
488.4559982291529
 20
280.1254496206215
 30
0.0
 11
488.4559982291529
 21
262.1254496206215
 31
0.0
  0
ARC
  5
288B
330
2C97
100
AcDbEntity
  8
AM_0
100
AcDbCircle
 10
475.9560182291528
 20
262.1254496206215
 30
0.0
 40
2.00000007
100
AcDbArc
 50
0.0
 51
90.00000300000001
  0
LINE
  5
288C
330
2C97
100
AcDbEntity
  8
AM_0
100
AcDbLine
 10
477.9559982291528
 20
262.1254496206215
 30
0.0
 11
477.9559982291528
 21
262.1254496206215
 31
0.0
  0
ARC
  5
288D
330
2C97
100
AcDbEntity
  8
AM_0
100
AcDbCircle
 10
477.9559982291528
 20
302.5831856206214
 30
0.0
 40
8.000000099999997
100
AcDbArc
 50
270.0
 51
0.0
  0
LINE
  5
288E
330
2C97
100
AcDbEntity
  8
AM_0
100
AcDbLine
 10
471.0310082291528
 20
294.5831996206213
 30
0.0
 11
477.9559982291528
 21
294.5831996206213
 31
0.0
  0
ARC
  5
288F
330
2C97
100
AcDbEntity
  8
AM_0
100
AcDbCircle
 10
375.9560282291531
 20
451.7273156206213
 30
0.0
 40
3.0
100
AcDbArc
 50
272.0
 51
0.0
  0
LINE
  5
2890
330
2C97
100
AcDbEntity
  8
AM_0
100
AcDbLine
 10
344.4560282291529
 20
435.7054856206215
 30
0.0
 11
378.9560282291532
 21
435.7054856206215
 31
0.0
  0
LINE
  5
2891
330
2C97
100
AcDbEntity
  8
AM_0
100
AcDbLine
 10
344.4560282291529
 20
413.6001356206215
 30
0.0
 11
378.9560282291532
 21
413.6001356206215
 31
0.0
  0
LINE
  5
2892
330
2C97
100
AcDbEntity
  8
AM_0
100
AcDbLine
 10
344.4560282291529
 20
334.6507826206214
 30
0.0
 11
378.9560282291532
 21
334.6507826206214
 31
0.0
  0
LINE
  5
2893
330
2C97
100
AcDbEntity
  8
AM_0
100
AcDbLine
 10
276.9622212291531
 20
334.4014336206214
 30
0.0
 11
276.9622212291531
 21
413.8495056206213
 31
0.0
  0
ARC
  5
2894
330
2C97
100
AcDbEntity
  8
AM_0
100
AcDbCircle
 10
274.479367229153
 20
321.4427916206215
 30
0.0
 40
10.0
100
AcDbArc
 50
62.99999999999824
 51
89.00000000000151
  0
LINE
  5
2895
330
2C97
100
AcDbEntity
  8
AM_0
100
AcDbLine
 10
334.4560282291532
 20
334.6507946206213
 30
0.0
 11
342.4560282291531
 21
334.6507946206213
 31
0.0
  0
ARC
  5
2896
330
2C97
100
AcDbEntity
  8
AM_0
100
AcDbCircle
 10
344.4560282291531
 20
332.6507946206213
 30
0.0
 40
2.0
100
AcDbArc
 50
120.0000000000005
 51
180.0
  0
LINE
  5
2897
330
2C97
100
AcDbEntity
  8
AM_0
100
AcDbLine
 10
331.4374592291529
 20
444.6064836206215
 30
0.0
 11
279.0192722291531
 21
417.8980826206212
 31
0.0
  0
ARC
  5
2898
330
2C97
100
AcDbEntity
  8
AM_0
100
AcDbCircle
 10
274.479367229153
 20
426.8081476206213
 30
0.0
 40
10.0
100
AcDbArc
 50
270.9999999999984
 51
296.9999999999988
  0
LINE
  5
2899
330
2C97
100
AcDbEntity
  8
AM_0
100
AcDbLine
 10
342.4560282291531
 20
435.6346946206214
 30
0.0
 11
342.4560282291531
 21
415.6001456206213
 31
0.0
  0
LINE
  5
289A
330
2C97
100
AcDbEntity
  8
AM_0
100
AcDbLine
 10
334.4560282291532
 20
413.6001456206215
 30
0.0
 11
342.4560282291531
 21
413.6001456206215
 31
0.0
  0
ARC
  5
289B
330
2C97
100
AcDbEntity
  8
AM_0
100
AcDbCircle
 10
344.4560282291531
 20
415.6001456206213
 30
0.0
 40
2.0
100
AcDbArc
 50
180.0
 51
239.9999999999995
  0
LINE
  5
289C
330
2C97
100
AcDbEntity
  8
AM_0
100
AcDbLine
 10
344.4560282291529
 20
447.6254456206213
 30
0.0
 11
376.0607582291531
 21
448.7291156206213
 31
0.0
  0
LINE
  5
289D
330
2C97
100
AcDbEntity
  8
AM_0
100
AcDbLine
 10
334.4560282291532
 20
437.6346946206213
 30
0.0
 11
340.4560282291531
 21
437.6346946206213
 31
0.0
  0
ARC
  5
289E
330
2C97
100
AcDbEntity
  8
AM_0
100
AcDbCircle
 10
334.4560282291532
 20
435.6346946206214
 30
0.0
 40
2.0
100
AcDbArc
 50
90.0
 51
180.0
  0
ARC
  5
289F
330
2C97
100
AcDbEntity
  8
AM_0
100
AcDbCircle
 10
340.4560282291531
 20
435.6346946206214
 30
0.0
 40
2.0
100
AcDbArc
 50
0.0
 51
90.0
  0
LINE
  5
28A0
330
2C97
100
AcDbEntity
  8
AM_0
100
AcDbLine
 10
334.4560282291532
 20
447.6254696206216
 30
0.0
 11
344.4560282291531
 21
447.6254696206216
 31
0.0
  0
ARC
  5
28A1
330
2C97
100
AcDbEntity
  8
AM_0
100
AcDbCircle
 10
330.5294782291531
 20
446.3884966206213
 30
0.0
 40
2.0
100
AcDbArc
 50
296.9999999999988
 51
349.0030569999992
  0
ARC
  5
28A2
330
2C97
100
AcDbEntity
  8
AM_0
100
AcDbCircle
 10
334.4560282291532
 20
445.6254696206213
 30
0.0
 40
2.0
100
AcDbArc
 50
90.0
 51
169.0030569999995
  0
LINE
  5
28A3
330
2C97
100
AcDbEntity
  8
AM_0
100
AcDbLine
 10
404.9560382291529
 20
330.7498586206214
 30
0.0
 11
404.9560382291529
 21
388.7732036206216
 31
0.0
  0
ARC
  5
28A4
330
2C97
100
AcDbEntity
  8
AM_0
100
AcDbCircle
 10
400.9560182291528
 20
330.7498586206214
 30
0.0
 40
4.000000199999997
100
AcDbArc
 50
342.2553299999999
 51
0.0
  0
LINE
  5
28A5
330
2C97
100
AcDbEntity
  8
AM_0
100
AcDbLine
 10
400.9560182291528
 20
388.7732036206216
 30
0.0
 11
404.9560382291529
 21
388.7732036206216
 31
0.0
  0
POLYLINE
  5
28A6
330
2C97
100
AcDbEntity
  8
AM_0
100
AcDb2dPolyline
 66
     1
 10
0.0
 20
0.0
 30
0.0
  0
VERTEX
  5
28A7
330
28A6
100
AcDbEntity
  8
AM_0
100
AcDbVertex
100
AcDb2dVertex
 10
434.4126782291532
 20
446.7668456206213
 30
0.0
 42
0.046334034
  0
VERTEX
  5
28A8
330
28A6
100
AcDbEntity
  8
AM_0
100
AcDbVertex
100
AcDb2dVertex
 10
432.5608682291528
 20
447.8244956206212
 30
0.0
 42
0.024113349
  0
VERTEX
  5
28A9
330
28A6
100
AcDbEntity
  8
AM_0
100
AcDbVertex
100
AcDb2dVertex
 10
430.5814082291531
 20
448.6243556206215
 30
0.0
 42
0.015482213
  0
VERTEX
  5
28AA
330
28A6
100
AcDbEntity
  8
AM_0
100
AcDbVertex
100
AcDb2dVertex
 10
428.5444682291531
 20
449.2690256206213
 30
0.0
 42
0.011170747
  0
VERTEX
  5
28AB
330
28A6
100
AcDbEntity
  8
AM_0
100
AcDbVertex
100
AcDb2dVertex
 10
426.4767182291529
 20
449.8055156206213
 30
0.0
 42
0.0086851837
  0
VERTEX
  5
28AC
330
28A6
100
AcDbEntity
  8
AM_0
100
AcDbVertex
100
AcDb2dVertex
 10
424.3891382291531
 20
450.2601956206213
 30
0.0
 42
0.0071112966
  0
VERTEX
  5
28AD
330
28A6
100
AcDbEntity
  8
AM_0
100
AcDbVertex
100
AcDb2dVertex
 10
422.2874582291528
 20
450.6492056206215
 30
0.0
 42
0.0060487861
  0
VERTEX
  5
28AE
330
28A6
100
AcDbEntity
  8
AM_0
100
AcDbVertex
100
AcDb2dVertex
 10
420.1747382291528
 20
450.9832256206215
 30
0.0
 42
0.0052886795
  0
VERTEX
  5
28AF
330
28A6
100
AcDbEntity
  8
AM_0
100
AcDbVertex
100
AcDb2dVertex
 10
418.0573682291528
 20
451.2690656206215
 30
0.0
 42
0.004745088
  0
VERTEX
  5
28B0
330
28A6
100
AcDbEntity
  8
AM_0
100
AcDbVertex
100
AcDb2dVertex
 10
415.9322882291529
 20
451.5127256206215
 30
0.0
 42
0.0043374779
  0
VERTEX
  5
28B1
330
28A6
100
AcDbEntity
  8
AM_0
100
AcDbVertex
100
AcDb2dVertex
 10
413.8025882291531
 20
451.7178656206215
 30
0.0
 42
0.0040309373
  0
VERTEX
  5
28B2
330
28A6
100
AcDbEntity
  8
AM_0
100
AcDbVertex
100
AcDb2dVertex
 10
411.669798229153
 20
451.8873656206213
 30
0.0
 42
0.0038017218
  0
VERTEX
  5
28B3
330
28A6
100
AcDbEntity
  8
AM_0
100
AcDbVertex
100
AcDb2dVertex
 10
409.5345782291529
 20
452.0235056206216
 30
0.0
 42
0.0036333144
  0
VERTEX
  5
28B4
330
28A6
100
AcDbEntity
  8
AM_0
100
AcDbVertex
100
AcDb2dVertex
 10
407.3974982291529
 20
452.1278756206213
 30
0.0
 42
0.0035147919
  0
VERTEX
  5
28B5
330
28A6
100
AcDbEntity
  8
AM_0
100
AcDbVertex
100
AcDb2dVertex
 10
405.2590982291532
 20
452.2017356206212
 30
0.0
 42
0.003439074
  0
VERTEX
  5
28B6
330
28A6
100
AcDbEntity
  8
AM_0
100
AcDbVertex
100
AcDb2dVertex
 10
403.1198882291528
 20
452.2458656206215
 30
0.0
 42
0.0034021156
  0
VERTEX
  5
28B7
330
28A6
100
AcDbEntity
  8
AM_0
100
AcDbVertex
100
AcDb2dVertex
 10
400.9801682291529
 20
452.2607456206213
 30
0.0
  0
SEQEND
  5
28B8
330
28A6
100
AcDbEntity
  8
AM_0
  0
LINE
  5
28B9
330
2C97
100
AcDbEntity
  8
AM_0
100
AcDbLine
 10
400.9560182291528
 20
404.3107736206215
 30
0.0
 11
428.7246782291529
 21
429.5972456206213
 31
0.0
  0
LINE
  5
28BA
330
2C97
100
AcDbEntity
  8
AM_0
100
AcDbLine
 10
400.9560182291528
 20
404.3107736206215
 30
0.0
 11
400.9575482291529
 21
404.3107736206215
 31
0.0
  0
ARC
  5
28BB
330
2C97
100
AcDbEntity
  8
AM_0
100
AcDbCircle
 10
388.9560182291529
 20
438.4575656206215
 30
0.0
 40
2.00000007
100
AcDbArc
 50
0.0
 51
90.00000300000001
  0
ARC
  5
28BC
330
2C97
100
AcDbEntity
  8
AM_0
100
AcDbCircle
 10
380.9560382291529
 20
438.4575656206215
 30
0.0
 40
2.00000007
100
AcDbArc
 50
90.00000300000001
 51
180.00001
  0
LINE
  5
28BD
330
2C97
100
AcDbEntity
  8
AM_0
100
AcDbLine
 10
380.9560382291529
 20
440.4575456206215
 30
0.0
 11
388.9560182291529
 21
440.4575456206215
 31
0.0
  0
LINE
  5
28BE
330
2C97
100
AcDbEntity
  8
AM_0
100
AcDbLine
 10
380.0118182291529
 20
431.5081256206215
 30
0.0
 11
389.5695482291529
 21
431.5081256206215
 31
0.0
  0
LINE
  5
28BF
330
2C97
100
AcDbEntity
  8
AM_0
100
AcDbLine
 10
380.5772282291528
 20
452.2607456206213
 30
0.0
 11
400.9560182291528
 21
452.2607456206213
 31
0.0
  0
ARC
  5
28C0
330
2C97
100
AcDbEntity
  8
AM_0
100
AcDbCircle
 10
388.9560182291529
 20
459.4281056206216
 30
0.0
 40
2.00000007
100
AcDbArc
 50
270.0
 51
0.0
  0
ARC
  5
28C1
330
2C97
100
AcDbEntity
  8
AM_0
100
AcDbCircle
 10
381.9560282291531
 20
454.4281256206215
 30
0.0
 40
3.0
100
AcDbArc
 50
90.00000300000001
 51
180.00001
  0
LINE
  5
28C2
330
2C97
100
AcDbEntity
  8
AM_0
100
AcDbLine
 10
381.9560282291531
 20
457.4281256206213
 30
0.0
 11
388.9560182291529
 21
457.4281256206213
 31
0.0
  0
LINE
  5
28C3
330
2C97
100
AcDbEntity
  8
AM_0
100
AcDbLine
 10
473.9560382291529
 20
441.5681456206213
 30
0.0
 11
482.3555282291525
 21
441.5681456206213
 31
0.0
  0
ARC
  5
28C4
330
2C97
100
AcDbEntity
  8
AM_0
100
AcDbCircle
 10
473.9560382291529
 20
433.5681956206212
 30
0.0
 40
8.000000099999997
100
AcDbArc
 50
90.00000300000001
 51
180.00001
  0
LINE
  5
28C5
330
2C97
100
AcDbEntity
  8
AM_0
100
AcDbLine
 10
506.9560382291529
 20
287.6648486206215
 30
0.0
 11
506.9560382291529
 21
446.1254756206215
 31
0.0
  0
LINE
  5
28C6
330
2C97
100
AcDbEntity
  8
ﾁｭｳｼﾝｾﾝ1
100
AcDbLine
 10
495.9559982291529
 20
258.7941506206214
 30
0.0
 11
495.9559982291529
 21
284.3747786206214
 31
0.0
  0
ARC
  5
28C7
330
2C97
100
AcDbEntity
  8
AM_0
100
AcDbCircle
 10
514.9560182291529
 20
287.6648486206215
 30
0.0
 40
8.000000099999997
100
AcDbArc
 50
179.9999899999999
 51
252.54239
  0
LINE
  5
28C8
330
2C97
100
AcDbEntity
  8
AM_0
100
AcDbLine
 10
513.9559982291529
 20
262.1254496206215
 30
0.0
 11
513.9559982291529
 21
278.1254666206214
 31
0.0
  0
LINE
  5
28C9
330
2C97
100
AcDbEntity
  8
ｶｸﾚｾﾝ2
100
AcDbLine
 10
503.4559982291528
 20
280.1254496206215
 30
0.0
 11
503.4559982291528
 21
262.1254496206215
 31
0.0
  0
ARC
  5
28CA
330
2C97
100
AcDbEntity
  8
AM_0
100
AcDbCircle
 10
511.9560182291529
 20
278.1254666206214
 30
0.0
 40
2.00000007
100
AcDbArc
 50
0.0
 51
90.00000300000001
  0
LINE
  5
28CB
330
2C97
100
AcDbEntity
  8
ｶｸﾚｾﾝ2
100
AcDbLine
 10
711.0558346771552
 20
280.1254796206213
 30
0.0
 11
711.0558346771552
 21
262.1254946206213
 31
0.0
  0
LINE
  5
28CC
330
2C97
100
AcDbEntity
  8
AM_0
100
AcDbLine
 10
698.5558246771553
 20
277.1254796206214
 30
0.0
 11
698.5558246771553
 21
262.1254946206213
 31
0.0
  0
ARC
  5
28CD
330
2C97
100
AcDbEntity
  8
AM_0
100
AcDbCircle
 10
701.5558246771553
 20
277.1254796206214
 30
0.0
 40
3.0
100
AcDbArc
 50
90.00000300000001
 51
180.00001
  0
LINE
  5
28CE
330
2C97
100
AcDbEntity
  8
AM_0
100
AcDbLine
 10
513.9559982291529
 20
374.8575236206213
 30
0.0
 11
513.9559982291529
 21
402.1254386206213
 31
0.0
  0
LINE
  5
28CF
330
2C97
100
AcDbEntity
  8
AM_0
100
AcDbLine
 10
517.9560182291529
 20
384.6254696206214
 30
0.0
 11
517.9560182291529
 21
419.6254256206215
 31
0.0
  0
LINE
  5
28D0
330
2C97
100
AcDbEntity
  8
AM_0
100
AcDbLine
 10
575.9560382291529
 20
386.1254696206214
 30
0.0
 11
575.9560382291529
 21
421.1254256206212
 31
0.0
  0
LINE
  5
28D1
330
2C97
100
AcDbEntity
  8
AM_0
100
AcDbLine
 10
575.9560382291529
 20
386.1254696206214
 30
0.0
 11
517.9560182291529
 21
386.1254696206214
 31
0.0
  0
LINE
  5
28D2
330
2C97
100
AcDbEntity
  8
AM_0
100
AcDbLine
 10
517.9560182291529
 20
384.6254696206214
 30
0.0
 11
513.9559982291529
 21
384.6254696206214
 31
0.0
  0
ARC
  5
28D3
330
2C97
100
AcDbEntity
  8
AM_0
100
AcDbCircle
 10
510.9559982291528
 20
374.8575236206213
 30
0.0
 40
3.0
100
AcDbArc
 50
300.0
 51
0.0
  0
LINE
  5
28D4
330
2C97
100
AcDbEntity
  8
AM_0
100
AcDbLine
 10
508.4560082291528
 20
369.9500546206214
 30
0.0
 11
512.4560282291532
 21
372.2594426206213
 31
0.0
  0
ARC
  5
28D5
330
2C97
100
AcDbEntity
  8
AM_0
100
AcDbCircle
 10
509.9560382291529
 20
367.3519406206214
 30
0.0
 40
3.0
100
AcDbArc
 50
119.9999999999999
 51
180.00001
  0
LINE
  5
28D6
330
2C97
100
AcDbEntity
  8
AM_0
100
AcDbLine
 10
575.9560382291529
 20
418.125425620621
 30
0.0
 11
517.9560182291529
 21
418.125425620621
 31
0.0
  0
LINE
  5
28D7
330
2C97
100
AcDbEntity
  8
AM_0
100
AcDbLine
 10
575.9560382291529
 20
421.1254256206212
 30
0.0
 11
530.9560382291529
 21
421.1254256206212
 31
0.0
  0
LINE
  5
28D8
330
2C97
100
AcDbEntity
  8
AM_0
100
AcDbLine
 10
513.9559982291529
 20
402.1254386206213
 30
0.0
 11
513.9559982291529
 21
429.3933956206211
 31
0.0
  0
LINE
  5
28D9
330
2C97
100
AcDbEntity
  8
AM_0
100
AcDbLine
 10
517.9560182291529
 20
419.6254256206215
 30
0.0
 11
513.9559982291529
 21
419.6254256206215
 31
0.0
  0
LINE
  5
28DA
330
2C97
100
AcDbEntity
  8
AM_0
100
AcDbLine
 10
530.9560382291529
 20
418.125425620621
 30
0.0
 11
530.9560382291529
 21
421.1254256206212
 31
0.0
  0
ARC
  5
28DB
330
2C97
100
AcDbEntity
  8
AM_0
100
AcDbCircle
 10
510.9559982291528
 20
429.3933956206211
 30
0.0
 40
3.0
100
AcDbArc
 50
0.0
 51
60.000002
  0
ARC
  5
28DC
330
2C97
100
AcDbEntity
  8
AM_0
100
AcDbCircle
 10
509.9560382291529
 20
436.8989756206213
 30
0.0
 40
3.0
100
AcDbArc
 50
179.9999899999999
 51
240.00001
  0
LINE
  5
28DD
330
2C97
100
AcDbEntity
  8
AM_0
100
AcDbLine
 10
508.4560382291528
 20
434.3008856206215
 30
0.0
 11
512.4560282291532
 21
431.9914856206215
 31
0.0
  0
LINE
  5
28DE
330
2C97
100
AcDbEntity
  8
AM_0
100
AcDbLine
 10
493.9560182291528
 20
450.1254656206215
 30
0.0
 11
502.9560182291529
 21
450.1254656206215
 31
0.0
  0
ARC
  5
28DF
330
2C97
100
AcDbEntity
  8
AM_0
100
AcDbCircle
 10
502.9560182291529
 20
446.1254756206215
 30
0.0
 40
4.000000199999997
100
AcDbArc
 50
0.0
 51
90.00000300000001
  0
LINE
  5
28E0
330
2C97
100
AcDbEntity
  8
AM_0
100
AcDbLine
 10
400.9560182291528
 20
473.6254856206215
 30
0.0
 11
478.1654282291529
 21
471.6036956206213
 31
0.0
  0
ARC
  5
28E1
330
2C97
100
AcDbEntity
  8
AM_0
100
AcDbCircle
 10
392.9560382291528
 20
471.3448556206213
 30
0.0
 40
2.00000007
100
AcDbArc
 50
91.99999799999996
 51
180.00001
  0
LINE
  5
28E2
330
2C97
100
AcDbEntity
  8
AM_0
100
AcDbLine
 10
392.8861982291527
 20
473.3436356206213
 30
0.0
 11
400.9560182291528
 21
473.6254556206215
 31
0.0
  0
ARC
  5
28E3
330
2C97
100
AcDbEntity
  8
AM_0
100
AcDbCircle
 10
477.9559982291528
 20
463.6063856206215
 30
0.0
 40
8.000000099999997
100
AcDbArc
 50
0.0
 51
88.49999699999996
  0
LINE
  5
28E4
330
2C97
100
AcDbEntity
  8
AM_0
100
AcDbLine
 10
885.0766066771553
 20
456.2414756206215
 30
0.0
 11
842.7787846771551
 21
469.2373856206216
 31
0.0
  0
LINE
  5
28E5
330
2C97
100
AcDbEntity
  8
AM_0
100
AcDbLine
 10
742.2338746771552
 20
455.8395356206215
 30
0.0
 11
783.3704866771553
 21
468.9363656206213
 31
0.0
  0
LINE
  5
28E6
330
2C97
100
AcDbEntity
  8
ﾁｭｳｼﾝｾﾝ1
100
AcDbLine
 10
813.5558356771552
 20
261.4859849194
 30
0.0
 11
813.5558356771552
 21
480.1242656206212
 31
0.0
  0
ARC
  5
28E7
330
2C97
100
AcDbEntity
  8
AM_0
100
AcDbCircle
 10
813.5558356771552
 20
374.1254696206214
 30
0.0
 40
99.500004
100
AcDbArc
 50
8.4654901
 51
171.5345
  0
ARC
  5
28E8
330
2C97
100
AcDbEntity
  8
AM_0
100
AcDbCircle
 10
813.5558356771552
 20
335.8627256206214
 30
0.0
 40
77.00000099999998
100
AcDbArc
 50
327.5815999999999
 51
0.0
  0
ARC
  5
28E9
330
2C97
100
AcDbEntity
  8
AM_0
100
AcDbCircle
 10
813.5558356771552
 20
335.8627256206214
 30
0.0
 40
77.00000099999998
100
AcDbArc
 50
179.9999899999999
 51
212.4183899999997
  0
LINE
  5
28EA
330
2C97
100
AcDbEntity
  8
AM_0
100
AcDbLine
 10
748.5558196771553
 20
385.1254676206214
 30
0.0
 11
748.5558196771553
 21
295.1254676206214
 31
0.0
  0
LINE
  5
28EB
330
2C97
100
AcDbEntity
  8
AM_0
100
AcDbLine
 10
878.5558306771553
 20
385.1254676206214
 30
0.0
 11
878.5558306771553
 21
295.1254676206214
 31
0.0
  0
LINE
  5
28EC
330
2C97
100
AcDbEntity
  8
AM_0
100
AcDbLine
 10
928.5231496771553
 20
277.5671306206214
 30
0.0
 11
911.9717476771553
 21
388.7732966206213
 31
0.0
  0
LINE
  5
28ED
330
2C97
100
AcDbEntity
  8
AM_0
100
AcDbLine
 10
750.5558206771553
 20
264.1254956206214
 30
0.0
 11
876.5558326771552
 21
264.1254956206214
 31
0.0
  0
ARC
  5
28EE
330
2C97
100
AcDbEntity
  8
AM_0
100
AcDbCircle
 10
733.5558346771553
 20
295.1254676206214
 30
0.0
 40
15.00000029999998
100
AcDbArc
 50
270.0
 51
0.0
  0
LINE
  5
28EF
330
2C97
100
AcDbEntity
  8
ﾁｭｳｼﾝｾﾝ1
100
AcDbLine
 10
718.5558346771553
 20
282.5231208435851
 30
0.0
 11
718.5558346771553
 21
260.2625728076425
 31
0.0
  0
LINE
  5
28F0
330
2C97
100
AcDbEntity
  8
ｶｸﾚｾﾝ2
100
AcDbLine
 10
726.0558346771553
 20
280.1254796206213
 30
0.0
 11
726.0558346771553
 21
262.1254946206213
 31
0.0
  0
ARC
  5
28F1
330
2C97
100
AcDbEntity
  8
AM_0
100
AcDbCircle
 10
750.5558206771553
 20
262.1254946206213
 30
0.0
 40
2.00000007
100
AcDbArc
 50
90.00000300000001
 51
180.00001
  0
LINE
  5
28F2
330
2C97
100
AcDbEntity
  8
AM_0
100
AcDbLine
 10
748.5558196771553
 20
276.1254806206213
 30
0.0
 11
748.5558196771553
 21
262.1254946206213
 31
0.0
  0
ARC
  5
28F3
330
2C97
100
AcDbEntity
  8
AM_0
100
AcDbCircle
 10
744.5558356771552
 20
276.1254806206213
 30
0.0
 40
4.000000199999997
100
AcDbArc
 50
0.0
 51
90.00000300000001
  0
ARC
  5
28F4
330
2C97
100
AcDbEntity
  8
AM_0
100
AcDbCircle
 10
882.5558326771552
 20
276.1254806206213
 30
0.0
 40
4.000000199999997
100
AcDbArc
 50
90.00000300000001
 51
180.00001
  0
ARC
  5
28F5
330
2C97
100
AcDbEntity
  8
AM_0
100
AcDbCircle
 10
876.5558326771552
 20
262.1254946206213
 30
0.0
 40
2.00000007
100
AcDbArc
 50
0.0
 51
90.00000300000001
  0
ARC
  5
28F6
330
2C97
100
AcDbEntity
  8
AM_0
100
AcDbCircle
 10
893.5558306771552
 20
295.1254676206214
 30
0.0
 40
15.00000029999998
100
AcDbArc
 50
179.9999899999999
 51
270.0
  0
LINE
  5
28F7
330
2C97
100
AcDbEntity
  8
ﾁｭｳｼﾝｾﾝ1
100
AcDbLine
 10
908.5558306771552
 20
282.5231208435848
 30
0.0
 11
908.5558306771552
 21
260.2625728076425
 31
0.0
  0
LINE
  5
28F8
330
2C97
100
AcDbEntity
  8
AM_0
100
AcDbLine
 10
882.5558326771552
 20
280.1254796206213
 30
0.0
 11
925.5558316771553
 21
280.1254796206213
 31
0.0
  0
LINE
  5
28F9
330
2C97
100
AcDbEntity
  8
AM_0
100
AcDbLine
 10
878.5558306771553
 20
262.1254946206213
 30
0.0
 11
928.5558316771552
 21
262.1254946206213
 31
0.0
  0
LINE
  5
28FA
330
2C97
100
AcDbEntity
  8
ｶｸﾚｾﾝ2
100
AcDbLine
 10
901.0558306771553
 20
280.1254796206213
 30
0.0
 11
901.0558306771553
 21
262.1254946206213
 31
0.0
  0
LINE
  5
28FB
330
2C97
100
AcDbEntity
  8
AM_0
100
AcDbLine
 10
878.5558306771553
 20
276.1254806206213
 30
0.0
 11
878.5558306771553
 21
262.1254946206213
 31
0.0
  0
LINE
  5
28FC
330
2C97
100
AcDbEntity
  8
AM_0
100
AcDbLine
 10
928.5558316771552
 20
277.1254796206214
 30
0.0
 11
928.5558316771552
 21
262.1254946206213
 31
0.0
  0
LINE
  5
28FD
330
2C97
100
AcDbEntity
  8
ｶｸﾚｾﾝ2
100
AcDbLine
 10
916.0558336771552
 20
280.1254796206213
 30
0.0
 11
916.0558336771552
 21
262.1254946206213
 31
0.0
  0
ARC
  5
28FE
330
2C97
100
AcDbEntity
  8
AM_0
100
AcDbCircle
 10
925.5558316771553
 20
277.1254796206214
 30
0.0
 40
3.0
100
AcDbArc
 50
0.0
 51
90.00000300000001
  0
CIRCLE
  5
28FF
330
2C97
100
AcDbEntity
  8
AM_0
100
AcDbCircle
 10
813.5558356771552
 20
402.1254386206213
 30
0.0
 40
29.000001
  0
ARC
  5
2900
330
2C97
100
AcDbEntity
  8
AM_0
100
AcDbCircle
 10
813.5558356771552
 20
402.1254386206213
 30
0.0
 40
16.0000005
100
AcDbArc
 50
108.20996
 51
71.790052
  0
ARC
  5
2901
330
2C97
100
AcDbEntity
  8
AM_0
100
AcDbCircle
 10
813.5558356771552
 20
385.1254676206214
 30
0.0
 40
65.000001
100
AcDbArc
 50
0.0
 51
180.00001
  0
LINE
  5
2902
330
2C97
100
AcDbEntity
  8
ﾁｭｳｼﾝｾﾝ1
100
AcDbLine
 10
760.0032760741002
 20
402.1254386206213
 30
0.0
 11
867.7537967693227
 21
402.1254386206213
 31
0.0
  0
LINE
  5
2903
330
2C97
100
AcDbEntity
  8
ﾁｭｳｼﾝｾﾝ1
100
AcDbLine
 10
719.6837245179708
 20
374.1254696206214
 30
0.0
 11
908.7685134755323
 21
374.1254696206214
 31
0.0
  0
LINE
  5
2904
330
2C97
100
AcDbEntity
  8
AM_0
100
AcDbLine
 10
736.5558346771552
 20
434.2191656206213
 30
0.0
 11
736.5558346771552
 21
335.8627256206214
 31
0.0
  0
LINE
  5
2905
330
2C97
100
AcDbEntity
  8
AM_0
100
AcDbLine
 10
731.8418146771553
 20
445.4475056206215
 30
0.0
 11
718.7449816771553
 21
404.3108636206212
 31
0.0
  0
ARC
  5
2906
330
2C97
100
AcDbEntity
  8
AM_0
100
AcDbCircle
 10
747.087772677155
 20
440.5935056206215
 30
0.0
 40
16.0000005
100
AcDbArc
 50
107.0794599999999
 51
162.92053
  0
ARC
  5
2907
330
2C97
100
AcDbEntity
  8
AM_0
100
AcDbCircle
 10
744.5558356771552
 20
434.2191656206213
 30
0.0
 40
8.000000099999997
100
AcDbArc
 50
138.94665
 51
180.00001
  0
CIRCLE
  5
2908
330
2C97
100
AcDbEntity
  8
AM_5
100
AcDbCircle
 10
813.5558356771552
 20
402.1254386206213
 30
0.0
 40
4.000000199999997
  0
CIRCLE
  5
2909
330
2C97
100
AcDbEntity
  8
AM_0
100
AcDbCircle
 10
813.5558356771552
 20
402.1254386206213
 30
0.0
 40
2.75000007
  0
LINE
  5
290A
330
2C97
100
AcDbEntity
  8
AM_0
100
AcDbLine
 10
818.555821677155
 20
413.125475620621
 30
0.0
 11
818.555821677155
 21
421.1254556206212
 31
0.0
  0
LINE
  5
290B
330
2C97
100
AcDbEntity
  8
AM_0
100
AcDbLine
 10
808.5558226771549
 20
413.125475620621
 30
0.0
 11
808.5558226771549
 21
421.1254556206212
 31
0.0
  0
LINE
  5
290C
330
2C97
100
AcDbEntity
  8
AM_0
100
AcDbLine
 10
808.5558226771549
 20
421.1254556206212
 30
0.0
 11
818.555821677155
 21
421.1254556206212
 31
0.0
  0
LINE
  5
290D
330
2C97
100
AcDbEntity
  8
AM_0
100
AcDbLine
 10
808.5558226771549
 20
413.125475620621
 30
0.0
 11
818.555821677155
 21
413.125475620621
 31
0.0
  0
LINE
  5
290E
330
2C97
100
AcDbEntity
  8
AM_0
100
AcDbLine
 10
890.5558306771553
 20
434.2191656206213
 30
0.0
 11
890.5558306771553
 21
335.8627256206214
 31
0.0
  0
LINE
  5
290F
330
2C97
100
AcDbEntity
  8
AM_0
100
AcDbLine
 10
895.6717906771553
 20
445.6462856206213
 30
0.0
 11
908.6677096771554
 21
403.3484306206212
 31
0.0
  0
ARC
  5
2910
330
2C97
100
AcDbEntity
  8
AM_0
100
AcDbCircle
 10
882.5558326771552
 20
434.2191656206213
 30
0.0
 40
8.000000099999997
100
AcDbArc
 50
0.0
 51
41.053351
  0
ARC
  5
2911
330
2C97
100
AcDbEntity
  8
AM_0
100
AcDbCircle
 10
880.3774246771553
 20
440.9470556206215
 30
0.0
 40
16.0000005
100
AcDbArc
 50
17.079463
 51
72.920534
  0
ARC
  5
2912
330
2C97
100
AcDbEntity
  8
AM_0
100
AcDbCircle
 10
223.4560682291528
 20
690.8069666702855
 30
0.0
 40
4.000000000000055
100
AcDbArc
 50
270.0
 51
90.0
  0
LINE
  5
2913
330
2C97
100
AcDbEntity
  8
AM_0
100
AcDbLine
 10
195.4560682291528
 20
702.8069666702855
 30
0.0
 11
231.4560682291528
 21
702.8069666702855
 31
0.0
  0
LINE
  5
2914
330
2C97
100
AcDbEntity
  8
AM_0
100
AcDbLine
 10
195.4560682291528
 20
678.8069666702853
 30
0.0
 11
231.4560682291528
 21
678.8069666702853
 31
0.0
  0
LINE
  5
2915
330
2C97
100
AcDbEntity
  8
AM_0
100
AcDbLine
 10
195.4560682291528
 20
678.8069666702853
 30
0.0
 11
195.4560682291528
 21
702.8069666702855
 31
0.0
  0
LINE
  5
2916
330
2C97
100
AcDbEntity
  8
AM_0
100
AcDbLine
 10
195.4560682291528
 20
686.8069666702855
 30
0.0
 11
223.4560682291528
 21
686.8069666702855
 31
0.0
  0
LINE
  5
2917
330
2C97
100
AcDbEntity
  8
AM_0
100
AcDbLine
 10
195.4560682291528
 20
694.8069666702856
 30
0.0
 11
223.4560682291528
 21
694.8069666702856
 31
0.0
  0
LINE
  5
2918
330
2C97
100
AcDbEntity
  8
AM_0
100
AcDbLine
 10
223.4560682291528
 20
686.8069666702856
 30
0.0
 11
223.4560682291528
 21
694.8069666702856
 31
0.0
  0
LINE
  5
2919
330
2C97
100
AcDbEntity
  8
AM_0
100
AcDbLine
 10
342.4560682291529
 20
629.2977416702853
 30
0.0
 11
342.4560682291529
 21
649.3322916702854
 31
0.0
  0
LINE
  5
291A
330
2C97
100
AcDbEntity
  8
AM_0
100
AcDbLine
 10
279.0193122291527
 20
647.0343536702857
 30
0.0
 11
331.4374992291528
 21
620.3259536702852
 31
0.0
  0
LINE
  5
291B
330
2C97
100
AcDbEntity
  8
AM_0
100
AcDbLine
 10
332.4560682291529
 20
622.0516196702853
 30
0.0
 11
332.4560682291529
 21
759.5623146702852
 31
0.0
  0
ARC
  5
291C
330
2C97
100
AcDbEntity
  8
AM_0
100
AcDbCircle
 10
340.4560682291529
 20
629.2977416702853
 30
0.0
 40
2.0
100
AcDbArc
 50
270.0
 51
0.0
  0
LINE
  5
291D
330
2C97
100
AcDbEntity
  8
AM_0
100
AcDbLine
 10
334.4560682291529
 20
617.3069666702855
 30
0.0
 11
344.4560682291529
 21
617.3069666702855
 31
0.0
  0
ARC
  5
291E
330
2C97
100
AcDbEntity
  8
AM_0
100
AcDbCircle
 10
334.4560682291529
 20
619.3069666702855
 30
0.0
 40
2.0
100
AcDbArc
 50
190.9969430000004
 51
270.0
  0
ARC
  5
291F
330
2C97
100
AcDbEntity
  8
AM_0
100
AcDbCircle
 10
330.5295182291529
 20
618.5439406702855
 30
0.0
 40
2.0
100
AcDbArc
 50
10.99694300000052
 51
62.99999999999824
  0
ARC
  5
2920
330
2C97
100
AcDbEntity
  8
AM_0
100
AcDbCircle
 10
334.4560682291529
 20
629.2977416702853
 30
0.0
 40
2.0
100
AcDbArc
 50
180.0
 51
270.0
  0
LINE
  5
2921
330
2C97
100
AcDbEntity
  8
AM_0
100
AcDbLine
 10
334.4560682291529
 20
627.2977416702852
 30
0.0
 11
340.4560682291529
 21
627.2977416702852
 31
0.0
  0
LINE
  5
2922
330
2C97
100
AcDbEntity
  8
AM_0
100
AcDbLine
 10
235.4560682291528
 20
720.3069666702852
 30
0.0
 11
233.4560682291528
 21
718.3069666702855
 31
0.0
  0
LINE
  5
2923
330
2C97
100
AcDbEntity
  8
AM_0
100
AcDbLine
 10
276.9622612291529
 20
651.0829306702857
 30
0.0
 11
276.9622612291529
 21
730.5310026702856
 31
0.0
  0
LINE
  5
2924
330
2C97
100
AcDbEntity
  8
AM_0
100
AcDbLine
 10
244.3863102291528
 20
651.6515456702855
 30
0.0
 11
244.3863102291528
 21
729.9623876702852
 31
0.0
  0
LINE
  5
2925
330
2C97
100
AcDbEntity
  8
AM_0
100
AcDbLine
 10
235.4560682291528
 20
656.1163676702855
 30
0.0
 11
235.4560682291528
 21
725.4975656702852
 31
0.0
  0
LINE
  5
2926
330
2C97
100
AcDbEntity
  8
AM_0
100
AcDbLine
 10
233.4560682291528
 20
663.3069666702855
 30
0.0
 11
233.4560682291528
 21
718.3069666702855
 31
0.0
  0
LINE
  5
2927
330
2C97
100
AcDbEntity
  8
AM_0
100
AcDbLine
 10
245.4206232291528
 20
648.6330346702855
 30
0.0
 11
274.6539312291528
 21
648.1227656702855
 31
0.0
  0
ARC
  5
2928
330
2C97
100
AcDbEntity
  8
AM_0
100
AcDbCircle
 10
239.4560682291528
 20
656.1163676702855
 30
0.0
 40
4.0
100
AcDbArc
 50
180.0
 51
239.9999999999995
  0
LINE
  5
2929
330
2C97
100
AcDbEntity
  8
AM_0
100
AcDbLine
 10
237.4560682291528
 20
652.6522666702851
 30
0.0
 11
243.4904332291528
 21
649.1683236702855
 31
0.0
  0
ARC
  5
292A
330
2C97
100
AcDbEntity
  8
AM_0
100
AcDbCircle
 10
245.4904332291528
 20
652.6324256702856
 30
0.0
 40
4.0
100
AcDbArc
 50
239.9999999999995
 51
269.0000000000015
  0
LINE
  5
292B
330
2C97
100
AcDbEntity
  8
AM_0
100
AcDbLine
 10
233.4560682291528
 20
663.3069666702855
 30
0.0
 11
235.4560682291528
 21
661.3069666702855
 31
0.0
  0
ARC
  5
292C
330
2C97
100
AcDbEntity
  8
AM_0
100
AcDbCircle
 10
274.4794072291528
 20
638.1242886702855
 30
0.0
 40
10.0
100
AcDbArc
 50
62.99999999999824
 51
89.00000000000151
  0
LINE
  5
292D
330
2C97
100
AcDbEntity
  8
AM_0
100
AcDbLine
 10
231.4560682291528
 20
675.8069666702855
 30
0.0
 11
231.4560682291528
 21
705.8069666702855
 31
0.0
  0
LINE
  5
292E
330
2C97
100
AcDbEntity
  8
AM_0
100
AcDbLine
 10
231.4560682291528
 20
675.8069666702855
 30
0.0
 11
233.4560682291528
 21
675.8069666702855
 31
0.0
  0
LINE
  5
292F
330
2C97
100
AcDbEntity
  8
AM_0
100
AcDbLine
 10
231.4560682291528
 20
705.8069666702855
 30
0.0
 11
233.4560682291528
 21
705.8069666702855
 31
0.0
  0
LINE
  5
2930
330
2C97
100
AcDbEntity
  8
AM_0
100
AcDbLine
 10
334.4560682291529
 20
651.3322916702851
 30
0.0
 11
342.4560682291529
 21
651.3322916702851
 31
0.0
  0
ARC
  5
2931
330
2C97
100
AcDbEntity
  8
AM_0
100
AcDbCircle
 10
344.4560682291529
 20
649.3322916702854
 30
0.0
 40
2.0
100
AcDbArc
 50
120.0000000000005
 51
180.0
  0
LINE
  5
2932
330
2C97
100
AcDbEntity
  8
AM_0
100
AcDbLine
 10
331.4374992291528
 20
761.2879806702856
 30
0.0
 11
279.0193122291527
 21
734.5795796702855
 31
0.0
  0
LINE
  5
2933
330
2C97
100
AcDbEntity
  8
AM_0
100
AcDbLine
 10
274.6539312291528
 20
733.4911676702851
 30
0.0
 11
245.4206232291528
 21
732.9808986702852
 31
0.0
  0
LINE
  5
2934
330
2C97
100
AcDbEntity
  8
AM_0
100
AcDbLine
 10
243.4904332291528
 20
732.4456096702856
 30
0.0
 11
237.4560682291528
 21
728.9616676702855
 31
0.0
  0
ARC
  5
2935
330
2C97
100
AcDbEntity
  8
AM_0
100
AcDbCircle
 10
239.4560682291528
 20
725.4975656702852
 30
0.0
 40
4.0
100
AcDbArc
 50
120.0000000000005
 51
180.0
  0
ARC
  5
2936
330
2C97
100
AcDbEntity
  8
AM_0
100
AcDbCircle
 10
245.4904332291528
 20
728.9815076702855
 30
0.0
 40
4.0
100
AcDbArc
 50
90.9999999999985
 51
120.0000000000005
  0
ARC
  5
2937
330
2C97
100
AcDbEntity
  8
AM_0
100
AcDbCircle
 10
274.4794072291528
 20
743.4896446702855
 30
0.0
 40
10.0
100
AcDbArc
 50
270.9999999999984
 51
296.999999999998
  0
ARC
  5
2938
330
2C97
100
AcDbEntity
  8
AM_0
100
AcDbCircle
 10
330.5295182291529
 20
763.0699936702856
 30
0.0
 40
2.0
100
AcDbArc
 50
296.999999999998
 51
349.0030569999992
  0
LINE
  5
2939
330
2C97
100
AcDbEntity
  8
AM_0
100
AcDbLine
 10
342.4560682291529
 20
752.3161916702855
 30
0.0
 11
342.4560682291529
 21
732.2816426702852
 31
0.0
  0
LINE
  5
293A
330
2C97
100
AcDbEntity
  8
AM_0
100
AcDbLine
 10
334.4560682291529
 20
730.2816426702852
 30
0.0
 11
342.4560682291529
 21
730.2816426702852
 31
0.0
  0
ARC
  5
293B
330
2C97
100
AcDbEntity
  8
AM_0
100
AcDbCircle
 10
344.4560682291529
 20
732.2816426702852
 30
0.0
 40
2.0
100
AcDbArc
 50
180.0
 51
239.9999999999995
  0
ARC
  5
293C
330
2C97
100
AcDbEntity
  8
AM_0
100
AcDbCircle
 10
340.4560682291529
 20
752.3161916702855
 30
0.0
 40
2.0
100
AcDbArc
 50
0.0
 51
90.0
  0
ARC
  5
293D
330
2C97
100
AcDbEntity
  8
AM_0
100
AcDbCircle
 10
334.4560682291529
 20
752.3161916702855
 30
0.0
 40
2.0
100
AcDbArc
 50
90.0
 51
180.0
  0
LINE
  5
293E
330
2C97
100
AcDbEntity
  8
AM_0
100
AcDbLine
 10
334.4560682291529
 20
754.3161916702855
 30
0.0
 11
340.4560682291529
 21
754.3161916702855
 31
0.0
  0
LINE
  5
293F
330
2C97
100
AcDbEntity
  8
AM_0
100
AcDbLine
 10
334.4560682291529
 20
764.3069666702855
 30
0.0
 11
344.4560682291529
 21
764.3069666702855
 31
0.0
  0
ARC
  5
2940
330
2C97
100
AcDbEntity
  8
AM_0
100
AcDbCircle
 10
334.4560682291529
 20
762.3069666702852
 30
0.0
 40
2.0
100
AcDbArc
 50
90.0
 51
169.0030569999995
  0
LINE
  5
2942
330
2C97
100
AcDbEntity
  8
AM_0
100
AcDbLine
 10
530.9560382291529
 20
695.8069521702855
 30
0.0
 11
575.9560382291529
 21
695.8069521702855
 31
0.0
  0
LINE
  5
2943
330
2C97
100
AcDbEntity
  8
AM_0
100
AcDbLine
 10
530.9560382291529
 20
685.8070121702856
 30
0.0
 11
575.9560382291529
 21
685.8070121702856
 31
0.0
  0
LINE
  5
2944
330
2C97
100
AcDbEntity
  8
AM_0
100
AcDbLine
 10
575.9560382291529
 20
674.8070121702856
 30
0.0
 11
517.9560682291528
 21
674.8070121702856
 31
0.0
  0
LINE
  5
2945
330
2C97
100
AcDbEntity
  8
AM_0
100
AcDbLine
 10
575.9560382291529
 20
706.8069521702855
 30
0.0
 11
517.9560682291528
 21
706.8069521702855
 31
0.0
  0
LINE
  5
2946
330
2C97
100
AcDbEntity
  8
ﾁｭｳｼﾝｾﾝ1
100
AcDbLine
 10
190.3409120432077
 20
690.8069521702855
 30
0.0
 11
583.8688782291527
 21
690.8069521702855
 31
0.0
  0
LINE
  5
2947
330
2C97
100
AcDbEntity
  8
AM_0
100
AcDbLine
 10
344.4560682291529
 20
617.3069821702852
 30
0.0
 11
344.4560682291529
 21
764.3069521702855
 31
0.0
  0
LINE
  5
2948
330
2C97
100
AcDbEntity
  8
AM_0
100
AcDbLine
 10
378.9560082291529
 20
599.8858721702852
 30
0.0
 11
378.9560082291529
 21
781.7280921702852
 31
0.0
  0
LINE
  5
2949
330
2C97
100
AcDbEntity
  8
AM_0
100
AcDbLine
 10
485.9560682291529
 20
621.6002221702855
 30
0.0
 11
485.9560682291529
 21
760.0137321702852
 31
0.0
  0
LINE
  5
294A
330
2C97
100
AcDbEntity
  8
AM_0
100
AcDbLine
 10
517.9560682291528
 20
673.3070121702856
 30
0.0
 11
517.9560682291528
 21
708.3070121702855
 31
0.0
  0
LINE
  5
294B
330
2C97
100
AcDbEntity
  8
AM_0
100
AcDbLine
 10
513.9560382291529
 20
663.5390621702856
 30
0.0
 11
513.9560382291529
 21
690.8069521702855
 31
0.0
  0
LINE
  5
294C
330
2C97
100
AcDbEntity
  8
AM_0
100
AcDbLine
 10
390.9560082291529
 20
625.7347721702855
 30
0.0
 11
390.9560082291529
 21
755.8792121702855
 31
0.0
  0
LINE
  5
294D
330
2C97
100
AcDbEntity
  8
AM_0
100
AcDbLine
 10
506.9560682291529
 20
629.7036121702856
 30
0.0
 11
506.9560682291529
 21
751.9103421702855
 31
0.0
  0
LINE
  5
294E
330
2C97
100
AcDbEntity
  8
AM_0
100
AcDbLine
 10
400.9560082291529
 20
591.3069821702852
 30
0.0
 11
400.9560082291529
 21
790.3069521702855
 31
0.0
  0
POLYLINE
  5
294F
330
2C97
100
AcDbEntity
  8
AM_0
100
AcDb2dPolyline
 66
     1
 10
0.0
 20
0.0
 30
0.0
  0
VERTEX
  5
2950
330
294F
100
AcDbEntity
  8
AM_0
100
AcDbVertex
100
AcDb2dVertex
 10
400.9560082291529
 20
613.3902021702855
 30
0.0
 42
0.040442906
  0
VERTEX
  5
2951
330
294F
100
AcDbEntity
  8
AM_0
100
AcDbVertex
100
AcDb2dVertex
 10
412.4841882291528
 20
613.6135421702856
 30
0.0
 42
0.04246993
  0
VERTEX
  5
2952
330
294F
100
AcDbEntity
  8
AM_0
100
AcDbVertex
100
AcDb2dVertex
 10
423.8178882291529
 20
615.7270321702855
 30
0.0
 42
0.022672732
  0
VERTEX
  5
2953
330
294F
100
AcDbEntity
  8
AM_0
100
AcDbVertex
100
AcDb2dVertex
 10
429.3023782291529
 20
617.5179721702853
 30
0.0
  0
VERTEX
  5
2954
330
294F
100
AcDbEntity
  8
AM_0
100
AcDbVertex
100
AcDb2dVertex
 10
434.6079882291529
 20
619.7868321702855
 30
0.0
 42
-1.0
  0
SEQEND
  5
2955
330
294F
100
AcDbEntity
  8
AM_0
  0
POLYLINE
  5
2956
330
2C97
100
AcDbEntity
  8
AM_0
100
AcDb2dPolyline
 66
     1
 10
0.0
 20
0.0
 30
0.0
  0
VERTEX
  5
2957
330
2956
100
AcDbEntity
  8
AM_0
100
AcDbVertex
100
AcDb2dVertex
 10
400.9560082291529
 20
660.5305521702856
 30
0.0
 42
-0.07005559
  0
VERTEX
  5
2958
330
2956
100
AcDbEntity
  8
AM_0
100
AcDbVertex
100
AcDb2dVertex
 10
427.3166582291529
 20
640.3332121702856
 30
0.0
 42
-0.27110578
  0
VERTEX
  5
2959
330
2956
100
AcDbEntity
  8
AM_0
100
AcDbVertex
100
AcDb2dVertex
 10
435.9560082291529
 20
620.4498621702856
 30
0.0
 42
-0.21303172
  0
VERTEX
  5
295A
330
2956
100
AcDbEntity
  8
AM_0
100
AcDbVertex
100
AcDb2dVertex
 10
416.3655682291529
 20
602.3150521702855
 30
0.0
  0
VERTEX
  5
295B
330
2956
100
AcDbEntity
  8
AM_0
100
AcDbVertex
100
AcDb2dVertex
 10
400.9560082291529
 20
596.0167921702852
 30
0.0
 42
-1.0
  0
SEQEND
  5
295C
330
2956
100
AcDbEntity
  8
AM_0
  0
LINE
  5
295D
330
2C97
100
AcDbEntity
  8
AM_0
100
AcDbLine
 10
406.9560082291529
 20
575.8069821702852
 30
0.0
 11
510.0956582291528
 21
579.4086921702852
 31
0.0
  0
ARC
  5
295E
330
2C97
100
AcDbEntity
  8
AM_0
100
AcDbCircle
 10
391.9560082291529
 20
580.1307721702857
 30
0.0
 40
3.0
100
AcDbArc
 50
85.00000399999766
 51
265.0
  0
ARC
  5
295F
330
2C97
100
AcDbEntity
  8
AM_0
100
AcDbCircle
 10
400.9560082291529
 20
586.3701221702855
 30
0.0
 40
4.0
100
AcDbArc
 50
265.0000100000003
 51
0.0000006832429909
  0
ARC
  5
2960
330
2C97
100
AcDbEntity
  8
AM_0
100
AcDbCircle
 10
356.9560082291529
 20
584.1966921702852
 30
0.0
 40
4.0
100
AcDbArc
 50
180.0000100000009
 51
265.0000100000003
  0
LINE
  5
2961
330
2C97
100
AcDbEntity
  8
AM_0
100
AcDbLine
 10
404.9560082291529
 20
591.3069821702852
 30
0.0
 11
404.9560082291529
 21
581.4384821702852
 31
0.0
  0
LINE
  5
2962
330
2C97
100
AcDbEntity
  8
AM_0
100
AcDbLine
 10
356.6074382291528
 20
580.2118821702856
 30
0.0
 11
406.9560682291529
 21
575.8069821702852
 31
0.0
  0
ARC
  5
2963
330
2C97
100
AcDbEntity
  8
AM_0
100
AcDbCircle
 10
399.9560082291529
 20
581.4384821702852
 30
0.0
 40
5.0
100
AcDbArc
 50
265.0000100000003
 51
0.0000006832429909
  0
CIRCLE
  5
2964
330
2C97
100
AcDbEntity
  8
AM_0
100
AcDbCircle
 10
370.9560082291529
 20
595.8069821702852
 30
0.0
 40
7.5
  0
LINE
  5
2965
330
2C97
100
AcDbEntity
  8
AM_0
100
AcDbLine
 10
344.4560082291529
 20
617.3069821702852
 30
0.0
 11
376.5258982291529
 21
616.1870721702856
 31
0.0
  0
LINE
  5
2966
330
2C97
100
AcDbEntity
  8
AM_0
100
AcDbLine
 10
344.4560082291529
 20
629.2283321702853
 30
0.0
 11
378.9560082291529
 21
629.2283321702853
 31
0.0
  0
LINE
  5
2967
330
2C97
100
AcDbEntity
  8
ﾁｭｳｼﾝｾﾝ1
100
AcDbLine
 10
357.4560082291529
 20
595.8069821702852
 30
0.0
 11
384.4560082291529
 21
595.8069821702852
 31
0.0
  0
LINE
  5
2968
330
2C97
100
AcDbEntity
  8
AM_0
100
AcDbLine
 10
352.9560082291529
 20
608.2684321702855
 30
0.0
 11
352.9560082291529
 21
584.1966921702852
 31
0.0
  0
LINE
  5
2969
330
2C97
100
AcDbEntity
  8
ﾁｭｳｼﾝｾﾝ1
100
AcDbLine
 10
370.9560082291529
 20
609.3069821702852
 30
0.0
 11
370.9560082291529
 21
582.3069821702851
 31
0.0
  0
LINE
  5
296A
330
2C97
100
AcDbEntity
  8
AM_0
100
AcDbLine
 10
355.9207882291528
 20
612.1321121702854
 30
0.0
 11
371.6849482291528
 21
616.3560821702855
 31
0.0
  0
ARC
  5
296B
330
2C97
100
AcDbEntity
  8
AM_0
100
AcDbCircle
 10
356.9560082291529
 20
608.2684321702855
 30
0.0
 40
4.0
100
AcDbArc
 50
105.0000000000007
 51
180.0000100000009
  0
ARC
  5
296C
330
2C97
100
AcDbEntity
  8
AM_0
100
AcDbCircle
 10
381.9560082291529
 20
610.9169621702855
 30
0.0
 40
3.0
100
AcDbArc
 50
180.0000100000009
 51
270.0
  0
ARC
  5
296D
330
2C97
100
AcDbEntity
  8
AM_0
100
AcDbCircle
 10
387.9560082291529
 20
604.9169621702856
 30
0.0
 40
3.0
100
AcDbArc
 50
0.0
 51
90.00000299999769
  0
ARC
  5
296E
330
2C97
100
AcDbEntity
  8
AM_0
100
AcDbCircle
 10
387.9932382291528
 20
593.8858721702851
 30
0.0
 40
3.0
100
AcDbArc
 50
6.386299400002199
 51
90.00000299999769
  0
ARC
  5
296F
330
2C97
100
AcDbEntity
  8
AM_0
100
AcDbCircle
 10
393.9560082291529
 20
594.5532521702855
 30
0.0
 40
3.0
100
AcDbArc
 50
180.0000100000009
 51
267.9999999999963
  0
LINE
  5
2970
330
2C97
100
AcDbEntity
  8
AM_0
100
AcDbLine
 10
400.9560082291529
 20
596.0167921702852
 30
0.0
 11
390.9560082291529
 21
596.0167921702852
 31
0.0
  0
LINE
  5
2971
330
2C97
100
AcDbEntity
  8
AM_0
100
AcDbLine
 10
390.9560082291529
 20
594.5532521702855
 30
0.0
 11
390.9560082291529
 21
604.9169621702856
 31
0.0
  0
LINE
  5
2972
330
2C97
100
AcDbEntity
  8
AM_0
100
AcDbLine
 10
381.9560082291529
 20
596.8858721702852
 30
0.0
 11
387.9932382291528
 21
596.8858721702852
 31
0.0
  0
ARC
  5
2973
330
2C97
100
AcDbEntity
  8
AM_0
100
AcDbCircle
 10
381.9560082291529
 20
599.8858721702852
 30
0.0
 40
3.0
100
AcDbArc
 50
180.0000100000009
 51
270.0
  0
LINE
  5
2974
330
2C97
100
AcDbEntity
  8
AM_0
100
AcDbLine
 10
393.851338229153
 20
591.5550921702856
 30
0.0
 11
400.9559482291528
 21
591.3069821702852
 31
0.0
  0
LINE
  5
2975
330
2C97
100
AcDbEntity
  8
AM_0
100
AcDbLine
 10
392.2175482291529
 20
583.1193321702852
 30
0.0
 11
400.6074982291528
 21
582.3853221702854
 31
0.0
  0
LINE
  5
2976
330
2C97
100
AcDbEntity
  8
AM_0
100
AcDbLine
 10
400.9560082291529
 20
591.3069821702852
 30
0.0
 11
404.9560082291529
 21
591.3069821702852
 31
0.0
  0
ARC
  5
2977
330
2C97
100
AcDbEntity
  8
AM_0
100
AcDbCircle
 10
387.9560082291529
 20
625.7347721702855
 30
0.0
 40
3.0
100
AcDbArc
 50
270.0
 51
0.0
  0
LINE
  5
2978
330
2C97
100
AcDbEntity
  8
AM_0
100
AcDbLine
 10
400.9560082291529
 20
613.3902021702855
 30
0.0
 11
378.9560082291529
 21
613.3902021702855
 31
0.0
  0
LINE
  5
2979
330
2C97
100
AcDbEntity
  8
AM_0
100
AcDbLine
 10
381.9560082291529
 20
607.9169621702856
 30
0.0
 11
387.9560082291529
 21
607.9169621702856
 31
0.0
  0
ARC
  5
297A
330
2C97
100
AcDbEntity
  8
AM_0
100
AcDbCircle
 10
375.9560082291529
 20
613.2051421702855
 30
0.0
 40
3.0
100
AcDbArc
 50
0.0
 51
87.99999999999625
  0
LINE
  5
297B
330
2C97
100
AcDbEntity
  8
AM_0
100
AcDbLine
 10
378.9560082291529
 20
622.7347721702855
 30
0.0
 11
387.9560082291529
 21
622.7347721702855
 31
0.0
  0
LINE
  5
297C
330
2C97
100
AcDbEntity
  8
AM_0
100
AcDbLine
 10
344.4560082291529
 20
651.3323121702856
 30
0.0
 11
378.9560082291529
 21
651.3323121702856
 31
0.0
  0
LINE
  5
297D
330
2C97
100
AcDbEntity
  8
AM_0
100
AcDbLine
 10
378.9560082291529
 20
633.4894121702855
 30
0.0
 11
390.9560082291529
 21
633.4894121702855
 31
0.0
  0
LINE
  5
297E
330
2C97
100
AcDbEntity
  8
AM_0
100
AcDbLine
 10
400.9560082291529
 20
660.5305521702856
 30
0.0
 11
390.9560082291529
 21
660.5305521702856
 31
0.0
  0
ARC
  5
297F
330
2C97
100
AcDbEntity
  8
AM_0
100
AcDbCircle
 10
473.9560382291529
 20
586.1515521702853
 30
0.0
 40
8.0
100
AcDbArc
 50
180.0000100000009
 51
271.9999900000014
  0
ARC
  5
2980
330
2C97
100
AcDbEntity
  8
AM_0
100
AcDbCircle
 10
509.9560682291529
 20
583.4062521702852
 30
0.0
 40
4.0
100
AcDbArc
 50
272.0000000000037
 51
0.0
  0
ARC
  5
2981
330
2C97
100
AcDbEntity
  8
AM_0
100
AcDbCircle
 10
477.9560382291529
 20
601.5933921702854
 30
0.0
 40
12.0
100
AcDbArc
 50
91.50000100000154
 51
180.0000100000009
  0
LINE
  5
2982
330
2C97
100
AcDbEntity
  8
AM_0
100
AcDbLine
 10
465.9560382291529
 20
586.1515521702853
 30
0.0
 11
465.9560382291529
 21
601.5933921702854
 31
0.0
  0
ARC
  5
2983
330
2C97
100
AcDbEntity
  8
AM_0
100
AcDbCircle
 10
510.9560682291529
 20
629.7442321702853
 30
0.0
 40
4.0
100
AcDbArc
 50
180.0000100000009
 51
262.8192499999964
  0
LINE
  5
2984
330
2C97
100
AcDbEntity
  8
ﾁｭｳｼﾝｾﾝ1
100
AcDbLine
 10
482.4560682291529
 20
595.8069821702852
 30
0.0
 11
509.4560682291528
 21
595.8069821702852
 31
0.0
  0
LINE
  5
2985
330
2C97
100
AcDbEntity
  8
ﾁｭｳｼﾝｾﾝ1
100
AcDbLine
 10
495.9560682291528
 20
609.3069821702852
 30
0.0
 11
495.9560682291528
 21
582.3069821702851
 31
0.0
  0
CIRCLE
  5
2986
330
2C97
100
AcDbEntity
  8
AM_0
100
AcDbCircle
 10
495.9560682291528
 20
595.8069821702852
 30
0.0
 40
7.5
  0
ARC
  5
2987
330
2C97
100
AcDbEntity
  8
AM_0
100
AcDbCircle
 10
493.4082782291529
 20
617.4494621702855
 30
0.0
 40
8.0
100
AcDbArc
 50
91.50000100000154
 51
164.964200000003
  0
ARC
  5
2988
330
2C97
100
AcDbEntity
  8
AM_0
100
AcDbCircle
 10
477.9560682291529
 20
621.6002221702855
 30
0.0
 40
8.0
100
AcDbArc
 50
271.4999999999961
 51
0.0
  0
LINE
  5
2989
330
2C97
100
AcDbEntity
  8
AM_0
100
AcDbLine
 10
478.1654782291528
 20
613.6029721702855
 30
0.0
 11
477.6419182291529
 21
613.5892721702856
 31
0.0
  0
LINE
  5
298A
330
2C97
100
AcDbEntity
  8
AM_0
100
AcDbLine
 10
503.0607782291529
 20
625.7049921702856
 30
0.0
 11
493.1988682291528
 21
625.4467521702852
 31
0.0
  0
ARC
  5
298B
330
2C97
100
AcDbEntity
  8
AM_0
100
AcDbCircle
 10
502.9560682291529
 20
629.7036121702856
 30
0.0
 40
4.0
100
AcDbArc
 50
271.4999999999961
 51
0.0
  0
LINE
  5
298C
330
2C97
100
AcDbEntity
  8
AM_0
100
AcDbLine
 10
513.9560682291528
 20
621.8069821702852
 30
0.0
 11
513.9560682291528
 21
583.4062521702852
 31
0.0
  0
ARC
  5
298D
330
2C97
100
AcDbEntity
  8
AM_0
100
AcDbCircle
 10
509.9560682291529
 20
621.8069821702852
 30
0.0
 40
4.0
100
AcDbArc
 50
0.0
 51
82.81924700000343
  0
ARC
  5
298E
330
2C97
100
AcDbEntity
  8
AM_0
100
AcDbCircle
 10
509.9560682291529
 20
656.0335121702856
 30
0.0
 40
3.0
100
AcDbArc
 50
120.0000000000005
 51
180.0000100000009
  0
ARC
  5
298F
330
2C97
100
AcDbEntity
  8
AM_0
100
AcDbCircle
 10
510.9560382291529
 20
663.5390621702856
 30
0.0
 40
3.0
100
AcDbArc
 50
300.0000100000008
 51
0.0
  0
LINE
  5
2990
330
2C97
100
AcDbEntity
  8
AM_0
100
AcDbLine
 10
508.4560082291529
 20
658.6315921702852
 30
0.0
 11
512.4560082291528
 21
660.9409821702852
 31
0.0
  0
LINE
  5
2991
330
2C97
100
AcDbEntity
  8
AM_0
100
AcDbLine
 10
517.9560682291528
 20
673.3070121702856
 30
0.0
 11
513.9560382291529
 21
673.3070121702856
 31
0.0
  0
POLYLINE
  5
2992
330
2C97
100
AcDbEntity
  8
AM_0
100
AcDb2dPolyline
 66
     1
 10
0.0
 20
0.0
 30
0.0
  0
VERTEX
  5
2993
330
2992
100
AcDbEntity
  8
AM_0
100
AcDbVertex
100
AcDb2dVertex
 10
400.9560082291529
 20
721.0834421702855
 30
0.0
 42
0.070055572
  0
VERTEX
  5
2994
330
2992
100
AcDbEntity
  8
AM_0
100
AcDbVertex
100
AcDb2dVertex
 10
427.3166582291529
 20
741.2807721702852
 30
0.0
 42
0.27110574
  0
VERTEX
  5
2995
330
2992
100
AcDbEntity
  8
AM_0
100
AcDbVertex
100
AcDb2dVertex
 10
435.9560082291529
 20
761.1641221702852
 30
0.0
 42
0.21303201
  0
VERTEX
  5
2996
330
2992
100
AcDbEntity
  8
AM_0
100
AcDbVertex
100
AcDb2dVertex
 10
416.3655682291529
 20
779.2989121702852
 30
0.0
  0
VERTEX
  5
2997
330
2992
100
AcDbEntity
  8
AM_0
100
AcDbVertex
100
AcDb2dVertex
 10
400.9560082291529
 20
785.5971721702855
 30
0.0
 42
-1.0
  0
SEQEND
  5
2998
330
2992
100
AcDbEntity
  8
AM_0
  0
POLYLINE
  5
2999
330
2C97
100
AcDbEntity
  8
AM_0
100
AcDb2dPolyline
 66
     1
 10
0.0
 20
0.0
 30
0.0
  0
VERTEX
  5
299A
330
2999
100
AcDbEntity
  8
AM_0
100
AcDbVertex
100
AcDb2dVertex
 10
400.9560082291529
 20
768.2237621702852
 30
0.0
 42
-0.040442893
  0
VERTEX
  5
299B
330
2999
100
AcDbEntity
  8
AM_0
100
AcDbVertex
100
AcDb2dVertex
 10
412.4841782291529
 20
768.0004121702856
 30
0.0
 42
-0.042469915
  0
VERTEX
  5
299C
330
2999
100
AcDbEntity
  8
AM_0
100
AcDbVertex
100
AcDb2dVertex
 10
423.8178882291529
 20
765.8869321702852
 30
0.0
 42
-0.022671767
  0
VERTEX
  5
299D
330
2999
100
AcDbEntity
  8
AM_0
100
AcDbVertex
100
AcDb2dVertex
 10
429.3023682291527
 20
764.095992170285
 30
0.0
  0
VERTEX
  5
299E
330
2999
100
AcDbEntity
  8
AM_0
100
AcDbVertex
100
AcDb2dVertex
 10
434.6079882291529
 20
761.8271621702855
 30
0.0
 42
-1.0
  0
SEQEND
  5
299F
330
2999
100
AcDbEntity
  8
AM_0
  0
LINE
  5
29A0
330
2C97
100
AcDbEntity
  8
AM_0
100
AcDbLine
 10
406.9560682291529
 20
805.8069521702851
 30
0.0
 11
510.0956582291528
 21
802.2052621702851
 31
0.0
  0
ARC
  5
29A1
330
2C97
100
AcDbEntity
  8
AM_0
100
AcDbCircle
 10
387.9932382291528
 20
787.7280921702852
 30
0.0
 40
3.0
100
AcDbArc
 50
270.0
 51
353.6137000000032
  0
CIRCLE
  5
29A2
330
2C97
100
AcDbEntity
  8
AM_0
100
AcDbCircle
 10
370.9560082291529
 20
785.8069521702855
 30
0.0
 40
7.5
  0
LINE
  5
29A3
330
2C97
100
AcDbEntity
  8
AM_0
100
AcDbLine
 10
390.9560082291529
 20
787.0607321702855
 30
0.0
 11
390.9560082291529
 21
776.6970221702852
 31
0.0
  0
LINE
  5
29A4
330
2C97
100
AcDbEntity
  8
ﾁｭｳｼﾝｾﾝ1
100
AcDbLine
 10
370.9560082291529
 20
772.3069521702852
 30
0.0
 11
370.9560082291529
 21
799.3069521702855
 31
0.0
  0
LINE
  5
29A5
330
2C97
100
AcDbEntity
  8
AM_0
100
AcDbLine
 10
352.9560082291529
 20
773.3455221702852
 30
0.0
 11
352.9560082291529
 21
797.4172421702855
 31
0.0
  0
LINE
  5
29A6
330
2C97
100
AcDbEntity
  8
AM_0
100
AcDbLine
 10
344.4560082291529
 20
730.2816821702855
 30
0.0
 11
378.9560082291529
 21
730.2816821702855
 31
0.0
  0
LINE
  5
29A7
330
2C97
100
AcDbEntity
  8
AM_0
100
AcDbLine
 10
400.9560082291529
 20
721.0834421702855
 30
0.0
 11
390.9560082291529
 21
721.0834421702855
 31
0.0
  0
LINE
  5
29A8
330
2C97
100
AcDbEntity
  8
AM_0
100
AcDbLine
 10
344.4560682291529
 20
764.3069521702855
 30
0.0
 11
376.0607482291528
 21
765.4105821702852
 31
0.0
  0
LINE
  5
29A9
330
2C97
100
AcDbEntity
  8
AM_0
100
AcDbLine
 10
344.4560082291529
 20
752.3856221702855
 30
0.0
 11
378.9560082291529
 21
752.3856221702855
 31
0.0
  0
LINE
  5
29AA
330
2C97
100
AcDbEntity
  8
ﾁｭｳｼﾝｾﾝ1
100
AcDbLine
 10
357.4560082291529
 20
785.8069521702855
 30
0.0
 11
384.4560082291529
 21
785.8069521702855
 31
0.0
  0
LINE
  5
29AB
330
2C97
100
AcDbEntity
  8
AM_0
100
AcDbLine
 10
355.9207882291528
 20
769.4818121702856
 30
0.0
 11
371.6850782291529
 21
765.2578121702855
 31
0.0
  0
ARC
  5
29AC
330
2C97
100
AcDbEntity
  8
AM_0
100
AcDbCircle
 10
356.9560082291529
 20
773.3455221702852
 30
0.0
 40
4.0
100
AcDbArc
 50
180.0000100000009
 51
254.999990000005
  0
ARC
  5
29AD
330
2C97
100
AcDbEntity
  8
AM_0
100
AcDbCircle
 10
387.9560082291529
 20
755.8792121702855
 30
0.0
 40
3.0
100
AcDbArc
 50
0.0
 51
90.00000299999769
  0
LINE
  5
29AE
330
2C97
100
AcDbEntity
  8
AM_0
100
AcDbLine
 10
378.9560082291529
 20
748.1245721702855
 30
0.0
 11
390.9560082291529
 21
748.1245721702855
 31
0.0
  0
LINE
  5
29AF
330
2C97
100
AcDbEntity
  8
AM_0
100
AcDbLine
 10
378.9560082291529
 20
758.8792121702855
 30
0.0
 11
387.9560082291529
 21
758.8792121702855
 31
0.0
  0
ARC
  5
29B0
330
2C97
100
AcDbEntity
  8
AM_0
100
AcDbCircle
 10
387.9560082291529
 20
776.6970221702852
 30
0.0
 40
3.0
100
AcDbArc
 50
270.0
 51
0.0
  0
LINE
  5
29B1
330
2C97
100
AcDbEntity
  8
AM_0
100
AcDbLine
 10
400.9560082291529
 20
785.5971721702855
 30
0.0
 11
390.9560082291529
 21
785.5971721702855
 31
0.0
  0
LINE
  5
29B2
330
2C97
100
AcDbEntity
  8
AM_0
100
AcDbLine
 10
400.9560082291529
 20
768.2237621702852
 30
0.0
 11
378.9560082291529
 21
768.2237621702852
 31
0.0
  0
ARC
  5
29B3
330
2C97
100
AcDbEntity
  8
AM_0
100
AcDbCircle
 10
381.9560082291529
 20
770.6970221702852
 30
0.0
 40
3.0
100
AcDbArc
 50
90.00000299999769
 51
180.0000100000009
  0
ARC
  5
29B4
330
2C97
100
AcDbEntity
  8
AM_0
100
AcDbCircle
 10
375.9560082291529
 20
768.4088121702854
 30
0.0
 40
3.0
100
AcDbArc
 50
272.0000000000037
 51
0.0
  0
LINE
  5
29B5
330
2C97
100
AcDbEntity
  8
AM_0
100
AcDbLine
 10
381.9560082291529
 20
773.6970221702851
 30
0.0
 11
387.9560082291529
 21
773.6970221702851
 31
0.0
  0
LINE
  5
29B6
330
2C97
100
AcDbEntity
  8
AM_0
100
AcDbLine
 10
381.9560082291529
 20
784.7280921702852
 30
0.0
 11
387.9932382291528
 21
784.7280921702852
 31
0.0
  0
ARC
  5
29B7
330
2C97
100
AcDbEntity
  8
AM_0
100
AcDbCircle
 10
381.9560082291529
 20
781.7280921702852
 30
0.0
 40
3.0
100
AcDbArc
 50
90.00000299999769
 51
180.0000100000009
  0
LINE
  5
29B8
330
2C97
100
AcDbEntity
  8
AM_0
100
AcDbLine
 10
356.6074382291528
 20
801.4020421702856
 30
0.0
 11
406.9560682291529
 21
805.8070121702856
 31
0.0
  0
ARC
  5
29B9
330
2C97
100
AcDbEntity
  8
AM_0
100
AcDbCircle
 10
356.9560082291529
 20
797.4172421702855
 30
0.0
 40
4.0
100
AcDbArc
 50
95.00000199999858
 51
180.0000100000009
  0
ARC
  5
29BA
330
2C97
100
AcDbEntity
  8
AM_0
100
AcDbCircle
 10
393.9560082291529
 20
787.0607321702855
 30
0.0
 40
3.0
100
AcDbArc
 50
91.99999800000055
 51
180.0000100000009
  0
ARC
  5
29BB
330
2C97
100
AcDbEntity
  8
AM_0
100
AcDbCircle
 10
391.9560082291529
 20
801.4832221702855
 30
0.0
 40
3.0
100
AcDbArc
 50
95.00000199999858
 51
275.0
  0
ARC
  5
29BC
330
2C97
100
AcDbEntity
  8
AM_0
100
AcDbCircle
 10
400.9560082291529
 20
795.2438421702852
 30
0.0
 40
4.0
100
AcDbArc
 50
0.0
 51
95.00000199999858
  0
LINE
  5
29BD
330
2C97
100
AcDbEntity
  8
AM_0
100
AcDbLine
 10
404.9560082291529
 20
790.3069521702855
 30
0.0
 11
404.9560082291529
 21
800.1754821702855
 31
0.0
  0
LINE
  5
29BE
330
2C97
100
AcDbEntity
  8
AM_0
100
AcDbLine
 10
392.2175482291529
 20
798.4946321702855
 30
0.0
 11
400.6074382291529
 21
799.2286421702855
 31
0.0
  0
LINE
  5
29BF
330
2C97
100
AcDbEntity
  8
AM_0
100
AcDbLine
 10
393.851338229153
 20
790.0589021702851
 30
0.0
 11
400.9560082291529
 21
790.3069521702855
 31
0.0
  0
LINE
  5
29C0
330
2C97
100
AcDbEntity
  8
AM_0
100
AcDbLine
 10
400.9560082291529
 20
790.3069521702855
 30
0.0
 11
404.9560082291529
 21
790.3069521702855
 31
0.0
  0
ARC
  5
29C1
330
2C97
100
AcDbEntity
  8
AM_0
100
AcDbCircle
 10
399.9560082291529
 20
800.1754821702855
 30
0.0
 40
5.0
100
AcDbArc
 50
0.0
 51
95.00000199999858
  0
CIRCLE
  5
29C2
330
2C97
100
AcDbEntity
  8
AM_0
100
AcDbCircle
 10
495.9560682291528
 20
785.8069521702855
 30
0.0
 40
7.5
  0
LINE
  5
29C3
330
2C97
100
AcDbEntity
  8
AM_0
100
AcDbLine
 10
465.9560382291529
 20
780.0205721702852
 30
0.0
 11
465.9560382291529
 21
795.4624021702856
 31
0.0
  0
LINE
  5
29C4
330
2C97
100
AcDbEntity
  8
ﾁｭｳｼﾝｾﾝ1
100
AcDbLine
 10
495.9560682291528
 20
772.3069521702852
 30
0.0
 11
495.9560682291528
 21
799.3069521702855
 31
0.0
  0
LINE
  5
29C5
330
2C97
100
AcDbEntity
  8
AM_0
100
AcDbLine
 10
513.9560682291528
 20
759.8069521702852
 30
0.0
 11
513.9560682291528
 21
798.2077021702855
 31
0.0
  0
ARC
  5
29C6
330
2C97
100
AcDbEntity
  8
AM_0
100
AcDbCircle
 10
477.9560382291529
 20
780.0205721702852
 30
0.0
 40
12.0
100
AcDbArc
 50
180.0000100000009
 51
268.5000000000038
  0
ARC
  5
29C7
330
2C97
100
AcDbEntity
  8
AM_0
100
AcDbCircle
 10
509.9560682291529
 20
725.5805121702856
 30
0.0
 40
3.0
100
AcDbArc
 50
179.9999899999988
 51
240.0000099999997
  0
LINE
  5
29C8
330
2C97
100
AcDbEntity
  8
AM_0
100
AcDbLine
 10
513.9560382291529
 20
690.8069521702855
 30
0.0
 11
513.9560382291529
 21
718.0749521702856
 31
0.0
  0
LINE
  5
29C9
330
2C97
100
AcDbEntity
  8
AM_0
100
AcDbLine
 10
517.9560682291528
 20
708.3070121702855
 30
0.0
 11
513.9560382291529
 21
708.3070121702855
 31
0.0
  0
ARC
  5
29CA
330
2C97
100
AcDbEntity
  8
AM_0
100
AcDbCircle
 10
530.9560382291529
 20
690.8069521702855
 30
0.0
 40
4.9999924
100
AcDbArc
 50
90.00000299999769
 51
270.0
  0
LINE
  5
29CB
330
2C97
100
AcDbEntity
  8
AM_0
100
AcDbLine
 10
530.9560682291528
 20
685.8070121702856
 30
0.0
 11
530.9560682291528
 21
695.8069521702855
 31
0.0
  0
LINE
  5
29CC
330
2C97
100
AcDbEntity
  8
AM_0
100
AcDbLine
 10
508.4560382291528
 20
722.9824221702855
 30
0.0
 11
512.4560082291528
 21
720.6730421702855
 31
0.0
  0
ARC
  5
29CD
330
2C97
100
AcDbEntity
  8
AM_0
100
AcDbCircle
 10
510.9560382291529
 20
718.0749521702856
 30
0.0
 40
3.0
100
AcDbArc
 50
0.0
 51
60.0000020000013
  0
ARC
  5
29CE
330
2C97
100
AcDbEntity
  8
AM_0
100
AcDbCircle
 10
510.9560682291529
 20
751.8696921702851
 30
0.0
 40
4.0
100
AcDbArc
 50
97.18075800000082
 51
180.0000100000009
  0
LINE
  5
29CF
330
2C97
100
AcDbEntity
  8
ﾁｭｳｼﾝｾﾝ1
100
AcDbLine
 10
482.4560682291529
 20
785.8069521702855
 30
0.0
 11
509.4560682291528
 21
785.8069521702855
 31
0.0
  0
ARC
  5
29D0
330
2C97
100
AcDbEntity
  8
AM_0
100
AcDbCircle
 10
493.4082782291529
 20
764.1644921702851
 30
0.0
 40
8.0
100
AcDbArc
 50
195.0357999999969
 51
268.5000000000038
  0
ARC
  5
29D1
330
2C97
100
AcDbEntity
  8
AM_0
100
AcDbCircle
 10
477.9560682291529
 20
760.0137321702852
 30
0.0
 40
8.0
100
AcDbArc
 50
0.0
 51
88.49999700000065
  0
LINE
  5
29D2
330
2C97
100
AcDbEntity
  8
AM_0
100
AcDbLine
 10
503.0607482291528
 20
755.9090021702851
 30
0.0
 11
493.1988682291528
 21
756.1672421702851
 31
0.0
  0
ARC
  5
29D3
330
2C97
100
AcDbEntity
  8
AM_0
100
AcDbCircle
 10
502.9560682291529
 20
751.9103421702855
 30
0.0
 40
4.0
100
AcDbArc
 50
0.0
 51
88.49999700000065
  0
LINE
  5
29D4
330
2C97
100
AcDbEntity
  8
AM_0
100
AcDbLine
 10
478.1654782291528
 20
768.0109921702855
 30
0.0
 11
477.6419182291529
 21
768.0247221702851
 31
0.0
  0
ARC
  5
29D5
330
2C97
100
AcDbEntity
  8
AM_0
100
AcDbCircle
 10
509.9560682291529
 20
759.8069521702852
 30
0.0
 40
4.0
100
AcDbArc
 50
277.1807500000036
 51
0.0
  0
ARC
  5
29D6
330
2C97
100
AcDbEntity
  8
AM_0
100
AcDbCircle
 10
473.9560382291529
 20
795.4624021702856
 30
0.0
 40
8.0
100
AcDbArc
 50
87.99999999999625
 51
180.0000100000009
  0
ARC
  5
29D7
330
2C97
100
AcDbEntity
  8
AM_0
100
AcDbCircle
 10
509.9560682291529
 20
798.2077021702855
 30
0.0
 40
4.0
100
AcDbArc
 50
0.0
 51
87.99999999999625
  0
LINE
  5
29D8
330
2C97
100
AcDbEntity
  8
AM_0
100
AcDbLine
 10
575.9560382291529
 20
674.8070121702856
 30
0.0
 11
575.9560382291529
 21
706.8069521702855
 31
0.0
  0
TEXT
  5
2BBA
330
2C97
100
AcDbEntity
  8
AM_0
100
AcDbText
 10
684.5255531290972
 20
690.5708861839692
 30
0.0
 40
15.0
  1
VX15-040G~VX15-050G
100
AcDbText
  0
LINE
  5
2DB7
330
2C97
100
AcDbEntity
  8
AM_0
100
AcDbLine
 10
195.4560282291531
 20
389.1254696206214
 30
0.0
 11
223.4560282291532
 21
389.1254696206214
 31
0.0
  0
ENDSEC
  0
SECTION
  2
OBJECTS
  0
DICTIONARY
  5
2C34
330
0
100
AcDbDictionary
281
     1
  3
ACAD_CIP_PREVIOUS_PRODUCT_INFO
350
2D4D
  3
ACAD_COLOR
350
2C8A
  3
ACAD_DETAILVIEWSTYLE
350
2C91
  3
ACAD_FIELDLIST
350
2D97
  3
ACAD_GROUP
350
2C35
  3
ACAD_LAYOUT
350
2C89
  3
ACAD_MATERIAL
350
2C38
  3
ACAD_MLEADERSTYLE
350
2C8D
  3
ACAD_MLINESTYLE
350
2C86
  3
ACAD_PLOTSETTINGS
350
2C88
  3
ACAD_PLOTSTYLENAME
350
2C36
  3
ACAD_SCALELIST
350
2C6A
  3
ACAD_SECTIONVIEWSTYLE
350
2C8F
  3
ACAD_TABLESTYLE
350
2C8B
  3
ACAD_VISUALSTYLE
350
2C51
  3
ACDB_RECOMPOSE_DATA
350
2FE8
  3
AcDbVariableDictionary
350
2E75
  3
AcmDictionary
350
2D73
  3
AMG
350
2D4E
  3
AMGSNAPSETTINGS
350
2DA8
  0
DICTIONARY
  5
2E6F
330
2C2A
100
AcDbDictionary
280
     1
281
     1
  3
ACAD_LAYERSTATES
360
2E70
  0
DICTIONARY
  5
2E62
330
2C7C
100
AcDbDictionary
280
     1
281
     1
  3
ADSK_XREC_LAYER_RECONCILED
360
2E63
  0
DICTIONARY
  5
2E64
330
2C9B
100
AcDbDictionary
280
     1
281
     1
  3
ADSK_XREC_LAYER_RECONCILED
360
2E65
  0
DICTIONARY
  5
2E66
330
2CB5
100
AcDbDictionary
280
     1
281
     1
  3
ADSK_XREC_LAYER_RECONCILED
360
2E67
  0
DICTIONARY
  5
2E68
330
2CB7
100
AcDbDictionary
280
     1
281
     1
  3
ADSK_XREC_LAYER_RECONCILED
360
2E69
  0
DICTIONARY
  5
2E6A
330
2CB8
100
AcDbDictionary
280
     1
281
     1
  3
ADSK_XREC_LAYER_RECONCILED
360
2E6B
  0
XRECORD
  5
2D4D
102
{ACAD_REACTORS
330
2C34
102
}
330
2C34
100
AcDbXrecord
280
     1
300
AMECH_PP
300
2019
300

  0
DICTIONARY
  5
2C8A
102
{ACAD_REACTORS
330
2C34
102
}
330
2C34
100
AcDbDictionary
281
     1
  0
DICTIONARY
  5
2C91
102
{ACAD_REACTORS
330
2C34
102
}
330
2C34
100
AcDbDictionary
281
     1
  3
Imperial24
350
2C92
  0
FIELDLIST
  5
2D97
102
{ACAD_REACTORS
330
2C34
102
}
330
2C34
100
AcDbIdSet
 90
        8
330
2FA7
330
2FA8
330
2FA9
330
2FAA
330
2FAE
330
2FAF
330
2FB0
330
2FB1
100
AcDbFieldList
  0
DICTIONARY
  5
2C35
102
{ACAD_REACTORS
330
2C34
102
}
330
2C34
100
AcDbDictionary
281
     1
  0
DICTIONARY
  5
2C89
102
{ACAD_REACTORS
330
2C34
102
}
330
2C34
100
AcDbDictionary
281
     1
  3
Model
350
2C9A
  3
レイアウト1
350
2C96
  0
DICTIONARY
  5
2C38
102
{ACAD_REACTORS
330
2C34
102
}
330
2C34
100
AcDbDictionary
281
     1
  3
ByBlock
350
2C41
  3
ByLayer
350
2C39
  3
Global
350
2C49
  0
DICTIONARY
  5
2C8D
102
{ACAD_REACTORS
330
2C34
102
}
330
2C34
100
AcDbDictionary
281
     1
  3
Standard
350
2C8E
  0
DICTIONARY
  5
2C86
102
{ACAD_REACTORS
330
2C34
102
}
330
2C34
100
AcDbDictionary
281
     1
  3
Standard
350
2C87
  0
DICTIONARY
  5
2C88
102
{ACAD_REACTORS
330
2C34
102
}
330
2C34
100
AcDbDictionary
281
     1
  0
ACDBDICTIONARYWDFLT
  5
2C36
102
{ACAD_REACTORS
330
2C34
102
}
330
2C34
100
AcDbDictionary
281
     1
  3
Normal
350
2C37
100
AcDbDictionaryWithDefault
340
2C37
  0
DICTIONARY
  5
2C6A
102
{ACAD_REACTORS
330
2C34
102
}
330
2C34
100
AcDbDictionary
281
     1
  3
A0
350
2C6B
  3
A1
350
2C6C
  3
A2
350
2C6D
  3
A3
350
2C6E
  3
A4
350
2C6F
  3
A5
350
2C70
  3
A6
350
2C71
  3
A7
350
2C72
  3
A8
350
2C73
  3
A9
350
2C74
  3
B0
350
2C75
  3
B1
350
2C76
  3
B2
350
2C77
  3
B3
350
2C78
  3
B4
350
2C79
  3
B5
350
2C7A
  3
B6
350
2C7B
  0
DICTIONARY
  5
2C8F
102
{ACAD_REACTORS
330
2C34
102
}
330
2C34
100
AcDbDictionary
281
     1
  3
Imperial24
350
2C90
  0
DICTIONARY
  5
2C8B
102
{ACAD_REACTORS
330
2C34
102
}
330
2C34
100
AcDbDictionary
281
     1
  3
Standard
350
2C8C
  0
DICTIONARY
  5
2C51
102
{ACAD_REACTORS
330
2C34
102
}
330
2C34
100
AcDbDictionary
281
     1
  3
2dWireframe
350
2C57
  3
Basic
350
2C56
  3
Brighten
350
2C5D
  3
ColorChange
350
2C61
  3
Conceptual
350
2C5A
  3
Dim
350
2C5C
  3
EdgeColorOff
350
2C69
  3
Facepattern
350
2C60
  3
Flat
350
2C52
  3
FlatWithEdges
350
2C53
  3
Gouraud
350
2C54
  3
GouraudWithEdges
350
2C55
  3
Hidden
350
2C59
  3
JitterOff
350
2C67
  3
Linepattern
350
2C5F
  3
OverhangOff
350
2C68
  3
Realistic
350
2C5B
  3
Shaded
350
2C66
  3
Shaded with edges
350
2C65
  3
Shades of Gray
350
2C62
  3
Sketchy
350
2C63
  3
Thicken
350
2C5E
  3
Wireframe
350
2C58
  3
X-Ray
350
2C64
  0
XRECORD
  5
2FE8
102
{ACAD_REACTORS
330
2C34
102
}
330
2C34
100
AcDbXrecord
280
     1
 90
        1
330
2C8C
  0
DICTIONARY
  5
2E75
102
{ACAD_REACTORS
330
2C34
102
}
330
2C34
100
AcDbDictionary
281
     1
  3
CANNOSCALE
350
2E7B
  3
CMLEADERSTYLE
350
2E77
  3
CTABLESTYLE
350
2E76
  3
CVIEWDETAILSTYLE
350
2E78
  3
CVIEWSECTIONSTYLE
350
2E79
  3
LAYEREVAL
350
2E7D
  3
LAYERNOTIFY
350
2E7E
  3
LIGHTINGUNITS
350
2E7C
  3
MSLTSCALE
350
2E7A
  0
DICTIONARY
  5
2D73
102
{ACAD_REACTORS
330
2C34
102
}
330
2C34
100
AcDbDictionary
281
     1
  3
AcmStdDictionary
350
2D7C
  0
DICTIONARY
  5
2D4E
102
{ACAD_REACTORS
330
2C34
102
}
330
2C34
100
AcDbDictionary
281
     1
  0
DICTIONARY
  5
2DA8
102
{ACAD_REACTORS
330
2C34
102
}
330
2C34
100
AcDbDictionary
281
     1
  0
DICTIONARY
  5
2E70
102
{ACAD_REACTORS
330
2E6F
102
}
330
2E6F
100
AcDbDictionary
281
     1
  0
XRECORD
  5
2E63
102
{ACAD_REACTORS
330
2E62
102
}
330
2E62
100
AcDbXrecord
280
     1
290
     1
  0
XRECORD
  5
2E65
102
{ACAD_REACTORS
330
2E64
102
}
330
2E64
100
AcDbXrecord
280
     1
290
     1
  0
XRECORD
  5
2E67
102
{ACAD_REACTORS
330
2E66
102
}
330
2E66
100
AcDbXrecord
280
     1
290
     1
  0
XRECORD
  5
2E69
102
{ACAD_REACTORS
330
2E68
102
}
330
2E68
100
AcDbXrecord
280
     1
290
     1
  0
XRECORD
  5
2E6B
102
{ACAD_REACTORS
330
2E6A
102
}
330
2E6A
100
AcDbXrecord
280
     1
290
     1
  0
ACDBDETAILVIEWSTYLE
  5
2C92
102
{ACAD_XDICTIONARY
360
301B
102
}
102
{ACAD_REACTORS
330
2C91
330
2FA2
102
}
330
2C91
100
AcDbModelDocViewStyle
 70
     0
  3
Imperial24
290
     0
100
AcDbDetailViewStyle
 70
     0
 71
     0
 90
        3
 71
     1
340
2C7D
 62
   256
 40
0.24
340
0
 62
   256
 40
0.24
300

 40
0.36
280
     3
 71
     2
340
2C84
 90
       25
 62
   256
 71
     3
340
2C7D
 62
   256
 40
0.24
 90
        1
 40
0.75
 90
        1
300
%<\AcVar ViewType \f "%tc1">% %<\AcVar ViewDetailId>%\PSCALE %<\AcVar ViewScale \f "%sn">%
 71
     4
340
2C84
 90
       25
 62
   256
340
2C84
 90
       25
 62
   256
280
     0
  0
LAYOUT
  5
2C9A
102
{ACAD_REACTORS
330
2C89
102
}
330
2C89
100
AcDbPlotSettings
  1

  2
JUST PDF 3
  4

  6

 40
0.0
 41
0.0
 42
0.0
 43
0.0
 44
0.0
 45
0.0
 46
0.0
 47
0.0
 48
0.0
 49
0.0
140
0.0
141
0.0
142
1.0
143
1.0
 70
  1712
 72
     0
 73
     0
 74
     0
  7

 75
     0
147
1.0
 76
     0
 77
     2
 78
   300
148
0.0
149
0.0
100
AcDbLayout
  1
Model
 70
     1
 71
     0
 10
0.0
 20
0.0
 11
12.0
 21
9.0
 12
0.0
 22
0.0
 32
0.0
 14
0.0
 24
0.0
 34
0.0
 15
0.0
 25
0.0
 35
0.0
146
0.0
 13
0.0
 23
0.0
 33
0.0
 16
1.0
 26
0.0
 36
0.0
 17
0.0
 27
1.0
 37
0.0
 76
     0
330
2C97
331
2C9C
  0
LAYOUT
  5
2C96
102
{ACAD_REACTORS
330
2C89
102
}
330
2C89
100
AcDbPlotSettings
  1

  2
JUST PDF 3
  4

  6

 40
0.0
 41
0.0
 42
0.0
 43
0.0
 44
0.0
 45
0.0
 46
0.0
 47
0.0
 48
0.0
 49
0.0
140
0.0
141
0.0
142
1.0
143
1.0
 70
   688
 72
     0
 73
     0
 74
     5
  7

 75
    16
147
1.0
 76
     0
 77
     2
 78
   300
148
0.0
149
0.0
100
AcDbLayout
  1
レイアウト1
 70
     1
 71
     1
 10
0.0
 20
0.0
 11
420.0
 21
297.0
 12
0.0
 22
0.0
 32
0.0
 14
1.000000000000000E+20
 24
1.000000000000000E+20
 34
1.000000000000000E+20
 15
-1.000000000000000E+20
 25
-1.000000000000000E+20
 35
-1.000000000000000E+20
146
0.0
 13
0.0
 23
0.0
 33
0.0
 16
1.0
 26
0.0
 36
0.0
 17
0.0
 27
1.0
 37
0.0
 76
     0
330
2C93
  0
MATERIAL
  5
2C41
102
{ACAD_XDICTIONARY
360
2C42
102
}
102
{ACAD_REACTORS
330
2C38
102
}
330
2C38
100
AcDbMaterial
  1
ByBlock
 72
     0
 43
0.0208333333333333
 43
0.0
 43
0.0
 43
0.0
 43
0.0
 43
0.0208333333333333
 43
0.0
 43
0.0
 43
0.0
 43
0.0
 43
1.0
 43
0.0
 43
0.0
 43
0.0
 43
0.0
 43
1.0
 77
     0
 47
0.0208333333333333
 47
0.0
 47
0.0
 47
0.0
 47
0.0
 47
0.0208333333333333
 47
0.0
 47
0.0
 47
0.0
 47
0.0
 47
1.0
 47
0.0
 47
0.0
 47
0.0
 47
0.0
 47
1.0
171
     0
 49
0.0208333333333333
 49
0.0
 49
0.0
 49
0.0
 49
0.0
 49
0.0208333333333333
 49
0.0
 49
0.0
 49
0.0
 49
0.0
 49
1.0
 49
0.0
 49
0.0
 49
0.0
 49
0.0
 49
1.0
175
     0
142
0.0208333333333333
142
0.0
142
0.0
142
0.0
142
0.0
142
0.0208333333333333
142
0.0
142
0.0
142
0.0
142
0.0
142
1.0
142
0.0
142
0.0
142
0.0
142
0.0
142
1.0
179
     0
144
0.0208333333333333
144
0.0
144
0.0
144
0.0
144
0.0
144
0.0208333333333333
144
0.0
144
0.0
144
0.0
144
0.0
144
1.0
144
0.0
144
0.0
144
0.0
144
0.0
144
1.0
147
0.0208333333333333
147
0.0
147
0.0
147
0.0
147
0.0
147
0.0208333333333333
147
0.0
147
0.0
147
0.0
147
0.0
147
1.0
147
0.0
147
0.0
147
0.0
147
0.0
147
1.0
  0
MATERIAL
  5
2C39
102
{ACAD_XDICTIONARY
360
2C3A
102
}
102
{ACAD_REACTORS
330
2C38
102
}
330
2C38
100
AcDbMaterial
  1
ByLayer
 72
     0
 43
0.0208333333333333
 43
0.0
 43
0.0
 43
0.0
 43
0.0
 43
0.0208333333333333
 43
0.0
 43
0.0
 43
0.0
 43
0.0
 43
1.0
 43
0.0
 43
0.0
 43
0.0
 43
0.0
 43
1.0
 77
     0
 47
0.0208333333333333
 47
0.0
 47
0.0
 47
0.0
 47
0.0
 47
0.0208333333333333
 47
0.0
 47
0.0
 47
0.0
 47
0.0
 47
1.0
 47
0.0
 47
0.0
 47
0.0
 47
0.0
 47
1.0
171
     0
 49
0.0208333333333333
 49
0.0
 49
0.0
 49
0.0
 49
0.0
 49
0.0208333333333333
 49
0.0
 49
0.0
 49
0.0
 49
0.0
 49
1.0
 49
0.0
 49
0.0
 49
0.0
 49
0.0
 49
1.0
175
     0
142
0.0208333333333333
142
0.0
142
0.0
142
0.0
142
0.0
142
0.0208333333333333
142
0.0
142
0.0
142
0.0
142
0.0
142
1.0
142
0.0
142
0.0
142
0.0
142
0.0
142
1.0
179
     0
144
0.0208333333333333
144
0.0
144
0.0
144
0.0
144
0.0
144
0.0208333333333333
144
0.0
144
0.0
144
0.0
144
0.0
144
1.0
144
0.0
144
0.0
144
0.0
144
0.0
144
1.0
147
0.0208333333333333
147
0.0
147
0.0
147
0.0
147
0.0
147
0.0208333333333333
147
0.0
147
0.0
147
0.0
147
0.0
147
1.0
147
0.0
147
0.0
147
0.0
147
0.0
147
1.0
  0
MATERIAL
  5
2C49
102
{ACAD_XDICTIONARY
360
2C4A
102
}
102
{ACAD_REACTORS
330
2C38
102
}
330
2C38
100
AcDbMaterial
  1
Global
 72
     0
 43
0.0208333333333333
 43
0.0
 43
0.0
 43
0.0
 43
0.0
 43
0.0208333333333333
 43
0.0
 43
0.0
 43
0.0
 43
0.0
 43
1.0
 43
0.0
 43
0.0
 43
0.0
 43
0.0
 43
1.0
 77
     0
 47
0.0208333333333333
 47
0.0
 47
0.0
 47
0.0
 47
0.0
 47
0.0208333333333333
 47
0.0
 47
0.0
 47
0.0
 47
0.0
 47
1.0
 47
0.0
 47
0.0
 47
0.0
 47
0.0
 47
1.0
171
     0
 49
0.0208333333333333
 49
0.0
 49
0.0
 49
0.0
 49
0.0
 49
0.0208333333333333
 49
0.0
 49
0.0
 49
0.0
 49
0.0
 49
1.0
 49
0.0
 49
0.0
 49
0.0
 49
0.0
 49
1.0
175
     0
142
0.0208333333333333
142
0.0
142
0.0
142
0.0
142
0.0
142
0.0208333333333333
142
0.0
142
0.0
142
0.0
142
0.0
142
1.0
142
0.0
142
0.0
142
0.0
142
0.0
142
1.0
179
     0
144
0.0208333333333333
144
0.0
144
0.0
144
0.0
144
0.0
144
0.0208333333333333
144
0.0
144
0.0
144
0.0
144
0.0
144
1.0
144
0.0
144
0.0
144
0.0
144
0.0
144
1.0
147
0.0208333333333333
147
0.0
147
0.0
147
0.0
147
0.0
147
0.0208333333333333
147
0.0
147
0.0
147
0.0
147
0.0
147
1.0
147
0.0
147
0.0
147
0.0
147
0.0
147
1.0
  0
MLEADERSTYLE
  5
2C8E
102
{ACAD_REACTORS
330
2C8D
102
}
330
2C8D
100
AcDbMLeaderStyle
179
     2
170
     2
171
     1
172
     0
 90
        2
 40
0.0
 41
0.0
173
     1
 91
-1056964608
340
2C82
 92
       -2
290
     1
 42
0.09
291
     1
 43
0.36
  3
Standard
 44
0.18
300

342
2C7D
174
     1
178
     6
175
     1
176
     0
 93
-1056964608
 45
0.18
292
     0
297
     0
 46
0.18
 94
-1056964608
 47
1.0
 49
1.0
140
1.0
293
     1
141
0.0
294
     1
177
     0
142
1.0
295
     0
296
     0
143
0.125
271
     0
272
     9
273
     9
  0
MLINESTYLE
  5
2C87
102
{ACAD_REACTORS
330
2C86
102
}
330
2C86
100
AcDbMlineStyle
  2
STANDARD
 70
     0
  3

 62
   256
 51
90.0
 52
90.0
 71
     2
 49
0.5
 62
   256
  6
BYLAYER
 49
-0.5
 62
   256
  6
BYLAYER
  0
ACDBPLACEHOLDER
  5
2C37
102
{ACAD_REACTORS
330
2C36
102
}
330
2C36
  0
SCALE
  5
2C6B
102
{ACAD_REACTORS
330
2C6A
102
}
330
2C6A
100
AcDbScale
 70
     0
300
1:1
140
1.0
141
1.0
290
     1
  0
SCALE
  5
2C6C
102
{ACAD_REACTORS
330
2C6A
102
}
330
2C6A
100
AcDbScale
 70
     0
300
1/128" = 1'-0"
140
0.0078125
141
12.0
290
     0
  0
SCALE
  5
2C6D
102
{ACAD_REACTORS
330
2C6A
102
}
330
2C6A
100
AcDbScale
 70
     0
300
1/64" = 1'-0"
140
0.015625
141
12.0
290
     0
  0
SCALE
  5
2C6E
102
{ACAD_REACTORS
330
2C6A
102
}
330
2C6A
100
AcDbScale
 70
     0
300
1/32" = 1'-0"
140
0.03125
141
12.0
290
     0
  0
SCALE
  5
2C6F
102
{ACAD_REACTORS
330
2C6A
102
}
330
2C6A
100
AcDbScale
 70
     0
300
1/16" = 1'-0"
140
0.0625
141
12.0
290
     0
  0
SCALE
  5
2C70
102
{ACAD_REACTORS
330
2C6A
102
}
330
2C6A
100
AcDbScale
 70
     0
300
3/32" = 1'-0"
140
0.09375
141
12.0
290
     0
  0
SCALE
  5
2C71
102
{ACAD_REACTORS
330
2C6A
102
}
330
2C6A
100
AcDbScale
 70
     0
300
1/8" = 1'-0"
140
0.125
141
12.0
290
     0
  0
SCALE
  5
2C72
102
{ACAD_REACTORS
330
2C6A
102
}
330
2C6A
100
AcDbScale
 70
     0
300
3/16" = 1'-0"
140
0.1875
141
12.0
290
     0
  0
SCALE
  5
2C73
102
{ACAD_REACTORS
330
2C6A
102
}
330
2C6A
100
AcDbScale
 70
     0
300
1/4" = 1'-0"
140
0.25
141
12.0
290
     0
  0
SCALE
  5
2C74
102
{ACAD_REACTORS
330
2C6A
102
}
330
2C6A
100
AcDbScale
 70
     0
300
3/8" = 1'-0"
140
0.375
141
12.0
290
     0
  0
SCALE
  5
2C75
102
{ACAD_REACTORS
330
2C6A
102
}
330
2C6A
100
AcDbScale
 70
     0
300
1/2" = 1'-0"
140
0.5
141
12.0
290
     0
  0
SCALE
  5
2C76
102
{ACAD_REACTORS
330
2C6A
102
}
330
2C6A
100
AcDbScale
 70
     0
300
3/4" = 1'-0"
140
0.75
141
12.0
290
     0
  0
SCALE
  5
2C77
102
{ACAD_REACTORS
330
2C6A
102
}
330
2C6A
100
AcDbScale
 70
     0
300
1" = 1'-0"
140
1.0
141
12.0
290
     0
  0
SCALE
  5
2C78
102
{ACAD_REACTORS
330
2C6A
102
}
330
2C6A
100
AcDbScale
 70
     0
300
1-1/2" = 1'-0"
140
1.5
141
12.0
290
     0
  0
SCALE
  5
2C79
102
{ACAD_REACTORS
330
2C6A
102
}
330
2C6A
100
AcDbScale
 70
     0
300
3" = 1'-0"
140
3.0
141
12.0
290
     0
  0
SCALE
  5
2C7A
102
{ACAD_REACTORS
330
2C6A
102
}
330
2C6A
100
AcDbScale
 70
     0
300
6" = 1'-0"
140
6.0
141
12.0
290
     0
  0
SCALE
  5
2C7B
102
{ACAD_REACTORS
330
2C6A
102
}
330
2C6A
100
AcDbScale
 70
     0
300
1'-0" = 1'-0"
140
12.0
141
12.0
290
     0
  0
ACDBSECTIONVIEWSTYLE
  5
2C90
102
{ACAD_XDICTIONARY
360
3019
102
}
102
{ACAD_REACTORS
330
2C8F
330
2FA1
102
}
330
2C8F
100
AcDbModelDocViewStyle
 70
     0
  3
Imperial24
290
     0
100
AcDbSectionViewStyle
 70
     0
 71
     0
 90
       78
 71
     1
340
2C7D
 62
   256
 40
0.24
340
0
340
0
 62
   256
 40
0.24
300
I, O, Q, S, X, Z
 40
0.48
 90
        3
 40
0.18
 90
        1
 71
     2
340
2C84
 90
       25
 62
   256
340
2C84
 90
       50
 62
   256
 40
0.24
 40
0.0
 40
0.24
 71
     3
340
2C7D
 62
   256
 40
0.24
 90
        1
 40
0.75
 90
        1
300
%<\AcVar ViewType \f "%tc1">% %<\AcVar ViewSectionStartId>%-%<\AcVar ViewSectionEndId>%\PSCALE %<\AcVar ViewScale \f "%sn">%
 71
     4
 62
   256
 62
   257
300
ANSI31
 40
1.0
 90
        0
290
     0
290
     0
 90
        6
 40
0.0
 40
1.570796326794896
 40
0.2617993877991494
 40
1.308996938995747
 40
-0.2617993877991494
 40
1.832595714594044
  0
TABLESTYLE
  5
2C8C
102
{ACAD_XDICTIONARY
360
2E7F
102
}
102
{ACAD_REACTORS
330
2C8B
102
}
330
2C8B
100
AcDbTableStyle
280
     0
  3
Standard
 70
     0
 71
     0
 40
0.06
 41
0.06
280
     0
281
     0
  7
STANDARD
140
0.18
170
     2
 62
     0
 63
     7
283
     0
 90
      512
 91
        0
  1

274
    -2
284
     1
 64
     0
275
    -2
285
     1
 65
     0
276
    -2
286
     1
 66
     0
277
    -2
287
     1
 67
     0
278
    -2
288
     1
 68
     0
279
    -2
289
     1
 69
     0
  7
STANDARD
140
0.25
170
     5
 62
     0
 63
     7
283
     0
 90
      512
 91
        0
  1

274
    -2
284
     1
 64
     0
275
    -2
285
     1
 65
     0
276
    -2
286
     1
 66
     0
277
    -2
287
     1
 67
     0
278
    -2
288
     1
 68
     0
279
    -2
289
     1
 69
     0
  7
STANDARD
140
0.18
170
     5
 62
     0
 63
     7
283
     0
 90
      512
 91
        0
  1

274
    -2
284
     1
 64
     0
275
    -2
285
     1
 65
     0
276
    -2
286
     1
 66
     0
277
    -2
287
     1
 67
     0
278
    -2
288
     1
 68
     0
279
    -2
289
     1
 69
     0
  0
VISUALSTYLE
  5
2C57
102
{ACAD_XDICTIONARY
360
2FF3
102
}
102
{ACAD_REACTORS
330
2C51
102
}
330
2C51
100
AcDbVisualStyle
  2
2dWireframe
 70
     4
177
     2
291
     0
 71
     0
176
     1
 72
     2
176
     1
 73
     0
176
     1
 90
        0
176
     1
 40
0.6
176
     1
 41
30.0
176
     1
 63
     7
421
 16777215
176
     1
 74
     1
176
     1
 91
        4
176
     1
 64
     7
176
     1
 65
   257
176
     1
 75
     1
176
     1
175
     1
176
     1
 42
1.0
176
     1
 92
        0
176
     1
 66
   257
176
     1
 43
1.0
176
     1
 76
     1
176
     1
 77
     6
176
     1
 78
     2
176
     1
 67
     7
176
     1
 79
     5
176
     1
170
     0
176
     1
171
     0
176
     1
290
     0
176
     1
 93
        1
176
     1
 44
0.0
176
     1
173
     0
176
     1
1001
ACAD
1000
AcDbSavedByObjectVersion
1070
     0
  0
VISUALSTYLE
  5
2C56
102
{ACAD_XDICTIONARY
360
2FF1
102
}
102
{ACAD_REACTORS
330
2C51
102
}
330
2C51
100
AcDbVisualStyle
  2
Basic
 70
     7
177
     2
291
     1
 71
     1
176
     1
 72
     0
176
     1
 73
     1
176
     1
 90
        0
176
     1
 40
0.6
176
     1
 41
30.0
176
     1
 63
     7
421
 16777215
176
     1
 74
     0
176
     1
 91
        4
176
     1
 64
     7
176
     1
 65
   257
176
     1
 75
     1
176
     1
175
     1
176
     1
 42
1.0
176
     1
 92
        8
176
     1
 66
     7
176
     1
 43
1.0
176
     1
 76
     1
176
     1
 77
     6
176
     1
 78
     2
176
     1
 67
     7
176
     1
 79
     5
176
     1
170
     0
176
     1
171
     0
176
     1
290
     0
176
     1
 93
        1
176
     1
 44
0.0
176
     1
173
     0
176
     1
1001
ACAD
1000
AcDbSavedByObjectVersion
1070
     0
  0
VISUALSTYLE
  5
2C5D
102
{ACAD_XDICTIONARY
360
2FFF
102
}
102
{ACAD_REACTORS
330
2C51
102
}
330
2C51
100
AcDbVisualStyle
  2
Brighten
 70
    12
177
     2
291
     1
 71
     2
176
     1
 72
     2
176
     1
 73
     0
176
     1
 90
        0
176
     1
 40
0.6
176
     1
 41
30.0
176
     1
 63
     7
421
 16777215
176
     1
 74
     1
176
     1
 91
        4
176
     1
 64
     7
176
     1
 65
   257
176
     1
 75
     1
176
     1
175
     1
176
     1
 42
1.0
176
     1
 92
        8
176
     1
 66
     7
176
     1
 43
1.0
176
     1
 76
     1
176
     1
 77
     6
176
     1
 78
     2
176
     1
 67
     7
176
     1
 79
     5
176
     1
170
     0
176
     1
171
     0
176
     1
290
     0
176
     1
 93
        1
176
     1
 44
50.0
176
     1
173
     0
176
     1
1001
ACAD
1000
AcDbSavedByObjectVersion
1070
     0
  0
VISUALSTYLE
  5
2C61
102
{ACAD_XDICTIONARY
360
3007
102
}
102
{ACAD_REACTORS
330
2C51
102
}
330
2C51
100
AcDbVisualStyle
  2
ColorChange
 70
    16
177
     2
291
     1
 71
     2
176
     1
 72
     2
176
     1
 73
     3
176
     1
 90
        0
176
     1
 40
0.6
176
     1
 41
30.0
176
     1
 63
     8
421
  8421504
176
     1
 74
     1
176
     1
 91
        4
176
     1
 64
     7
176
     1
 65
   257
176
     1
 75
     1
176
     1
175
     1
176
     1
 42
1.0
176
     1
 92
        8
176
     1
 66
     8
424
  8421504
176
     1
 43
1.0
176
     1
 76
     1
176
     1
 77
     6
176
     1
 78
     2
176
     1
 67
     7
176
     1
 79
     5
176
     1
170
     0
176
     1
171
     0
176
     1
290
     0
176
     1
 93
        1
176
     1
 44
0.0
176
     1
173
     0
176
     1
1001
ACAD
1000
AcDbSavedByObjectVersion
1070
     0
  0
VISUALSTYLE
  5
2C5A
102
{ACAD_XDICTIONARY
360
2FF9
102
}
102
{ACAD_REACTORS
330
2C51
102
}
330
2C51
100
AcDbVisualStyle
  2
Conceptual
 70
     9
177
     2
291
     0
 71
     3
176
     1
 72
     2
176
     1
 73
     0
176
     1
 90
        0
176
     1
 40
0.6
176
     1
 41
30.0
176
     1
 63
     7
421
 16777215
176
     1
 74
     2
176
     1
 91
        2
176
     1
 64
     7
176
     1
 65
   257
176
     1
 75
     1
176
     1
175
     1
176
     1
 42
179.0
176
     1
 92
        8
176
     1
 66
     7
176
     1
 43
1.0
176
     1
 76
     1
176
     1
 77
     6
176
     1
 78
     2
176
     1
 67
     7
176
     1
 79
     3
176
     1
170
     0
176
     1
171
     0
176
     1
290
     0
176
     1
 93
        1
176
     1
 44
0.0
176
     1
173
     0
176
     1
1001
ACAD
1000
AcDbSavedByObjectVersion
1070
     0
  0
VISUALSTYLE
  5
2C5C
102
{ACAD_XDICTIONARY
360
2FFD
102
}
102
{ACAD_REACTORS
330
2C51
102
}
330
2C51
100
AcDbVisualStyle
  2
Dim
 70
    11
177
     2
291
     1
 71
     2
176
     1
 72
     2
176
     1
 73
     0
176
     1
 90
        0
176
     1
 40
0.6
176
     1
 41
30.0
176
     1
 63
     7
421
 16777215
176
     1
 74
     1
176
     1
 91
        4
176
     1
 64
     7
176
     1
 65
   257
176
     1
 75
     1
176
     1
175
     1
176
     1
 42
1.0
176
     1
 92
        8
176
     1
 66
     7
176
     1
 43
1.0
176
     1
 76
     1
176
     1
 77
     6
176
     1
 78
     2
176
     1
 67
     7
176
     1
 79
     5
176
     1
170
     0
176
     1
171
     0
176
     1
290
     0
176
     1
 93
        1
176
     1
 44
-50.0
176
     1
173
     0
176
     1
1001
ACAD
1000
AcDbSavedByObjectVersion
1070
     0
  0
VISUALSTYLE
  5
2C69
102
{ACAD_XDICTIONARY
360
3017
102
}
102
{ACAD_REACTORS
330
2C51
102
}
330
2C51
100
AcDbVisualStyle
  2
EdgeColorOff
 70
    22
177
     2
291
     1
 71
     2
176
     0
 72
     2
176
     0
 73
     0
176
     0
 90
        0
176
     0
 40
0.6
176
     0
 41
30.0
176
     0
 63
     7
421
 16777215
176
     0
 74
     1
176
     0
 91
        4
176
     0
 64
     7
176
     0
 65
   257
176
     0
 75
     1
176
     0
175
     1
176
     0
 42
1.0
176
     0
 92
        8
176
     2
 66
     7
176
     0
 43
1.0
176
     0
 76
     1
176
     0
 77
     6
176
     0
 78
     2
176
     0
 67
     7
176
     0
 79
     5
176
     0
170
     0
176
     0
171
     0
176
     0
290
     0
176
     0
 93
        1
176
     0
 44
0.0
176
     0
173
     0
176
     0
1001
ACAD
1000
AcDbSavedByObjectVersion
1070
     0
  0
VISUALSTYLE
  5
2C60
102
{ACAD_XDICTIONARY
360
3005
102
}
102
{ACAD_REACTORS
330
2C51
102
}
330
2C51
100
AcDbVisualStyle
  2
Facepattern
 70
    15
177
     2
291
     1
 71
     2
176
     1
 72
     2
176
     1
 73
     0
176
     1
 90
        0
176
     1
 40
0.6
176
     1
 41
30.0
176
     1
 63
     7
421
 16777215
176
     1
 74
     1
176
     1
 91
        4
176
     1
 64
     7
176
     1
 65
   257
176
     1
 75
     1
176
     1
175
     1
176
     1
 42
1.0
176
     1
 92
        8
176
     1
 66
     7
176
     1
 43
1.0
176
     1
 76
     1
176
     1
 77
     6
176
     1
 78
     2
176
     1
 67
     7
176
     1
 79
     5
176
     1
170
     0
176
     1
171
     0
176
     1
290
     0
176
     1
 93
        1
176
     1
 44
0.0
176
     1
173
     0
176
     1
1001
ACAD
1000
AcDbSavedByObjectVersion
1070
     0
  0
VISUALSTYLE
  5
2C52
102
{ACAD_XDICTIONARY
360
2FE9
102
}
102
{ACAD_REACTORS
330
2C51
102
}
330
2C51
100
AcDbVisualStyle
  2
Flat
 70
     0
177
     2
291
     1
 71
     2
176
     1
 72
     1
176
     1
 73
     1
176
     1
 90
        2
176
     1
 40
0.6
176
     1
 41
30.0
176
     1
 63
     7
421
 16777215
176
     1
 74
     0
176
     1
 91
        0
176
     1
 64
     7
176
     1
 65
   257
176
     1
 75
     1
176
     1
175
     1
176
     1
 42
1.0
176
     1
 92
        8
176
     1
 66
     7
176
     1
 43
1.0
176
     1
 76
     1
176
     1
 77
     6
176
     1
 78
     2
176
     1
 67
     7
176
     1
 79
     5
176
     1
170
     0
176
     1
171
     0
176
     1
290
     0
176
     1
 93
       13
176
     1
 44
0.0
176
     1
173
     0
176
     1
1001
ACAD
1000
AcDbSavedByObjectVersion
1070
     0
  0
VISUALSTYLE
  5
2C53
102
{ACAD_XDICTIONARY
360
2FEB
102
}
102
{ACAD_REACTORS
330
2C51
102
}
330
2C51
100
AcDbVisualStyle
  2
FlatWithEdges
 70
     1
177
     2
291
     1
 71
     2
176
     1
 72
     1
176
     1
 73
     1
176
     1
 90
        2
176
     1
 40
0.6
176
     1
 41
30.0
176
     1
 63
     7
421
 16777215
176
     1
 74
     1
176
     1
 91
        0
176
     1
 64
     7
176
     1
 65
   257
176
     1
 75
     1
176
     1
175
     1
176
     1
 42
1.0
176
     1
 92
        0
176
     1
 66
   257
176
     1
 43
1.0
176
     1
 76
     1
176
     1
 77
     6
176
     1
 78
     2
176
     1
 67
     7
176
     1
 79
     5
176
     1
170
     0
176
     1
171
     0
176
     1
290
     0
176
     1
 93
       13
176
     1
 44
0.0
176
     1
173
     0
176
     1
1001
ACAD
1000
AcDbSavedByObjectVersion
1070
     0
  0
VISUALSTYLE
  5
2C54
102
{ACAD_XDICTIONARY
360
2FED
102
}
102
{ACAD_REACTORS
330
2C51
102
}
330
2C51
100
AcDbVisualStyle
  2
Gouraud
 70
     2
177
     2
291
     1
 71
     2
176
     1
 72
     2
176
     1
 73
     1
176
     1
 90
        2
176
     1
 40
0.6
176
     1
 41
30.0
176
     1
 63
     7
421
 16777215
176
     1
 74
     0
176
     1
 91
        0
176
     1
 64
     7
176
     1
 65
   257
176
     1
 75
     1
176
     1
175
     1
176
     1
 42
1.0
176
     1
 92
        0
176
     1
 66
     7
176
     1
 43
1.0
176
     1
 76
     1
176
     1
 77
     6
176
     1
 78
     2
176
     1
 67
     7
176
     1
 79
     5
176
     1
170
     0
176
     1
171
     0
176
     1
290
     0
176
     1
 93
       13
176
     1
 44
0.0
176
     1
173
     0
176
     1
1001
ACAD
1000
AcDbSavedByObjectVersion
1070
     0
  0
VISUALSTYLE
  5
2C55
102
{ACAD_XDICTIONARY
360
2FEF
102
}
102
{ACAD_REACTORS
330
2C51
102
}
330
2C51
100
AcDbVisualStyle
  2
GouraudWithEdges
 70
     3
177
     2
291
     1
 71
     2
176
     1
 72
     2
176
     1
 73
     1
176
     1
 90
        2
176
     1
 40
0.6
176
     1
 41
30.0
176
     1
 63
     7
421
 16777215
176
     1
 74
     1
176
     1
 91
        0
176
     1
 64
     7
176
     1
 65
   257
176
     1
 75
     1
176
     1
175
     1
176
     1
 42
1.0
176
     1
 92
        0
176
     1
 66
   257
176
     1
 43
1.0
176
     1
 76
     1
176
     1
 77
     6
176
     1
 78
     2
176
     1
 67
     7
176
     1
 79
     5
176
     1
170
     0
176
     1
171
     0
176
     1
290
     0
176
     1
 93
       13
176
     1
 44
0.0
176
     1
173
     0
176
     1
1001
ACAD
1000
AcDbSavedByObjectVersion
1070
     0
  0
VISUALSTYLE
  5
2C59
102
{ACAD_XDICTIONARY
360
2FF7
102
}
102
{ACAD_REACTORS
330
2C51
102
}
330
2C51
100
AcDbVisualStyle
  2
Hidden
 70
     6
177
     2
291
     0
 71
     1
176
     1
 72
     2
176
     1
 73
     2
176
     1
 90
        0
176
     1
 40
0.6
176
     1
 41
30.0
176
     1
 63
     7
421
 16777215
176
     1
 74
     2
176
     1
 91
        2
176
     1
 64
     7
176
     1
 65
   257
176
     1
 75
     2
176
     1
175
     1
176
     1
 42
40.0
176
     1
 92
        0
176
     1
 66
   257
176
     1
 43
1.0
176
     1
 76
     1
176
     1
 77
     6
176
     1
 78
     2
176
     1
 67
     7
176
     1
 79
     3
176
     1
170
     0
176
     1
171
     0
176
     1
290
     0
176
     1
 93
        1
176
     1
 44
0.0
176
     1
173
     0
176
     1
1001
ACAD
1000
AcDbSavedByObjectVersion
1070
     0
  0
VISUALSTYLE
  5
2C67
102
{ACAD_XDICTIONARY
360
3013
102
}
102
{ACAD_REACTORS
330
2C51
102
}
330
2C51
100
AcDbVisualStyle
  2
JitterOff
 70
    20
177
     2
291
     1
 71
     2
176
     0
 72
     2
176
     0
 73
     0
176
     0
 90
        0
176
     0
 40
0.6
176
     0
 41
30.0
176
     0
 63
     7
421
 16777215
176
     0
 74
     1
176
     0
 91
        4
176
     0
 64
     7
176
     0
 65
   257
176
     0
 75
     1
176
     0
175
     1
176
     0
 42
1.0
176
     0
 92
       10
176
     2
 66
     7
176
     0
 43
1.0
176
     0
 76
     1
176
     0
 77
     6
176
     0
 78
     2
176
     0
 67
     7
176
     0
 79
     5
176
     0
170
     0
176
     0
171
     0
176
     0
290
     0
176
     0
 93
        1
176
     0
 44
0.0
176
     0
173
     0
176
     0
1001
ACAD
1000
AcDbSavedByObjectVersion
1070
     0
  0
VISUALSTYLE
  5
2C5F
102
{ACAD_XDICTIONARY
360
3003
102
}
102
{ACAD_REACTORS
330
2C51
102
}
330
2C51
100
AcDbVisualStyle
  2
Linepattern
 70
    14
177
     2
291
     1
 71
     2
176
     1
 72
     2
176
     1
 73
     0
176
     1
 90
        0
176
     1
 40
0.6
176
     1
 41
30.0
176
     1
 63
     7
421
 16777215
176
     1
 74
     1
176
     1
 91
        4
176
     1
 64
     7
176
     1
 65
   257
176
     1
 75
     7
176
     1
175
     7
176
     1
 42
1.0
176
     1
 92
        8
176
     1
 66
     7
176
     1
 43
1.0
176
     1
 76
     1
176
     1
 77
     6
176
     1
 78
     2
176
     1
 67
     7
176
     1
 79
     5
176
     1
170
     0
176
     1
171
     0
176
     1
290
     0
176
     1
 93
        1
176
     1
 44
0.0
176
     1
173
     0
176
     1
1001
ACAD
1000
AcDbSavedByObjectVersion
1070
     0
  0
VISUALSTYLE
  5
2C68
102
{ACAD_XDICTIONARY
360
3015
102
}
102
{ACAD_REACTORS
330
2C51
102
}
330
2C51
100
AcDbVisualStyle
  2
OverhangOff
 70
    21
177
     2
291
     1
 71
     2
176
     0
 72
     2
176
     0
 73
     0
176
     0
 90
        0
176
     0
 40
0.6
176
     0
 41
30.0
176
     0
 63
     7
421
 16777215
176
     0
 74
     1
176
     0
 91
        4
176
     0
 64
     7
176
     0
 65
   257
176
     0
 75
     1
176
     0
175
     1
176
     0
 42
1.0
176
     0
 92
        9
176
     2
 66
     7
176
     0
 43
1.0
176
     0
 76
     1
176
     0
 77
     6
176
     0
 78
     2
176
     0
 67
     7
176
     0
 79
     5
176
     0
170
     0
176
     0
171
     0
176
     0
290
     0
176
     0
 93
        1
176
     0
 44
0.0
176
     0
173
     0
176
     0
1001
ACAD
1000
AcDbSavedByObjectVersion
1070
     0
  0
VISUALSTYLE
  5
2C5B
102
{ACAD_XDICTIONARY
360
2FFB
102
}
102
{ACAD_REACTORS
330
2C51
102
}
330
2C51
100
AcDbVisualStyle
  2
Realistic
 70
     8
177
     2
291
     0
 71
     2
176
     1
 72
     3
176
     1
 73
     0
176
     1
 90
        2
176
     1
 40
0.6
176
     1
 41
30.0
176
     1
 63
     7
421
 16777215
176
     1
 74
     0
176
     1
 91
        0
176
     1
 64
     7
176
     1
 65
   257
176
     1
 75
     1
176
     1
175
     1
176
     1
 42
1.0
176
     1
 92
        8
176
     1
 66
   257
176
     1
 43
1.0
176
     1
 76
     1
176
     1
 77
     6
176
     1
 78
     2
176
     1
 67
     7
176
     1
 79
     3
176
     1
170
     0
176
     1
171
     0
176
     1
290
     0
176
     1
 93
       13
176
     1
 44
0.0
176
     1
173
     0
176
     1
1001
ACAD
1000
AcDbSavedByObjectVersion
1070
     0
  0
VISUALSTYLE
  5
2C66
102
{ACAD_XDICTIONARY
360
3011
102
}
102
{ACAD_REACTORS
330
2C51
102
}
330
2C51
100
AcDbVisualStyle
  2
Shaded
 70
    27
177
     2
291
     0
 71
     2
176
     1
 72
     2
176
     1
 73
     1
176
     1
 90
        2
176
     1
 40
0.6
176
     1
 41
30.0
176
     1
 63
     7
421
 16777215
176
     1
 74
     0
176
     1
 91
        4
176
     1
 64
     7
176
     1
 65
   257
176
     1
 75
     1
176
     1
175
     1
176
     1
 42
1.0
176
     1
 92
        8
176
     1
 66
   257
176
     1
 43
1.0
176
     1
 76
     1
176
     1
 77
     6
176
     1
 78
     2
176
     1
 67
     8
425
  7895160
176
     1
 79
     3
176
     1
170
     0
176
     1
171
     0
176
     1
290
     0
176
     1
 93
        5
176
     1
 44
0.0
176
     1
173
     0
176
     1
1001
ACAD
1000
AcDbSavedByObjectVersion
1070
     0
  0
VISUALSTYLE
  5
2C65
102
{ACAD_XDICTIONARY
360
300F
102
}
102
{ACAD_REACTORS
330
2C51
102
}
330
2C51
100
AcDbVisualStyle
  2
Shaded with edges
 70
    26
177
     2
291
     0
 71
     2
176
     1
 72
     2
176
     1
 73
     1
176
     1
 90
        2
176
     1
 40
0.6
176
     1
 41
30.0
176
     1
 63
     7
421
 16777215
176
     1
 74
     1
176
     1
 91
        2
176
     1
 64
     7
176
     1
 65
   257
176
     1
 75
     2
176
     1
175
     1
176
     1
 42
1.0
176
     1
 92
        8
176
     1
 66
   257
176
     1
 43
1.0
176
     1
 76
     1
176
     1
 77
     6
176
     1
 78
     2
176
     1
 67
     7
176
     1
 79
     3
176
     1
170
     0
176
     1
171
     0
176
     1
290
     0
176
     1
 93
        5
176
     1
 44
0.0
176
     1
173
     0
176
     1
1001
ACAD
1000
AcDbSavedByObjectVersion
1070
     0
  0
VISUALSTYLE
  5
2C62
102
{ACAD_XDICTIONARY
360
3009
102
}
102
{ACAD_REACTORS
330
2C51
102
}
330
2C51
100
AcDbVisualStyle
  2
Shades of Gray
 70
    23
177
     2
291
     0
 71
     2
176
     1
 72
     2
176
     1
 73
     3
176
     1
 90
        0
176
     1
 40
0.6
176
     1
 41
30.0
176
     1
 63
     7
421
 16777215
176
     1
 74
     2
176
     1
 91
        2
176
     1
 64
     7
176
     1
 65
     7
176
     1
 75
     1
176
     1
175
     1
176
     1
 42
40.0
176
     1
 92
        8
176
     1
 66
     7
176
     1
 43
1.0
176
     1
 76
     1
176
     1
 77
     6
176
     1
 78
     2
176
     1
 67
     7
176
     1
 79
     3
176
     1
170
     0
176
     1
171
     0
176
     1
290
     0
176
     1
 93
        1
176
     1
 44
0.0
176
     1
173
     0
176
     1
1001
ACAD
1000
AcDbSavedByObjectVersion
1070
     0
  0
VISUALSTYLE
  5
2C63
102
{ACAD_XDICTIONARY
360
300B
102
}
102
{ACAD_REACTORS
330
2C51
102
}
330
2C51
100
AcDbVisualStyle
  2
Sketchy
 70
    24
177
     2
291
     0
 71
     1
176
     1
 72
     2
176
     1
 73
     2
176
     1
 90
        0
176
     1
 40
0.6
176
     1
 41
30.0
176
     1
 63
     7
421
 16777215
176
     1
 74
     2
176
     1
 91
        2
176
     1
 64
     7
176
     1
 65
     7
176
     1
 75
     1
176
     1
175
     1
176
     1
 42
40.0
176
     1
 92
       11
176
     1
 66
     7
176
     1
 43
1.0
176
     1
 76
     1
176
     1
 77
     6
176
     1
 78
     2
176
     1
 67
     7
176
     1
 79
     6
176
     1
170
     0
176
     1
171
     0
176
     1
290
     0
176
     1
 93
        1
176
     1
 44
0.0
176
     1
173
     0
176
     1
1001
ACAD
1000
AcDbSavedByObjectVersion
1070
     0
  0
VISUALSTYLE
  5
2C5E
102
{ACAD_XDICTIONARY
360
3001
102
}
102
{ACAD_REACTORS
330
2C51
102
}
330
2C51
100
AcDbVisualStyle
  2
Thicken
 70
    13
177
     2
291
     1
 71
     2
176
     1
 72
     2
176
     1
 73
     0
176
     1
 90
        0
176
     1
 40
0.6
176
     1
 41
30.0
176
     1
 63
     7
421
 16777215
176
     1
 74
     1
176
     1
 91
        4
176
     1
 64
     7
176
     1
 65
   257
176
     1
 75
     1
176
     1
175
     1
176
     1
 42
1.0
176
     1
 92
       12
176
     1
 66
     7
176
     1
 43
1.0
176
     1
 76
     1
176
     1
 77
     6
176
     1
 78
     2
176
     1
 67
     7
176
     1
 79
     5
176
     1
170
     0
176
     1
171
     0
176
     1
290
     0
176
     1
 93
        1
176
     1
 44
0.0
176
     1
173
     0
176
     1
1001
ACAD
1000
AcDbSavedByObjectVersion
1070
     0
  0
VISUALSTYLE
  5
2C58
102
{ACAD_XDICTIONARY
360
2FF5
102
}
102
{ACAD_REACTORS
330
2C51
102
}
330
2C51
100
AcDbVisualStyle
  2
Wireframe
 70
     5
177
     2
291
     0
 71
     0
176
     1
 72
     2
176
     1
 73
     0
176
     1
 90
        0
176
     1
 40
0.6
176
     1
 41
30.0
176
     1
 63
     7
421
 16777215
176
     1
 74
     1
176
     1
 91
        4
176
     1
 64
     7
176
     1
 65
   257
176
     1
 75
     1
176
     1
175
     1
176
     1
 42
1.0
176
     1
 92
        0
176
     1
 66
   257
176
     1
 43
1.0
176
     1
 76
     1
176
     1
 77
     6
176
     1
 78
     2
176
     1
 67
     7
176
     1
 79
     3
176
     1
170
     0
176
     1
171
     0
176
     1
290
     0
176
     1
 93
        1
176
     1
 44
0.0
176
     1
173
     0
176
     1
1001
ACAD
1000
AcDbSavedByObjectVersion
1070
     0
  0
VISUALSTYLE
  5
2C64
102
{ACAD_XDICTIONARY
360
300D
102
}
102
{ACAD_REACTORS
330
2C51
102
}
330
2C51
100
AcDbVisualStyle
  2
X-Ray
 70
    25
177
     2
291
     0
 71
     2
176
     1
 72
     2
176
     1
 73
     1
176
     1
 90
        1
176
     1
 40
0.5
176
     1
 41
30.0
176
     1
 63
     7
421
 16777215
176
     1
 74
     1
176
     1
 91
        0
176
     1
 64
     7
176
     1
 65
   257
176
     1
 75
     1
176
     1
175
     1
176
     1
 42
1.0
176
     1
 92
        8
176
     1
 66
     7
176
     1
 43
1.0
176
     1
 76
     1
176
     1
 77
     6
176
     1
 78
     2
176
     1
 67
     7
176
     1
 79
     3
176
     1
170
     0
176
     1
171
     0
176
     1
290
     0
176
     1
 93
       13
176
     1
 44
0.0
176
     1
173
     0
176
     1
1001
ACAD
1000
AcDbSavedByObjectVersion
1070
     0
  0
DICTIONARYVAR
  5
2E7B
102
{ACAD_REACTORS
330
2E75
102
}
330
2E75
100
DictionaryVariables
280
     0
  1
1:1
  0
DICTIONARYVAR
  5
2E77
102
{ACAD_REACTORS
330
2E75
102
}
330
2E75
100
DictionaryVariables
280
     0
  1
STANDARD
  0
DICTIONARYVAR
  5
2E76
102
{ACAD_REACTORS
330
2E75
102
}
330
2E75
100
DictionaryVariables
280
     0
  1
STANDARD
  0
DICTIONARYVAR
  5
2E78
102
{ACAD_REACTORS
330
2E75
102
}
330
2E75
100
DictionaryVariables
280
     0
  1
Imperial24
  0
DICTIONARYVAR
  5
2E79
102
{ACAD_REACTORS
330
2E75
102
}
330
2E75
100
DictionaryVariables
280
     0
  1
Imperial24
  0
DICTIONARYVAR
  5
2E7D
102
{ACAD_REACTORS
330
2E75
102
}
330
2E75
100
DictionaryVariables
280
     0
  1
1
  0
DICTIONARYVAR
  5
2E7E
102
{ACAD_REACTORS
330
2E75
102
}
330
2E75
100
DictionaryVariables
280
     0
  1
15
  0
DICTIONARYVAR
  5
2E7C
102
{ACAD_REACTORS
330
2E75
102
}
330
2E75
100
DictionaryVariables
280
     0
  1
0
  0
DICTIONARYVAR
  5
2E7A
102
{ACAD_REACTORS
330
2E75
102
}
330
2E75
100
DictionaryVariables
280
     0
  1
0
  0
DICTIONARY
  5
2D7C
102
{ACAD_REACTORS
330
2D73
102
}
330
2D73
100
AcDbDictionary
281
     1
  0
DICTIONARY
  5
301B
330
2C92
100
AcDbDictionary
280
     1
281
     1
  3
ACAD_XREC_ROUNDTRIP
360
301C
  0
DICTIONARY
  5
2C42
330
2C41
100
AcDbDictionary
280
     1
281
     1
  3
BUMPTILE
360
2C44
  3
DIFFUSETILE
360
2C43
  3
OPACITYTILE
360
2C47
  3
REFLECTIONTILE
360
2C46
  3
REFRACTIONTILE
360
2C48
  3
SPECULARTILE
360
2C45
  0
DICTIONARY
  5
2C3A
330
2C39
100
AcDbDictionary
280
     1
281
     1
  3
BUMPTILE
360
2C3C
  3
DIFFUSETILE
360
2C3B
  3
OPACITYTILE
360
2C3F
  3
REFLECTIONTILE
360
2C3E
  3
REFRACTIONTILE
360
2C40
  3
SPECULARTILE
360
2C3D
  0
DICTIONARY
  5
2C4A
330
2C49
100
AcDbDictionary
280
     1
281
     1
  3
BUMPTILE
360
2C4C
  3
DIFFUSETILE
360
2C4B
  3
OPACITYTILE
360
2C4F
  3
REFLECTIONTILE
360
2C4E
  3
REFRACTIONTILE
360
2C50
  3
SPECULARTILE
360
2C4D
  0
DICTIONARY
  5
3019
330
2C90
100
AcDbDictionary
280
     1
281
     1
  3
ACAD_XREC_ROUNDTRIP
360
301A
  0
DICTIONARY
  5
2E7F
330
2C8C
100
AcDbDictionary
280
     1
281
     1
  3
ACAD_ROUNDTRIP_2008_TABLESTYLE_CELLSTYLEMAP
360
2FE7
  0
DICTIONARY
  5
2FF3
330
2C57
100
AcDbDictionary
280
     1
281
     1
  3
ACAD_XREC_ROUNDTRIP
360
2FF4
  0
DICTIONARY
  5
2FF1
330
2C56
100
AcDbDictionary
280
     1
281
     1
  3
ACAD_XREC_ROUNDTRIP
360
2FF2
  0
DICTIONARY
  5
2FFF
330
2C5D
100
AcDbDictionary
280
     1
281
     1
  3
ACAD_XREC_ROUNDTRIP
360
3000
  0
DICTIONARY
  5
3007
330
2C61
100
AcDbDictionary
280
     1
281
     1
  3
ACAD_XREC_ROUNDTRIP
360
3008
  0
DICTIONARY
  5
2FF9
330
2C5A
100
AcDbDictionary
280
     1
281
     1
  3
ACAD_XREC_ROUNDTRIP
360
2FFA
  0
DICTIONARY
  5
2FFD
330
2C5C
100
AcDbDictionary
280
     1
281
     1
  3
ACAD_XREC_ROUNDTRIP
360
2FFE
  0
DICTIONARY
  5
3017
330
2C69
100
AcDbDictionary
280
     1
281
     1
  3
ACAD_XREC_ROUNDTRIP
360
3018
  0
DICTIONARY
  5
3005
330
2C60
100
AcDbDictionary
280
     1
281
     1
  3
ACAD_XREC_ROUNDTRIP
360
3006
  0
DICTIONARY
  5
2FE9
330
2C52
100
AcDbDictionary
280
     1
281
     1
  3
ACAD_XREC_ROUNDTRIP
360
2FEA
  0
DICTIONARY
  5
2FEB
330
2C53
100
AcDbDictionary
280
     1
281
     1
  3
ACAD_XREC_ROUNDTRIP
360
2FEC
  0
DICTIONARY
  5
2FED
330
2C54
100
AcDbDictionary
280
     1
281
     1
  3
ACAD_XREC_ROUNDTRIP
360
2FEE
  0
DICTIONARY
  5
2FEF
330
2C55
100
AcDbDictionary
280
     1
281
     1
  3
ACAD_XREC_ROUNDTRIP
360
2FF0
  0
DICTIONARY
  5
2FF7
330
2C59
100
AcDbDictionary
280
     1
281
     1
  3
ACAD_XREC_ROUNDTRIP
360
2FF8
  0
DICTIONARY
  5
3013
330
2C67
100
AcDbDictionary
280
     1
281
     1
  3
ACAD_XREC_ROUNDTRIP
360
3014
  0
DICTIONARY
  5
3003
330
2C5F
100
AcDbDictionary
280
     1
281
     1
  3
ACAD_XREC_ROUNDTRIP
360
3004
  0
DICTIONARY
  5
3015
330
2C68
100
AcDbDictionary
280
     1
281
     1
  3
ACAD_XREC_ROUNDTRIP
360
3016
  0
DICTIONARY
  5
2FFB
330
2C5B
100
AcDbDictionary
280
     1
281
     1
  3
ACAD_XREC_ROUNDTRIP
360
2FFC
  0
DICTIONARY
  5
3011
330
2C66
100
AcDbDictionary
280
     1
281
     1
  3
ACAD_XREC_ROUNDTRIP
360
3012
  0
DICTIONARY
  5
300F
330
2C65
100
AcDbDictionary
280
     1
281
     1
  3
ACAD_XREC_ROUNDTRIP
360
3010
  0
DICTIONARY
  5
3009
330
2C62
100
AcDbDictionary
280
     1
281
     1
  3
ACAD_XREC_ROUNDTRIP
360
300A
  0
DICTIONARY
  5
300B
330
2C63
100
AcDbDictionary
280
     1
281
     1
  3
ACAD_XREC_ROUNDTRIP
360
300C
  0
DICTIONARY
  5
3001
330
2C5E
100
AcDbDictionary
280
     1
281
     1
  3
ACAD_XREC_ROUNDTRIP
360
3002
  0
DICTIONARY
  5
2FF5
330
2C58
100
AcDbDictionary
280
     1
281
     1
  3
ACAD_XREC_ROUNDTRIP
360
2FF6
  0
DICTIONARY
  5
300D
330
2C64
100
AcDbDictionary
280
     1
281
     1
  3
ACAD_XREC_ROUNDTRIP
360
300E
  0
XRECORD
  5
301C
102
{ACAD_REACTORS
330
301B
102
}
330
301B
100
AcDbXrecord
280
     1
102
DISPLAYNAME
  1
Imperial24
102
FLAGS
 90
        0
  0
XRECORD
  5
2C44
102
{ACAD_REACTORS
330
2C42
102
}
330
2C42
100
AcDbXrecord
280
     1
270
     1
271
     1
  0
XRECORD
  5
2C43
102
{ACAD_REACTORS
330
2C42
102
}
330
2C42
100
AcDbXrecord
280
     1
270
     1
271
     1
  0
XRECORD
  5
2C47
102
{ACAD_REACTORS
330
2C42
102
}
330
2C42
100
AcDbXrecord
280
     1
270
     1
271
     1
  0
XRECORD
  5
2C46
102
{ACAD_REACTORS
330
2C42
102
}
330
2C42
100
AcDbXrecord
280
     1
270
     1
271
     1
  0
XRECORD
  5
2C48
102
{ACAD_REACTORS
330
2C42
102
}
330
2C42
100
AcDbXrecord
280
     1
270
     1
271
     1
  0
XRECORD
  5
2C45
102
{ACAD_REACTORS
330
2C42
102
}
330
2C42
100
AcDbXrecord
280
     1
270
     1
271
     1
  0
XRECORD
  5
2C3C
102
{ACAD_REACTORS
330
2C3A
102
}
330
2C3A
100
AcDbXrecord
280
     1
270
     1
271
     1
  0
XRECORD
  5
2C3B
102
{ACAD_REACTORS
330
2C3A
102
}
330
2C3A
100
AcDbXrecord
280
     1
270
     1
271
     1
  0
XRECORD
  5
2C3F
102
{ACAD_REACTORS
330
2C3A
102
}
330
2C3A
100
AcDbXrecord
280
     1
270
     1
271
     1
  0
XRECORD
  5
2C3E
102
{ACAD_REACTORS
330
2C3A
102
}
330
2C3A
100
AcDbXrecord
280
     1
270
     1
271
     1
  0
XRECORD
  5
2C40
102
{ACAD_REACTORS
330
2C3A
102
}
330
2C3A
100
AcDbXrecord
280
     1
270
     1
271
     1
  0
XRECORD
  5
2C3D
102
{ACAD_REACTORS
330
2C3A
102
}
330
2C3A
100
AcDbXrecord
280
     1
270
     1
271
     1
  0
XRECORD
  5
2C4C
102
{ACAD_REACTORS
330
2C4A
102
}
330
2C4A
100
AcDbXrecord
280
     1
270
     1
271
     1
  0
XRECORD
  5
2C4B
102
{ACAD_REACTORS
330
2C4A
102
}
330
2C4A
100
AcDbXrecord
280
     1
270
     1
271
     1
  0
XRECORD
  5
2C4F
102
{ACAD_REACTORS
330
2C4A
102
}
330
2C4A
100
AcDbXrecord
280
     1
270
     1
271
     1
  0
XRECORD
  5
2C4E
102
{ACAD_REACTORS
330
2C4A
102
}
330
2C4A
100
AcDbXrecord
280
     1
270
     1
271
     1
  0
XRECORD
  5
2C50
102
{ACAD_REACTORS
330
2C4A
102
}
330
2C4A
100
AcDbXrecord
280
     1
270
     1
271
     1
  0
XRECORD
  5
2C4D
102
{ACAD_REACTORS
330
2C4A
102
}
330
2C4A
100
AcDbXrecord
280
     1
270
     1
271
     1
  0
XRECORD
  5
301A
102
{ACAD_REACTORS
330
3019
102
}
330
3019
100
AcDbXrecord
280
     1
102
DISPLAYNAME
  1
Imperial24
102
FLAGS
 90
        0
  0
CELLSTYLEMAP
  5
2FE7
102
{ACAD_REACTORS
330
2E7F
102
}
330
2E7F
100
AcDbCellStyleMap
 90
        3
300
CELLSTYLE
  1
TABLEFORMAT_BEGIN
 90
        5
170
     1
 91
        0
 92
    32768
 62
   257
 93
        1
300
CONTENTFORMAT
  1
CONTENTFORMAT_BEGIN
 90
        0
 91
        0
 92
      512
 93
        0
300

 40
0.0
140
1.0
 94
        5
 62
     0
340
2C7D
144
0.25
309
CONTENTFORMAT_END
171
     1
301
MARGIN
  1
CELLMARGIN_BEGIN
 40
0.06
 40
0.06
 40
0.06
 40
0.06
 40
0.18
 40
0.18
309
CELLMARGIN_END
 94
        6
 95
        1
302
GRIDFORMAT
  1
GRIDFORMAT_BEGIN
 90
        0
 91
        1
 62
     0
 92
       -2
340
0
 93
        0
 40
0.045
309
GRIDFORMAT_END
 95
        2
302
GRIDFORMAT
  1
GRIDFORMAT_BEGIN
 90
        0
 91
        1
 62
     0
 92
       -2
340
0
 93
        0
 40
0.045
309
GRIDFORMAT_END
 95
        4
302
GRIDFORMAT
  1
GRIDFORMAT_BEGIN
 90
        0
 91
        1
 62
     0
 92
       -2
340
0
 93
        0
 40
0.045
309
GRIDFORMAT_END
 95
        8
302
GRIDFORMAT
  1
GRIDFORMAT_BEGIN
 90
        0
 91
        1
 62
     0
 92
       -2
340
0
 93
        0
 40
0.045
309
GRIDFORMAT_END
 95
       16
302
GRIDFORMAT
  1
GRIDFORMAT_BEGIN
 90
        0
 91
        1
 62
     0
 92
       -2
340
0
 93
        0
 40
0.045
309
GRIDFORMAT_END
 95
       32
302
GRIDFORMAT
  1
GRIDFORMAT_BEGIN
 90
        0
 91
        1
 62
     0
 92
       -2
340
0
 93
        0
 40
0.045
309
GRIDFORMAT_END
309
TABLEFORMAT_END
  1
CELLSTYLE_BEGIN
 90
        1
 91
        1
300
_TITLE
309
CELLSTYLE_END
300
CELLSTYLE
  1
TABLEFORMAT_BEGIN
 90
        5
170
     1
 91
        0
 92
        0
 62
   257
 93
        1
300
CONTENTFORMAT
  1
CONTENTFORMAT_BEGIN
 90
        0
 91
        0
 92
      512
 93
        0
300

 40
0.0
140
1.0
 94
        5
 62
     0
340
2C7D
144
0.18
309
CONTENTFORMAT_END
171
     1
301
MARGIN
  1
CELLMARGIN_BEGIN
 40
0.06
 40
0.06
 40
0.06
 40
0.06
 40
0.18
 40
0.18
309
CELLMARGIN_END
 94
        6
 95
        1
302
GRIDFORMAT
  1
GRIDFORMAT_BEGIN
 90
        0
 91
        1
 62
     0
 92
       -2
340
0
 93
        0
 40
0.045
309
GRIDFORMAT_END
 95
        2
302
GRIDFORMAT
  1
GRIDFORMAT_BEGIN
 90
        0
 91
        1
 62
     0
 92
       -2
340
0
 93
        0
 40
0.045
309
GRIDFORMAT_END
 95
        4
302
GRIDFORMAT
  1
GRIDFORMAT_BEGIN
 90
        0
 91
        1
 62
     0
 92
       -2
340
0
 93
        0
 40
0.045
309
GRIDFORMAT_END
 95
        8
302
GRIDFORMAT
  1
GRIDFORMAT_BEGIN
 90
        0
 91
        1
 62
     0
 92
       -2
340
0
 93
        0
 40
0.045
309
GRIDFORMAT_END
 95
       16
302
GRIDFORMAT
  1
GRIDFORMAT_BEGIN
 90
        0
 91
        1
 62
     0
 92
       -2
340
0
 93
        0
 40
0.045
309
GRIDFORMAT_END
 95
       32
302
GRIDFORMAT
  1
GRIDFORMAT_BEGIN
 90
        0
 91
        1
 62
     0
 92
       -2
340
0
 93
        0
 40
0.045
309
GRIDFORMAT_END
309
TABLEFORMAT_END
  1
CELLSTYLE_BEGIN
 90
        2
 91
        1
300
_HEADER
309
CELLSTYLE_END
300
CELLSTYLE
  1
TABLEFORMAT_BEGIN
 90
        5
170
     1
 91
        0
 92
        0
 62
   257
 93
        1
300
CONTENTFORMAT
  1
CONTENTFORMAT_BEGIN
 90
        0
 91
        0
 92
      512
 93
        0
300

 40
0.0
140
1.0
 94
        2
 62
     0
340
2C7D
144
0.18
309
CONTENTFORMAT_END
171
     1
301
MARGIN
  1
CELLMARGIN_BEGIN
 40
0.06
 40
0.06
 40
0.06
 40
0.06
 40
0.18
 40
0.18
309
CELLMARGIN_END
 94
        6
 95
        1
302
GRIDFORMAT
  1
GRIDFORMAT_BEGIN
 90
        0
 91
        1
 62
     0
 92
       -2
340
0
 93
        0
 40
0.045
309
GRIDFORMAT_END
 95
        2
302
GRIDFORMAT
  1
GRIDFORMAT_BEGIN
 90
        0
 91
        1
 62
     0
 92
       -2
340
0
 93
        0
 40
0.045
309
GRIDFORMAT_END
 95
        4
302
GRIDFORMAT
  1
GRIDFORMAT_BEGIN
 90
        0
 91
        1
 62
     0
 92
       -2
340
0
 93
        0
 40
0.045
309
GRIDFORMAT_END
 95
        8
302
GRIDFORMAT
  1
GRIDFORMAT_BEGIN
 90
        0
 91
        1
 62
     0
 92
       -2
340
0
 93
        0
 40
0.045
309
GRIDFORMAT_END
 95
       16
302
GRIDFORMAT
  1
GRIDFORMAT_BEGIN
 90
        0
 91
        1
 62
     0
 92
       -2
340
0
 93
        0
 40
0.045
309
GRIDFORMAT_END
 95
       32
302
GRIDFORMAT
  1
GRIDFORMAT_BEGIN
 90
        0
 91
        1
 62
     0
 92
       -2
340
0
 93
        0
 40
0.045
309
GRIDFORMAT_END
309
TABLEFORMAT_END
  1
CELLSTYLE_BEGIN
 90
        3
 91
        2
300
_DATA
309
CELLSTYLE_END
  0
XRECORD
  5
2FF4
102
{ACAD_REACTORS
330
2FF3
102
}
330
2FF3
100
AcDbXrecord
280
     1
102
RTVSPost2010Prop28
280
     1
102
RTVSPost2010PropOp28
 70
     1
102
RTVSPost2010Prop29
280
     1
102
RTVSPost2010PropOp29
 70
     1
102
RTVSPost2010Prop30
280
     0
102
RTVSPost2010PropOp30
 70
     1
102
RTVSPost2010Prop31
280
     0
102
RTVSPost2010PropOp31
 70
     1
102
RTVSPost2010Prop32
280
     0
102
RTVSPost2010PropOp32
 70
     1
102
RTVSPost2010Prop33
280
     0
102
RTVSPost2010PropOp33
 70
     1
102
RTVSPost2010Prop34
280
     0
102
RTVSPost2010PropOp34
 70
     1
102
RTVSPost2010Prop35
280
     0
102
RTVSPost2010PropOp35
 70
     1
102
RTVSPost2010Prop36
280
     0
102
RTVSPost2010PropOp36
 70
     1
102
RTVSPost2010Prop37
 90
       50
102
RTVSPost2010PropOp37
 70
     1
102
RTVSPost2010Prop38
140
0.0
102
RTVSPost2010PropOp38
 70
     1
102
RTVSPost2010Prop39
140
1.0
102
RTVSPost2010PropOp39
 70
     1
102
RTVSPost2010Prop40
 90
        0
102
RTVSPost2010PropOp40
 70
     1
102
RTVSPost2010Prop41ColorIndex
 90
       18
102
RTVSPost2010Prop41ColorRGB
 90
        0
102
RTVSPost2010PropOp41
 70
     1
102
RTVSPost2010Prop42
 90
       50
102
RTVSPost2010PropOp42
 70
     1
102
RTVSPost2010Prop43
 90
        3
102
RTVSPost2010PropOp43
 70
     1
102
RTVSPost2010Prop44ColorIndex
 90
        5
102
RTVSPost2010Prop44ColorRGB
 90
      255
102
RTVSPost2010PropOp44
 70
     1
102
RTVSPost2010Prop45
280
     0
102
RTVSPost2010PropOp45
 70
     1
102
RTVSPost2010Prop46
 90
       50
102
RTVSPost2010PropOp46
 70
     1
102
RTVSPost2010Prop47
 90
       50
102
RTVSPost2010PropOp47
 70
     1
102
RTVSPost2010Prop48
 90
       50
102
RTVSPost2010PropOp48
 70
     1
102
RTVSPost2010Prop49
280
     0
102
RTVSPost2010PropOp49
 70
     1
102
RTVSPost2010Prop50
 90
       50
102
RTVSPost2010PropOp50
 70
     1
102
RTVSPost2010Prop51ColorIndex
 90
      256
102
RTVSPost2010Prop51ColorRGB
 90
-16777216
102
RTVSPost2010PropOp51
 70
     0
102
RTVSPost2010Prop52
140
1.0
102
RTVSPost2010PropOp52
 70
     0
102
RTVSPost2010Prop53
 90
        2
102
RTVSPost2010PropOp53
 70
     1
102
RTVSPost2010Prop54
  1
strokes_ogs.tif
102
RTVSPost2010PropOp54
 70
     1
102
RTVSPost2010Prop55
280
     0
102
RTVSPost2010PropOp55
 70
     1
102
RTVSPost2010Prop56
140
1.0
102
RTVSPost2010PropOp56
 70
     1
102
RTVSPost2010Prop57
140
1.0
102
RTVSPost2010PropOp57
 70
     1
  0
XRECORD
  5
2FF2
102
{ACAD_REACTORS
330
2FF1
102
}
330
2FF1
100
AcDbXrecord
280
     1
102
RTVSPost2010Prop28
280
     0
102
RTVSPost2010PropOp28
 70
     1
102
RTVSPost2010Prop29
280
     1
102
RTVSPost2010PropOp29
 70
     1
102
RTVSPost2010Prop30
280
     1
102
RTVSPost2010PropOp30
 70
     1
102
RTVSPost2010Prop31
280
     0
102
RTVSPost2010PropOp31
 70
     1
102
RTVSPost2010Prop32
280
     0
102
RTVSPost2010PropOp32
 70
     1
102
RTVSPost2010Prop33
280
     0
102
RTVSPost2010PropOp33
 70
     1
102
RTVSPost2010Prop34
280
     0
102
RTVSPost2010PropOp34
 70
     1
102
RTVSPost2010Prop35
280
     0
102
RTVSPost2010PropOp35
 70
     1
102
RTVSPost2010Prop36
280
     0
102
RTVSPost2010PropOp36
 70
     1
102
RTVSPost2010Prop37
 90
       50
102
RTVSPost2010PropOp37
 70
     1
102
RTVSPost2010Prop38
140
0.0
102
RTVSPost2010PropOp38
 70
     1
102
RTVSPost2010Prop39
140
1.0
102
RTVSPost2010PropOp39
 70
     1
102
RTVSPost2010Prop40
 90
        0
102
RTVSPost2010PropOp40
 70
     1
102
RTVSPost2010Prop41ColorIndex
 90
       18
102
RTVSPost2010Prop41ColorRGB
 90
        0
102
RTVSPost2010PropOp41
 70
     1
102
RTVSPost2010Prop42
 90
       50
102
RTVSPost2010PropOp42
 70
     1
102
RTVSPost2010Prop43
 90
        3
102
RTVSPost2010PropOp43
 70
     1
102
RTVSPost2010Prop44ColorIndex
 90
        5
102
RTVSPost2010Prop44ColorRGB
 90
      255
102
RTVSPost2010PropOp44
 70
     1
102
RTVSPost2010Prop45
280
     0
102
RTVSPost2010PropOp45
 70
     1
102
RTVSPost2010Prop46
 90
       50
102
RTVSPost2010PropOp46
 70
     1
102
RTVSPost2010Prop47
 90
       50
102
RTVSPost2010PropOp47
 70
     1
102
RTVSPost2010Prop48
 90
       50
102
RTVSPost2010PropOp48
 70
     1
102
RTVSPost2010Prop49
280
     0
102
RTVSPost2010PropOp49
 70
     1
102
RTVSPost2010Prop50
 90
       50
102
RTVSPost2010PropOp50
 70
     1
102
RTVSPost2010Prop51ColorIndex
 90
      256
102
RTVSPost2010Prop51ColorRGB
 90
-16777216
102
RTVSPost2010PropOp51
 70
     0
102
RTVSPost2010Prop52
140
1.0
102
RTVSPost2010PropOp52
 70
     0
102
RTVSPost2010Prop53
 90
        2
102
RTVSPost2010PropOp53
 70
     1
102
RTVSPost2010Prop54
  1
strokes_ogs.tif
102
RTVSPost2010PropOp54
 70
     1
102
RTVSPost2010Prop55
280
     0
102
RTVSPost2010PropOp55
 70
     1
102
RTVSPost2010Prop56
140
1.0
102
RTVSPost2010PropOp56
 70
     1
102
RTVSPost2010Prop57
140
1.0
102
RTVSPost2010PropOp57
 70
     1
  0
XRECORD
  5
3000
102
{ACAD_REACTORS
330
2FFF
102
}
330
2FFF
100
AcDbXrecord
280
     1
102
RTVSPost2010Prop28
280
     0
102
RTVSPost2010PropOp28
 70
     1
102
RTVSPost2010Prop29
280
     1
102
RTVSPost2010PropOp29
 70
     1
102
RTVSPost2010Prop30
280
     1
102
RTVSPost2010PropOp30
 70
     1
102
RTVSPost2010Prop31
280
     0
102
RTVSPost2010PropOp31
 70
     1
102
RTVSPost2010Prop32
280
     0
102
RTVSPost2010PropOp32
 70
     1
102
RTVSPost2010Prop33
280
     0
102
RTVSPost2010PropOp33
 70
     1
102
RTVSPost2010Prop34
280
     0
102
RTVSPost2010PropOp34
 70
     1
102
RTVSPost2010Prop35
280
     0
102
RTVSPost2010PropOp35
 70
     1
102
RTVSPost2010Prop36
280
     0
102
RTVSPost2010PropOp36
 70
     1
102
RTVSPost2010Prop37
 90
       50
102
RTVSPost2010PropOp37
 70
     1
102
RTVSPost2010Prop38
140
0.0
102
RTVSPost2010PropOp38
 70
     1
102
RTVSPost2010Prop39
140
1.0
102
RTVSPost2010PropOp39
 70
     1
102
RTVSPost2010Prop40
 90
        0
102
RTVSPost2010PropOp40
 70
     1
102
RTVSPost2010Prop41ColorIndex
 90
       18
102
RTVSPost2010Prop41ColorRGB
 90
        0
102
RTVSPost2010PropOp41
 70
     1
102
RTVSPost2010Prop42
 90
       50
102
RTVSPost2010PropOp42
 70
     1
102
RTVSPost2010Prop43
 90
        3
102
RTVSPost2010PropOp43
 70
     1
102
RTVSPost2010Prop44ColorIndex
 90
        5
102
RTVSPost2010Prop44ColorRGB
 90
      255
102
RTVSPost2010PropOp44
 70
     1
102
RTVSPost2010Prop45
280
     0
102
RTVSPost2010PropOp45
 70
     1
102
RTVSPost2010Prop46
 90
       50
102
RTVSPost2010PropOp46
 70
     1
102
RTVSPost2010Prop47
 90
       50
102
RTVSPost2010PropOp47
 70
     1
102
RTVSPost2010Prop48
 90
       50
102
RTVSPost2010PropOp48
 70
     1
102
RTVSPost2010Prop49
280
     0
102
RTVSPost2010PropOp49
 70
     1
102
RTVSPost2010Prop50
 90
       50
102
RTVSPost2010PropOp50
 70
     1
102
RTVSPost2010Prop51ColorIndex
 90
      256
102
RTVSPost2010Prop51ColorRGB
 90
-16777216
102
RTVSPost2010PropOp51
 70
     0
102
RTVSPost2010Prop52
140
1.0
102
RTVSPost2010PropOp52
 70
     0
102
RTVSPost2010Prop53
 90
        2
102
RTVSPost2010PropOp53
 70
     1
102
RTVSPost2010Prop54
  1
strokes_ogs.tif
102
RTVSPost2010PropOp54
 70
     1
102
RTVSPost2010Prop55
280
     0
102
RTVSPost2010PropOp55
 70
     1
102
RTVSPost2010Prop56
140
1.0
102
RTVSPost2010PropOp56
 70
     1
102
RTVSPost2010Prop57
140
1.0
102
RTVSPost2010PropOp57
 70
     1
  0
XRECORD
  5
3008
102
{ACAD_REACTORS
330
3007
102
}
330
3007
100
AcDbXrecord
280
     1
102
RTVSPost2010Prop28
280
     0
102
RTVSPost2010PropOp28
 70
     1
102
RTVSPost2010Prop29
280
     1
102
RTVSPost2010PropOp29
 70
     1
102
RTVSPost2010Prop30
280
     1
102
RTVSPost2010PropOp30
 70
     1
102
RTVSPost2010Prop31
280
     0
102
RTVSPost2010PropOp31
 70
     1
102
RTVSPost2010Prop32
280
     0
102
RTVSPost2010PropOp32
 70
     1
102
RTVSPost2010Prop33
280
     0
102
RTVSPost2010PropOp33
 70
     1
102
RTVSPost2010Prop34
280
     0
102
RTVSPost2010PropOp34
 70
     1
102
RTVSPost2010Prop35
280
     0
102
RTVSPost2010PropOp35
 70
     1
102
RTVSPost2010Prop36
280
     0
102
RTVSPost2010PropOp36
 70
     1
102
RTVSPost2010Prop37
 90
       50
102
RTVSPost2010PropOp37
 70
     1
102
RTVSPost2010Prop38
140
0.0
102
RTVSPost2010PropOp38
 70
     1
102
RTVSPost2010Prop39
140
1.0
102
RTVSPost2010PropOp39
 70
     1
102
RTVSPost2010Prop40
 90
        0
102
RTVSPost2010PropOp40
 70
     1
102
RTVSPost2010Prop41ColorIndex
 90
       18
102
RTVSPost2010Prop41ColorRGB
 90
        0
102
RTVSPost2010PropOp41
 70
     1
102
RTVSPost2010Prop42
 90
       50
102
RTVSPost2010PropOp42
 70
     1
102
RTVSPost2010Prop43
 90
        3
102
RTVSPost2010PropOp43
 70
     1
102
RTVSPost2010Prop44ColorIndex
 90
        5
102
RTVSPost2010Prop44ColorRGB
 90
      255
102
RTVSPost2010PropOp44
 70
     1
102
RTVSPost2010Prop45
280
     0
102
RTVSPost2010PropOp45
 70
     1
102
RTVSPost2010Prop46
 90
       50
102
RTVSPost2010PropOp46
 70
     1
102
RTVSPost2010Prop47
 90
       50
102
RTVSPost2010PropOp47
 70
     1
102
RTVSPost2010Prop48
 90
       50
102
RTVSPost2010PropOp48
 70
     1
102
RTVSPost2010Prop49
280
     0
102
RTVSPost2010PropOp49
 70
     1
102
RTVSPost2010Prop50
 90
       50
102
RTVSPost2010PropOp50
 70
     1
102
RTVSPost2010Prop51ColorIndex
 90
      256
102
RTVSPost2010Prop51ColorRGB
 90
-16777216
102
RTVSPost2010PropOp51
 70
     0
102
RTVSPost2010Prop52
140
1.0
102
RTVSPost2010PropOp52
 70
     0
102
RTVSPost2010Prop53
 90
        2
102
RTVSPost2010PropOp53
 70
     1
102
RTVSPost2010Prop54
  1
strokes_ogs.tif
102
RTVSPost2010PropOp54
 70
     1
102
RTVSPost2010Prop55
280
     0
102
RTVSPost2010PropOp55
 70
     1
102
RTVSPost2010Prop56
140
1.0
102
RTVSPost2010PropOp56
 70
     1
102
RTVSPost2010Prop57
140
1.0
102
RTVSPost2010PropOp57
 70
     1
  0
XRECORD
  5
2FFA
102
{ACAD_REACTORS
330
2FF9
102
}
330
2FF9
100
AcDbXrecord
280
     1
102
RTVSPost2010Prop28
280
     0
102
RTVSPost2010PropOp28
 70
     1
102
RTVSPost2010Prop29
280
     1
102
RTVSPost2010PropOp29
 70
     1
102
RTVSPost2010Prop30
280
     1
102
RTVSPost2010PropOp30
 70
     1
102
RTVSPost2010Prop31
280
     0
102
RTVSPost2010PropOp31
 70
     1
102
RTVSPost2010Prop32
280
     0
102
RTVSPost2010PropOp32
 70
     1
102
RTVSPost2010Prop33
280
     0
102
RTVSPost2010PropOp33
 70
     1
102
RTVSPost2010Prop34
280
     0
102
RTVSPost2010PropOp34
 70
     1
102
RTVSPost2010Prop35
280
     0
102
RTVSPost2010PropOp35
 70
     1
102
RTVSPost2010Prop36
280
     0
102
RTVSPost2010PropOp36
 70
     1
102
RTVSPost2010Prop37
 90
       50
102
RTVSPost2010PropOp37
 70
     1
102
RTVSPost2010Prop38
140
0.0
102
RTVSPost2010PropOp38
 70
     1
102
RTVSPost2010Prop39
140
1.0
102
RTVSPost2010PropOp39
 70
     1
102
RTVSPost2010Prop40
 90
        0
102
RTVSPost2010PropOp40
 70
     1
102
RTVSPost2010Prop41ColorIndex
 90
       18
102
RTVSPost2010Prop41ColorRGB
 90
        0
102
RTVSPost2010PropOp41
 70
     1
102
RTVSPost2010Prop42
 90
       50
102
RTVSPost2010PropOp42
 70
     1
102
RTVSPost2010Prop43
 90
        3
102
RTVSPost2010PropOp43
 70
     1
102
RTVSPost2010Prop44ColorIndex
 90
        5
102
RTVSPost2010Prop44ColorRGB
 90
      255
102
RTVSPost2010PropOp44
 70
     1
102
RTVSPost2010Prop45
280
     0
102
RTVSPost2010PropOp45
 70
     1
102
RTVSPost2010Prop46
 90
       50
102
RTVSPost2010PropOp46
 70
     1
102
RTVSPost2010Prop47
 90
       50
102
RTVSPost2010PropOp47
 70
     1
102
RTVSPost2010Prop48
 90
       50
102
RTVSPost2010PropOp48
 70
     1
102
RTVSPost2010Prop49
280
     0
102
RTVSPost2010PropOp49
 70
     1
102
RTVSPost2010Prop50
 90
       50
102
RTVSPost2010PropOp50
 70
     1
102
RTVSPost2010Prop51ColorIndex
 90
      256
102
RTVSPost2010Prop51ColorRGB
 90
-16777216
102
RTVSPost2010PropOp51
 70
     0
102
RTVSPost2010Prop52
140
1.0
102
RTVSPost2010PropOp52
 70
     0
102
RTVSPost2010Prop53
 90
        2
102
RTVSPost2010PropOp53
 70
     1
102
RTVSPost2010Prop54
  1
strokes_ogs.tif
102
RTVSPost2010PropOp54
 70
     1
102
RTVSPost2010Prop55
280
     0
102
RTVSPost2010PropOp55
 70
     1
102
RTVSPost2010Prop56
140
1.0
102
RTVSPost2010PropOp56
 70
     1
102
RTVSPost2010Prop57
140
1.0
102
RTVSPost2010PropOp57
 70
     1
  0
XRECORD
  5
2FFE
102
{ACAD_REACTORS
330
2FFD
102
}
330
2FFD
100
AcDbXrecord
280
     1
102
RTVSPost2010Prop28
280
     0
102
RTVSPost2010PropOp28
 70
     1
102
RTVSPost2010Prop29
280
     1
102
RTVSPost2010PropOp29
 70
     1
102
RTVSPost2010Prop30
280
     1
102
RTVSPost2010PropOp30
 70
     1
102
RTVSPost2010Prop31
280
     0
102
RTVSPost2010PropOp31
 70
     1
102
RTVSPost2010Prop32
280
     0
102
RTVSPost2010PropOp32
 70
     1
102
RTVSPost2010Prop33
280
     0
102
RTVSPost2010PropOp33
 70
     1
102
RTVSPost2010Prop34
280
     0
102
RTVSPost2010PropOp34
 70
     1
102
RTVSPost2010Prop35
280
     0
102
RTVSPost2010PropOp35
 70
     1
102
RTVSPost2010Prop36
280
     0
102
RTVSPost2010PropOp36
 70
     1
102
RTVSPost2010Prop37
 90
       50
102
RTVSPost2010PropOp37
 70
     1
102
RTVSPost2010Prop38
140
0.0
102
RTVSPost2010PropOp38
 70
     1
102
RTVSPost2010Prop39
140
1.0
102
RTVSPost2010PropOp39
 70
     1
102
RTVSPost2010Prop40
 90
        0
102
RTVSPost2010PropOp40
 70
     1
102
RTVSPost2010Prop41ColorIndex
 90
       18
102
RTVSPost2010Prop41ColorRGB
 90
        0
102
RTVSPost2010PropOp41
 70
     1
102
RTVSPost2010Prop42
 90
       50
102
RTVSPost2010PropOp42
 70
     1
102
RTVSPost2010Prop43
 90
        3
102
RTVSPost2010PropOp43
 70
     1
102
RTVSPost2010Prop44ColorIndex
 90
        5
102
RTVSPost2010Prop44ColorRGB
 90
      255
102
RTVSPost2010PropOp44
 70
     1
102
RTVSPost2010Prop45
280
     0
102
RTVSPost2010PropOp45
 70
     1
102
RTVSPost2010Prop46
 90
       50
102
RTVSPost2010PropOp46
 70
     1
102
RTVSPost2010Prop47
 90
       50
102
RTVSPost2010PropOp47
 70
     1
102
RTVSPost2010Prop48
 90
       50
102
RTVSPost2010PropOp48
 70
     1
102
RTVSPost2010Prop49
280
     0
102
RTVSPost2010PropOp49
 70
     1
102
RTVSPost2010Prop50
 90
       50
102
RTVSPost2010PropOp50
 70
     1
102
RTVSPost2010Prop51ColorIndex
 90
      256
102
RTVSPost2010Prop51ColorRGB
 90
-16777216
102
RTVSPost2010PropOp51
 70
     0
102
RTVSPost2010Prop52
140
1.0
102
RTVSPost2010PropOp52
 70
     0
102
RTVSPost2010Prop53
 90
        2
102
RTVSPost2010PropOp53
 70
     1
102
RTVSPost2010Prop54
  1
strokes_ogs.tif
102
RTVSPost2010PropOp54
 70
     1
102
RTVSPost2010Prop55
280
     0
102
RTVSPost2010PropOp55
 70
     1
102
RTVSPost2010Prop56
140
1.0
102
RTVSPost2010PropOp56
 70
     1
102
RTVSPost2010Prop57
140
1.0
102
RTVSPost2010PropOp57
 70
     1
  0
XRECORD
  5
3018
102
{ACAD_REACTORS
330
3017
102
}
330
3017
100
AcDbXrecord
280
     1
102
RTVSPost2010Prop28
280
     0
102
RTVSPost2010PropOp28
 70
     1
102
RTVSPost2010Prop29
280
     1
102
RTVSPost2010PropOp29
 70
     1
102
RTVSPost2010Prop30
280
     1
102
RTVSPost2010PropOp30
 70
     1
102
RTVSPost2010Prop31
280
     0
102
RTVSPost2010PropOp31
 70
     1
102
RTVSPost2010Prop32
280
     0
102
RTVSPost2010PropOp32
 70
     1
102
RTVSPost2010Prop33
280
     0
102
RTVSPost2010PropOp33
 70
     1
102
RTVSPost2010Prop34
280
     0
102
RTVSPost2010PropOp34
 70
     1
102
RTVSPost2010Prop35
280
     0
102
RTVSPost2010PropOp35
 70
     1
102
RTVSPost2010Prop36
280
     0
102
RTVSPost2010PropOp36
 70
     1
102
RTVSPost2010Prop37
 90
       50
102
RTVSPost2010PropOp37
 70
     0
102
RTVSPost2010Prop38
140
0.0
102
RTVSPost2010PropOp38
 70
     0
102
RTVSPost2010Prop39
140
1.0
102
RTVSPost2010PropOp39
 70
     0
102
RTVSPost2010Prop40
 90
        0
102
RTVSPost2010PropOp40
 70
     0
102
RTVSPost2010Prop41ColorIndex
 90
       18
102
RTVSPost2010Prop41ColorRGB
 90
        0
102
RTVSPost2010PropOp41
 70
     0
102
RTVSPost2010Prop42
 90
       50
102
RTVSPost2010PropOp42
 70
     0
102
RTVSPost2010Prop43
 90
        3
102
RTVSPost2010PropOp43
 70
     0
102
RTVSPost2010Prop44ColorIndex
 90
        5
102
RTVSPost2010Prop44ColorRGB
 90
      255
102
RTVSPost2010PropOp44
 70
     0
102
RTVSPost2010Prop45
280
     0
102
RTVSPost2010PropOp45
 70
     1
102
RTVSPost2010Prop46
 90
       50
102
RTVSPost2010PropOp46
 70
     0
102
RTVSPost2010Prop47
 90
       50
102
RTVSPost2010PropOp47
 70
     0
102
RTVSPost2010Prop48
 90
       50
102
RTVSPost2010PropOp48
 70
     0
102
RTVSPost2010Prop49
280
     0
102
RTVSPost2010PropOp49
 70
     1
102
RTVSPost2010Prop50
 90
       50
102
RTVSPost2010PropOp50
 70
     0
102
RTVSPost2010Prop51ColorIndex
 90
      256
102
RTVSPost2010Prop51ColorRGB
 90
-16777216
102
RTVSPost2010PropOp51
 70
     0
102
RTVSPost2010Prop52
140
1.0
102
RTVSPost2010PropOp52
 70
     0
102
RTVSPost2010Prop53
 90
        2
102
RTVSPost2010PropOp53
 70
     0
102
RTVSPost2010Prop54
  1
strokes_ogs.tif
102
RTVSPost2010PropOp54
 70
     0
102
RTVSPost2010Prop55
280
     0
102
RTVSPost2010PropOp55
 70
     1
102
RTVSPost2010Prop56
140
1.0
102
RTVSPost2010PropOp56
 70
     0
102
RTVSPost2010Prop57
140
1.0
102
RTVSPost2010PropOp57
 70
     0
  0
XRECORD
  5
3006
102
{ACAD_REACTORS
330
3005
102
}
330
3005
100
AcDbXrecord
280
     1
102
RTVSPost2010Prop28
280
     0
102
RTVSPost2010PropOp28
 70
     1
102
RTVSPost2010Prop29
280
     1
102
RTVSPost2010PropOp29
 70
     1
102
RTVSPost2010Prop30
280
     1
102
RTVSPost2010PropOp30
 70
     1
102
RTVSPost2010Prop31
280
     0
102
RTVSPost2010PropOp31
 70
     1
102
RTVSPost2010Prop32
280
     0
102
RTVSPost2010PropOp32
 70
     1
102
RTVSPost2010Prop33
280
     0
102
RTVSPost2010PropOp33
 70
     1
102
RTVSPost2010Prop34
280
     0
102
RTVSPost2010PropOp34
 70
     1
102
RTVSPost2010Prop35
280
     0
102
RTVSPost2010PropOp35
 70
     1
102
RTVSPost2010Prop36
280
     0
102
RTVSPost2010PropOp36
 70
     1
102
RTVSPost2010Prop37
 90
       50
102
RTVSPost2010PropOp37
 70
     1
102
RTVSPost2010Prop38
140
0.0
102
RTVSPost2010PropOp38
 70
     1
102
RTVSPost2010Prop39
140
1.0
102
RTVSPost2010PropOp39
 70
     1
102
RTVSPost2010Prop40
 90
        0
102
RTVSPost2010PropOp40
 70
     1
102
RTVSPost2010Prop41ColorIndex
 90
       18
102
RTVSPost2010Prop41ColorRGB
 90
        0
102
RTVSPost2010PropOp41
 70
     1
102
RTVSPost2010Prop42
 90
       50
102
RTVSPost2010PropOp42
 70
     1
102
RTVSPost2010Prop43
 90
        3
102
RTVSPost2010PropOp43
 70
     1
102
RTVSPost2010Prop44ColorIndex
 90
        5
102
RTVSPost2010Prop44ColorRGB
 90
      255
102
RTVSPost2010PropOp44
 70
     1
102
RTVSPost2010Prop45
280
     0
102
RTVSPost2010PropOp45
 70
     1
102
RTVSPost2010Prop46
 90
       50
102
RTVSPost2010PropOp46
 70
     1
102
RTVSPost2010Prop47
 90
       50
102
RTVSPost2010PropOp47
 70
     1
102
RTVSPost2010Prop48
 90
       50
102
RTVSPost2010PropOp48
 70
     1
102
RTVSPost2010Prop49
280
     0
102
RTVSPost2010PropOp49
 70
     1
102
RTVSPost2010Prop50
 90
       50
102
RTVSPost2010PropOp50
 70
     1
102
RTVSPost2010Prop51ColorIndex
 90
      256
102
RTVSPost2010Prop51ColorRGB
 90
-16777216
102
RTVSPost2010PropOp51
 70
     0
102
RTVSPost2010Prop52
140
1.0
102
RTVSPost2010PropOp52
 70
     0
102
RTVSPost2010Prop53
 90
        2
102
RTVSPost2010PropOp53
 70
     1
102
RTVSPost2010Prop54
  1
strokes_ogs.tif
102
RTVSPost2010PropOp54
 70
     1
102
RTVSPost2010Prop55
280
     0
102
RTVSPost2010PropOp55
 70
     1
102
RTVSPost2010Prop56
140
1.0
102
RTVSPost2010PropOp56
 70
     1
102
RTVSPost2010Prop57
140
1.0
102
RTVSPost2010PropOp57
 70
     1
  0
XRECORD
  5
2FEA
102
{ACAD_REACTORS
330
2FE9
102
}
330
2FE9
100
AcDbXrecord
280
     1
102
RTVSPost2010Prop28
280
     0
102
RTVSPost2010PropOp28
 70
     1
102
RTVSPost2010Prop29
280
     1
102
RTVSPost2010PropOp29
 70
     1
102
RTVSPost2010Prop30
280
     1
102
RTVSPost2010PropOp30
 70
     1
102
RTVSPost2010Prop31
280
     0
102
RTVSPost2010PropOp31
 70
     1
102
RTVSPost2010Prop32
280
     0
102
RTVSPost2010PropOp32
 70
     1
102
RTVSPost2010Prop33
280
     0
102
RTVSPost2010PropOp33
 70
     1
102
RTVSPost2010Prop34
280
     0
102
RTVSPost2010PropOp34
 70
     1
102
RTVSPost2010Prop35
280
     0
102
RTVSPost2010PropOp35
 70
     1
102
RTVSPost2010Prop36
280
     0
102
RTVSPost2010PropOp36
 70
     1
102
RTVSPost2010Prop37
 90
       50
102
RTVSPost2010PropOp37
 70
     1
102
RTVSPost2010Prop38
140
0.0
102
RTVSPost2010PropOp38
 70
     1
102
RTVSPost2010Prop39
140
1.0
102
RTVSPost2010PropOp39
 70
     1
102
RTVSPost2010Prop40
 90
        0
102
RTVSPost2010PropOp40
 70
     1
102
RTVSPost2010Prop41ColorIndex
 90
       18
102
RTVSPost2010Prop41ColorRGB
 90
        0
102
RTVSPost2010PropOp41
 70
     1
102
RTVSPost2010Prop42
 90
       50
102
RTVSPost2010PropOp42
 70
     1
102
RTVSPost2010Prop43
 90
        3
102
RTVSPost2010PropOp43
 70
     1
102
RTVSPost2010Prop44ColorIndex
 90
        5
102
RTVSPost2010Prop44ColorRGB
 90
      255
102
RTVSPost2010PropOp44
 70
     1
102
RTVSPost2010Prop45
280
     0
102
RTVSPost2010PropOp45
 70
     1
102
RTVSPost2010Prop46
 90
       50
102
RTVSPost2010PropOp46
 70
     1
102
RTVSPost2010Prop47
 90
       50
102
RTVSPost2010PropOp47
 70
     1
102
RTVSPost2010Prop48
 90
       50
102
RTVSPost2010PropOp48
 70
     1
102
RTVSPost2010Prop49
280
     0
102
RTVSPost2010PropOp49
 70
     1
102
RTVSPost2010Prop50
 90
       50
102
RTVSPost2010PropOp50
 70
     1
102
RTVSPost2010Prop51ColorIndex
 90
      256
102
RTVSPost2010Prop51ColorRGB
 90
-16777216
102
RTVSPost2010PropOp51
 70
     0
102
RTVSPost2010Prop52
140
1.0
102
RTVSPost2010PropOp52
 70
     0
102
RTVSPost2010Prop53
 90
        2
102
RTVSPost2010PropOp53
 70
     1
102
RTVSPost2010Prop54
  1
strokes_ogs.tif
102
RTVSPost2010PropOp54
 70
     1
102
RTVSPost2010Prop55
280
     0
102
RTVSPost2010PropOp55
 70
     1
102
RTVSPost2010Prop56
140
1.0
102
RTVSPost2010PropOp56
 70
     1
102
RTVSPost2010Prop57
140
1.0
102
RTVSPost2010PropOp57
 70
     1
  0
XRECORD
  5
2FEC
102
{ACAD_REACTORS
330
2FEB
102
}
330
2FEB
100
AcDbXrecord
280
     1
102
RTVSPost2010Prop28
280
     0
102
RTVSPost2010PropOp28
 70
     1
102
RTVSPost2010Prop29
280
     1
102
RTVSPost2010PropOp29
 70
     1
102
RTVSPost2010Prop30
280
     1
102
RTVSPost2010PropOp30
 70
     1
102
RTVSPost2010Prop31
280
     0
102
RTVSPost2010PropOp31
 70
     1
102
RTVSPost2010Prop32
280
     0
102
RTVSPost2010PropOp32
 70
     1
102
RTVSPost2010Prop33
280
     0
102
RTVSPost2010PropOp33
 70
     1
102
RTVSPost2010Prop34
280
     0
102
RTVSPost2010PropOp34
 70
     1
102
RTVSPost2010Prop35
280
     0
102
RTVSPost2010PropOp35
 70
     1
102
RTVSPost2010Prop36
280
     0
102
RTVSPost2010PropOp36
 70
     1
102
RTVSPost2010Prop37
 90
       50
102
RTVSPost2010PropOp37
 70
     1
102
RTVSPost2010Prop38
140
0.0
102
RTVSPost2010PropOp38
 70
     1
102
RTVSPost2010Prop39
140
1.0
102
RTVSPost2010PropOp39
 70
     1
102
RTVSPost2010Prop40
 90
        0
102
RTVSPost2010PropOp40
 70
     1
102
RTVSPost2010Prop41ColorIndex
 90
       18
102
RTVSPost2010Prop41ColorRGB
 90
        0
102
RTVSPost2010PropOp41
 70
     1
102
RTVSPost2010Prop42
 90
       50
102
RTVSPost2010PropOp42
 70
     1
102
RTVSPost2010Prop43
 90
        3
102
RTVSPost2010PropOp43
 70
     1
102
RTVSPost2010Prop44ColorIndex
 90
        5
102
RTVSPost2010Prop44ColorRGB
 90
      255
102
RTVSPost2010PropOp44
 70
     1
102
RTVSPost2010Prop45
280
     0
102
RTVSPost2010PropOp45
 70
     1
102
RTVSPost2010Prop46
 90
       50
102
RTVSPost2010PropOp46
 70
     1
102
RTVSPost2010Prop47
 90
       50
102
RTVSPost2010PropOp47
 70
     1
102
RTVSPost2010Prop48
 90
       50
102
RTVSPost2010PropOp48
 70
     1
102
RTVSPost2010Prop49
280
     0
102
RTVSPost2010PropOp49
 70
     1
102
RTVSPost2010Prop50
 90
       50
102
RTVSPost2010PropOp50
 70
     1
102
RTVSPost2010Prop51ColorIndex
 90
      256
102
RTVSPost2010Prop51ColorRGB
 90
-16777216
102
RTVSPost2010PropOp51
 70
     0
102
RTVSPost2010Prop52
140
1.0
102
RTVSPost2010PropOp52
 70
     0
102
RTVSPost2010Prop53
 90
        2
102
RTVSPost2010PropOp53
 70
     1
102
RTVSPost2010Prop54
  1
strokes_ogs.tif
102
RTVSPost2010PropOp54
 70
     1
102
RTVSPost2010Prop55
280
     0
102
RTVSPost2010PropOp55
 70
     1
102
RTVSPost2010Prop56
140
1.0
102
RTVSPost2010PropOp56
 70
     1
102
RTVSPost2010Prop57
140
1.0
102
RTVSPost2010PropOp57
 70
     1
  0
XRECORD
  5
2FEE
102
{ACAD_REACTORS
330
2FED
102
}
330
2FED
100
AcDbXrecord
280
     1
102
RTVSPost2010Prop28
280
     0
102
RTVSPost2010PropOp28
 70
     1
102
RTVSPost2010Prop29
280
     1
102
RTVSPost2010PropOp29
 70
     1
102
RTVSPost2010Prop30
280
     1
102
RTVSPost2010PropOp30
 70
     1
102
RTVSPost2010Prop31
280
     0
102
RTVSPost2010PropOp31
 70
     1
102
RTVSPost2010Prop32
280
     0
102
RTVSPost2010PropOp32
 70
     1
102
RTVSPost2010Prop33
280
     0
102
RTVSPost2010PropOp33
 70
     1
102
RTVSPost2010Prop34
280
     0
102
RTVSPost2010PropOp34
 70
     1
102
RTVSPost2010Prop35
280
     0
102
RTVSPost2010PropOp35
 70
     1
102
RTVSPost2010Prop36
280
     0
102
RTVSPost2010PropOp36
 70
     1
102
RTVSPost2010Prop37
 90
       50
102
RTVSPost2010PropOp37
 70
     1
102
RTVSPost2010Prop38
140
0.0
102
RTVSPost2010PropOp38
 70
     1
102
RTVSPost2010Prop39
140
1.0
102
RTVSPost2010PropOp39
 70
     1
102
RTVSPost2010Prop40
 90
        0
102
RTVSPost2010PropOp40
 70
     1
102
RTVSPost2010Prop41ColorIndex
 90
       18
102
RTVSPost2010Prop41ColorRGB
 90
        0
102
RTVSPost2010PropOp41
 70
     1
102
RTVSPost2010Prop42
 90
       50
102
RTVSPost2010PropOp42
 70
     1
102
RTVSPost2010Prop43
 90
        3
102
RTVSPost2010PropOp43
 70
     1
102
RTVSPost2010Prop44ColorIndex
 90
        5
102
RTVSPost2010Prop44ColorRGB
 90
      255
102
RTVSPost2010PropOp44
 70
     1
102
RTVSPost2010Prop45
280
     0
102
RTVSPost2010PropOp45
 70
     1
102
RTVSPost2010Prop46
 90
       50
102
RTVSPost2010PropOp46
 70
     1
102
RTVSPost2010Prop47
 90
       50
102
RTVSPost2010PropOp47
 70
     1
102
RTVSPost2010Prop48
 90
       50
102
RTVSPost2010PropOp48
 70
     1
102
RTVSPost2010Prop49
280
     0
102
RTVSPost2010PropOp49
 70
     1
102
RTVSPost2010Prop50
 90
       50
102
RTVSPost2010PropOp50
 70
     1
102
RTVSPost2010Prop51ColorIndex
 90
      256
102
RTVSPost2010Prop51ColorRGB
 90
-16777216
102
RTVSPost2010PropOp51
 70
     0
102
RTVSPost2010Prop52
140
1.0
102
RTVSPost2010PropOp52
 70
     0
102
RTVSPost2010Prop53
 90
        2
102
RTVSPost2010PropOp53
 70
     1
102
RTVSPost2010Prop54
  1
strokes_ogs.tif
102
RTVSPost2010PropOp54
 70
     1
102
RTVSPost2010Prop55
280
     0
102
RTVSPost2010PropOp55
 70
     1
102
RTVSPost2010Prop56
140
1.0
102
RTVSPost2010PropOp56
 70
     1
102
RTVSPost2010Prop57
140
1.0
102
RTVSPost2010PropOp57
 70
     1
  0
XRECORD
  5
2FF0
102
{ACAD_REACTORS
330
2FEF
102
}
330
2FEF
100
AcDbXrecord
280
     1
102
RTVSPost2010Prop28
280
     0
102
RTVSPost2010PropOp28
 70
     1
102
RTVSPost2010Prop29
280
     1
102
RTVSPost2010PropOp29
 70
     1
102
RTVSPost2010Prop30
280
     1
102
RTVSPost2010PropOp30
 70
     1
102
RTVSPost2010Prop31
280
     0
102
RTVSPost2010PropOp31
 70
     1
102
RTVSPost2010Prop32
280
     0
102
RTVSPost2010PropOp32
 70
     1
102
RTVSPost2010Prop33
280
     0
102
RTVSPost2010PropOp33
 70
     1
102
RTVSPost2010Prop34
280
     0
102
RTVSPost2010PropOp34
 70
     1
102
RTVSPost2010Prop35
280
     0
102
RTVSPost2010PropOp35
 70
     1
102
RTVSPost2010Prop36
280
     0
102
RTVSPost2010PropOp36
 70
     1
102
RTVSPost2010Prop37
 90
       50
102
RTVSPost2010PropOp37
 70
     1
102
RTVSPost2010Prop38
140
0.0
102
RTVSPost2010PropOp38
 70
     1
102
RTVSPost2010Prop39
140
1.0
102
RTVSPost2010PropOp39
 70
     1
102
RTVSPost2010Prop40
 90
        0
102
RTVSPost2010PropOp40
 70
     1
102
RTVSPost2010Prop41ColorIndex
 90
       18
102
RTVSPost2010Prop41ColorRGB
 90
        0
102
RTVSPost2010PropOp41
 70
     1
102
RTVSPost2010Prop42
 90
       50
102
RTVSPost2010PropOp42
 70
     1
102
RTVSPost2010Prop43
 90
        3
102
RTVSPost2010PropOp43
 70
     1
102
RTVSPost2010Prop44ColorIndex
 90
        5
102
RTVSPost2010Prop44ColorRGB
 90
      255
102
RTVSPost2010PropOp44
 70
     1
102
RTVSPost2010Prop45
280
     0
102
RTVSPost2010PropOp45
 70
     1
102
RTVSPost2010Prop46
 90
       50
102
RTVSPost2010PropOp46
 70
     1
102
RTVSPost2010Prop47
 90
       50
102
RTVSPost2010PropOp47
 70
     1
102
RTVSPost2010Prop48
 90
       50
102
RTVSPost2010PropOp48
 70
     1
102
RTVSPost2010Prop49
280
     0
102
RTVSPost2010PropOp49
 70
     1
102
RTVSPost2010Prop50
 90
       50
102
RTVSPost2010PropOp50
 70
     1
102
RTVSPost2010Prop51ColorIndex
 90
      256
102
RTVSPost2010Prop51ColorRGB
 90
-16777216
102
RTVSPost2010PropOp51
 70
     0
102
RTVSPost2010Prop52
140
1.0
102
RTVSPost2010PropOp52
 70
     0
102
RTVSPost2010Prop53
 90
        2
102
RTVSPost2010PropOp53
 70
     1
102
RTVSPost2010Prop54
  1
strokes_ogs.tif
102
RTVSPost2010PropOp54
 70
     1
102
RTVSPost2010Prop55
280
     0
102
RTVSPost2010PropOp55
 70
     1
102
RTVSPost2010Prop56
140
1.0
102
RTVSPost2010PropOp56
 70
     1
102
RTVSPost2010Prop57
140
1.0
102
RTVSPost2010PropOp57
 70
     1
  0
XRECORD
  5
2FF8
102
{ACAD_REACTORS
330
2FF7
102
}
330
2FF7
100
AcDbXrecord
280
     1
102
RTVSPost2010Prop28
280
     0
102
RTVSPost2010PropOp28
 70
     1
102
RTVSPost2010Prop29
280
     1
102
RTVSPost2010PropOp29
 70
     1
102
RTVSPost2010Prop30
280
     1
102
RTVSPost2010PropOp30
 70
     1
102
RTVSPost2010Prop31
280
     0
102
RTVSPost2010PropOp31
 70
     1
102
RTVSPost2010Prop32
280
     0
102
RTVSPost2010PropOp32
 70
     1
102
RTVSPost2010Prop33
280
     0
102
RTVSPost2010PropOp33
 70
     1
102
RTVSPost2010Prop34
280
     0
102
RTVSPost2010PropOp34
 70
     1
102
RTVSPost2010Prop35
280
     0
102
RTVSPost2010PropOp35
 70
     1
102
RTVSPost2010Prop36
280
     0
102
RTVSPost2010PropOp36
 70
     1
102
RTVSPost2010Prop37
 90
       50
102
RTVSPost2010PropOp37
 70
     1
102
RTVSPost2010Prop38
140
0.0
102
RTVSPost2010PropOp38
 70
     1
102
RTVSPost2010Prop39
140
1.0
102
RTVSPost2010PropOp39
 70
     1
102
RTVSPost2010Prop40
 90
        0
102
RTVSPost2010PropOp40
 70
     1
102
RTVSPost2010Prop41ColorIndex
 90
       18
102
RTVSPost2010Prop41ColorRGB
 90
        0
102
RTVSPost2010PropOp41
 70
     1
102
RTVSPost2010Prop42
 90
       50
102
RTVSPost2010PropOp42
 70
     1
102
RTVSPost2010Prop43
 90
        3
102
RTVSPost2010PropOp43
 70
     1
102
RTVSPost2010Prop44ColorIndex
 90
        5
102
RTVSPost2010Prop44ColorRGB
 90
      255
102
RTVSPost2010PropOp44
 70
     1
102
RTVSPost2010Prop45
280
     0
102
RTVSPost2010PropOp45
 70
     1
102
RTVSPost2010Prop46
 90
       50
102
RTVSPost2010PropOp46
 70
     1
102
RTVSPost2010Prop47
 90
       50
102
RTVSPost2010PropOp47
 70
     1
102
RTVSPost2010Prop48
 90
       50
102
RTVSPost2010PropOp48
 70
     1
102
RTVSPost2010Prop49
280
     0
102
RTVSPost2010PropOp49
 70
     1
102
RTVSPost2010Prop50
 90
       50
102
RTVSPost2010PropOp50
 70
     1
102
RTVSPost2010Prop51ColorIndex
 90
      256
102
RTVSPost2010Prop51ColorRGB
 90
-16777216
102
RTVSPost2010PropOp51
 70
     0
102
RTVSPost2010Prop52
140
1.0
102
RTVSPost2010PropOp52
 70
     0
102
RTVSPost2010Prop53
 90
        2
102
RTVSPost2010PropOp53
 70
     1
102
RTVSPost2010Prop54
  1
strokes_ogs.tif
102
RTVSPost2010PropOp54
 70
     1
102
RTVSPost2010Prop55
280
     0
102
RTVSPost2010PropOp55
 70
     1
102
RTVSPost2010Prop56
140
1.0
102
RTVSPost2010PropOp56
 70
     1
102
RTVSPost2010Prop57
140
1.0
102
RTVSPost2010PropOp57
 70
     1
  0
XRECORD
  5
3014
102
{ACAD_REACTORS
330
3013
102
}
330
3013
100
AcDbXrecord
280
     1
102
RTVSPost2010Prop28
280
     0
102
RTVSPost2010PropOp28
 70
     1
102
RTVSPost2010Prop29
280
     1
102
RTVSPost2010PropOp29
 70
     1
102
RTVSPost2010Prop30
280
     1
102
RTVSPost2010PropOp30
 70
     1
102
RTVSPost2010Prop31
280
     0
102
RTVSPost2010PropOp31
 70
     1
102
RTVSPost2010Prop32
280
     0
102
RTVSPost2010PropOp32
 70
     1
102
RTVSPost2010Prop33
280
     0
102
RTVSPost2010PropOp33
 70
     1
102
RTVSPost2010Prop34
280
     0
102
RTVSPost2010PropOp34
 70
     1
102
RTVSPost2010Prop35
280
     0
102
RTVSPost2010PropOp35
 70
     1
102
RTVSPost2010Prop36
280
     0
102
RTVSPost2010PropOp36
 70
     1
102
RTVSPost2010Prop37
 90
       50
102
RTVSPost2010PropOp37
 70
     0
102
RTVSPost2010Prop38
140
0.0
102
RTVSPost2010PropOp38
 70
     0
102
RTVSPost2010Prop39
140
1.0
102
RTVSPost2010PropOp39
 70
     0
102
RTVSPost2010Prop40
 90
        0
102
RTVSPost2010PropOp40
 70
     0
102
RTVSPost2010Prop41ColorIndex
 90
       18
102
RTVSPost2010Prop41ColorRGB
 90
        0
102
RTVSPost2010PropOp41
 70
     0
102
RTVSPost2010Prop42
 90
       50
102
RTVSPost2010PropOp42
 70
     0
102
RTVSPost2010Prop43
 90
        3
102
RTVSPost2010PropOp43
 70
     0
102
RTVSPost2010Prop44ColorIndex
 90
        5
102
RTVSPost2010Prop44ColorRGB
 90
      255
102
RTVSPost2010PropOp44
 70
     0
102
RTVSPost2010Prop45
280
     0
102
RTVSPost2010PropOp45
 70
     1
102
RTVSPost2010Prop46
 90
       50
102
RTVSPost2010PropOp46
 70
     0
102
RTVSPost2010Prop47
 90
       50
102
RTVSPost2010PropOp47
 70
     0
102
RTVSPost2010Prop48
 90
       50
102
RTVSPost2010PropOp48
 70
     0
102
RTVSPost2010Prop49
280
     0
102
RTVSPost2010PropOp49
 70
     1
102
RTVSPost2010Prop50
 90
       50
102
RTVSPost2010PropOp50
 70
     0
102
RTVSPost2010Prop51ColorIndex
 90
      256
102
RTVSPost2010Prop51ColorRGB
 90
-16777216
102
RTVSPost2010PropOp51
 70
     0
102
RTVSPost2010Prop52
140
1.0
102
RTVSPost2010PropOp52
 70
     0
102
RTVSPost2010Prop53
 90
        2
102
RTVSPost2010PropOp53
 70
     0
102
RTVSPost2010Prop54
  1
strokes_ogs.tif
102
RTVSPost2010PropOp54
 70
     0
102
RTVSPost2010Prop55
280
     0
102
RTVSPost2010PropOp55
 70
     1
102
RTVSPost2010Prop56
140
1.0
102
RTVSPost2010PropOp56
 70
     0
102
RTVSPost2010Prop57
140
1.0
102
RTVSPost2010PropOp57
 70
     0
  0
XRECORD
  5
3004
102
{ACAD_REACTORS
330
3003
102
}
330
3003
100
AcDbXrecord
280
     1
102
RTVSPost2010Prop28
280
     0
102
RTVSPost2010PropOp28
 70
     1
102
RTVSPost2010Prop29
280
     1
102
RTVSPost2010PropOp29
 70
     1
102
RTVSPost2010Prop30
280
     1
102
RTVSPost2010PropOp30
 70
     1
102
RTVSPost2010Prop31
280
     0
102
RTVSPost2010PropOp31
 70
     1
102
RTVSPost2010Prop32
280
     0
102
RTVSPost2010PropOp32
 70
     1
102
RTVSPost2010Prop33
280
     0
102
RTVSPost2010PropOp33
 70
     1
102
RTVSPost2010Prop34
280
     0
102
RTVSPost2010PropOp34
 70
     1
102
RTVSPost2010Prop35
280
     0
102
RTVSPost2010PropOp35
 70
     1
102
RTVSPost2010Prop36
280
     0
102
RTVSPost2010PropOp36
 70
     1
102
RTVSPost2010Prop37
 90
       50
102
RTVSPost2010PropOp37
 70
     1
102
RTVSPost2010Prop38
140
0.0
102
RTVSPost2010PropOp38
 70
     1
102
RTVSPost2010Prop39
140
1.0
102
RTVSPost2010PropOp39
 70
     1
102
RTVSPost2010Prop40
 90
        0
102
RTVSPost2010PropOp40
 70
     1
102
RTVSPost2010Prop41ColorIndex
 90
       18
102
RTVSPost2010Prop41ColorRGB
 90
        0
102
RTVSPost2010PropOp41
 70
     1
102
RTVSPost2010Prop42
 90
       50
102
RTVSPost2010PropOp42
 70
     1
102
RTVSPost2010Prop43
 90
        3
102
RTVSPost2010PropOp43
 70
     1
102
RTVSPost2010Prop44ColorIndex
 90
        5
102
RTVSPost2010Prop44ColorRGB
 90
      255
102
RTVSPost2010PropOp44
 70
     1
102
RTVSPost2010Prop45
280
     0
102
RTVSPost2010PropOp45
 70
     1
102
RTVSPost2010Prop46
 90
       50
102
RTVSPost2010PropOp46
 70
     1
102
RTVSPost2010Prop47
 90
       50
102
RTVSPost2010PropOp47
 70
     1
102
RTVSPost2010Prop48
 90
       50
102
RTVSPost2010PropOp48
 70
     1
102
RTVSPost2010Prop49
280
     0
102
RTVSPost2010PropOp49
 70
     1
102
RTVSPost2010Prop50
 90
       50
102
RTVSPost2010PropOp50
 70
     1
102
RTVSPost2010Prop51ColorIndex
 90
      256
102
RTVSPost2010Prop51ColorRGB
 90
-16777216
102
RTVSPost2010PropOp51
 70
     0
102
RTVSPost2010Prop52
140
1.0
102
RTVSPost2010PropOp52
 70
     0
102
RTVSPost2010Prop53
 90
        2
102
RTVSPost2010PropOp53
 70
     1
102
RTVSPost2010Prop54
  1
strokes_ogs.tif
102
RTVSPost2010PropOp54
 70
     1
102
RTVSPost2010Prop55
280
     0
102
RTVSPost2010PropOp55
 70
     1
102
RTVSPost2010Prop56
140
1.0
102
RTVSPost2010PropOp56
 70
     1
102
RTVSPost2010Prop57
140
1.0
102
RTVSPost2010PropOp57
 70
     1
  0
XRECORD
  5
3016
102
{ACAD_REACTORS
330
3015
102
}
330
3015
100
AcDbXrecord
280
     1
102
RTVSPost2010Prop28
280
     0
102
RTVSPost2010PropOp28
 70
     1
102
RTVSPost2010Prop29
280
     1
102
RTVSPost2010PropOp29
 70
     1
102
RTVSPost2010Prop30
280
     1
102
RTVSPost2010PropOp30
 70
     1
102
RTVSPost2010Prop31
280
     0
102
RTVSPost2010PropOp31
 70
     1
102
RTVSPost2010Prop32
280
     0
102
RTVSPost2010PropOp32
 70
     1
102
RTVSPost2010Prop33
280
     0
102
RTVSPost2010PropOp33
 70
     1
102
RTVSPost2010Prop34
280
     0
102
RTVSPost2010PropOp34
 70
     1
102
RTVSPost2010Prop35
280
     0
102
RTVSPost2010PropOp35
 70
     1
102
RTVSPost2010Prop36
280
     0
102
RTVSPost2010PropOp36
 70
     1
102
RTVSPost2010Prop37
 90
       50
102
RTVSPost2010PropOp37
 70
     0
102
RTVSPost2010Prop38
140
0.0
102
RTVSPost2010PropOp38
 70
     0
102
RTVSPost2010Prop39
140
1.0
102
RTVSPost2010PropOp39
 70
     0
102
RTVSPost2010Prop40
 90
        0
102
RTVSPost2010PropOp40
 70
     0
102
RTVSPost2010Prop41ColorIndex
 90
       18
102
RTVSPost2010Prop41ColorRGB
 90
        0
102
RTVSPost2010PropOp41
 70
     0
102
RTVSPost2010Prop42
 90
       50
102
RTVSPost2010PropOp42
 70
     0
102
RTVSPost2010Prop43
 90
        3
102
RTVSPost2010PropOp43
 70
     0
102
RTVSPost2010Prop44ColorIndex
 90
        5
102
RTVSPost2010Prop44ColorRGB
 90
      255
102
RTVSPost2010PropOp44
 70
     0
102
RTVSPost2010Prop45
280
     0
102
RTVSPost2010PropOp45
 70
     1
102
RTVSPost2010Prop46
 90
       50
102
RTVSPost2010PropOp46
 70
     0
102
RTVSPost2010Prop47
 90
       50
102
RTVSPost2010PropOp47
 70
     0
102
RTVSPost2010Prop48
 90
       50
102
RTVSPost2010PropOp48
 70
     0
102
RTVSPost2010Prop49
280
     0
102
RTVSPost2010PropOp49
 70
     1
102
RTVSPost2010Prop50
 90
       50
102
RTVSPost2010PropOp50
 70
     0
102
RTVSPost2010Prop51ColorIndex
 90
      256
102
RTVSPost2010Prop51ColorRGB
 90
-16777216
102
RTVSPost2010PropOp51
 70
     0
102
RTVSPost2010Prop52
140
1.0
102
RTVSPost2010PropOp52
 70
     0
102
RTVSPost2010Prop53
 90
        2
102
RTVSPost2010PropOp53
 70
     0
102
RTVSPost2010Prop54
  1
strokes_ogs.tif
102
RTVSPost2010PropOp54
 70
     0
102
RTVSPost2010Prop55
280
     0
102
RTVSPost2010PropOp55
 70
     1
102
RTVSPost2010Prop56
140
1.0
102
RTVSPost2010PropOp56
 70
     0
102
RTVSPost2010Prop57
140
1.0
102
RTVSPost2010PropOp57
 70
     0
  0
XRECORD
  5
2FFC
102
{ACAD_REACTORS
330
2FFB
102
}
330
2FFB
100
AcDbXrecord
280
     1
102
RTVSPost2010Prop28
280
     0
102
RTVSPost2010PropOp28
 70
     1
102
RTVSPost2010Prop29
280
     1
102
RTVSPost2010PropOp29
 70
     1
102
RTVSPost2010Prop30
280
     1
102
RTVSPost2010PropOp30
 70
     1
102
RTVSPost2010Prop31
280
     0
102
RTVSPost2010PropOp31
 70
     1
102
RTVSPost2010Prop32
280
     0
102
RTVSPost2010PropOp32
 70
     1
102
RTVSPost2010Prop33
280
     0
102
RTVSPost2010PropOp33
 70
     1
102
RTVSPost2010Prop34
280
     0
102
RTVSPost2010PropOp34
 70
     1
102
RTVSPost2010Prop35
280
     0
102
RTVSPost2010PropOp35
 70
     1
102
RTVSPost2010Prop36
280
     0
102
RTVSPost2010PropOp36
 70
     1
102
RTVSPost2010Prop37
 90
       50
102
RTVSPost2010PropOp37
 70
     1
102
RTVSPost2010Prop38
140
0.0
102
RTVSPost2010PropOp38
 70
     1
102
RTVSPost2010Prop39
140
1.0
102
RTVSPost2010PropOp39
 70
     1
102
RTVSPost2010Prop40
 90
        0
102
RTVSPost2010PropOp40
 70
     1
102
RTVSPost2010Prop41ColorIndex
 90
       18
102
RTVSPost2010Prop41ColorRGB
 90
        0
102
RTVSPost2010PropOp41
 70
     1
102
RTVSPost2010Prop42
 90
       50
102
RTVSPost2010PropOp42
 70
     1
102
RTVSPost2010Prop43
 90
        3
102
RTVSPost2010PropOp43
 70
     1
102
RTVSPost2010Prop44ColorIndex
 90
        5
102
RTVSPost2010Prop44ColorRGB
 90
      255
102
RTVSPost2010PropOp44
 70
     1
102
RTVSPost2010Prop45
280
     0
102
RTVSPost2010PropOp45
 70
     1
102
RTVSPost2010Prop46
 90
       50
102
RTVSPost2010PropOp46
 70
     1
102
RTVSPost2010Prop47
 90
       50
102
RTVSPost2010PropOp47
 70
     1
102
RTVSPost2010Prop48
 90
       50
102
RTVSPost2010PropOp48
 70
     1
102
RTVSPost2010Prop49
280
     0
102
RTVSPost2010PropOp49
 70
     1
102
RTVSPost2010Prop50
 90
       50
102
RTVSPost2010PropOp50
 70
     1
102
RTVSPost2010Prop51ColorIndex
 90
      256
102
RTVSPost2010Prop51ColorRGB
 90
-16777216
102
RTVSPost2010PropOp51
 70
     0
102
RTVSPost2010Prop52
140
1.0
102
RTVSPost2010PropOp52
 70
     0
102
RTVSPost2010Prop53
 90
        2
102
RTVSPost2010PropOp53
 70
     1
102
RTVSPost2010Prop54
  1
strokes_ogs.tif
102
RTVSPost2010PropOp54
 70
     1
102
RTVSPost2010Prop55
280
     0
102
RTVSPost2010PropOp55
 70
     1
102
RTVSPost2010Prop56
140
1.0
102
RTVSPost2010PropOp56
 70
     1
102
RTVSPost2010Prop57
140
1.0
102
RTVSPost2010PropOp57
 70
     1
  0
XRECORD
  5
3012
102
{ACAD_REACTORS
330
3011
102
}
330
3011
100
AcDbXrecord
280
     1
102
RTVSPost2010Prop28
280
     0
102
RTVSPost2010PropOp28
 70
     1
102
RTVSPost2010Prop29
280
     1
102
RTVSPost2010PropOp29
 70
     1
102
RTVSPost2010Prop30
280
     1
102
RTVSPost2010PropOp30
 70
     1
102
RTVSPost2010Prop31
280
     0
102
RTVSPost2010PropOp31
 70
     1
102
RTVSPost2010Prop32
280
     0
102
RTVSPost2010PropOp32
 70
     1
102
RTVSPost2010Prop33
280
     0
102
RTVSPost2010PropOp33
 70
     1
102
RTVSPost2010Prop34
280
     0
102
RTVSPost2010PropOp34
 70
     1
102
RTVSPost2010Prop35
280
     0
102
RTVSPost2010PropOp35
 70
     1
102
RTVSPost2010Prop36
280
     0
102
RTVSPost2010PropOp36
 70
     1
102
RTVSPost2010Prop37
 90
       50
102
RTVSPost2010PropOp37
 70
     1
102
RTVSPost2010Prop38
140
0.0
102
RTVSPost2010PropOp38
 70
     1
102
RTVSPost2010Prop39
140
1.0
102
RTVSPost2010PropOp39
 70
     1
102
RTVSPost2010Prop40
 90
        0
102
RTVSPost2010PropOp40
 70
     1
102
RTVSPost2010Prop41ColorIndex
 90
       18
102
RTVSPost2010Prop41ColorRGB
 90
        0
102
RTVSPost2010PropOp41
 70
     1
102
RTVSPost2010Prop42
 90
       50
102
RTVSPost2010PropOp42
 70
     1
102
RTVSPost2010Prop43
 90
        3
102
RTVSPost2010PropOp43
 70
     1
102
RTVSPost2010Prop44ColorIndex
 90
        5
102
RTVSPost2010Prop44ColorRGB
 90
      255
102
RTVSPost2010PropOp44
 70
     1
102
RTVSPost2010Prop45
280
     0
102
RTVSPost2010PropOp45
 70
     1
102
RTVSPost2010Prop46
 90
       50
102
RTVSPost2010PropOp46
 70
     1
102
RTVSPost2010Prop47
 90
       50
102
RTVSPost2010PropOp47
 70
     1
102
RTVSPost2010Prop48
 90
       50
102
RTVSPost2010PropOp48
 70
     1
102
RTVSPost2010Prop49
280
     0
102
RTVSPost2010PropOp49
 70
     1
102
RTVSPost2010Prop50
 90
       50
102
RTVSPost2010PropOp50
 70
     1
102
RTVSPost2010Prop51ColorIndex
 90
      256
102
RTVSPost2010Prop51ColorRGB
 90
-16777216
102
RTVSPost2010PropOp51
 70
     0
102
RTVSPost2010Prop52
140
1.0
102
RTVSPost2010PropOp52
 70
     0
102
RTVSPost2010Prop53
 90
        2
102
RTVSPost2010PropOp53
 70
     1
102
RTVSPost2010Prop54
  1
strokes_ogs.tif
102
RTVSPost2010PropOp54
 70
     1
102
RTVSPost2010Prop55
280
     0
102
RTVSPost2010PropOp55
 70
     1
102
RTVSPost2010Prop56
140
1.0
102
RTVSPost2010PropOp56
 70
     1
102
RTVSPost2010Prop57
140
1.0
102
RTVSPost2010PropOp57
 70
     1
  0
XRECORD
  5
3010
102
{ACAD_REACTORS
330
300F
102
}
330
300F
100
AcDbXrecord
280
     1
102
RTVSPost2010Prop28
280
     0
102
RTVSPost2010PropOp28
 70
     1
102
RTVSPost2010Prop29
280
     1
102
RTVSPost2010PropOp29
 70
     1
102
RTVSPost2010Prop30
280
     1
102
RTVSPost2010PropOp30
 70
     1
102
RTVSPost2010Prop31
280
     0
102
RTVSPost2010PropOp31
 70
     1
102
RTVSPost2010Prop32
280
     0
102
RTVSPost2010PropOp32
 70
     1
102
RTVSPost2010Prop33
280
     0
102
RTVSPost2010PropOp33
 70
     1
102
RTVSPost2010Prop34
280
     0
102
RTVSPost2010PropOp34
 70
     1
102
RTVSPost2010Prop35
280
     0
102
RTVSPost2010PropOp35
 70
     1
102
RTVSPost2010Prop36
280
     0
102
RTVSPost2010PropOp36
 70
     1
102
RTVSPost2010Prop37
 90
       50
102
RTVSPost2010PropOp37
 70
     1
102
RTVSPost2010Prop38
140
0.0
102
RTVSPost2010PropOp38
 70
     1
102
RTVSPost2010Prop39
140
1.0
102
RTVSPost2010PropOp39
 70
     1
102
RTVSPost2010Prop40
 90
        0
102
RTVSPost2010PropOp40
 70
     1
102
RTVSPost2010Prop41ColorIndex
 90
       18
102
RTVSPost2010Prop41ColorRGB
 90
        0
102
RTVSPost2010PropOp41
 70
     1
102
RTVSPost2010Prop42
 90
       50
102
RTVSPost2010PropOp42
 70
     1
102
RTVSPost2010Prop43
 90
        3
102
RTVSPost2010PropOp43
 70
     1
102
RTVSPost2010Prop44ColorIndex
 90
        5
102
RTVSPost2010Prop44ColorRGB
 90
      255
102
RTVSPost2010PropOp44
 70
     1
102
RTVSPost2010Prop45
280
     0
102
RTVSPost2010PropOp45
 70
     1
102
RTVSPost2010Prop46
 90
       50
102
RTVSPost2010PropOp46
 70
     1
102
RTVSPost2010Prop47
 90
       50
102
RTVSPost2010PropOp47
 70
     1
102
RTVSPost2010Prop48
 90
       50
102
RTVSPost2010PropOp48
 70
     1
102
RTVSPost2010Prop49
280
     0
102
RTVSPost2010PropOp49
 70
     1
102
RTVSPost2010Prop50
 90
       50
102
RTVSPost2010PropOp50
 70
     1
102
RTVSPost2010Prop51ColorIndex
 90
      256
102
RTVSPost2010Prop51ColorRGB
 90
-16777216
102
RTVSPost2010PropOp51
 70
     0
102
RTVSPost2010Prop52
140
1.0
102
RTVSPost2010PropOp52
 70
     0
102
RTVSPost2010Prop53
 90
        2
102
RTVSPost2010PropOp53
 70
     1
102
RTVSPost2010Prop54
  1
strokes_ogs.tif
102
RTVSPost2010PropOp54
 70
     1
102
RTVSPost2010Prop55
280
     0
102
RTVSPost2010PropOp55
 70
     1
102
RTVSPost2010Prop56
140
1.0
102
RTVSPost2010PropOp56
 70
     1
102
RTVSPost2010Prop57
140
1.0
102
RTVSPost2010PropOp57
 70
     1
  0
XRECORD
  5
300A
102
{ACAD_REACTORS
330
3009
102
}
330
3009
100
AcDbXrecord
280
     1
102
RTVSPost2010Prop28
280
     0
102
RTVSPost2010PropOp28
 70
     1
102
RTVSPost2010Prop29
280
     1
102
RTVSPost2010PropOp29
 70
     1
102
RTVSPost2010Prop30
280
     1
102
RTVSPost2010PropOp30
 70
     1
102
RTVSPost2010Prop31
280
     0
102
RTVSPost2010PropOp31
 70
     1
102
RTVSPost2010Prop32
280
     0
102
RTVSPost2010PropOp32
 70
     1
102
RTVSPost2010Prop33
280
     0
102
RTVSPost2010PropOp33
 70
     1
102
RTVSPost2010Prop34
280
     0
102
RTVSPost2010PropOp34
 70
     1
102
RTVSPost2010Prop35
280
     0
102
RTVSPost2010PropOp35
 70
     1
102
RTVSPost2010Prop36
280
     0
102
RTVSPost2010PropOp36
 70
     1
102
RTVSPost2010Prop37
 90
       50
102
RTVSPost2010PropOp37
 70
     1
102
RTVSPost2010Prop38
140
0.0
102
RTVSPost2010PropOp38
 70
     1
102
RTVSPost2010Prop39
140
1.0
102
RTVSPost2010PropOp39
 70
     1
102
RTVSPost2010Prop40
 90
        0
102
RTVSPost2010PropOp40
 70
     1
102
RTVSPost2010Prop41ColorIndex
 90
       18
102
RTVSPost2010Prop41ColorRGB
 90
        0
102
RTVSPost2010PropOp41
 70
     1
102
RTVSPost2010Prop42
 90
       50
102
RTVSPost2010PropOp42
 70
     1
102
RTVSPost2010Prop43
 90
        3
102
RTVSPost2010PropOp43
 70
     1
102
RTVSPost2010Prop44ColorIndex
 90
        5
102
RTVSPost2010Prop44ColorRGB
 90
      255
102
RTVSPost2010PropOp44
 70
     1
102
RTVSPost2010Prop45
280
     0
102
RTVSPost2010PropOp45
 70
     1
102
RTVSPost2010Prop46
 90
       50
102
RTVSPost2010PropOp46
 70
     1
102
RTVSPost2010Prop47
 90
       50
102
RTVSPost2010PropOp47
 70
     1
102
RTVSPost2010Prop48
 90
       50
102
RTVSPost2010PropOp48
 70
     1
102
RTVSPost2010Prop49
280
     0
102
RTVSPost2010PropOp49
 70
     1
102
RTVSPost2010Prop50
 90
       50
102
RTVSPost2010PropOp50
 70
     1
102
RTVSPost2010Prop51ColorIndex
 90
      256
102
RTVSPost2010Prop51ColorRGB
 90
-16777216
102
RTVSPost2010PropOp51
 70
     0
102
RTVSPost2010Prop52
140
1.0
102
RTVSPost2010PropOp52
 70
     0
102
RTVSPost2010Prop53
 90
        2
102
RTVSPost2010PropOp53
 70
     1
102
RTVSPost2010Prop54
  1
strokes_ogs.tif
102
RTVSPost2010PropOp54
 70
     1
102
RTVSPost2010Prop55
280
     0
102
RTVSPost2010PropOp55
 70
     1
102
RTVSPost2010Prop56
140
1.0
102
RTVSPost2010PropOp56
 70
     1
102
RTVSPost2010Prop57
140
1.0
102
RTVSPost2010PropOp57
 70
     1
  0
XRECORD
  5
300C
102
{ACAD_REACTORS
330
300B
102
}
330
300B
100
AcDbXrecord
280
     1
102
RTVSPost2010Prop28
280
     0
102
RTVSPost2010PropOp28
 70
     1
102
RTVSPost2010Prop29
280
     1
102
RTVSPost2010PropOp29
 70
     1
102
RTVSPost2010Prop30
280
     1
102
RTVSPost2010PropOp30
 70
     1
102
RTVSPost2010Prop31
280
     0
102
RTVSPost2010PropOp31
 70
     1
102
RTVSPost2010Prop32
280
     0
102
RTVSPost2010PropOp32
 70
     1
102
RTVSPost2010Prop33
280
     0
102
RTVSPost2010PropOp33
 70
     1
102
RTVSPost2010Prop34
280
     0
102
RTVSPost2010PropOp34
 70
     1
102
RTVSPost2010Prop35
280
     0
102
RTVSPost2010PropOp35
 70
     1
102
RTVSPost2010Prop36
280
     0
102
RTVSPost2010PropOp36
 70
     1
102
RTVSPost2010Prop37
 90
       50
102
RTVSPost2010PropOp37
 70
     1
102
RTVSPost2010Prop38
140
0.0
102
RTVSPost2010PropOp38
 70
     1
102
RTVSPost2010Prop39
140
1.0
102
RTVSPost2010PropOp39
 70
     1
102
RTVSPost2010Prop40
 90
        0
102
RTVSPost2010PropOp40
 70
     1
102
RTVSPost2010Prop41ColorIndex
 90
       18
102
RTVSPost2010Prop41ColorRGB
 90
        0
102
RTVSPost2010PropOp41
 70
     1
102
RTVSPost2010Prop42
 90
       50
102
RTVSPost2010PropOp42
 70
     1
102
RTVSPost2010Prop43
 90
        3
102
RTVSPost2010PropOp43
 70
     1
102
RTVSPost2010Prop44ColorIndex
 90
        5
102
RTVSPost2010Prop44ColorRGB
 90
      255
102
RTVSPost2010PropOp44
 70
     1
102
RTVSPost2010Prop45
280
     0
102
RTVSPost2010PropOp45
 70
     1
102
RTVSPost2010Prop46
 90
       50
102
RTVSPost2010PropOp46
 70
     1
102
RTVSPost2010Prop47
 90
       50
102
RTVSPost2010PropOp47
 70
     1
102
RTVSPost2010Prop48
 90
       50
102
RTVSPost2010PropOp48
 70
     1
102
RTVSPost2010Prop49
280
     0
102
RTVSPost2010PropOp49
 70
     1
102
RTVSPost2010Prop50
 90
       50
102
RTVSPost2010PropOp50
 70
     1
102
RTVSPost2010Prop51ColorIndex
 90
      256
102
RTVSPost2010Prop51ColorRGB
 90
-16777216
102
RTVSPost2010PropOp51
 70
     0
102
RTVSPost2010Prop52
140
1.0
102
RTVSPost2010PropOp52
 70
     0
102
RTVSPost2010Prop53
 90
        2
102
RTVSPost2010PropOp53
 70
     1
102
RTVSPost2010Prop54
  1
strokes_ogs.tif
102
RTVSPost2010PropOp54
 70
     1
102
RTVSPost2010Prop55
280
     0
102
RTVSPost2010PropOp55
 70
     1
102
RTVSPost2010Prop56
140
1.0
102
RTVSPost2010PropOp56
 70
     1
102
RTVSPost2010Prop57
140
1.0
102
RTVSPost2010PropOp57
 70
     1
  0
XRECORD
  5
3002
102
{ACAD_REACTORS
330
3001
102
}
330
3001
100
AcDbXrecord
280
     1
102
RTVSPost2010Prop28
280
     0
102
RTVSPost2010PropOp28
 70
     1
102
RTVSPost2010Prop29
280
     1
102
RTVSPost2010PropOp29
 70
     1
102
RTVSPost2010Prop30
280
     1
102
RTVSPost2010PropOp30
 70
     1
102
RTVSPost2010Prop31
280
     0
102
RTVSPost2010PropOp31
 70
     1
102
RTVSPost2010Prop32
280
     0
102
RTVSPost2010PropOp32
 70
     1
102
RTVSPost2010Prop33
280
     0
102
RTVSPost2010PropOp33
 70
     1
102
RTVSPost2010Prop34
280
     0
102
RTVSPost2010PropOp34
 70
     1
102
RTVSPost2010Prop35
280
     0
102
RTVSPost2010PropOp35
 70
     1
102
RTVSPost2010Prop36
280
     0
102
RTVSPost2010PropOp36
 70
     1
102
RTVSPost2010Prop37
 90
       50
102
RTVSPost2010PropOp37
 70
     1
102
RTVSPost2010Prop38
140
0.0
102
RTVSPost2010PropOp38
 70
     1
102
RTVSPost2010Prop39
140
1.0
102
RTVSPost2010PropOp39
 70
     1
102
RTVSPost2010Prop40
 90
        0
102
RTVSPost2010PropOp40
 70
     1
102
RTVSPost2010Prop41ColorIndex
 90
       18
102
RTVSPost2010Prop41ColorRGB
 90
        0
102
RTVSPost2010PropOp41
 70
     1
102
RTVSPost2010Prop42
 90
       50
102
RTVSPost2010PropOp42
 70
     1
102
RTVSPost2010Prop43
 90
        3
102
RTVSPost2010PropOp43
 70
     1
102
RTVSPost2010Prop44ColorIndex
 90
        5
102
RTVSPost2010Prop44ColorRGB
 90
      255
102
RTVSPost2010PropOp44
 70
     1
102
RTVSPost2010Prop45
280
     0
102
RTVSPost2010PropOp45
 70
     1
102
RTVSPost2010Prop46
 90
       50
102
RTVSPost2010PropOp46
 70
     1
102
RTVSPost2010Prop47
 90
       50
102
RTVSPost2010PropOp47
 70
     1
102
RTVSPost2010Prop48
 90
       50
102
RTVSPost2010PropOp48
 70
     1
102
RTVSPost2010Prop49
280
     0
102
RTVSPost2010PropOp49
 70
     1
102
RTVSPost2010Prop50
 90
       50
102
RTVSPost2010PropOp50
 70
     1
102
RTVSPost2010Prop51ColorIndex
 90
      256
102
RTVSPost2010Prop51ColorRGB
 90
-16777216
102
RTVSPost2010PropOp51
 70
     0
102
RTVSPost2010Prop52
140
1.0
102
RTVSPost2010PropOp52
 70
     0
102
RTVSPost2010Prop53
 90
        2
102
RTVSPost2010PropOp53
 70
     1
102
RTVSPost2010Prop54
  1
strokes_ogs.tif
102
RTVSPost2010PropOp54
 70
     1
102
RTVSPost2010Prop55
280
     0
102
RTVSPost2010PropOp55
 70
     1
102
RTVSPost2010Prop56
140
1.0
102
RTVSPost2010PropOp56
 70
     1
102
RTVSPost2010Prop57
140
1.0
102
RTVSPost2010PropOp57
 70
     1
  0
XRECORD
  5
2FF6
102
{ACAD_REACTORS
330
2FF5
102
}
330
2FF5
100
AcDbXrecord
280
     1
102
RTVSPost2010Prop28
280
     0
102
RTVSPost2010PropOp28
 70
     1
102
RTVSPost2010Prop29
280
     1
102
RTVSPost2010PropOp29
 70
     1
102
RTVSPost2010Prop30
280
     1
102
RTVSPost2010PropOp30
 70
     1
102
RTVSPost2010Prop31
280
     0
102
RTVSPost2010PropOp31
 70
     1
102
RTVSPost2010Prop32
280
     0
102
RTVSPost2010PropOp32
 70
     1
102
RTVSPost2010Prop33
280
     0
102
RTVSPost2010PropOp33
 70
     1
102
RTVSPost2010Prop34
280
     0
102
RTVSPost2010PropOp34
 70
     1
102
RTVSPost2010Prop35
280
     0
102
RTVSPost2010PropOp35
 70
     1
102
RTVSPost2010Prop36
280
     0
102
RTVSPost2010PropOp36
 70
     1
102
RTVSPost2010Prop37
 90
       50
102
RTVSPost2010PropOp37
 70
     1
102
RTVSPost2010Prop38
140
0.0
102
RTVSPost2010PropOp38
 70
     1
102
RTVSPost2010Prop39
140
1.0
102
RTVSPost2010PropOp39
 70
     1
102
RTVSPost2010Prop40
 90
        0
102
RTVSPost2010PropOp40
 70
     1
102
RTVSPost2010Prop41ColorIndex
 90
       18
102
RTVSPost2010Prop41ColorRGB
 90
        0
102
RTVSPost2010PropOp41
 70
     1
102
RTVSPost2010Prop42
 90
       50
102
RTVSPost2010PropOp42
 70
     1
102
RTVSPost2010Prop43
 90
        3
102
RTVSPost2010PropOp43
 70
     1
102
RTVSPost2010Prop44ColorIndex
 90
        5
102
RTVSPost2010Prop44ColorRGB
 90
      255
102
RTVSPost2010PropOp44
 70
     1
102
RTVSPost2010Prop45
280
     0
102
RTVSPost2010PropOp45
 70
     1
102
RTVSPost2010Prop46
 90
       50
102
RTVSPost2010PropOp46
 70
     1
102
RTVSPost2010Prop47
 90
       50
102
RTVSPost2010PropOp47
 70
     1
102
RTVSPost2010Prop48
 90
       50
102
RTVSPost2010PropOp48
 70
     1
102
RTVSPost2010Prop49
280
     0
102
RTVSPost2010PropOp49
 70
     1
102
RTVSPost2010Prop50
 90
       50
102
RTVSPost2010PropOp50
 70
     1
102
RTVSPost2010Prop51ColorIndex
 90
      256
102
RTVSPost2010Prop51ColorRGB
 90
-16777216
102
RTVSPost2010PropOp51
 70
     0
102
RTVSPost2010Prop52
140
1.0
102
RTVSPost2010PropOp52
 70
     0
102
RTVSPost2010Prop53
 90
        2
102
RTVSPost2010PropOp53
 70
     1
102
RTVSPost2010Prop54
  1
strokes_ogs.tif
102
RTVSPost2010PropOp54
 70
     1
102
RTVSPost2010Prop55
280
     0
102
RTVSPost2010PropOp55
 70
     1
102
RTVSPost2010Prop56
140
1.0
102
RTVSPost2010PropOp56
 70
     1
102
RTVSPost2010Prop57
140
1.0
102
RTVSPost2010PropOp57
 70
     1
  0
XRECORD
  5
300E
102
{ACAD_REACTORS
330
300D
102
}
330
300D
100
AcDbXrecord
280
     1
102
RTVSPost2010Prop28
280
     0
102
RTVSPost2010PropOp28
 70
     1
102
RTVSPost2010Prop29
280
     1
102
RTVSPost2010PropOp29
 70
     1
102
RTVSPost2010Prop30
280
     1
102
RTVSPost2010PropOp30
 70
     1
102
RTVSPost2010Prop31
280
     0
102
RTVSPost2010PropOp31
 70
     1
102
RTVSPost2010Prop32
280
     0
102
RTVSPost2010PropOp32
 70
     1
102
RTVSPost2010Prop33
280
     0
102
RTVSPost2010PropOp33
 70
     1
102
RTVSPost2010Prop34
280
     0
102
RTVSPost2010PropOp34
 70
     1
102
RTVSPost2010Prop35
280
     0
102
RTVSPost2010PropOp35
 70
     1
102
RTVSPost2010Prop36
280
     0
102
RTVSPost2010PropOp36
 70
     1
102
RTVSPost2010Prop37
 90
       50
102
RTVSPost2010PropOp37
 70
     1
102
RTVSPost2010Prop38
140
0.0
102
RTVSPost2010PropOp38
 70
     1
102
RTVSPost2010Prop39
140
1.0
102
RTVSPost2010PropOp39
 70
     1
102
RTVSPost2010Prop40
 90
        0
102
RTVSPost2010PropOp40
 70
     1
102
RTVSPost2010Prop41ColorIndex
 90
       18
102
RTVSPost2010Prop41ColorRGB
 90
        0
102
RTVSPost2010PropOp41
 70
     1
102
RTVSPost2010Prop42
 90
       50
102
RTVSPost2010PropOp42
 70
     1
102
RTVSPost2010Prop43
 90
        3
102
RTVSPost2010PropOp43
 70
     1
102
RTVSPost2010Prop44ColorIndex
 90
        5
102
RTVSPost2010Prop44ColorRGB
 90
      255
102
RTVSPost2010PropOp44
 70
     1
102
RTVSPost2010Prop45
280
     0
102
RTVSPost2010PropOp45
 70
     1
102
RTVSPost2010Prop46
 90
       50
102
RTVSPost2010PropOp46
 70
     1
102
RTVSPost2010Prop47
 90
       50
102
RTVSPost2010PropOp47
 70
     1
102
RTVSPost2010Prop48
 90
       50
102
RTVSPost2010PropOp48
 70
     1
102
RTVSPost2010Prop49
280
     0
102
RTVSPost2010PropOp49
 70
     1
102
RTVSPost2010Prop50
 90
       50
102
RTVSPost2010PropOp50
 70
     1
102
RTVSPost2010Prop51ColorIndex
 90
      256
102
RTVSPost2010Prop51ColorRGB
 90
-16777216
102
RTVSPost2010PropOp51
 70
     0
102
RTVSPost2010Prop52
140
1.0
102
RTVSPost2010PropOp52
 70
     0
102
RTVSPost2010Prop53
 90
        2
102
RTVSPost2010PropOp53
 70
     1
102
RTVSPost2010Prop54
  1
strokes_ogs.tif
102
RTVSPost2010PropOp54
 70
     1
102
RTVSPost2010Prop55
280
     0
102
RTVSPost2010PropOp55
 70
     1
102
RTVSPost2010Prop56
140
1.0
102
RTVSPost2010PropOp56
 70
     1
102
RTVSPost2010Prop57
140
1.0
102
RTVSPost2010PropOp57
 70
     1
  0
ENDSEC
  0
EOF
