  0
SECTION
  2
HEADER
  9
$ACADVER
  1
AC1024
  9
$ACADMAINTVER
 70
   226
  9
$DWGCODEPAGE
  3
ANSI_932
  9
$LASTSAVEDBY
  1
y-sakai
  9
$INSBASE
 10
0.0
 20
0.0
 30
0.0
  9
$EXTMIN
 10
142.9852186334464
 20
308.0568552947477
 30
-0.0000000000112498
  9
$EXTMAX
 10
1084.803851185487
 20
987.2794293273997
 30
0.0000000000002956
  9
$LIMMIN
 10
0.0
 20
0.0
  9
$LIMMAX
 10
1422.5
 20
925.0
  9
$ORTHOMODE
 70
     0
  9
$REGENMODE
 70
     1
  9
$FILLMODE
 70
     1
  9
$QTEXTMODE
 70
     0
  9
$MIRRTEXT
 70
     1
  9
$LTSCALE
 40
5.0
  9
$ATTMODE
 70
     1
  9
$TEXTSIZE
 40
2.5
  9
$TRACEWID
 40
1.0
  9
$TEXTSTYLE
  7
STANDARD
  9
$CLAYER
  8
AM_0
  9
$CELTYPE
  6
ByLayer
  9
$CECOLOR
 62
   256
  9
$CELTSCALE
 40
1.0
  9
$DISPSILH
 70
     0
  9
$DIMSCALE
 40
1.0
  9
$DIMASZ
 40
2.5
  9
$DIMEXO
 40
1.0
  9
$DIMDLI
 40
8.0
  9
$DIMRND
 40
0.0
  9
$DIMDLE
 40
0.0
  9
$DIMEXE
 40
0.6
  9
$DIMTP
 40
0.1
  9
$DIMTM
 40
0.1
  9
$DIMTXT
 40
2.5
  9
$DIMCEN
 40
0.0
  9
$DIMTSZ
 40
0.0
  9
$DIMTOL
 70
     0
  9
$DIMLIM
 70
     0
  9
$DIMTIH
 70
     0
  9
$DIMTOH
 70
     0
  9
$DIMSE1
 70
     0
  9
$DIMSE2
 70
     0
  9
$DIMTAD
 70
     1
  9
$DIMZIN
 70
     8
  9
$DIMBLK
  1

  9
$DIMASO
 70
     1
  9
$DIMSHO
 70
     1
  9
$DIMPOST
  1

  9
$DIMAPOST
  1
"
  9
$DIMALT
 70
     0
  9
$DIMALTD
 70
     2
  9
$DIMALTF
 40
0.0393701
  9
$DIMLFAC
 40
1.0
  9
$DIMTOFL
 70
     1
  9
$DIMTVP
 40
0.0
  9
$DIMTIX
 70
     0
  9
$DIMSOXD
 70
     0
  9
$DIMSAH
 70
     0
  9
$DIMBLK1
  1

  9
$DIMBLK2
  1

  9
$DIMSTYLE
  2
AM_ISO
  9
$DIMCLRD
 70
   256
  9
$DIMCLRE
 70
   256
  9
$DIMCLRT
 70
     4
  9
$DIMTFAC
 40
0.71
  9
$DIMGAP
 40
0.8
  9
$DIMJUST
 70
     0
  9
$DIMSD1
 70
     0
  9
$DIMSD2
 70
     0
  9
$DIMTOLJ
 70
     1
  9
$DIMTZIN
 70
     0
  9
$DIMALTZ
 70
     0
  9
$DIMALTTZ
 70
     0
  9
$DIMUPT
 70
     0
  9
$DIMDEC
 70
     4
  9
$DIMTDEC
 70
     4
  9
$DIMALTU
 70
     2
  9
$DIMALTTD
 70
     2
  9
$DIMTXSTY
  7
STANDARD
  9
$DIMAUNIT
 70
     0
  9
$DIMADEC
 70
     0
  9
$DIMALTRND
 40
0.0
  9
$DIMAZIN
 70
     0
  9
$DIMDSEP
 70
    46
  9
$DIMATFIT
 70
     3
  9
$DIMFRAC
 70
     0
  9
$DIMLDRBLK
  1

  9
$DIMLUNIT
 70
     2
  9
$DIMLWD
 70
    -2
  9
$DIMLWE
 70
    -2
  9
$DIMTMOVE
 70
     0
  9
$DIMFXL
 40
1.0
  9
$DIMFXLON
 70
     0
  9
$DIMJOGANG
 40
0.7853981633974483
  9
$DIMTFILL
 70
     0
  9
$DIMTFILLCLR
 70
     0
  9
$DIMARCSYM
 70
     0
  9
$DIMLTYPE
  6

  9
$DIMLTEX1
  6

  9
$DIMLTEX2
  6

  9
$DIMTXTDIRECTION
 70
     0
  9
$LUNITS
 70
     2
  9
$LUPREC
 70
     2
  9
$SKETCHINC
 40
1.0
  9
$FILLETRAD
 40
25.0
  9
$AUNITS
 70
     0
  9
$AUPREC
 70
     0
  9
$MENU
  1
.
  9
$ELEVATION
 40
0.0
  9
$PELEVATION
 40
0.0
  9
$THICKNESS
 40
0.0
  9
$LIMCHECK
 70
     0
  9
$CHAMFERA
 40
10.0
  9
$CHAMFERB
 40
5.0
  9
$CHAMFERC
 40
0.0
  9
$CHAMFERD
 40
0.0
  9
$SKPOLY
 70
     0
  9
$TDCREATE
 40
2452066.575879630
  9
$TDUCREATE
 40
2452066.200879630
  9
$TDUPDATE
 40
2460362.584768518
  9
$TDUUPDATE
 40
2460362.209768518
  9
$TDINDWG
 40
0.1118124537
  9
$TDUSRTIMER
 40
0.1118122454
  9
$USRTIMER
 70
     1
  9
$ANGBASE
 50
0.0
  9
$ANGDIR
 70
     0
  9
$PDMODE
 70
     0
  9
$PDSIZE
 40
0.0
  9
$PLINEWID
 40
0.0
  9
$SPLFRAME
 70
     0
  9
$SPLINETYPE
 70
     6
  9
$SPLINESEGS
 70
     8
  9
$HANDSEED
  5
3133
  9
$SURFTAB1
 70
     6
  9
$SURFTAB2
 70
     6
  9
$SURFTYPE
 70
     6
  9
$SURFU
 70
     6
  9
$SURFV
 70
     6
  9
$UCSBASE
  2

  9
$UCSNAME
  2

  9
$UCSORG
 10
0.0
 20
0.0
 30
0.0
  9
$UCSXDIR
 10
1.0
 20
0.0
 30
0.0
  9
$UCSYDIR
 10
0.0
 20
1.0
 30
0.0
  9
$UCSORTHOREF
  2

  9
$UCSORTHOVIEW
 70
     0
  9
$UCSORGTOP
 10
0.0
 20
0.0
 30
0.0
  9
$UCSORGBOTTOM
 10
0.0
 20
0.0
 30
0.0
  9
$UCSORGLEFT
 10
0.0
 20
0.0
 30
0.0
  9
$UCSORGRIGHT
 10
0.0
 20
0.0
 30
0.0
  9
$UCSORGFRONT
 10
0.0
 20
0.0
 30
0.0
  9
$UCSORGBACK
 10
0.0
 20
0.0
 30
0.0
  9
$PUCSBASE
  2

  9
$PUCSNAME
  2

  9
$PUCSORG
 10
0.0
 20
0.0
 30
0.0
  9
$PUCSXDIR
 10
1.0
 20
0.0
 30
0.0
  9
$PUCSYDIR
 10
0.0
 20
1.0
 30
0.0
  9
$PUCSORTHOREF
  2

  9
$PUCSORTHOVIEW
 70
     0
  9
$PUCSORGTOP
 10
0.0
 20
0.0
 30
0.0
  9
$PUCSORGBOTTOM
 10
0.0
 20
0.0
 30
0.0
  9
$PUCSORGLEFT
 10
0.0
 20
0.0
 30
0.0
  9
$PUCSORGRIGHT
 10
0.0
 20
0.0
 30
0.0
  9
$PUCSORGFRONT
 10
0.0
 20
0.0
 30
0.0
  9
$PUCSORGBACK
 10
0.0
 20
0.0
 30
0.0
  9
$USERI1
 70
     0
  9
$USERI2
 70
     0
  9
$USERI3
 70
     0
  9
$USERI4
 70
     0
  9
$USERI5
 70
     0
  9
$USERR1
 40
0.0
  9
$USERR2
 40
0.0
  9
$USERR3
 40
0.0
  9
$USERR4
 40
0.0
  9
$USERR5
 40
0.0
  9
$WORLDVIEW
 70
     1
  9
$SHADEDGE
 70
     3
  9
$SHADEDIF
 70
    70
  9
$TILEMODE
 70
     1
  9
$MAXACTVP
 70
    64
  9
$PINSBASE
 10
0.0
 20
0.0
 30
0.0
  9
$PLIMCHECK
 70
     0
  9
$PEXTMIN
 10
1.000000000000000E+20
 20
1.000000000000000E+20
 30
1.000000000000000E+20
  9
$PEXTMAX
 10
-1.000000000000000E+20
 20
-1.000000000000000E+20
 30
-1.000000000000000E+20
  9
$PLIMMIN
 10
0.0
 20
0.0
  9
$PLIMMAX
 10
420.0
 20
297.0
  9
$UNITMODE
 70
     0
  9
$VISRETAIN
 70
     1
  9
$PLINEGEN
 70
     0
  9
$PSLTSCALE
 70
     1
  9
$TREEDEPTH
 70
  3020
  9
$CMLSTYLE
  2
Standard
  9
$CMLJUST
 70
     0
  9
$CMLSCALE
 40
1.0
  9
$PROXYGRAPHICS
 70
     1
  9
$MEASUREMENT
 70
     0
  9
$CELWEIGHT
370
    -1
  9
$ENDCAPS
280
     0
  9
$JOINSTYLE
280
     0
  9
$LWDISPLAY
290
     0
  9
$INSUNITS
 70
     0
  9
$HYPERLINKBASE
  1

  9
$STYLESHEET
  1

  9
$XEDIT
290
     1
  9
$CEPSNTYPE
380
     0
  9
$PSTYLEMODE
290
     1
  9
$FINGERPRINTGUID
  2
{55D1EFF8-2155-EE47-8DDC-488076F27541}
  9
$VERSIONGUID
  2
{59C90D76-2CF7-2A4F-AF5F-13B8537B24FC}
  9
$EXTNAMES
290
     1
  9
$PSVPSCALE
 40
0.0
  9
$OLESTARTUP
290
     0
  9
$SORTENTS
280
   127
  9
$INDEXCTL
280
     0
  9
$HIDETEXT
280
     0
  9
$XCLIPFRAME
280
     2
  9
$HALOGAP
280
     0
  9
$OBSCOLOR
 70
   257
  9
$OBSLTYPE
280
     0
  9
$INTERSECTIONDISPLAY
280
     0
  9
$INTERSECTIONCOLOR
 70
   257
  9
$DIMASSOC
280
     1
  9
$PROJECTNAME
  1

  9
$CAMERADISPLAY
290
     0
  9
$LENSLENGTH
 40
50.0
  9
$CAMERAHEIGHT
 40
0.0
  9
$STEPSPERSEC
 40
2.0
  9
$STEPSIZE
 40
6.0
  9
$3DDWFPREC
 40
2.0
  9
$PSOLWIDTH
 40
0.25
  9
$PSOLHEIGHT
 40
4.0
  9
$LOFTANG1
 40
1.570796326794896
  9
$LOFTANG2
 40
1.570796326794896
  9
$LOFTMAG1
 40
0.0
  9
$LOFTMAG2
 40
0.0
  9
$LOFTPARAM
 70
     7
  9
$LOFTNORMALS
280
     1
  9
$LATITUDE
 40
37.795
  9
$LONGITUDE
 40
-122.394
  9
$NORTHDIRECTION
 40
0.0
  9
$TIMEZONE
 70
 -8000
  9
$LIGHTGLYPHDISPLAY
280
     1
  9
$TILEMODELIGHTSYNCH
280
     1
  9
$CMATERIAL
347
2DCE
  9
$SOLIDHIST
280
     0
  9
$SHOWHIST
280
     1
  9
$DWFFRAME
280
     2
  9
$DGNFRAME
280
     0
  9
$REALWORLDSCALE
290
     1
  9
$INTERFERECOLOR
 62
     1
  9
$INTERFEREOBJVS
345
2DF0
  9
$INTERFEREVPVS
346
2DED
  9
$CSHADOW
280
     0
  9
$SHADOWPLANELOCATION
 40
0.0
  0
ENDSEC
  0
SECTION
  2
CLASSES
  0
CLASS
  1
ACDBDICTIONARYWDFLT
  2
AcDbDictionaryWithDefault
  3
ObjectDBX Classes
 90
        0
 91
        1
280
     0
281
     0
  0
CLASS
  1
MATERIAL
  2
AcDbMaterial
  3
ObjectDBX Classes
 90
     1153
 91
        3
280
     0
281
     0
  0
CLASS
  1
VISUALSTYLE
  2
AcDbVisualStyle
  3
ObjectDBX Classes
 90
     4095
 91
       24
280
     0
281
     0
  0
CLASS
  1
SCALE
  2
AcDbScale
  3
ObjectDBX Classes
 90
     1153
 91
       17
280
     0
281
     0
  0
CLASS
  1
TABLESTYLE
  2
AcDbTableStyle
  3
ObjectDBX Classes
 90
     4095
 91
        1
280
     0
281
     0
  0
CLASS
  1
MLEADERSTYLE
  2
AcDbMLeaderStyle
  3
ACDB_MLEADERSTYLE_CLASS
 90
     4095
 91
        1
280
     0
281
     0
  0
CLASS
  1
ACDBSECTIONVIEWSTYLE
  2
AcDbSectionViewStyle
  3
ObjectDBX Classes
 90
     1025
 91
        2
280
     0
281
     0
  0
CLASS
  1
ACDBDETAILVIEWSTYLE
  2
AcDbDetailViewStyle
  3
ObjectDBX Classes
 90
     1025
 91
        2
280
     0
281
     0
  0
CLASS
  1
AMGSETTINGSOBJ
  2
AmgSettingsObj
  3
"AcadM|Product Description: AutoCAD Mechanical|Company: Autodesk, Inc."
 90
     1024
 91
        2
280
     0
281
     0
  0
CLASS
  1
ACME_DOCUMENT
  2
AcMeDbDoc
  3
AcMeServices
 90
     1024
 91
        1
280
     0
281
     0
  0
CLASS
  1
ACMESCOPE
  2
AcMeScope
  3
AcMeServices
 90
     1024
 91
        1
280
     0
281
     0
  0
CLASS
  1
ACMECOMMANDHISTORY
  2
AcMeCommandHistory
  3
AcMeServices
 90
     1024
 91
        1
280
     0
281
     0
  0
CLASS
  1
ACIMSYSVARMAN
  2
AcImSysVarManager
  3
AcMeServices
 90
     1024
 91
        3
280
     0
281
     0
  0
CLASS
  1
ACIMINTSYSVAR
  2
AcImIntSysVar
  3
AcMeServices
 90
     1024
 91
        3
280
     0
281
     0
  0
CLASS
  1
ACMESTATEMGR
  2
AcMeStateMgr
  3
AcMeServices
 90
     1024
 91
        1
280
     0
281
     0
  0
CLASS
  1
ACDBENTITYCACHE
  2
AcMeEntityCache
  3
AcMeServices
 90
     1024
 91
        1
280
     0
281
     0
  0
CLASS
  1
ACGREFMASTER
  2
AcGrefMaster
  3
AcAttribServices
 90
     1024
 91
        1
280
     0
281
     0
  0
CLASS
  1
ACME_DATABASE
  2
AcMeDbDatabase
  3
AcMeServices
 90
     1024
 91
        1
280
     0
281
     0
  0
CLASS
  1
ACRFINSADJUSTERMGR
  2
AcRfInsAdjusterMgr
  3
AcMeServices
 90
     1024
 91
        1
280
     0
281
     0
  0
CLASS
  1
ACGREFACADMASTER
  2
AcGrefacadMaster
  3
AcGrefServices
 90
     1024
 91
        1
280
     0
281
     0
  0
CLASS
  1
AMIMASTER
  2
AmiMaster
  3
AmiServices
 90
     1024
 91
        1
280
     0
281
     0
  0
CLASS
  1
AMDTMENUSTATEMGR
  2
AmdtMenuStateMgr
  3
McadcomServices
 90
     1024
 91
        1
280
     0
281
     0
  0
CLASS
  1
AMDTMCOMMENUSTATE
  2
AmdtMcomMenuState
  3
McadcomServices
 90
     1024
 91
        1
280
     0
281
     0
  0
CLASS
  1
MAPIAMMOUDLE
  2
MApiAmModule
  3
MApiAmServices
 90
     1024
 91
        1
280
     0
281
     0
  0
CLASS
  1
ACIMSTRSYSVAR
  2
AcImStrSysVar
  3
AcMeServices
 90
     1024
 91
        5
280
     0
281
     0
  0
CLASS
  1
AMDTAMMENUSTATE
  2
AmdtAmMenuState
  3
DesignerAssemblies_arx
 90
     1024
 91
        1
280
     0
281
     0
  0
CLASS
  1
ACAMPROJECT
  2
AcAmProject
  3
DesignerAssemblies
 90
     1024
 91
        1
280
     0
281
     0
  0
CLASS
  1
ACAMGRCOMPDEF
  2
AcAmGrCompDef
  3
DesignerAssemblies
 90
     1024
 91
        1
280
     0
281
     0
  0
CLASS
  1
ACAMCOMPDEF
  2
AcAmCompDef
  3
DesignerAssemblies
 90
     1024
 91
        1
280
     0
281
     0
  0
CLASS
  1
ACAMCOMPDEFMGR
  2
AcAmCompDefMgr
  3
DesignerAssemblies
 90
     1024
 91
        1
280
     0
281
     0
  0
CLASS
  1
AMCONTEXTMGR
  2
AcAmContextMgr
  3
DesignerAssemblies
 90
     1024
 91
        1
280
     0
281
     0
  0
CLASS
  1
ACAMCONTEXTMODELER
  2
AcAmContextModeler
  3
DesignerAssemblies
 90
     1024
 91
        1
280
     0
281
     0
  0
CLASS
  1
ACMDATADICTIONARY
  2
AcmDataDictionary
  3
"AcmSymBB|Product Description: AutoCAD Mechanical|Company: Autodesk, Inc."
 90
     1024
 91
        1
280
     0
281
     0
  0
CLASS
  1
ACAMGRCOMPDEFSET
  2
AcAmGrCompDefSet
  3
DesignerAssemblies
 90
     1024
 91
        1
280
     0
281
     0
  0
CLASS
  1
AMDTBROWSERDBTAB
  2
AmdtBrowserDbTab
  3
McadcomServices
 90
     1024
 91
        1
280
     0
281
     0
  0
CLASS
  1
CBROWSERAPPOBJECT
  2
CBrowserAppObject
  3
McadcomServices
 90
     1024
 91
        2
280
     0
281
     0
  0
CLASS
  1
DM_PLACEHOLDER
  2
AcDmSelsetPlaceholder
  3
McadcomServices
 90
     1024
 91
        1
280
     0
281
     0
  0
CLASS
  1
EXACXREFPANELOBJECT
  2
ExAcXREFPanelObject
  3
EXAC_ESW
 90
     1025
 91
        1
280
     0
281
     0
  0
CLASS
  1
NPOCOLLECTION
  2
AcDbImpNonPersistentObjectsCollection
  3
ObjectDBX Classes
 90
     1153
 91
        1
280
     0
281
     0
  0
CLASS
  1
ACMSTANDARDANSI
  2
AcmStandardANSI
  3
"Amdt_StdImp|Product Description: AutoCAD Mechanical|Company: Autodesk, Inc."
 90
     1024
 91
        1
280
     0
281
     0
  0
CLASS
  1
ACMSURFSTANDARDANSI
  2
AcmSurfTextStdANSI
  3
"Amdt_StdImp|Product Description: AutoCAD Mechanical|Company: Autodesk, Inc."
 90
     1024
 91
        1
280
     0
281
     0
  0
CLASS
  1
ACMFCFSTANDARDANSI
  2
AcmFCFStdANSI
  3
"Amdt_StdImp|Product Description: AutoCAD Mechanical|Company: Autodesk, Inc."
 90
     1024
 91
        1
280
     0
281
     0
  0
CLASS
  1
ACMWELDSTANDARDANSI
  2
AcmWeldingStdANSI
  3
"Amdt_StdImp|Product Description: AutoCAD Mechanical|Company: Autodesk, Inc."
 90
     1024
 91
        1
280
     0
281
     0
  0
CLASS
  1
ACMIDSTANDARDANSI
  2
AcmIdStdANSI
  3
"Amdt_StdImp|Product Description: AutoCAD Mechanical|Company: Autodesk, Inc."
 90
     1024
 91
        1
280
     0
281
     0
  0
CLASS
  1
ACMDATUMSTANDARDANSI
  2
AcmDatumStdANSI
  3
"Amdt_StdImp|Product Description: AutoCAD Mechanical|Company: Autodesk, Inc."
 90
     1024
 91
        1
280
     0
281
     0
  0
CLASS
  1
ACMBOMSTANDARDANSI
  2
AcmBOMStdANSI
  3
"Amdt_StdImp|Product Description: AutoCAD Mechanical|Company: Autodesk, Inc."
 90
     1024
 91
        1
280
     0
281
     0
  0
CLASS
  1
ACMDETAILSTANDARDANSI
  2
AmdtDetailSymStdANSI
  3
"Amdt_StdImp|Product Description: AutoCAD Mechanical|Company: Autodesk, Inc."
 90
     1024
 91
        1
280
     0
281
     0
  0
CLASS
  1
ACMSECTIONSTANDARDANSI
  2
AmdtSectionSymStdANSI
  3
"Amdt_StdImp|Product Description: AutoCAD Mechanical|Company: Autodesk, Inc."
 90
     1024
 91
        1
280
     0
281
     0
  0
CLASS
  1
ACMCENTERLINESTANDARDANSI
  2
AmdtCenterLineStdANSI
  3
"Amdt_StdImp|Product Description: AutoCAD Mechanical|Company: Autodesk, Inc."
 90
     1024
 91
        1
280
     0
281
     0
  0
CLASS
  1
ACMTHREADLINESTANDARDANSI
  2
AmdtThreadLineStdANSI
  3
"Amdt_StdImp|Product Description: AutoCAD Mechanical|Company: Autodesk, Inc."
 90
     1024
 91
        1
280
     0
281
     0
  0
CLASS
  1
ACMNOTESTANDARDANSI
  2
AmdtNoteStdANSI
  3
"Amdt_StdImp|Product Description: AutoCAD Mechanical|Company: Autodesk, Inc."
 90
     1024
 91
        1
280
     0
281
     0
  0
CLASS
  1
ACMTAPERSTANDARDANSI
  2
AcmTaperStdANSI
  3
"Amdt_StdImp|Product Description: AutoCAD Mechanical|Company: Autodesk, Inc."
 90
     1024
 91
        1
280
     0
281
     0
  0
CLASS
  1
ACMANOOTATIONVIEWSTANDARDANSI
  2
AmdtAnViewStdANSI
  3
"Amdt_StdImp|Product Description: AutoCAD Mechanical|Company: Autodesk, Inc."
 90
     1024
 91
        1
280
     0
281
     0
  0
CLASS
  1
ACAMGLAYSTD
  2
AcAmgLayStd
  3
"AmgLay|Product Description: AutoCAD Mechanical|Company: Autodesk, Inc."
 90
     1024
 91
        1
280
     0
281
     0
  0
CLASS
  1
ACAMGDIMSTD
  2
AcAmgDimStd
  3
"AmgDim|Product Description: AutoCAD Mechanical|Company: Autodesk, Inc."
 90
     1024
 91
        1
280
     0
281
     0
  0
CLASS
  1
ACAMGHOLECHARTSTDANSI
  2
AcAmgHoleChartStdANSI
  3
"AmgDim" "Product Description: AutoCAD Mechanical|Company: Autodesk, Inc."
 90
     1024
 91
        1
280
     0
281
     0
  0
CLASS
  1
AMGOBJPROPCFG
  2
AmgObjPropCfg
  3
"AmgLay|Product Description: AutoCAD Mechanical|Company: Autodesk, Inc."
 90
     1024
 91
        1
280
     0
281
     0
  0
CLASS
  1
ACAMGTITLESTD
  2
AcAmgTitleStd
  3
"AmgTitle|Product Description: AutoCAD Mechanical|Company: Autodesk, Inc."
 90
     1024
 91
        1
280
     0
281
     0
  0
CLASS
  1
ACMSECTIONSTANDARDCUSTOM
  2
AmdtSectionSymStdCustom
  3
"Amdt_StdImp|Product Description: AutoCAD Mechanical|Company: Autodesk, Inc."
 90
     1024
 91
        1
280
     0
281
     0
  0
CLASS
  1
ACMDETAILTANDARDCUSTOM
  2
AmdtDetailSymStdCustom
  3
"Amdt_StdImp|Product Description: AutoCAD Mechanical|Company: Autodesk, Inc."
 90
     1024
 91
        1
280
     0
281
     0
  0
CLASS
  1
FIELD
  2
AcDbField
  3
ObjectDBX Classes
 90
     1152
 91
        8
280
     0
281
     0
  0
CLASS
  1
FIELDLIST
  2
AcDbFieldList
  3
ObjectDBX Classes
 90
     1152
 91
        1
280
     0
281
     0
  0
CLASS
  1
AMDTNOTETEMPLATEDB
  2
AmdtNoteTemplateDB
  3
"AcmSymBB" "Product Description: AutoCAD Mechanical|Company: Autodesk, Inc."
 90
     1024
 91
        7
280
     0
281
     0
  0
CLASS
  1
ACAMGFILTERDAT
  2
AcAmgFilterDat
  3
"AcadM|Product Description: AutoCAD Mechanical|Company: Autodesk, Inc."
 90
     1024
 91
        0
280
     0
281
     0
  0
CLASS
  1
SORTENTSTABLE
  2
AcDbSortentsTable
  3
ObjectDBX Classes
 90
        0
 91
        0
280
     0
281
     0
  0
CLASS
  1
DICTIONARYVAR
  2
AcDbDictionaryVar
  3
ObjectDBX Classes
 90
        0
 91
        9
280
     0
281
     0
  0
CLASS
  1
CELLSTYLEMAP
  2
AcDbCellStyleMap
  3
ObjectDBX Classes
 90
     1152
 91
        3
280
     0
281
     0
  0
ENDSEC
  0
SECTION
  2
TABLES
  0
TABLE
  2
VPORT
  5
2DC5
330
0
100
AcDbSymbolTable
 70
     1
  0
VPORT
  5
2E31
330
2DC5
100
AcDbSymbolTableRecord
100
AcDbViewportTableRecord
  2
*ACTIVE
 70
     0
 10
0.0
 20
0.0
 11
1.0
 21
1.0
 12
666.0480341126649
 22
647.6681423110737
 13
0.0
 23
0.0
 14
12.5
 24
12.5
 15
50.0
 25
50.0
 16
0.0
 26
0.0
 36
1.0
 17
0.0
 27
0.0
 37
0.0
 40
684.8827621495908
 41
2.197496522948539
 42
50.0
 43
0.0
 44
0.0
 50
0.0
 51
0.0
 71
     0
 72
   100
 73
     1
 74
     3
 75
     0
 76
     0
 77
     0
 78
     0
281
     0
 65
     0
110
0.0
120
0.0
130
0.0
111
1.0
121
0.0
131
0.0
112
0.0
122
1.0
132
0.0
 79
     0
146
0.0
348
2DEC
 60
     3
 61
     5
292
     1
282
     0
141
0.0
142
0.0
 63
   250
421
  3355443
1001
ACAD_NAV_VCDISPLAY
1070
     3
  0
ENDTAB
  0
TABLE
  2
LTYPE
  5
2DC2
330
0
100
AcDbSymbolTable
 70
    18
  0
LTYPE
  5
2E17
330
2DC2
100
AcDbSymbolTableRecord
100
AcDbLinetypeTableRecord
  2
ByBlock
 70
     0
  3

 72
    65
 73
     0
 40
0.0
  0
LTYPE
  5
2E18
330
2DC2
100
AcDbSymbolTableRecord
100
AcDbLinetypeTableRecord
  2
ByLayer
 70
     0
  3

 72
    65
 73
     0
 40
0.0
  0
LTYPE
  5
2E19
330
2DC2
100
AcDbSymbolTableRecord
100
AcDbLinetypeTableRecord
  2
CONTINUOUS
 70
     0
  3
Solid line
 72
    65
 73
     0
 40
0.0
  0
LTYPE
  5
2E35
330
2DC2
100
AcDbSymbolTableRecord
100
AcDbLinetypeTableRecord
  2
AMCONSTR
 70
     0
  3
_______________________
 72
    65
 73
     2
 40
9999.0
 49
9999.0
 74
     0
 49
0.0
 74
     0
  0
LTYPE
  5
2E3D
330
2DC2
100
AcDbSymbolTableRecord
100
AcDbLinetypeTableRecord
  2
PHANTOM2
 70
     0
  3
Phantom (.5x) ___ _ _ ___ _ _ ___ _ _ ___ _ _
 72
    65
 73
     6
 40
31.75
 49
15.875
 74
     0
 49
-3.174999999999998
 74
     0
 49
3.174999999999998
 74
     0
 49
-3.174999999999998
 74
     0
 49
3.174999999999998
 74
     0
 49
-3.174999999999998
 74
     0
  0
LTYPE
  5
2E40
330
2DC2
100
AcDbSymbolTableRecord
100
AcDbLinetypeTableRecord
  2
GEN3B
 70
     0
  3
 - - - - -
 72
    65
 73
     2
 40
1.0
 49
0.5
 74
     0
 49
-0.5
 74
     0
  0
LTYPE
  5
2E41
330
2DC2
100
AcDbSymbolTableRecord
100
AcDbLinetypeTableRecord
  2
GEN7A
 70
     0
  3
__ . __ . __
 72
    65
 73
     4
 40
7.375
 49
4.75
 74
     0
 49
-0.875
 74
     0
 49
0.875
 74
     0
 49
-0.875
 74
     0
  0
LTYPE
  5
2E48
330
2DC2
100
AcDbSymbolTableRecord
100
AcDbLinetypeTableRecord
  2
ACANSTGB
 70
     0
  3
__ . . __ . .
 72
    65
 73
     6
 40
0.35433070866
 49
0.15748031496
 74
     0
 49
-0.03937007874
 74
     0
 49
0.03937007874
 74
     0
 49
-0.03937007874
 74
     0
 49
0.03937007874
 74
     0
 49
-0.03937007874
 74
     0
  0
LTYPE
  5
2E49
330
2DC2
100
AcDbSymbolTableRecord
100
AcDbLinetypeTableRecord
  2
ACANSTGL
 70
     0
  3
_ _ _ _ _
 72
    65
 73
     2
 40
0.11811023622
 49
0.07874015748
 74
     0
 49
-0.03937007874
 74
     0
  0
LTYPE
  5
3035
330
2DC2
100
AcDbSymbolTableRecord
100
AcDbLinetypeTableRecord
  2
HIDDEN
 70
     0
  3
Hidden __ __ __ __ __ __ __ __ __ __ __ __ __ _
 72
    65
 73
     2
 40
0.375
 49
0.25
 74
     0
 49
-0.125
 74
     0
  0
LTYPE
  5
3036
330
2DC2
100
AcDbSymbolTableRecord
100
AcDbLinetypeTableRecord
  2
CENTER
 70
     0
  3
Center ____ _ ____ _ ____ _ ____ _ ____ _ ____
 72
    65
 73
     4
 40
2.0
 49
1.25
 74
     0
 49
-0.25
 74
     0
 49
0.25
 74
     0
 49
-0.25
 74
     0
  0
LTYPE
  5
306C
330
2DC2
100
AcDbSymbolTableRecord
100
AcDbLinetypeTableRecord
  2
CENTER2
 70
     0
  3
Center (.5x) ___ _ ___ _ ___ _ ___ _ ___ _ ___
 72
    65
 73
     4
 40
1.125
 49
0.75
 74
     0
 49
-0.125
 74
     0
 49
0.125
 74
     0
 49
-0.125
 74
     0
  0
LTYPE
  5
306D
330
2DC2
100
AcDbSymbolTableRecord
100
AcDbLinetypeTableRecord
  2
HIDDEN2
 70
     0
  3
Hidden (.5x) _ _ _ _ _ _ _ _ _ _ _ _ _ _ _ _ _
 72
    65
 73
     2
 40
0.1875
 49
0.125
 74
     0
 49
-0.0625
 74
     0
  0
LTYPE
  5
3070
330
2DC2
100
AcDbSymbolTableRecord
100
AcDbLinetypeTableRecord
  2
Amzigzag2
 70
     0
  3
/\/-/\/-/\/-/\/-/\/-/\/
 72
    65
 73
     2
 40
0.4401
 49
0.0001
 74
     4
 75
   136
340
306F
 46
0.0016
 50
0.0
 44
0.0
 45
0.0
 49
-0.4400000000000001
 74
     0
  0
ENDTAB
  0
TABLE
  2
LAYER
  5
2DBF
102
{ACAD_XDICTIONARY
360
2FD7
102
}
330
0
100
AcDbSymbolTable
 70
     6
  0
LAYER
  5
2E11
102
{ACAD_XDICTIONARY
360
2FCA
102
}
330
2DBF
100
AcDbSymbolTableRecord
100
AcDbLayerTableRecord
  2
0
 70
     0
 62
     7
  6
CONTINUOUS
370
    -3
390
2DCC
347
2DDE
  0
LAYER
  5
2E30
102
{ACAD_XDICTIONARY
360
2FCC
102
}
330
2DBF
100
AcDbSymbolTableRecord
100
AcDbLayerTableRecord
  2
AM_0
 70
     0
 62
     7
  6
CONTINUOUS
370
    -3
390
2DCC
347
2DDE
  0
LAYER
  5
2E4A
102
{ACAD_XDICTIONARY
360
2FCE
102
}
330
2DBF
100
AcDbSymbolTableRecord
100
AcDbLayerTableRecord
  2
AM_5
 70
     0
 62
     2
  6
CONTINUOUS
370
    -3
390
2DCC
347
2DDE
  0
LAYER
  5
2E4B
330
2DBF
100
AcDbSymbolTableRecord
100
AcDbLayerTableRecord
  2
DEFPOINTS
 70
     0
 62
     7
  6
CONTINUOUS
290
     0
370
    -3
390
2DCC
347
2DDE
  0
LAYER
  5
2E4C
102
{ACAD_XDICTIONARY
360
2FD0
102
}
330
2DBF
100
AcDbSymbolTableRecord
100
AcDbLayerTableRecord
  2
ｶｸﾚｾﾝ2
 70
     0
 62
     3
  6
GEN3B
370
    -3
390
2DCC
347
2DDE
  0
LAYER
  5
2E4D
102
{ACAD_XDICTIONARY
360
2FD2
102
}
330
2DBF
100
AcDbSymbolTableRecord
100
AcDbLayerTableRecord
  2
ﾁｭｳｼﾝｾﾝ1
 70
     0
 62
     1
  6
GEN7A
370
    -3
390
2DCC
347
2DDE
  0
ENDTAB
  0
TABLE
  2
STYLE
  5
2DC0
330
0
100
AcDbSymbolTable
 70
     4
  0
STYLE
  5
2E12
330
2DC0
100
AcDbSymbolTableRecord
100
AcDbTextStyleTableRecord
  2
STANDARD
 70
     0
 40
0.0
 41
0.8299999999999998
 50
0.0
 71
     0
 42
2.5
  3
txt.shx
  4
bigfont.shx
  0
STYLE
  5
2E52
330
2DC0
100
AcDbSymbolTableRecord
100
AcDbTextStyleTableRecord
  2
ACANSGDT
 70
     0
 40
0.0
 41
1.0
 50
0.0
 71
     0
 42
2.5
  3
amgdt.shx
  4

  0
STYLE
  5
306F
330
2DC0
100
AcDbSymbolTableRecord
100
AcDbTextStyleTableRecord
  2

 70
     1
 40
0.0
 41
1.0
 50
0.0
 71
     0
 42
2.5
  3
genltshp.shx
  4

  0
ENDTAB
  0
TABLE
  2
VIEW
  5
2DC3
330
0
100
AcDbSymbolTable
 70
     7
  0
VIEW
  5
2E55
330
2DC3
100
AcDbSymbolTableRecord
100
AcDbViewTableRecord
  2
AM_VIEW1
 70
     0
 40
462.5
 10
416.0796500920808
 20
693.75
 41
832.1593001841621
 11
0.0
 21
0.0
 31
1.0
 12
0.0
 22
0.0
 32
0.0
 42
50.0
 43
0.0
 44
0.0
 50
0.0
 71
     0
281
     0
 72
     0
 73
     0
348
2DEC
  0
VIEW
  5
2E56
330
2DC3
100
AcDbSymbolTableRecord
100
AcDbViewTableRecord
  2
AM_VIEW2
 70
     0
 40
462.5
 10
1006.420349907918
 20
693.75
 41
832.1593001841621
 11
0.0
 21
0.0
 31
1.0
 12
0.0
 22
0.0
 32
0.0
 42
50.0
 43
0.0
 44
0.0
 50
0.0
 71
     0
281
     0
 72
     0
 73
     0
348
2DEC
  0
VIEW
  5
2E57
330
2DC3
100
AcDbSymbolTableRecord
100
AcDbViewTableRecord
  2
AM_VIEW3
 70
     0
 40
462.5
 10
416.0796500920808
 20
231.25
 41
832.1593001841621
 11
0.0
 21
0.0
 31
1.0
 12
0.0
 22
0.0
 32
0.0
 42
50.0
 43
0.0
 44
0.0
 50
0.0
 71
     0
281
     0
 72
     0
 73
     0
348
2DEC
  0
VIEW
  5
2E58
330
2DC3
100
AcDbSymbolTableRecord
100
AcDbViewTableRecord
  2
AM_VIEW4
 70
     0
 40
462.5
 10
1006.420349907918
 20
231.25
 41
832.1593001841621
 11
0.0
 21
0.0
 31
1.0
 12
0.0
 22
0.0
 32
0.0
 42
50.0
 43
0.0
 44
0.0
 50
0.0
 71
     0
281
     0
 72
     0
 73
     0
348
2DEC
  0
VIEW
  5
2E59
330
2DC3
100
AcDbSymbolTableRecord
100
AcDbViewTableRecord
  2
AM_VIEW5
 70
     0
 40
462.5
 10
711.2499999999997
 20
462.5
 41
832.1593001841616
 11
0.0
 21
0.0
 31
1.0
 12
0.0
 22
0.0
 32
0.0
 42
50.0
 43
0.0
 44
0.0
 50
0.0
 71
     0
281
     0
 72
     0
 73
     0
348
2DEC
  0
VIEW
  5
2E5A
330
2DC3
100
AcDbSymbolTableRecord
100
AcDbViewTableRecord
  2
AM_VIEW6
 70
     0
 40
924.99075
 10
711.2499999999997
 20
462.5
 41
1664.30195718232
 11
0.0
 21
0.0
 31
1.0
 12
0.0
 22
0.0
 32
0.0
 42
50.0
 43
0.0
 44
0.0
 50
0.0
 71
     0
281
     0
 72
     0
 73
     0
348
2DEC
  0
ENDTAB
  0
TABLE
  2
UCS
  5
2DC4
330
0
100
AcDbSymbolTable
 70
     0
  0
ENDTAB
  0
TABLE
  2
APPID
  5
2DC6
330
0
100
AcDbSymbolTable
 70
    95
  0
APPID
  5
2E13
330
2DC6
100
AcDbSymbolTableRecord
100
AcDbRegAppTableRecord
  2
ACAD
 70
     0
  0
APPID
  5
2E1A
330
2DC6
100
AcDbSymbolTableRecord
100
AcDbRegAppTableRecord
  2
ACADANNOTATIVE
 70
     0
  0
APPID
  5
2E5B
330
2DC6
100
AcDbSymbolTableRecord
100
AcDbRegAppTableRecord
  2
MCAD_NO_VIS
 70
     0
  0
APPID
  5
2E5C
330
2DC6
100
AcDbSymbolTableRecord
100
AcDbRegAppTableRecord
  2
ACAD_TEMP_GRAPHIC
 70
     0
  0
APPID
  5
2E5D
330
2DC6
100
AcDbSymbolTableRecord
100
AcDbRegAppTableRecord
  2
ACATTRIBSERVICES
 70
     0
  0
APPID
  5
2E5E
330
2DC6
100
AcDbSymbolTableRecord
100
AcDbRegAppTableRecord
  2
GENIUS_GENREC_14
 70
     0
  0
APPID
  5
2E5F
330
2DC6
100
AcDbSymbolTableRecord
100
AcDbRegAppTableRecord
  2
GENIUS_GENOBJ-N-REC_13
 70
     0
  0
APPID
  5
2E60
330
2DC6
100
AcDbSymbolTableRecord
100
AcDbRegAppTableRecord
  2
GENIUS_GENODEF_13
 70
     0
  0
APPID
  5
2E61
330
2DC6
100
AcDbSymbolTableRecord
100
AcDbRegAppTableRecord
  2
GENIUS_GENOLIS_13
 70
     0
  0
APPID
  5
2E62
330
2DC6
100
AcDbSymbolTableRecord
100
AcDbRegAppTableRecord
  2
GENIUS_GENOBJ-N-TIT_13
 70
     0
  0
APPID
  5
2E63
330
2DC6
100
AcDbSymbolTableRecord
100
AcDbRegAppTableRecord
  2
GENIUS_GENOENT_13
 70
     0
  0
APPID
  5
2E64
330
2DC6
100
AcDbSymbolTableRecord
100
AcDbRegAppTableRecord
  2
GENIUS_GENTITLE_13
 70
     0
  0
APPID
  5
2E65
330
2DC6
100
AcDbSymbolTableRecord
100
AcDbRegAppTableRecord
  2
GENIUS_GENOREF_13
 70
     0
  0
APPID
  5
2E66
330
2DC6
100
AcDbSymbolTableRecord
100
AcDbRegAppTableRecord
  2
GENIUS_GENSCREG_15
 70
     0
  0
APPID
  5
2E67
330
2DC6
100
AcDbSymbolTableRecord
100
AcDbRegAppTableRecord
  2
GENIUS_GENOBJ-N-SDF_13
 70
     0
  0
APPID
  5
2E68
330
2DC6
100
AcDbSymbolTableRecord
100
AcDbRegAppTableRecord
  2
GENIUS_GENFIL_13
 70
     0
  0
APPID
  5
2E69
330
2DC6
100
AcDbSymbolTableRecord
100
AcDbRegAppTableRecord
  2
GENIUS_GENOBJ-N-CHA_13
 70
     0
  0
APPID
  5
2E6A
330
2DC6
100
AcDbSymbolTableRecord
100
AcDbRegAppTableRecord
  2
GENIUS_GENDTOL_13
 70
     0
  0
APPID
  5
2E6B
330
2DC6
100
AcDbSymbolTableRecord
100
AcDbRegAppTableRecord
  2
GENIUS_GENOBJ-N-FIL_13
 70
     0
  0
APPID
  5
2E6C
330
2DC6
100
AcDbSymbolTableRecord
100
AcDbRegAppTableRecord
  2
AD_DRAW
 70
     0
  0
APPID
  5
2E6D
330
2DC6
100
AcDbSymbolTableRecord
100
AcDbRegAppTableRecord
  2
DESIGNERASSEMBLIES
 70
     0
  0
APPID
  5
2E6E
330
2DC6
100
AcDbSymbolTableRecord
100
AcDbRegAppTableRecord
  2
ASURF_PCURVE_APPNAME
 70
     0
  0
APPID
  5
2E6F
330
2DC6
100
AcDbSymbolTableRecord
100
AcDbRegAppTableRecord
  2
GENIUS_GE3SECT_13
 70
     0
  0
APPID
  5
2E70
330
2DC6
100
AcDbSymbolTableRecord
100
AcDbRegAppTableRecord
  2
GENIUS_GENCFG_13
 70
     0
  0
APPID
  5
2E71
330
2DC6
100
AcDbSymbolTableRecord
100
AcDbRegAppTableRecord
  2
GENIUS_GE3CFG0_13
 70
     0
  0
APPID
  5
2E72
330
2DC6
100
AcDbSymbolTableRecord
100
AcDbRegAppTableRecord
  2
GENIUS_GENCFG0_13
 70
     0
  0
APPID
  5
2E73
330
2DC6
100
AcDbSymbolTableRecord
100
AcDbRegAppTableRecord
  2
GENIUS_GENCFG1_13
 70
     0
  0
APPID
  5
2E74
330
2DC6
100
AcDbSymbolTableRecord
100
AcDbRegAppTableRecord
  2
GENIUS_GENCFG2_13
 70
     0
  0
APPID
  5
2E75
330
2DC6
100
AcDbSymbolTableRecord
100
AcDbRegAppTableRecord
  2
GENIUS_GENCFG3_13
 70
     0
  0
APPID
  5
2E76
330
2DC6
100
AcDbSymbolTableRecord
100
AcDbRegAppTableRecord
  2
GENIUS_GENCFG4_13
 70
     0
  0
APPID
  5
2E77
330
2DC6
100
AcDbSymbolTableRecord
100
AcDbRegAppTableRecord
  2
GENIUS_GEVCFG0_13
 70
     0
  0
APPID
  5
2E78
330
2DC6
100
AcDbSymbolTableRecord
100
AcDbRegAppTableRecord
  2
GENIUS_GENHINW_13
 70
     0
  0
APPID
  5
2E79
330
2DC6
100
AcDbSymbolTableRecord
100
AcDbRegAppTableRecord
  2
GENIUS_FIRSTVISTXT_14
 70
     0
  0
APPID
  5
2E7A
330
2DC6
100
AcDbSymbolTableRecord
100
AcDbRegAppTableRecord
  2
GENIUS_GENOBJ-N-LEADER_13
 70
     0
  0
APPID
  5
2E7B
330
2DC6
100
AcDbSymbolTableRecord
100
AcDbRegAppTableRecord
  2
GEV_VCCNULL_SWITCH_OFF
 70
     0
  0
APPID
  5
2E7C
330
2DC6
100
AcDbSymbolTableRecord
100
AcDbRegAppTableRecord
  2
GENIUS_GEFCFG0_13
 70
     0
  0
APPID
  5
2E7D
330
2DC6
100
AcDbSymbolTableRecord
100
AcDbRegAppTableRecord
  2
GENIUS_GENZVEED_13
 70
     0
  0
APPID
  5
2E7E
330
2DC6
100
AcDbSymbolTableRecord
100
AcDbRegAppTableRecord
  2
GENIUS_GENSCREG_13
 70
     0
  0
APPID
  5
2E7F
330
2DC6
100
AcDbSymbolTableRecord
100
AcDbRegAppTableRecord
  2
GENIUS_DUMCFG0_13
 70
     0
  0
APPID
  5
2E80
330
2DC6
100
AcDbSymbolTableRecord
100
AcDbRegAppTableRecord
  2
GEVID936201362
 70
     0
  0
APPID
  5
2E81
330
2DC6
100
AcDbSymbolTableRecord
100
AcDbRegAppTableRecord
  2
GEVDC
 70
     0
  0
APPID
  5
2E82
330
2DC6
100
AcDbSymbolTableRecord
100
AcDbRegAppTableRecord
  2
GEVCON
 70
     0
  0
APPID
  5
2E83
330
2DC6
100
AcDbSymbolTableRecord
100
AcDbRegAppTableRecord
  2
VCC
 70
     0
  0
APPID
  5
2E84
330
2DC6
100
AcDbSymbolTableRecord
100
AcDbRegAppTableRecord
  2
GEVPT
 70
     0
  0
APPID
  5
2E85
330
2DC6
100
AcDbSymbolTableRecord
100
AcDbRegAppTableRecord
  2
GEVIT
 70
     0
  0
APPID
  5
2E86
330
2DC6
100
AcDbSymbolTableRecord
100
AcDbRegAppTableRecord
  2
GENBH
 70
     0
  0
APPID
  5
2E87
330
2DC6
100
AcDbSymbolTableRecord
100
AcDbRegAppTableRecord
  2
GEVMK
 70
     0
  0
APPID
  5
2E88
330
2DC6
100
AcDbSymbolTableRecord
100
AcDbRegAppTableRecord
  2
GENIUS_GENBH_13
 70
     0
  0
APPID
  5
2E89
330
2DC6
100
AcDbSymbolTableRecord
100
AcDbRegAppTableRecord
  2
GENIUS_GENOBJ-NBEHI-BHF_13
 70
     0
  0
APPID
  5
2E8A
330
2DC6
100
AcDbSymbolTableRecord
100
AcDbRegAppTableRecord
  2
GENIUS_GENOBJ-NBEHI-BHB_13
 70
     0
  0
APPID
  5
2E8B
330
2DC6
100
AcDbSymbolTableRecord
100
AcDbRegAppTableRecord
  2
GENIUS_GENOBJ-F-DESC_13
 70
     0
  0
APPID
  5
2E8C
330
2DC6
100
AcDbSymbolTableRecord
100
AcDbRegAppTableRecord
  2
GENIUS_GEFDESC_14
 70
     0
  0
APPID
  5
2E8D
330
2DC6
100
AcDbSymbolTableRecord
100
AcDbRegAppTableRecord
  2
GENIUS_GENOBJ-F-PART_13
 70
     0
  0
APPID
  5
2E8E
330
2DC6
100
AcDbSymbolTableRecord
100
AcDbRegAppTableRecord
  2
GENIUS_GEFSTDP_13
 70
     0
  0
APPID
  5
2E8F
330
2DC6
100
AcDbSymbolTableRecord
100
AcDbRegAppTableRecord
  2
GENIUS_GEFPARTINS_13
 70
     0
  0
APPID
  5
2E90
330
2DC6
100
AcDbSymbolTableRecord
100
AcDbRegAppTableRecord
  2
GENIUS_GENTRA_14
 70
     0
  0
APPID
  5
2E91
330
2DC6
100
AcDbSymbolTableRecord
100
AcDbRegAppTableRecord
  2
GENIUS_GENINF13_13
 70
     0
  0
APPID
  5
2E92
330
2DC6
100
AcDbSymbolTableRecord
100
AcDbRegAppTableRecord
  2
GENIUS_GENOBJ-N-INFOPT_13
 70
     0
  0
APPID
  5
2E93
330
2DC6
100
AcDbSymbolTableRecord
100
AcDbRegAppTableRecord
  2
GENIUS_GENOBJ-N-RSSYM_13
 70
     0
  0
APPID
  5
2E94
330
2DC6
100
AcDbSymbolTableRecord
100
AcDbRegAppTableRecord
  2
GENIUS_GENSYMENT_13
 70
     0
  0
APPID
  5
2E95
330
2DC6
100
AcDbSymbolTableRecord
100
AcDbRegAppTableRecord
  2
GENIUS_GENSCSYM_13
 70
     0
  0
APPID
  5
2E96
330
2DC6
100
AcDbSymbolTableRecord
100
AcDbRegAppTableRecord
  2
GENIUS_GEFINFNAM_13
 70
     0
  0
APPID
  5
2E97
330
2DC6
100
AcDbSymbolTableRecord
100
AcDbRegAppTableRecord
  2
GENIUS_GENOBJ-N-CEN_13
 70
     0
  0
APPID
  5
2E98
330
2DC6
100
AcDbSymbolTableRecord
100
AcDbRegAppTableRecord
  2
GENIUS_GENOBJ-N-CRS_13
 70
     0
  0
APPID
  5
2E99
330
2DC6
100
AcDbSymbolTableRecord
100
AcDbRegAppTableRecord
  2
GENIUS_GENOBJ-N-CRC_13
 70
     0
  0
APPID
  5
2E9A
330
2DC6
100
AcDbSymbolTableRecord
100
AcDbRegAppTableRecord
  2
GENIUS_GENCRC_14
 70
     0
  0
APPID
  5
2E9B
330
2DC6
100
AcDbSymbolTableRecord
100
AcDbRegAppTableRecord
  2
GEVID942827039
 70
     0
  0
APPID
  5
2E9C
330
2DC6
100
AcDbSymbolTableRecord
100
AcDbRegAppTableRecord
  2
GEVID942827040
 70
     0
  0
APPID
  5
2E9D
330
2DC6
100
AcDbSymbolTableRecord
100
AcDbRegAppTableRecord
  2
GEVID942827041
 70
     0
  0
APPID
  5
2E9E
330
2DC6
100
AcDbSymbolTableRecord
100
AcDbRegAppTableRecord
  2
GENIUS_GENOBJ-F-SCPASSM_13
 70
     0
  0
APPID
  5
2E9F
330
2DC6
100
AcDbSymbolTableRecord
100
AcDbRegAppTableRecord
  2
GENIUS_GENDIMSH_14
 70
     0
  0
APPID
  5
2EA0
330
2DC6
100
AcDbSymbolTableRecord
100
AcDbRegAppTableRecord
  2
GEVID942827042
 70
     0
  0
APPID
  5
2EA1
330
2DC6
100
AcDbSymbolTableRecord
100
AcDbRegAppTableRecord
  2
GEVID946020473
 70
     0
  0
APPID
  5
2EA2
330
2DC6
100
AcDbSymbolTableRecord
100
AcDbRegAppTableRecord
  2
GEVID946020474
 70
     0
  0
APPID
  5
2EA3
330
2DC6
100
AcDbSymbolTableRecord
100
AcDbRegAppTableRecord
  2
GEVID946020475
 70
     0
  0
APPID
  5
2EA4
330
2DC6
100
AcDbSymbolTableRecord
100
AcDbRegAppTableRecord
  2
GENIUS_GENOBJ-N-HTC_13
 70
     0
  0
APPID
  5
2EA5
330
2DC6
100
AcDbSymbolTableRecord
100
AcDbRegAppTableRecord
  2
GENIUS_GENHATCH_13
 70
     0
  0
APPID
  5
2EA6
330
2DC6
100
AcDbSymbolTableRecord
100
AcDbRegAppTableRecord
  2
GEVID948854295
 70
     0
  0
APPID
  5
2EA7
330
2DC6
100
AcDbSymbolTableRecord
100
AcDbRegAppTableRecord
  2
GEVID939402019
 70
     0
  0
APPID
  5
2EA8
330
2DC6
100
AcDbSymbolTableRecord
100
AcDbRegAppTableRecord
  2
GEVID952919491
 70
     0
  0
APPID
  5
2EA9
330
2DC6
100
AcDbSymbolTableRecord
100
AcDbRegAppTableRecord
  2
GEVID952919492
 70
     0
  0
APPID
  5
2EAA
330
2DC6
100
AcDbSymbolTableRecord
100
AcDbRegAppTableRecord
  2
GENIUS_GEFWELD_13
 70
     0
  0
APPID
  5
2EAB
330
2DC6
100
AcDbSymbolTableRecord
100
AcDbRegAppTableRecord
  2
GENIUS_GENOBJ-F-WELS_13
 70
     0
  0
APPID
  5
2EAC
330
2DC6
100
AcDbSymbolTableRecord
100
AcDbRegAppTableRecord
  2
GEVID952919493
 70
     0
  0
APPID
  5
2EAD
330
2DC6
100
AcDbSymbolTableRecord
100
AcDbRegAppTableRecord
  2
GENIUS_GENOBJ-N-RSBK_13
 70
     0
  0
APPID
  5
2EAE
330
2DC6
100
AcDbSymbolTableRecord
100
AcDbRegAppTableRecord
  2
GENIUS_GENOBJ-N-LIB_13
 70
     0
  0
APPID
  5
2EAF
330
2DC6
100
AcDbSymbolTableRecord
100
AcDbRegAppTableRecord
  2
GENIUS_GENSCALE_13
 70
     0
  0
APPID
  5
2EB0
330
2DC6
100
AcDbSymbolTableRecord
100
AcDbRegAppTableRecord
  2
GEVID986376691
 70
     0
  0
APPID
  5
2EB1
330
2DC6
100
AcDbSymbolTableRecord
100
AcDbRegAppTableRecord
  2
DCO15
 70
     0
  0
APPID
  5
2EB2
330
2DC6
100
AcDbSymbolTableRecord
100
AcDbRegAppTableRecord
  2
ACAD_DSTYLE_DIMBREAK
 70
     0
  0
APPID
  5
2EB3
330
2DC6
100
AcDbSymbolTableRecord
100
AcDbRegAppTableRecord
  2
ACAD_DSTYLE_DIMJAG
 70
     0
  0
APPID
  5
2EB4
330
2DC6
100
AcDbSymbolTableRecord
100
AcDbRegAppTableRecord
  2
ACAD_NAV_VCDISPLAY
 70
     0
  0
APPID
  5
2EB5
330
2DC6
100
AcDbSymbolTableRecord
100
AcDbRegAppTableRecord
  2
ACADANNOPO
 70
     0
  0
APPID
  5
2EB6
330
2DC6
100
AcDbSymbolTableRecord
100
AcDbRegAppTableRecord
  2
ACAD_EXEMPT_FROM_CAD_STANDARDS
 70
     0
  0
APPID
  5
2EB7
330
2DC6
100
AcDbSymbolTableRecord
100
AcDbRegAppTableRecord
  2
ACAD_MLEADERVER
 70
     0
  0
ENDTAB
  0
TABLE
  2
DIMSTYLE
  5
2DC7
330
0
100
AcDbSymbolTable
 70
     8
100
AcDbDimStyleTable
 71
     1
340
2EB8
  0
DIMSTYLE
105
2E14
330
2DC7
100
AcDbSymbolTableRecord
100
AcDbDimStyleTableRecord
  2
STANDARD
 70
     0
271
     2
272
     2
279
     2
284
     8
285
     8
286
     8
340
2E12
  0
DIMSTYLE
105
2EB8
330
2DC7
100
AcDbSymbolTableRecord
100
AcDbDimStyleTableRecord
  2
AM_ISO
 70
     0
  4
"
 41
2.5
 42
1.0
 43
8.0
 44
0.6
 47
0.1
 48
0.1
 73
     0
 74
     0
 77
     1
 78
     8
140
2.5
141
0.0
143
0.0393701
146
0.71
147
0.8
172
     1
176
   256
177
   256
178
     4
271
     2
272
     2
279
     2
284
     8
285
     8
286
     8
340
2E12
  0
DIMSTYLE
105
2EC6
102
{ACAD_REACTORS
330
305A
102
}
330
2DC7
100
AcDbSymbolTableRecord
100
AcDbDimStyleTableRecord
  2
AM_ANSI
 70
     0
  4
mm
 41
0.1
 42
0.05
 43
0.5
 44
0.1
 47
0.1
 48
0.1
 78
     7
140
0.12
141
0.0
146
0.71
147
0.06
176
   256
177
   256
178
     2
271
     2
272
     2
279
     2
284
     8
285
     8
286
     8
340
2E12
  0
DIMSTYLE
105
2EC7
330
2DC7
100
AcDbSymbolTableRecord
100
AcDbDimStyleTableRecord
  2
AM_ANSI$3
 70
     0
  4
mm
 41
0.1
 42
0.05
 43
0.5
 44
0.1
 47
0.1
 48
0.1
 78
     7
140
0.12
141
0.0
146
0.71
147
0.06
176
   256
177
   256
178
     2
271
     2
272
     2
279
     2
284
     8
285
     8
286
     8
340
2E12
  0
DIMSTYLE
105
2EC8
330
2DC7
100
AcDbSymbolTableRecord
100
AcDbDimStyleTableRecord
  2
AM_ANSI$4
 70
     0
  4
mm
 41
0.1
 42
0.05
 43
0.5
 44
0.1
 47
0.1
 48
0.1
 78
     7
140
0.12
141
0.0
146
0.71
147
0.06
176
   256
177
   256
178
     2
271
     2
272
     2
279
     2
284
     8
285
     8
286
     8
340
2E12
  0
DIMSTYLE
105
2EC9
330
2DC7
100
AcDbSymbolTableRecord
100
AcDbDimStyleTableRecord
  2
AM_ANSI$7
 70
     0
  4
mm
 41
0.1
 42
0.05
 43
0.5
 44
0.1
 47
0.1
 48
0.1
 78
     7
140
0.24
141
0.0
146
0.71
147
0.06
176
   256
177
   256
178
     2
271
     2
272
     2
279
     2
284
     8
285
     8
286
     8
340
2E12
  0
DIMSTYLE
105
2ECA
330
2DC7
100
AcDbSymbolTableRecord
100
AcDbDimStyleTableRecord
  2
AM_ANSI$SF
 70
     0
  4
mm
 41
0.1
 42
0.05
 43
0.5
 44
0.1
 47
0.1
 48
0.1
 75
     1
 76
     1
 78
     7
140
0.12
141
0.0
146
0.71
147
0.06
176
   256
177
   256
178
     2
271
     2
272
     2
279
     2
284
     8
285
     8
286
     8
340
2E12
  0
DIMSTYLE
105
2ECB
330
2DC7
100
AcDbSymbolTableRecord
100
AcDbDimStyleTableRecord
  2
AM_ANSI$SH
 70
     0
  4
mm
 41
0.1
 42
0.05
 43
0.5
 44
0.1
 47
0.1
 48
0.1
 75
     1
 76
     1
 78
     7
140
0.12
141
0.0
146
0.71
147
0.06
173
     1
176
   256
177
   256
178
     2
271
     2
272
     2
279
     2
284
     8
285
     8
286
     8
340
2E12
  0
ENDTAB
  0
TABLE
  2
BLOCK_RECORD
  5
2DBE
330
0
100
AcDbSymbolTable
 70
     2
  0
BLOCK_RECORD
  5
2E2C
330
2DBE
100
AcDbSymbolTableRecord
100
AcDbBlockTableRecord
  2
*Model_Space
340
2E2F
 70
     0
280
     1
281
     0
  0
BLOCK_RECORD
  5
2E28
330
2DBE
100
AcDbSymbolTableRecord
100
AcDbBlockTableRecord
  2
*Paper_Space
340
2E2B
 70
     0
280
     1
281
     0
  0
BLOCK_RECORD
  5
2EDD
330
2DBE
100
AcDbSymbolTableRecord
100
AcDbBlockTableRecord
  2
_ACMFILLEDHALF
340
0
 70
     0
280
     1
281
     0
  0
ENDTAB
  0
ENDSEC
  0
SECTION
  2
BLOCKS
  0
BLOCK
  5
2E2D
330
2E2C
100
AcDbEntity
  8
0
100
AcDbBlockBegin
  2
*Model_Space
 70
     0
 10
0.0
 20
0.0
 30
0.0
  3
*Model_Space
  1

  0
ENDBLK
  5
2E2E
330
2E2C
100
AcDbEntity
  8
0
100
AcDbBlockEnd
  0
BLOCK
  5
2E29
330
2E28
100
AcDbEntity
 67
     1
  8
0
100
AcDbBlockBegin
  2
*Paper_Space
 70
     0
 10
0.0
 20
0.0
 30
0.0
  3
*Paper_Space
  1

  0
ENDBLK
  5
2E2A
330
2E28
100
AcDbEntity
 67
     1
  8
0
100
AcDbBlockEnd
  0
BLOCK
  5
2EDE
330
2EDD
100
AcDbEntity
  8
0
100
AcDbBlockBegin
  2
_ACMFILLEDHALF
 70
     0
 10
0.0
 20
0.0
 30
0.0
  3
_ACMFILLEDHALF
  1

  0
TRACE
  5
2D28
330
2EDD
100
AcDbEntity
  8
AM_0
 62
     0
100
AcDbTrace
 10
-0.8
 20
0.0
 30
0.0
 11
-1.0
 21
0.166666666
 31
0.0
 12
0.0
 22
0.0
 32
0.0
 13
0.0
 23
0.0
 33
0.0
  0
LINE
  5
2D29
330
2EDD
100
AcDbEntity
  8
AM_0
 62
     0
100
AcDbLine
 10
-1.0
 20
0.0
 30
0.0
 11
-0.8
 21
0.0
 31
0.0
  0
ENDBLK
  5
2D27
330
2EDD
100
AcDbEntity
  8
0
100
AcDbBlockEnd
  0
ENDSEC
  0
SECTION
  2
ENTITIES
  0
LINE
  5
2983
330
2E2C
100
AcDbEntity
  8
AM_0
100
AcDbLine
 10
462.9668040080828
 20
373.6061711964408
 30
0.0
 11
462.9668040080828
 21
582.0577661964407
 31
0.0
  0
LINE
  5
2984
330
2E2C
100
AcDbEntity
  8
AM_0
100
AcDbLine
 10
483.3634540080828
 20
472.5453211964406
 30
0.0
 11
495.5021540080828
 21
458.6318961964408
 31
0.0
  0
LINE
  5
2985
330
2E2C
100
AcDbEntity
  8
AM_0
100
AcDbLine
 10
482.4667540080828
 20
464.5455961964406
 30
0.0
 11
482.4667540080828
 21
437.4334411964408
 31
0.0
  0
LINE
  5
2986
330
2E2C
100
AcDbEntity
  8
AM_0
100
AcDbLine
 10
532.9668040080829
 20
524.2306161964409
 30
0.0
 11
532.9668040080829
 21
348.0578011964408
 31
0.0
  0
LINE
  5
2987
330
2E2C
100
AcDbEntity
  8
AM_0
100
AcDbLine
 10
574.9667540080827
 20
490.0577711964408
 30
0.0
 11
574.9667540080827
 21
343.8037711964408
 31
0.0
  0
LINE
  5
2988
330
2E2C
100
AcDbEntity
  8
AM_0
100
AcDbLine
 10
552.9668040080829
 20
393.6556411964407
 30
0.0
 11
552.9668040080829
 21
565.9031661964409
 31
0.0
  0
LINE
  5
2989
330
2E2C
100
AcDbEntity
  8
AM_0
100
AcDbLine
 10
580.9668040080829
 20
490.0577711964408
 30
0.0
 11
580.9668040080829
 21
456.3004161964409
 31
0.0
  0
LINE
  5
298A
330
2E2C
100
AcDbEntity
  8
AM_0
100
AcDbLine
 10
435.9668040080828
 20
340.6101961964409
 30
0.0
 11
435.9668040080828
 21
580.0577661964409
 31
0.0
  0
LINE
  5
298B
330
2E2C
100
AcDbEntity
  8
AM_0
100
AcDbLine
 10
449.9667540080828
 20
356.8319711964408
 30
0.0
 11
449.9667540080828
 21
579.6724661964407
 31
0.0
  0
LINE
  5
298C
330
2E2C
100
AcDbEntity
  8
AM_0
100
AcDbLine
 10
401.4667540080828
 20
378.5577411964408
 30
0.0
 11
401.4667540080828
 21
525.5578161964408
 31
0.0
  0
LINE
  5
298D
330
2E2C
100
AcDbEntity
  8
AM_0
100
AcDbLine
 10
389.4667540080831
 20
383.3024241964409
 30
0.0
 11
389.4667540080831
 21
520.813119196441
 31
0.0
  0
LINE
  5
298E
330
2E2C
100
AcDbEntity
  8
AM_0
100
AcDbLine
 10
252.466754008083
 20
440.0577711964408
 30
0.0
 11
252.466754008083
 21
464.0577711964406
 31
0.0
  0
LINE
  5
298F
330
2E2C
100
AcDbEntity
  8
AM_0
100
AcDbLine
 10
333.9729470080831
 20
412.3337351964408
 30
0.0
 11
333.9729470080831
 21
491.7818071964409
 31
0.0
  0
LINE
  5
2990
330
2E2C
100
AcDbEntity
  8
AM_0
100
AcDbLine
 10
301.3969960080832
 20
412.9023501964406
 30
0.0
 11
301.3969960080832
 21
491.2131921964409
 31
0.0
  0
LINE
  5
2991
330
2E2C
100
AcDbEntity
  8
AM_0
100
AcDbLine
 10
290.4667540080831
 20
424.5577711964408
 30
0.0
 11
290.4667540080831
 21
479.5577711964408
 31
0.0
  0
LINE
  5
2992
330
2E2C
100
AcDbEntity
  8
AM_0
100
AcDbLine
 10
292.4667540080831
 20
417.3671721964408
 30
0.0
 11
292.4667540080831
 21
486.7483701964409
 31
0.0
  0
LINE
  5
2993
330
2E2C
100
AcDbEntity
  8
AM_0
100
AcDbLine
 10
288.4667540080831
 20
437.0577711964408
 30
0.0
 11
288.4667540080831
 21
467.0577711964408
 31
0.0
  0
LINE
  5
2994
330
2E2C
100
AcDbEntity
  8
AM_0
100
AcDbLine
 10
252.466754008083
 20
440.0577711964408
 30
0.0
 11
288.4667540080831
 21
440.0577711964408
 31
0.0
  0
LINE
  5
2995
330
2E2C
100
AcDbEntity
  8
ﾁｭｳｼﾝｾﾝ1
100
AcDbLine
 10
247.3516378221378
 20
452.0577711964409
 30
0.0
 11
466.0760666506708
 21
452.0577711964406
 31
0.0
  0
LINE
  5
2996
330
2E2C
100
AcDbEntity
  8
AM_0
100
AcDbLine
 10
480.7244540080828
 20
434.1428211964409
 30
0.0
 11
493.9602540080826
 21
444.0527961964408
 31
0.0
  0
LINE
  5
2997
330
2E2C
100
AcDbEntity
  8
AM_0
100
AcDbLine
 10
388.9667540080828
 20
315.0577661964408
 30
0.0
 11
580.9668040080829
 21
315.0577661964408
 31
0.0
  0
LINE
  5
2998
330
2E2C
100
AcDbEntity
  8
AM_0
100
AcDbLine
 10
388.9667540080828
 20
336.0578011964408
 30
0.0
 11
388.9667540080828
 21
315.0577661964408
 31
0.0
  0
LINE
  5
2999
330
2E2C
100
AcDbEntity
  8
ﾁｭｳｼﾝｾﾝ1
100
AcDbLine
 10
409.9667540080829
 20
344.5656711964407
 30
0.0
 11
409.9667540080829
 21
310.1661361964407
 31
0.0
  0
LINE
  5
299A
330
2E2C
100
AcDbEntity
  8
ｶｸﾚｾﾝ2
100
AcDbLine
 10
419.466804008083
 20
340.0577711964408
 30
0.0
 11
419.466804008083
 21
315.0577661964408
 31
0.0
  0
LINE
  5
299B
330
2E2C
100
AcDbEntity
  8
ｶｸﾚｾﾝ2
100
AcDbLine
 10
400.4668040080828
 20
340.0577711964408
 30
0.0
 11
400.4668040080828
 21
315.0577661964408
 31
0.0
  0
LINE
  5
299C
330
2E2C
100
AcDbEntity
  8
AM_0
100
AcDbLine
 10
336.0299980080831
 20
408.2851581964408
 30
0.0
 11
388.4481850080831
 21
381.5767581964408
 31
0.0
  0
LINE
  5
299D
330
2E2C
100
AcDbEntity
  8
AM_0
100
AcDbLine
 10
302.4313090080831
 20
409.8838391964409
 30
0.0
 11
331.6646170080829
 21
409.3735701964408
 31
0.0
  0
LINE
  5
299E
330
2E2C
100
AcDbEntity
  8
AM_0
100
AcDbLine
 10
294.4667540080833
 20
413.9030711964408
 30
0.0
 11
300.5011190080831
 21
410.4191281964409
 31
0.0
  0
LINE
  5
299F
330
2E2C
100
AcDbEntity
  8
AM_0
100
AcDbLine
 10
290.4667540080831
 20
424.5577711964408
 30
0.0
 11
292.4667540080831
 21
422.5577711964406
 31
0.0
  0
ARC
  5
29A0
330
2E2C
100
AcDbEntity
  8
AM_0
100
AcDbCircle
 10
296.4667540080831
 20
417.3671721964408
 30
0.0
 40
4.0
100
AcDbArc
 50
180.0
 51
239.9999999999998
  0
ARC
  5
29A1
330
2E2C
100
AcDbEntity
  8
AM_0
100
AcDbCircle
 10
302.5011190080831
 20
413.8832301964406
 30
0.0
 40
4.0
100
AcDbArc
 50
239.9999999999998
 51
268.9999999999981
  0
LINE
  5
29A2
330
2E2C
100
AcDbEntity
  8
AM_0
100
AcDbLine
 10
288.4667540080831
 20
437.0577711964408
 30
0.0
 11
290.4667540080831
 21
437.0577711964408
 31
0.0
  0
ARC
  5
29A3
330
2E2C
100
AcDbEntity
  8
AM_0
100
AcDbCircle
 10
331.4900930080832
 20
399.3750931964409
 30
0.0
 40
10.0
100
AcDbArc
 50
62.99999999999824
 51
88.99999999999822
  0
LINE
  5
29A4
330
2E2C
100
AcDbEntity
  8
AM_0
100
AcDbLine
 10
467.9668040080826
 20
425.8696911964406
 30
0.0
 11
467.9668040080826
 21
380.0577711964407
 31
0.0
  0
ARC
  5
29A5
330
2E2C
100
AcDbEntity
  8
AM_0
100
AcDbCircle
 10
397.4667540080831
 20
390.5485461964408
 30
0.0
 40
2.0
100
AcDbArc
 50
270.0
 51
0.0
  0
ARC
  5
29A6
330
2E2C
100
AcDbEntity
  8
AM_0
100
AcDbCircle
 10
391.4667540080831
 20
390.5485461964408
 30
0.0
 40
2.0
100
AcDbArc
 50
180.0
 51
270.0
  0
ARC
  5
29A7
330
2E2C
100
AcDbEntity
  8
AM_0
100
AcDbCircle
 10
432.9668040080829
 20
364.2278761964409
 30
0.0
 40
3.00000005
100
AcDbArc
 50
0.0
 51
84.99999699999998
  0
ARC
  5
29A8
330
2E2C
100
AcDbEntity
  8
AM_0
100
AcDbCircle
 10
433.0455540080828
 20
348.0578011964408
 30
0.0
 40
8.0
100
AcDbArc
 50
270.0
 51
322.2243199999998
  0
LINE
  5
29A9
330
2E2C
100
AcDbEntity
  8
AM_0
100
AcDbLine
 10
392.9668040080828
 20
340.0577711964408
 30
0.0
 11
433.0455540080828
 21
340.0577711964408
 31
0.0
  0
ARC
  5
29AA
330
2E2C
100
AcDbEntity
  8
AM_0
100
AcDbCircle
 10
392.9668040080828
 20
336.0578011964408
 30
0.0
 40
4.000000049999997
100
AcDbArc
 50
90.00000300000001
 51
180.00001
  0
ARC
  5
29AB
330
2E2C
100
AcDbEntity
  8
AM_0
100
AcDbCircle
 10
403.4668040080829
 20
375.4861161964408
 30
0.0
 40
3.00000005
100
AcDbArc
 50
0.0
 51
88.0
  0
LINE
  5
29AC
330
2E2C
100
AcDbEntity
  8
AM_0
100
AcDbLine
 10
391.4667540080831
 20
378.5577711964409
 30
0.0
 11
401.4667540080829
 21
378.5577711964409
 31
0.0
  0
LINE
  5
29AD
330
2E2C
100
AcDbEntity
  8
AM_0
100
AcDbLine
 10
391.4667540080831
 20
388.5485461964409
 30
0.0
 11
397.4667540080831
 21
388.5485461964409
 31
0.0
  0
ARC
  5
29AE
330
2E2C
100
AcDbEntity
  8
AM_0
100
AcDbCircle
 10
391.4667540080831
 20
380.5577711964409
 30
0.0
 40
2.0
100
AcDbArc
 50
190.9969430000016
 51
270.0
  0
ARC
  5
29AF
330
2E2C
100
AcDbEntity
  8
AM_0
100
AcDbCircle
 10
387.540204008083
 20
379.7947451964408
 30
0.0
 40
2.0
100
AcDbArc
 50
10.99694300000175
 51
62.99999999999824
  0
LINE
  5
29B0
330
2E2C
100
AcDbEntity
  8
AM_0
100
AcDbLine
 10
401.4667040080825
 20
378.5577411964408
 30
0.0
 11
403.5714040080828
 21
378.4842511964408
 31
0.0
  0
ARC
  5
29B1
330
2E2C
100
AcDbEntity
  8
AM_0
100
AcDbCircle
 10
409.4668040080826
 20
372.3067611964409
 30
0.0
 40
3.00000005
100
AcDbArc
 50
179.9999899999999
 51
265.0
  0
LINE
  5
29B2
330
2E2C
100
AcDbEntity
  8
AM_0
100
AcDbLine
 10
409.2052040080829
 20
369.3182061964408
 30
0.0
 11
433.2281540080828
 21
367.2164611964408
 31
0.0
  0
LINE
  5
29B3
330
2E2C
100
AcDbEntity
  8
AM_0
100
AcDbLine
 10
406.4667540080828
 20
372.3067611964409
 30
0.0
 11
406.4667540080828
 21
390.0577711964407
 31
0.0
  0
LINE
  5
29B4
330
2E2C
100
AcDbEntity
  8
AM_0
100
AcDbLine
 10
466.9188540080828
 20
378.7056261964408
 30
0.0
 11
439.368804008083
 21
343.1571961964408
 31
0.0
  0
ARC
  5
29B5
330
2E2C
100
AcDbEntity
  8
AM_0
100
AcDbCircle
 10
462.9668040080828
 20
381.7684611964407
 30
0.0
 40
5.0
100
AcDbArc
 50
322.2243199999998
 51
0.0
  0
LINE
  5
29B6
330
2E2C
100
AcDbEntity
  8
AM_0
100
AcDbLine
 10
401.4667540080828
 20
412.5831011964407
 30
0.0
 11
435.9668040080828
 21
412.5831011964407
 31
0.0
  0
LINE
  5
29B7
330
2E2C
100
AcDbEntity
  8
AM_0
100
AcDbLine
 10
401.4667540080828
 20
390.4778111964408
 30
0.0
 11
430.9667540080829
 21
390.4778111964408
 31
0.0
  0
LINE
  5
29B8
330
2E2C
100
AcDbEntity
  8
AM_0
100
AcDbLine
 10
399.4667540080831
 20
390.5485461964408
 30
0.0
 11
399.4667540080831
 21
410.5830961964406
 31
0.0
  0
LINE
  5
29B9
330
2E2C
100
AcDbEntity
  8
AM_0
100
AcDbLine
 10
391.4667540080831
 20
412.5830961964409
 30
0.0
 11
399.4667540080831
 21
412.5830961964409
 31
0.0
  0
ARC
  5
29BA
330
2E2C
100
AcDbEntity
  8
AM_0
100
AcDbCircle
 10
401.4667540080829
 20
410.5830961964406
 30
0.0
 40
2.0
100
AcDbArc
 50
120.0000000000001
 51
180.0
  0
LINE
  5
29BB
330
2E2C
100
AcDbEntity
  8
AM_0
100
AcDbLine
 10
477.9668040080828
 20
432.4474511964409
 30
0.0
 11
477.9668040080828
 21
425.8696911964406
 31
0.0
  0
LINE
  5
29BC
330
2E2C
100
AcDbEntity
  8
AM_0
100
AcDbLine
 10
467.9668040080826
 20
425.8696911964406
 30
0.0
 11
477.9668040080828
 21
425.8696911964406
 31
0.0
  0
LINE
  5
29BD
330
2E2C
100
AcDbEntity
  8
AM_0
100
AcDbLine
 10
449.9667540080828
 20
437.0459911964409
 30
0.0
 11
462.9668040080828
 21
437.0459911964409
 31
0.0
  0
ARC
  5
29BE
330
2E2C
100
AcDbEntity
  8
AM_0
100
AcDbCircle
 10
474.9667540080828
 20
432.4474511964409
 30
0.0
 40
3.00000005
100
AcDbArc
 50
0.0
 51
90.00000300000001
  0
LINE
  5
29BF
330
2E2C
100
AcDbEntity
  8
AM_0
100
AcDbLine
 10
462.9668040080828
 20
435.4474811964409
 30
0.0
 11
474.9667540080828
 21
435.4474811964409
 31
0.0
  0
LINE
  5
29C0
330
2E2C
100
AcDbEntity
  8
AM_0
100
AcDbLine
 10
580.9668040080829
 20
336.0578011964408
 30
0.0
 11
580.9668040080829
 21
315.0577661964408
 31
0.0
  0
LINE
  5
29C1
330
2E2C
100
AcDbEntity
  8
ﾁｭｳｼﾝｾﾝ1
100
AcDbLine
 10
559.9667540080828
 20
344.5656711964407
 30
0.0
 11
559.9667540080828
 21
310.1661361964407
 31
0.0
  0
LINE
  5
29C2
330
2E2C
100
AcDbEntity
  8
ｶｸﾚｾﾝ2
100
AcDbLine
 10
569.4668040080832
 20
340.0577711964408
 30
0.0
 11
569.4668040080832
 21
315.0577661964408
 31
0.0
  0
LINE
  5
29C3
330
2E2C
100
AcDbEntity
  8
ｶｸﾚｾﾝ2
100
AcDbLine
 10
550.4668040080828
 20
340.0577711964408
 30
0.0
 11
550.4668040080828
 21
315.0577661964408
 31
0.0
  0
ARC
  5
29C4
330
2E2C
100
AcDbEntity
  8
AM_0
100
AcDbCircle
 10
544.9667540080828
 20
393.6556411964407
 30
0.0
 40
8.0
100
AcDbArc
 50
270.0
 51
0.0
  0
LINE
  5
29C5
330
2E2C
100
AcDbEntity
  8
AM_0
100
AcDbLine
 10
544.9667540080828
 20
385.6556411964409
 30
0.0
 11
536.4501040080828
 21
385.6556411964409
 31
0.0
  0
LINE
  5
29C6
330
2E2C
100
AcDbEntity
  8
AM_0
100
AcDbLine
 10
540.9668040080829
 20
340.0577711964408
 30
0.0
 11
576.9668040080831
 21
340.0577711964408
 31
0.0
  0
ARC
  5
29C7
330
2E2C
100
AcDbEntity
  8
AM_0
100
AcDbCircle
 10
540.9668040080829
 20
348.0578011964408
 30
0.0
 40
8.0
100
AcDbArc
 50
180.00001
 51
270.0
  0
ARC
  5
29C8
330
2E2C
100
AcDbEntity
  8
AM_0
100
AcDbCircle
 10
578.9667540080825
 20
343.8037711964408
 30
0.0
 40
4.000000049999997
100
AcDbArc
 50
179.9999899999999
 51
255.52249
  0
ARC
  5
29C9
330
2E2C
100
AcDbEntity
  8
AM_0
100
AcDbCircle
 10
576.9668040080831
 20
336.0578011964408
 30
0.0
 40
4.000000049999997
100
AcDbArc
 50
0.0
 51
90.00000300000001
  0
ARC
  5
29CA
330
2E2C
100
AcDbEntity
  8
AM_0
100
AcDbCircle
 10
487.9668040080828
 20
452.0577711964406
 30
0.0
 40
10.0
100
AcDbArc
 50
306.82304
 51
41.10282199999999
  0
ARC
  5
29CB
330
2E2C
100
AcDbEntity
  8
AM_0
100
AcDbCircle
 10
577.9668040080829
 20
456.3004161964409
 30
0.0
 40
3.00000005
100
AcDbArc
 50
315.0
 51
0.0
  0
ARC
  5
29CC
330
2E2C
100
AcDbEntity
  8
AM_0
100
AcDbCircle
 10
577.9668040080829
 20
447.8151561964407
 30
0.0
 40
3.00000005
100
AcDbArc
 50
135.0
 51
180.00001
  0
LINE
  5
29CD
330
2E2C
100
AcDbEntity
  8
AM_0
100
AcDbLine
 10
575.8454540080829
 20
449.9364311964408
 30
0.0
 11
580.0881040080827
 21
454.1790761964406
 31
0.0
  0
LINE
  5
29CF
330
2E2C
100
AcDbEntity
  8
AM_0
100
AcDbLine
 10
252.466754008083
 20
464.0577711964406
 30
0.0
 11
288.4667540080831
 21
464.0577711964406
 31
0.0
  0
LINE
  5
29D0
330
2E2C
100
AcDbEntity
  8
AM_0
100
AcDbLine
 10
252.466754008083
 20
464.0577711964406
 30
0.0
 11
252.466754008083
 21
467.0577711964408
 31
0.0
  0
LINE
  5
29D1
330
2E2C
100
AcDbEntity
  8
AM_0
100
AcDbLine
 10
479.3331540080829
 20
546.4516161964409
 30
0.0
 11
491.1345040080829
 21
550.3930161964408
 31
0.0
  0
LINE
  5
29D2
330
2E2C
100
AcDbEntity
  8
AM_0
100
AcDbLine
 10
483.1657540080827
 20
574.2347661964409
 30
0.0
 11
492.9918040080829
 21
568.5236661964408
 31
0.0
  0
LINE
  5
29D3
330
2E2C
100
AcDbEntity
  8
AM_0
100
AcDbLine
 10
479.8970040080828
 20
576.1803161964409
 30
0.0
 11
545.2460040080826
 21
573.8982661964407
 31
0.0
  0
LINE
  5
29D4
330
2E2C
100
AcDbEntity
  8
ﾁｭｳｼﾝｾﾝ1
100
AcDbLine
 10
425.6126540080829
 20
490.0577711964408
 30
0.0
 11
662.9111540080827
 21
490.0577711964408
 31
0.0
  0
CIRCLE
  5
29D5
330
2E2C
100
AcDbEntity
  8
AM_0
100
AcDbCircle
 10
446.9668040080826
 20
602.5577661964407
 30
0.0
 40
12.5
  0
ARC
  5
29D6
330
2E2C
100
AcDbEntity
  8
AM_0
100
AcDbCircle
 10
446.9668040080826
 20
602.5577661964407
 30
0.0
 40
20.50000049999999
100
AcDbArc
 50
304.6136399999999
 51
235.38635
  0
LINE
  5
29D7
330
2E2C
100
AcDbEntity
  8
AM_0
100
AcDbLine
 10
388.4481850080831
 20
522.5387851964407
 30
0.0
 11
336.0299980080831
 21
495.8303841964409
 31
0.0
  0
LINE
  5
29D8
330
2E2C
100
AcDbEntity
  8
AM_0
100
AcDbLine
 10
331.6646170080829
 20
494.7419721964409
 30
0.0
 11
302.4313090080831
 21
494.2317031964408
 31
0.0
  0
LINE
  5
29D9
330
2E2C
100
AcDbEntity
  8
AM_0
100
AcDbLine
 10
300.5011190080831
 20
493.6964141964407
 30
0.0
 11
294.4667540080833
 21
490.2124721964407
 31
0.0
  0
LINE
  5
29DA
330
2E2C
100
AcDbEntity
  8
AM_0
100
AcDbLine
 10
292.4667540080831
 20
481.5577711964406
 30
0.0
 11
290.4667540080831
 21
479.5577711964408
 31
0.0
  0
LINE
  5
29DB
330
2E2C
100
AcDbEntity
  8
AM_0
100
AcDbLine
 10
280.466754008083
 20
464.0577711964406
 30
0.0
 11
280.466754008083
 21
467.0577711964408
 31
0.0
  0
LINE
  5
29DC
330
2E2C
100
AcDbEntity
  8
AM_0
100
AcDbLine
 10
288.4667540080831
 20
467.0577711964408
 30
0.0
 11
290.4667540080831
 21
467.0577711964408
 31
0.0
  0
ARC
  5
29DD
330
2E2C
100
AcDbEntity
  8
AM_0
100
AcDbCircle
 10
296.4667540080831
 20
486.7483701964409
 30
0.0
 40
4.0
100
AcDbArc
 50
120.0000000000001
 51
180.0
  0
ARC
  5
29DE
330
2E2C
100
AcDbEntity
  8
AM_0
100
AcDbCircle
 10
302.5011190080831
 20
490.2323121964409
 30
0.0
 40
4.0
100
AcDbArc
 50
91.00000000000177
 51
120.0000000000001
  0
ARC
  5
29DF
330
2E2C
100
AcDbEntity
  8
AM_0
100
AcDbCircle
 10
331.4900930080832
 20
504.7404491964408
 30
0.0
 40
10.0
100
AcDbArc
 50
271.0000000000017
 51
297.0000000000012
  0
LINE
  5
29E0
330
2E2C
100
AcDbEntity
  8
AM_0
100
AcDbLine
 10
477.9668040080828
 20
470.0695511964409
 30
0.0
 11
477.9668040080828
 21
553.3820661964409
 31
0.0
  0
ARC
  5
29E1
330
2E2C
100
AcDbEntity
  8
AM_0
100
AcDbCircle
 10
430.9668040080828
 20
531.5910161964408
 30
0.0
 40
5.0
100
AcDbArc
 50
272.0
 51
0.0
  0
LINE
  5
29E2
330
2E2C
100
AcDbEntity
  8
AM_0
100
AcDbLine
 10
401.4667540080828
 20
491.5324411964408
 30
0.0
 11
435.9668040080828
 21
491.5324411964408
 31
0.0
  0
LINE
  5
29E3
330
2E2C
100
AcDbEntity
  8
AM_0
100
AcDbLine
 10
399.4667540080831
 20
513.5669961964406
 30
0.0
 11
399.4667540080831
 21
493.5324471964409
 31
0.0
  0
LINE
  5
29E4
330
2E2C
100
AcDbEntity
  8
AM_0
100
AcDbLine
 10
391.4667540080831
 20
491.5324471964408
 30
0.0
 11
399.4667540080831
 21
491.5324471964408
 31
0.0
  0
ARC
  5
29E5
330
2E2C
100
AcDbEntity
  8
AM_0
100
AcDbCircle
 10
401.4667540080829
 20
493.5324471964409
 30
0.0
 40
2.0
100
AcDbArc
 50
180.0
 51
239.9999999999998
  0
LINE
  5
29E6
330
2E2C
100
AcDbEntity
  8
AM_0
100
AcDbLine
 10
401.4667040080825
 20
525.5577661964408
 30
0.0
 11
431.1412540080829
 21
526.5940161964408
 31
0.0
  0
LINE
  5
29E7
330
2E2C
100
AcDbEntity
  8
AM_0
100
AcDbLine
 10
401.4667540080828
 20
513.6378211964409
 30
0.0
 11
430.9667540080829
 21
513.6378211964409
 31
0.0
  0
LINE
  5
29E8
330
2E2C
100
AcDbEntity
  8
AM_0
100
AcDbLine
 10
391.4667540080831
 20
515.5669961964409
 30
0.0
 11
397.4667540080831
 21
515.5669961964409
 31
0.0
  0
ARC
  5
29E9
330
2E2C
100
AcDbEntity
  8
AM_0
100
AcDbCircle
 10
391.4667540080831
 20
513.5669961964406
 30
0.0
 40
2.0
100
AcDbArc
 50
90.0
 51
180.0
  0
ARC
  5
29EA
330
2E2C
100
AcDbEntity
  8
AM_0
100
AcDbCircle
 10
397.4667540080831
 20
513.5669961964406
 30
0.0
 40
2.0
100
AcDbArc
 50
0.0
 51
90.0
  0
LINE
  5
29EB
330
2E2C
100
AcDbEntity
  8
AM_0
100
AcDbLine
 10
391.4667540080831
 20
525.5577711964408
 30
0.0
 11
401.4667540080829
 21
525.5577711964408
 31
0.0
  0
ARC
  5
29EC
330
2E2C
100
AcDbEntity
  8
AM_0
100
AcDbCircle
 10
391.4667540080831
 20
523.5577711964408
 30
0.0
 40
2.0
100
AcDbArc
 50
90.0
 51
169.0030569999982
  0
ARC
  5
29ED
330
2E2C
100
AcDbEntity
  8
AM_0
100
AcDbCircle
 10
387.540204008083
 20
524.3207981964409
 30
0.0
 40
2.0
100
AcDbArc
 50
297.0000000000012
 51
349.0030569999981
  0
LINE
  5
29EE
330
2E2C
100
AcDbEntity
  8
AM_0
100
AcDbLine
 10
449.9667540080828
 20
467.0695511964408
 30
0.0
 11
462.9668040080828
 21
467.0695511964408
 31
0.0
  0
ARC
  5
29EF
330
2E2C
100
AcDbEntity
  8
AM_0
100
AcDbCircle
 10
474.9667540080828
 20
470.0695511964409
 30
0.0
 40
3.00000005
100
AcDbArc
 50
270.0
 51
0.0
  0
LINE
  5
29F0
330
2E2C
100
AcDbEntity
  8
AM_0
100
AcDbLine
 10
462.9668040080828
 20
467.0695511964408
 30
0.0
 11
474.9667540080828
 21
467.0695511964408
 31
0.0
  0
ARC
  5
29F1
330
2E2C
100
AcDbEntity
  8
AM_0
100
AcDbCircle
 10
481.1028540080829
 20
470.5730611964408
 30
0.0
 40
3.00000005
100
AcDbArc
 50
41.10282199999999
 51
90.00000300000001
  0
LINE
  5
29F2
330
2E2C
100
AcDbEntity
  8
AM_0
100
AcDbLine
 10
482.4667540080828
 20
551.5334161964408
 30
0.0
 11
482.4667540080828
 21
572.7066161964407
 31
0.0
  0
ARC
  5
29F3
330
2E2C
100
AcDbEntity
  8
AM_0
100
AcDbCircle
 10
446.9668040080826
 20
573.685516196441
 30
0.0
 40
3.00000005
100
AcDbArc
 50
280.0
 51
0.0
  0
LINE
  5
29F4
330
2E2C
100
AcDbEntity
  8
AM_0
100
AcDbLine
 10
449.9667540080828
 20
556.3820661964408
 30
0.0
 11
462.9668040080828
 21
556.3820661964408
 31
0.0
  0
LINE
  5
29F5
330
2E2C
100
AcDbEntity
  8
AM_0
100
AcDbLine
 10
438.4458040080826
 20
569.1368161964409
 30
0.0
 11
447.4876540080829
 21
570.7311661964409
 31
0.0
  0
ARC
  5
29F6
330
2E2C
100
AcDbEntity
  8
AM_0
100
AcDbCircle
 10
438.9667540080828
 20
566.1823661964407
 30
0.0
 40
3.00000005
100
AcDbArc
 50
100.0
 51
180.00001
  0
ARC
  5
29F7
330
2E2C
100
AcDbEntity
  8
AM_0
100
AcDbCircle
 10
481.9790540080829
 20
550.4980661964408
 30
0.0
 40
3.00000005
100
AcDbArc
 50
270.0
 51
288.4682199999998
  0
ARC
  5
29F8
330
2E2C
100
AcDbEntity
  8
AM_0
100
AcDbCircle
 10
474.9667540080828
 20
553.3820661964409
 30
0.0
 40
3.00000005
100
AcDbArc
 50
0.0
 51
90.00000300000001
  0
LINE
  5
29F9
330
2E2C
100
AcDbEntity
  8
AM_0
100
AcDbLine
 10
462.9668040080828
 20
556.3820661964408
 30
0.0
 11
474.9667540080828
 21
556.3820661964408
 31
0.0
  0
LINE
  5
29FA
330
2E2C
100
AcDbEntity
  8
AM_0
100
AcDbLine
 10
460.9668040080828
 20
582.0578161964407
 30
0.0
 11
462.9668040080828
 21
582.0578161964407
 31
0.0
  0
LINE
  5
29FB
330
2E2C
100
AcDbEntity
  8
AM_0
100
AcDbLine
 10
451.2228040080827
 20
573.3013161964407
 30
0.0
 11
477.9668040080828
 21
573.3013161964407
 31
0.0
  0
LINE
  5
29FC
330
2E2C
100
AcDbEntity
  8
AM_0
100
AcDbLine
 10
449.9667540080828
 20
574.6410661964407
 30
0.0
 11
462.9668040080828
 21
574.6410661964407
 31
0.0
  0
LINE
  5
29FD
330
2E2C
100
AcDbEntity
  8
AM_0
100
AcDbLine
 10
451.8969040080829
 20
581.6712161964409
 30
0.0
 11
462.9667040080827
 21
582.0577661964407
 31
0.0
  0
LINE
  5
29FE
330
2E2C
100
AcDbEntity
  8
AM_0
100
AcDbLine
 10
439.4633040080829
 20
588.6724661964406
 30
0.0
 11
446.9667540080828
 21
590.0578161964407
 31
0.0
  0
LINE
  5
29FF
330
2E2C
100
AcDbEntity
  8
AM_0
100
AcDbLine
 10
446.9667540080828
 20
590.0578161964407
 30
0.0
 11
454.4701540080828
 21
588.6724661964406
 31
0.0
  0
LINE
  5
2A00
330
2E2C
100
AcDbEntity
  8
AM_0
100
AcDbLine
 10
436.6439040080829
 20
581.5578161964407
 30
0.0
 11
451.2994540080828
 21
581.5578161964407
 31
0.0
  0
LINE
  5
2A01
330
2E2C
100
AcDbEntity
  8
AM_0
100
AcDbLine
 10
439.1496540080829
 20
588.5578161964407
 30
0.0
 11
454.7839040080829
 21
588.5578161964407
 31
0.0
  0
LINE
  5
2A02
330
2E2C
100
AcDbEntity
  8
AM_0
100
AcDbLine
 10
436.9667540080828
 20
581.5578161964407
 30
0.0
 11
438.6789540080829
 21
587.9479161964407
 31
0.0
  0
ARC
  5
2A03
330
2E2C
100
AcDbEntity
  8
AM_0
100
AcDbCircle
 10
437.9668040080828
 20
580.0577661964409
 30
0.0
 40
2.00000005
100
AcDbArc
 50
131.4096199999999
 51
180.00001
  0
ARC
  5
2A04
330
2E2C
100
AcDbEntity
  8
AM_0
100
AcDbCircle
 10
433.0498040080829
 20
582.394266196441
 30
0.0
 40
4.000000049999997
100
AcDbArc
 50
347.92933
 51
55.38635899999999
  0
ARC
  5
2A05
330
2E2C
100
AcDbEntity
  8
AM_0
100
AcDbCircle
 10
439.6449540080829
 20
587.6890661964409
 30
0.0
 40
1.0
100
AcDbArc
 50
100.4607199999999
 51
164.99999
  0
LINE
  5
2A06
330
2E2C
100
AcDbEntity
  8
AM_0
100
AcDbLine
 10
460.9668040080828
 20
581.9879661964407
 30
0.0
 11
460.9668040080828
 21
582.0578161964407
 31
0.0
  0
LINE
  5
2A07
330
2E2C
100
AcDbEntity
  8
AM_0
100
AcDbLine
 10
456.8896040080828
 20
581.8455661964405
 30
0.0
 11
455.2545040080826
 21
587.947766196441
 31
0.0
  0
ARC
  5
2A08
330
2E2C
100
AcDbEntity
  8
AM_0
100
AcDbCircle
 10
460.8837540080828
 20
582.394266196441
 30
0.0
 40
4.000000049999997
100
AcDbArc
 50
124.61365
 51
187.86825
  0
ARC
  5
2A09
330
2E2C
100
AcDbEntity
  8
AM_0
100
AcDbCircle
 10
454.2886540080828
 20
587.6890661964409
 30
0.0
 40
1.0
100
AcDbArc
 50
15.0
 51
79.539281
  0
ARC
  5
2A0A
330
2E2C
100
AcDbEntity
  8
AM_0
100
AcDbCircle
 10
451.9668040080828
 20
579.6724661964407
 30
0.0
 40
2.00000005
100
AcDbArc
 50
91.99999799999996
 51
180.00001
  0
LINE
  5
2A0B
330
2E2C
100
AcDbEntity
  8
AM_0
100
AcDbLine
 10
462.9668040080828
 20
582.0577161964409
 30
0.0
 11
476.0366040080826
 21
581.6013661964408
 31
0.0
  0
LINE
  5
2A0C
330
2E2C
100
AcDbEntity
  8
AM_0
100
AcDbLine
 10
462.9668040080828
 20
574.6410661964407
 30
0.0
 11
481.6582540080829
 21
574.6410661964407
 31
0.0
  0
ARC
  5
2A0D
330
2E2C
100
AcDbEntity
  8
AM_0
100
AcDbCircle
 10
481.6582540080829
 20
571.6410661964409
 30
0.0
 40
3.00000005
100
AcDbArc
 50
59.83387800000001
 51
90.00000300000001
  0
LINE
  5
2A0E
330
2E2C
100
AcDbEntity
  8
AM_0
100
AcDbLine
 10
477.9668040080828
 20
574.6410661964407
 30
0.0
 11
477.9668040080828
 21
579.6025661964407
 31
0.0
  0
ARC
  5
2A0F
330
2E2C
100
AcDbEntity
  8
AM_0
100
AcDbCircle
 10
475.9668040080826
 20
579.6025661964407
 30
0.0
 40
2.00000005
100
AcDbArc
 50
0.0
 51
88.0
  0
ARC
  5
2A10
330
2E2C
100
AcDbEntity
  8
AM_0
100
AcDbCircle
 10
479.9667540080829
 20
578.1791161964409
 30
0.0
 40
2.00000005
100
AcDbArc
 50
179.9999899999999
 51
268.0000099999999
  0
LINE
  5
2A11
330
2E2C
100
AcDbEntity
  8
AM_0
100
AcDbLine
 10
598.9667540080827
 20
514.0577711964408
 30
0.0
 11
654.9667540080827
 21
514.0577711964408
 31
0.0
  0
LINE
  5
2A12
330
2E2C
100
AcDbEntity
  8
AM_0
100
AcDbLine
 10
584.9667540080827
 20
469.0577711964406
 30
0.0
 11
654.9667540080827
 21
469.0577711964406
 31
0.0
  0
LINE
  5
2A13
330
2E2C
100
AcDbEntity
  8
AM_0
100
AcDbLine
 10
584.9667540080827
 20
511.0578011964409
 30
0.0
 11
654.9667540080827
 21
511.0578011964409
 31
0.0
  0
LINE
  5
2A14
330
2E2C
100
AcDbEntity
  8
AM_0
100
AcDbLine
 10
575.8454040080829
 20
536.1791161964409
 30
0.0
 11
580.0881040080827
 21
531.9364161964408
 31
0.0
  0
LINE
  5
2A15
330
2E2C
100
AcDbEntity
  8
AM_0
100
AcDbLine
 10
574.9667540080827
 20
490.0577711964408
 30
0.0
 11
574.9667540080827
 21
547.0577661964409
 31
0.0
  0
ARC
  5
2A16
330
2E2C
100
AcDbEntity
  8
AM_0
100
AcDbCircle
 10
542.9668040080829
 20
524.2306161964409
 30
0.0
 40
10.0
100
AcDbArc
 50
90.00000300000001
 51
180.00001
  0
LINE
  5
2A17
330
2E2C
100
AcDbEntity
  8
AM_0
100
AcDbLine
 10
548.0251040080828
 20
534.2306161964406
 30
0.0
 11
542.9668040080829
 21
534.2306161964406
 31
0.0
  0
LINE
  5
2A18
330
2E2C
100
AcDbEntity
  8
AM_0
100
AcDbLine
 10
584.9667540080827
 20
467.5577711964407
 30
0.0
 11
584.9667540080827
 21
512.5577711964409
 31
0.0
  0
LINE
  5
2A19
330
2E2C
100
AcDbEntity
  8
AM_0
100
AcDbLine
 10
580.9668040080829
 20
490.0577711964408
 30
0.0
 11
580.9668040080829
 21
529.8151661964409
 31
0.0
  0
LINE
  5
2A1A
330
2E2C
100
AcDbEntity
  8
AM_0
100
AcDbLine
 10
580.9668040080829
 20
467.5577711964407
 30
0.0
 11
584.9667540080827
 21
467.5577711964407
 31
0.0
  0
LINE
  5
2A1B
330
2E2C
100
AcDbEntity
  8
AM_0
100
AcDbLine
 10
580.9668040080829
 20
512.5577711964409
 30
0.0
 11
584.9667540080827
 21
512.5577711964409
 31
0.0
  0
LINE
  5
2A1C
330
2E2C
100
AcDbEntity
  8
AM_0
100
AcDbLine
 10
598.9667540080827
 20
514.0577711964408
 30
0.0
 11
598.9667540080827
 21
511.0578011964409
 31
0.0
  0
ARC
  5
2A1D
330
2E2C
100
AcDbEntity
  8
AM_0
100
AcDbCircle
 10
577.9668040080829
 20
529.8151661964409
 30
0.0
 40
3.00000005
100
AcDbArc
 50
0.0
 51
45.00000099999999
  0
ARC
  5
2A1E
330
2E2C
100
AcDbEntity
  8
AM_0
100
AcDbCircle
 10
487.9668040080828
 20
559.8779661964409
 30
0.0
 40
10.0
100
AcDbArc
 50
288.46821
 51
59.83387800000001
  0
ARC
  5
2A1F
330
2E2C
100
AcDbEntity
  8
AM_0
100
AcDbCircle
 10
544.9667540080828
 20
565.9031661964409
 30
0.0
 40
8.0
100
AcDbArc
 50
0.0
 51
88.0
  0
ARC
  5
2A20
330
2E2C
100
AcDbEntity
  8
AM_0
100
AcDbCircle
 10
571.9668040080831
 20
547.0577661964409
 30
0.0
 40
3.00000005
100
AcDbArc
 50
0.0
 51
90.00000300000001
  0
ARC
  5
2A21
330
2E2C
100
AcDbEntity
  8
AM_0
100
AcDbCircle
 10
560.9668040080829
 20
558.057766196441
 30
0.0
 40
8.0
100
AcDbArc
 50
180.00001
 51
270.0
  0
LINE
  5
2A22
330
2E2C
100
AcDbEntity
  8
AM_0
100
AcDbLine
 10
560.9668040080829
 20
550.0577661964408
 30
0.0
 11
571.9668040080831
 21
550.0577661964408
 31
0.0
  0
ARC
  5
2A23
330
2E2C
100
AcDbEntity
  8
AM_0
100
AcDbCircle
 10
577.9668040080829
 20
538.3003661964409
 30
0.0
 40
3.00000005
100
AcDbArc
 50
179.9999899999999
 51
225.0
  0
LINE
  5
2A24
330
2E2C
100
AcDbEntity
  8
AM_0
100
AcDbLine
 10
654.9667540080827
 20
469.0577711964406
 30
0.0
 11
654.9667540080827
 21
514.0577711964408
 31
0.0
  0
LINE
  5
2A25
330
2E2C
100
AcDbEntity
  8
ﾁｭｳｼﾝｾﾝ1
100
AcDbLine
 10
905.4019277759904
 20
624.6004161964407
 30
0.0
 11
905.4019277759904
 21
314.0881961964408
 31
0.0
  0
LINE
  5
2A26
330
2E2C
100
AcDbEntity
  8
AM_0
100
AcDbLine
 10
1042.47300777599
 20
459.1288461964408
 30
0.0
 11
1029.133132775989
 21
472.4687211964408
 31
0.0
  0
LINE
  5
2A27
330
2E2C
100
AcDbEntity
  8
AM_0
100
AcDbLine
 10
768.3309027759902
 20
459.1288161964408
 30
0.0
 11
781.6708027759903
 21
472.4687211964408
 31
0.0
  0
LINE
  5
2A28
330
2E2C
100
AcDbEntity
  8
AM_0
100
AcDbLine
 10
781.8570027759903
 20
467.4493411964408
 30
0.0
 11
765.4402527759904
 21
335.6759011964408
 31
0.0
  0
LINE
  5
2A29
330
2E2C
100
AcDbEntity
  8
AM_0
100
AcDbLine
 10
811.4019277759904
 20
533.6926161964409
 30
0.0
 11
811.4019277759904
 21
418.0479111964406
 31
0.0
  0
LINE
  5
2A2A
330
2E2C
100
AcDbEntity
  8
AM_0
100
AcDbLine
 10
1028.94688277599
 20
467.4493711964409
 30
0.0
 11
1045.36360277599
 21
335.6759311964409
 31
0.0
  0
LINE
  5
2A2B
330
2E2C
100
AcDbEntity
  8
AM_0
100
AcDbLine
 10
999.4019277759903
 20
533.6926161964409
 30
0.0
 11
999.4019277759903
 21
414.4431461964408
 31
0.0
  0
CIRCLE
  5
2A2C
330
2E2C
100
AcDbEntity
  8
AM_0
100
AcDbCircle
 10
905.4019277759904
 20
490.0577711964408
 30
0.0
 40
41.00000049999999
  0
ARC
  5
2A2D
330
2E2C
100
AcDbEntity
  8
AM_0
100
AcDbCircle
 10
905.4019277759904
 20
462.0577711964408
 30
0.0
 40
88.0
100
AcDbArc
 50
0.0
 51
186.5249799999999
  0
LINE
  5
2A2E
330
2E2C
100
AcDbEntity
  8
ﾁｭｳｼﾝｾﾝ1
100
AcDbLine
 10
761.1363527759904
 20
452.0577711964406
 30
0.0
 11
1049.256392775989
 21
452.0577711964406
 31
0.0
  0
LINE
  5
2A2F
330
2E2C
100
AcDbEntity
  8
AM_0
100
AcDbLine
 10
824.4018977759903
 20
320.0577661964408
 30
0.0
 11
986.7677127759902
 21
320.0577661964408
 31
0.0
  0
LINE
  5
2A30
330
2E2C
100
AcDbEntity
  8
AM_0
100
AcDbLine
 10
838.4019277759904
 20
335.0577711964408
 30
0.0
 11
972.4019277759904
 21
335.0577711964408
 31
0.0
  0
LINE
  5
2A31
330
2E2C
100
AcDbEntity
  8
AM_0
100
AcDbLine
 10
835.0474677759903
 20
329.7884511964408
 30
0.0
 11
975.7563927759903
 21
329.7884511964408
 31
0.0
  0
LINE
  5
2A32
330
2E2C
100
AcDbEntity
  8
ﾁｭｳｼﾝｾﾝ1
100
AcDbLine
 10
790.4019027759901
 20
344.5656711964407
 30
0.0
 11
790.4019027759901
 21
310.1661361964409
 31
0.0
  0
LINE
  5
2A33
330
2E2C
100
AcDbEntity
  8
AM_0
100
AcDbLine
 10
765.4019027759905
 20
335.0577711964408
 30
0.0
 11
765.4019027759905
 21
315.0577661964408
 31
0.0
  0
LINE
  5
2A34
330
2E2C
100
AcDbEntity
  8
AM_0
100
AcDbLine
 10
816.7019477759904
 20
336.0578011964408
 30
0.0
 11
816.7019477759904
 21
315.0577661964408
 31
0.0
  0
ARC
  5
2A35
330
2E2C
100
AcDbEntity
  8
AM_0
100
AcDbCircle
 10
824.4018977759903
 20
316.0578011964409
 30
0.0
 40
4.000000049999997
100
AcDbArc
 50
99.48829599999996
 51
180.00001
  0
LINE
  5
2A36
330
2E2C
100
AcDbEntity
  8
ｶｸﾚｾﾝ2
100
AcDbLine
 10
799.9019027759905
 20
340.0577711964408
 30
0.0
 11
799.9019027759905
 21
315.0577661964408
 31
0.0
  0
LINE
  5
2A37
330
2E2C
100
AcDbEntity
  8
ｶｸﾚｾﾝ2
100
AcDbLine
 10
780.9019027759904
 20
340.0577711964408
 30
0.0
 11
780.9019027759904
 21
315.0577661964408
 31
0.0
  0
LINE
  5
2A38
330
2E2C
100
AcDbEntity
  8
AM_0
100
AcDbLine
 10
765.4019027759905
 20
315.0577661964408
 30
0.0
 11
820.4019277759904
 21
315.0577661964408
 31
0.0
  0
LINE
  5
2A39
330
2E2C
100
AcDbEntity
  8
AM_0
100
AcDbLine
 10
820.4019277759904
 20
316.0578011964409
 30
0.0
 11
820.4019277759904
 21
315.0577661964408
 31
0.0
  0
LINE
  5
2A3A
330
2E2C
100
AcDbEntity
  8
AM_0
100
AcDbLine
 10
770.4019027759905
 20
340.0577711964408
 30
0.0
 11
812.7019127759904
 21
340.0577711964408
 31
0.0
  0
ARC
  5
2A3B
330
2E2C
100
AcDbEntity
  8
AM_0
100
AcDbCircle
 10
770.4019027759905
 20
335.0577711964408
 30
0.0
 40
5.0
100
AcDbArc
 50
90.00000300000001
 51
180.00001
  0
LINE
  5
2A3C
330
2E2C
100
AcDbEntity
  8
AM_0
100
AcDbLine
 10
768.3309027759902
 20
444.9866961964406
 30
0.0
 11
776.1418527759904
 21
437.1757211964408
 31
0.0
  0
ARC
  5
2A3D
330
2E2C
100
AcDbEntity
  8
AM_0
100
AcDbCircle
 10
905.4019277759904
 20
452.0577711964406
 30
0.0
 40
130.0
100
AcDbArc
 50
187.37551
 51
189.62446
  0
ARC
  5
2A3E
330
2E2C
100
AcDbEntity
  8
AM_0
100
AcDbCircle
 10
772.6062527759902
 20
433.6401961964408
 30
0.0
 40
5.0
100
AcDbArc
 50
352.89852
 51
45.00000099999999
  0
ARC
  5
2A3F
330
2E2C
100
AcDbEntity
  8
AM_0
100
AcDbCircle
 10
771.5189527759904
 20
434.7276011964408
 30
0.0
 40
5.0
100
AcDbArc
 50
7.375508099999997
 51
45.00000099999999
  0
ARC
  5
2A40
330
2E2C
100
AcDbEntity
  8
AM_0
100
AcDbCircle
 10
775.4019027759905
 20
452.0577711964406
 30
0.0
 40
10.0
100
AcDbArc
 50
135.0
 51
225.0
  0
LINE
  5
2A41
330
2E2C
100
AcDbEntity
  8
AM_0
100
AcDbLine
 10
817.4019277759905
 20
452.0577711964406
 30
0.0
 11
817.4019277759905
 21
348.0578011964408
 31
0.0
  0
ARC
  5
2A42
330
2E2C
100
AcDbEntity
  8
AM_0
100
AcDbCircle
 10
905.4019277759904
 20
418.0479111964406
 30
0.0
 40
93.99999499999998
100
AcDbArc
 50
179.9999899999999
 51
200.5819599999998
  0
ARC
  5
2A43
330
2E2C
100
AcDbEntity
  8
AM_0
100
AcDbCircle
 10
809.4018977759903
 20
348.0578011964408
 30
0.0
 40
8.0
100
AcDbArc
 50
270.0
 51
0.0
  0
ARC
  5
2A44
330
2E2C
100
AcDbEntity
  8
AM_0
100
AcDbCircle
 10
838.4019277759904
 20
327.0577661964408
 30
0.0
 40
8.0
100
AcDbArc
 50
90.00000300000001
 51
177.0055399999999
  0
ARC
  5
2A45
330
2E2C
100
AcDbEntity
  8
AM_0
100
AcDbCircle
 10
822.4237477759903
 20
327.8936161964408
 30
0.0
 40
8.0
100
AcDbArc
 50
279.4883
 51
357.00554
  0
ARC
  5
2A46
330
2E2C
100
AcDbEntity
  8
AM_0
100
AcDbCircle
 10
835.0474677759903
 20
324.7884511964408
 30
0.0
 40
5.0
100
AcDbArc
 50
90.00000300000001
 51
166.18078
  0
ARC
  5
2A47
330
2E2C
100
AcDbEntity
  8
AM_0
100
AcDbCircle
 10
812.7019127759904
 20
336.0578011964408
 30
0.0
 40
4.000000049999997
100
AcDbArc
 50
0.0
 51
90.00000300000001
  0
LINE
  5
2A48
330
2E2C
100
AcDbEntity
  8
ﾁｭｳｼﾝｾﾝ1
100
AcDbLine
 10
1020.401927775989
 20
343.9079261964408
 30
0.0
 11
1020.401927775989
 21
308.0822411964408
 31
0.0
  0
LINE
  5
2A49
330
2E2C
100
AcDbEntity
  8
AM_0
100
AcDbLine
 10
994.1019127759904
 20
336.0578011964408
 30
0.0
 11
994.1019127759904
 21
315.0577661964408
 31
0.0
  0
LINE
  5
2A4A
330
2E2C
100
AcDbEntity
  8
AM_0
100
AcDbLine
 10
1045.40193277599
 20
335.0577711964408
 30
0.0
 11
1045.40193277599
 21
315.0577661964408
 31
0.0
  0
ARC
  5
2A4B
330
2E2C
100
AcDbEntity
  8
AM_0
100
AcDbCircle
 10
986.4019277759902
 20
316.0578011964409
 30
0.0
 40
4.000000049999997
100
AcDbArc
 50
0.0
 51
80.51170199999999
  0
LINE
  5
2A4C
330
2E2C
100
AcDbEntity
  8
ｶｸﾚｾﾝ2
100
AcDbLine
 10
1029.90192777599
 20
340.0577711964408
 30
0.0
 11
1029.90192777599
 21
315.0577661964408
 31
0.0
  0
LINE
  5
2A4D
330
2E2C
100
AcDbEntity
  8
ｶｸﾚｾﾝ2
100
AcDbLine
 10
1010.90192777599
 20
340.0577711964408
 30
0.0
 11
1010.90192777599
 21
315.0577661964408
 31
0.0
  0
LINE
  5
2A4E
330
2E2C
100
AcDbEntity
  8
AM_0
100
AcDbLine
 10
990.4019277759903
 20
315.0577661964408
 30
0.0
 11
1045.40193277599
 21
315.0577661964408
 31
0.0
  0
LINE
  5
2A4F
330
2E2C
100
AcDbEntity
  8
AM_0
100
AcDbLine
 10
990.4019277759903
 20
316.0578011964409
 30
0.0
 11
990.4019277759903
 21
315.0577661964408
 31
0.0
  0
LINE
  5
2A50
330
2E2C
100
AcDbEntity
  8
AM_0
100
AcDbLine
 10
1001.40192777599
 20
340.0577711964408
 30
0.0
 11
1040.401932775989
 21
340.0577711964408
 31
0.0
  0
LINE
  5
2A51
330
2E2C
100
AcDbEntity
  8
AM_0
100
AcDbLine
 10
993.4019277759905
 20
462.0577711964408
 30
0.0
 11
993.4019277759905
 21
348.0578011964408
 31
0.0
  0
ARC
  5
2A52
330
2E2C
100
AcDbEntity
  8
AM_0
100
AcDbCircle
 10
905.4019277759904
 20
418.0479111964406
 30
0.0
 40
93.99999499999998
100
AcDbArc
 50
339.9500199999998
 51
20.049976
  0
ARC
  5
2A53
330
2E2C
100
AcDbEntity
  8
AM_0
100
AcDbCircle
 10
975.7563927759903
 20
324.7884511964408
 30
0.0
 40
5.0
100
AcDbArc
 50
13.819217
 51
90.00000300000001
  0
ARC
  5
2A54
330
2E2C
100
AcDbEntity
  8
AM_0
100
AcDbCircle
 10
972.4019277759904
 20
327.0577661964408
 30
0.0
 40
8.0
100
AcDbArc
 50
2.994464399999998
 51
90.00000300000001
  0
ARC
  5
2A55
330
2E2C
100
AcDbEntity
  8
AM_0
100
AcDbCircle
 10
988.3800777759899
 20
327.8936161964408
 30
0.0
 40
8.0
100
AcDbArc
 50
182.99446
 51
260.5117
  0
ARC
  5
2A56
330
2E2C
100
AcDbEntity
  8
AM_0
100
AcDbCircle
 10
1001.40192777599
 20
348.0578011964408
 30
0.0
 40
8.0
100
AcDbArc
 50
180.00001
 51
270.0
  0
ARC
  5
2A57
330
2E2C
100
AcDbEntity
  8
AM_0
100
AcDbCircle
 10
998.1019127759903
 20
336.0578011964408
 30
0.0
 40
4.000000049999997
100
AcDbArc
 50
90.00000300000001
 51
180.00001
  0
ARC
  5
2A58
330
2E2C
100
AcDbEntity
  8
AM_0
100
AcDbCircle
 10
998.4019277759903
 20
384.1068111964407
 30
0.0
 40
5.0
100
AcDbArc
 50
159.95003
 51
180.00001
  0
ARC
  5
2A59
330
2E2C
100
AcDbEntity
  8
AM_0
100
AcDbCircle
 10
998.4019277759903
 20
451.9890461964409
 30
0.0
 40
5.0
100
AcDbArc
 50
179.9999899999999
 51
200.04997
  0
ARC
  5
2A5A
330
2E2C
100
AcDbEntity
  8
AM_0
100
AcDbCircle
 10
1040.401932775989
 20
335.0577711964408
 30
0.0
 40
5.0
100
AcDbArc
 50
0.0
 51
90.00000300000001
  0
ARC
  5
2A5B
330
2E2C
100
AcDbEntity
  8
AM_0
100
AcDbCircle
 10
1038.19755277599
 20
433.6401961964408
 30
0.0
 40
5.0
100
AcDbArc
 50
135.0
 51
187.1014899999999
  0
ARC
  5
2A5C
330
2E2C
100
AcDbEntity
  8
AM_0
100
AcDbCircle
 10
1039.28495777599
 20
434.7276011964408
 30
0.0
 40
5.0
100
AcDbArc
 50
135.0
 51
172.6244899999999
  0
ARC
  5
2A5D
330
2E2C
100
AcDbEntity
  8
AM_0
100
AcDbCircle
 10
905.4019277759904
 20
452.0577711964406
 30
0.0
 40
130.0
100
AcDbArc
 50
350.37555
 51
352.62449
  0
LINE
  5
2A5E
330
2E2C
100
AcDbEntity
  8
AM_0
100
AcDbLine
 10
1042.47300777599
 20
444.9867261964408
 30
0.0
 11
1034.662032775989
 21
437.1757511964408
 31
0.0
  0
ARC
  5
2A5F
330
2E2C
100
AcDbEntity
  8
AM_0
100
AcDbCircle
 10
1035.40193277599
 20
452.0577711964406
 30
0.0
 40
10.0
100
AcDbArc
 50
315.0
 51
45.00000099999999
  0
LINE
  5
2A60
330
2E2C
100
AcDbEntity
  8
AM_0
100
AcDbLine
 10
895.4333927759904
 20
581.6750161964407
 30
0.0
 11
897.1141777759905
 21
587.9479161964407
 31
0.0
  0
LINE
  5
2A61
330
2E2C
100
AcDbEntity
  8
ﾁｭｳｼﾝｾﾝ1
100
AcDbLine
 10
838.4019277759902
 20
490.0577711964408
 30
0.0
 11
972.4019277759904
 21
490.0577711964408
 31
0.0
  0
ARC
  5
2A62
330
2E2C
100
AcDbEntity
  8
AM_0
100
AcDbCircle
 10
905.4019277759904
 20
490.0577711964408
 30
0.0
 40
20.9999985
100
AcDbArc
 50
106.60155
 51
73.398452
  0
ARC
  5
2A63
330
2E2C
100
AcDbEntity
  8
AM_0
100
AcDbCircle
 10
905.4019277759904
 20
452.0577711964406
 30
0.0
 40
124.5
100
AcDbArc
 50
7.101483900000001
 51
172.8985199999999
  0
ARC
  5
2A64
330
2E2C
100
AcDbEntity
  8
AM_0
100
AcDbCircle
 10
905.4019277759904
 20
452.0577711964406
 30
0.0
 40
130.0
100
AcDbArc
 50
67.375506
 51
112.62449
  0
ARC
  5
2A65
330
2E2C
100
AcDbEntity
  8
AM_0
100
AcDbCircle
 10
905.4019277759904
 20
452.0577711964406
 30
0.0
 40
130.0
100
AcDbArc
 50
127.3754999999999
 51
172.6244899999999
  0
ARC
  5
2A66
330
2E2C
100
AcDbEntity
  8
AM_0
100
AcDbCircle
 10
778.1352027759902
 20
476.0042711964408
 30
0.0
 40
5.0
100
AcDbArc
 50
315.0
 51
349.3438199999998
  0
ARC
  5
2A67
330
2E2C
100
AcDbEntity
  8
AM_0
100
AcDbCircle
 10
771.5189527759904
 20
469.3879411964409
 30
0.0
 40
5.0
100
AcDbArc
 50
315.0
 51
352.62449
  0
ARC
  5
2A68
330
2E2C
100
AcDbEntity
  8
AM_0
100
AcDbCircle
 10
840.4019277759903
 20
564.6410661964408
 30
0.0
 40
10.0
100
AcDbArc
 50
74.999999
 51
164.99999
  0
LINE
  5
2A69
330
2E2C
100
AcDbEntity
  8
AM_0
100
AcDbLine
 10
830.7427177759903
 20
567.2292661964409
 30
0.0
 11
825.8599677759903
 21
549.0066161964408
 31
0.0
  0
ARC
  5
2A6A
330
2E2C
100
AcDbEntity
  8
AM_0
100
AcDbCircle
 10
821.0302827759905
 20
550.3007161964408
 30
0.0
 40
5.0
100
AcDbArc
 50
310.65618
 51
345.0
  0
ARC
  5
2A6B
330
2E2C
100
AcDbEntity
  8
AM_0
100
AcDbCircle
 10
823.4520377759904
 20
559.3387661964409
 30
0.0
 40
5.0
100
AcDbArc
 50
307.37551
 51
345.0
  0
LINE
  5
2A6C
330
2E2C
100
AcDbEntity
  8
AM_0
100
AcDbLine
 10
842.9901527759904
 20
574.3003661964409
 30
0.0
 11
861.2127777759905
 21
569.4176161964409
 31
0.0
  0
ARC
  5
2A6D
330
2E2C
100
AcDbEntity
  8
AM_0
100
AcDbCircle
 10
862.5068477759905
 20
574.2472161964408
 30
0.0
 40
5.0
100
AcDbArc
 50
255.0
 51
289.3438199999998
  0
ARC
  5
2A6E
330
2E2C
100
AcDbEntity
  8
AM_0
100
AcDbCircle
 10
853.4687927759904
 20
576.6689661964409
 30
0.0
 40
5.0
100
AcDbArc
 50
255.0
 51
292.62449
  0
LINE
  5
2A6F
330
2E2C
100
AcDbEntity
  8
AM_0
100
AcDbLine
 10
901.4019277759905
 20
619.0577661964407
 30
0.0
 11
901.4019277759905
 21
585.5577661964407
 31
0.0
  0
LINE
  5
2A70
330
2E2C
100
AcDbEntity
  8
AM_0
100
AcDbLine
 10
909.4018977759903
 20
619.0577661964407
 30
0.0
 11
909.4018977759903
 21
585.5577661964407
 31
0.0
  0
ARC
  5
2A71
330
2E2C
100
AcDbEntity
  8
AM_0
100
AcDbCircle
 10
905.4019277759904
 20
452.0577711964406
 30
0.0
 40
130.0
100
AcDbArc
 50
7.375507199999999
 51
52.62449399999999
  0
CIRCLE
  5
2A72
330
2E2C
100
AcDbEntity
  8
AM_5
100
AcDbCircle
 10
905.4019277759904
 20
490.0577711964408
 30
0.0
 40
5.0
  0
CIRCLE
  5
2A73
330
2E2C
100
AcDbEntity
  8
AM_0
100
AcDbCircle
 10
905.4019277759904
 20
490.0577711964408
 30
0.0
 40
3.50000005
  0
LINE
  5
2A74
330
2E2C
100
AcDbEntity
  8
AM_0
100
AcDbLine
 10
899.4018977759903
 20
514.0577711964408
 30
0.0
 11
911.4019277759904
 21
514.0577711964408
 31
0.0
  0
LINE
  5
2A75
330
2E2C
100
AcDbEntity
  8
AM_0
100
AcDbLine
 10
899.4018977759903
 20
506.0578011964408
 30
0.0
 11
911.4019277759904
 21
506.0578011964408
 31
0.0
  0
LINE
  5
2A76
330
2E2C
100
AcDbEntity
  8
AM_0
100
AcDbLine
 10
899.4018977759903
 20
514.0577711964408
 30
0.0
 11
899.4018977759903
 21
506.0578011964408
 31
0.0
  0
LINE
  5
2A77
330
2E2C
100
AcDbEntity
  8
AM_0
100
AcDbLine
 10
911.4019277759904
 20
514.0577711964408
 30
0.0
 11
911.4019277759904
 21
506.0578011964408
 31
0.0
  0
LINE
  5
2A78
330
2E2C
100
AcDbEntity
  8
AM_0
100
AcDbLine
 10
967.8137627759904
 20
574.3003161964407
 30
0.0
 11
949.5911377759904
 21
569.4175661964407
 31
0.0
  0
ARC
  5
2A79
330
2E2C
100
AcDbEntity
  8
AM_0
100
AcDbCircle
 10
948.2970077759905
 20
574.2472161964408
 30
0.0
 40
5.0
100
AcDbArc
 50
250.65618
 51
285.0
  0
LINE
  5
2A7A
330
2E2C
100
AcDbEntity
  8
AM_0
100
AcDbLine
 10
901.4019277759905
 20
589.3192661964409
 30
0.0
 11
897.8985127759903
 21
588.6724161964407
 31
0.0
  0
LINE
  5
2A7B
330
2E2C
100
AcDbEntity
  8
AM_0
100
AcDbLine
 10
909.4019277759905
 20
589.3193161964407
 30
0.0
 11
912.9053177759903
 21
588.6724661964406
 31
0.0
  0
ARC
  5
2A7C
330
2E2C
100
AcDbEntity
  8
AM_0
100
AcDbCircle
 10
911.4019277759904
 20
585.5577661964407
 30
0.0
 40
2.00000005
100
AcDbArc
 50
179.9999899999999
 51
270.0
  0
ARC
  5
2A7D
330
2E2C
100
AcDbEntity
  8
AM_0
100
AcDbCircle
 10
898.0800877759902
 20
587.6890161964409
 30
0.0
 40
1.0
100
AcDbArc
 50
100.4607199999999
 51
164.99999
  0
ARC
  5
2A7E
330
2E2C
100
AcDbEntity
  8
AM_0
100
AcDbCircle
 10
899.4018977759903
 20
585.5577661964407
 30
0.0
 40
2.00000005
100
AcDbArc
 50
270.0
 51
0.0
  0
ARC
  5
2A7F
330
2E2C
100
AcDbEntity
  8
AM_0
100
AcDbCircle
 10
912.7237977759904
 20
587.6890161964409
 30
0.0
 40
1.0
100
AcDbArc
 50
15.0
 51
79.539281
  0
LINE
  5
2A80
330
2E2C
100
AcDbEntity
  8
AM_0
100
AcDbLine
 10
915.3705577759904
 20
581.6749661964409
 30
0.0
 11
913.6897377759904
 21
587.947766196441
 31
0.0
  0
ARC
  5
2A81
330
2E2C
100
AcDbEntity
  8
AM_0
100
AcDbCircle
 10
970.4019277759902
 20
564.6410661964408
 30
0.0
 40
10.0
100
AcDbArc
 50
15.0
 51
104.9999999999998
  0
LINE
  5
2A82
330
2E2C
100
AcDbEntity
  8
AM_0
100
AcDbLine
 10
980.0612027759903
 20
567.2292661964409
 30
0.0
 11
984.94392277599
 21
549.0066161964408
 31
0.0
  0
ARC
  5
2A83
330
2E2C
100
AcDbEntity
  8
AM_0
100
AcDbCircle
 10
989.7735727759904
 20
550.3007161964408
 30
0.0
 40
5.0
100
AcDbArc
 50
195.00001
 51
229.3438199999999
  0
ARC
  5
2A84
330
2E2C
100
AcDbEntity
  8
AM_0
100
AcDbCircle
 10
987.3518177759907
 20
559.3387661964409
 30
0.0
 40
5.0
100
AcDbArc
 50
195.00001
 51
232.6245
  0
ARC
  5
2A85
330
2E2C
100
AcDbEntity
  8
AM_0
100
AcDbCircle
 10
957.3350627759904
 20
576.6689661964409
 30
0.0
 40
5.0
100
AcDbArc
 50
247.3755099999999
 51
285.0
  0
ARC
  5
2A86
330
2E2C
100
AcDbEntity
  8
AM_0
100
AcDbCircle
 10
1039.28495777599
 20
469.3879411964409
 30
0.0
 40
5.0
100
AcDbArc
 50
187.37551
 51
225.0
  0
ARC
  5
2A87
330
2E2C
100
AcDbEntity
  8
AM_0
100
AcDbCircle
 10
1032.66865277599
 20
476.0042711964408
 30
0.0
 40
5.0
100
AcDbArc
 50
190.65618
 51
225.0
  0
ARC
  5
2A88
330
2E2C
100
AcDbEntity
  8
AM_0
100
AcDbCircle
 10
905.4019277759904
 20
619.0577661964407
 30
0.0
 40
4.000000049999997
100
AcDbArc
 50
359.9999899999998
 51
179.9999899999999
  0
ARC
  5
2A89
330
2E2C
100
AcDbEntity
  8
AM_0
100
AcDbCircle
 10
280.4666840080829
 20
847.2643593117004
 30
0.0
 40
4.000000000000055
100
AcDbArc
 50
270.0
 51
90.0
  0
LINE
  5
2A8A
330
2E2C
100
AcDbEntity
  8
AM_0
100
AcDbLine
 10
252.4666840080829
 20
859.2643593117005
 30
0.0
 11
288.4666840080829
 21
859.2643593117005
 31
0.0
  0
LINE
  5
2A8B
330
2E2C
100
AcDbEntity
  8
AM_0
100
AcDbLine
 10
252.4666840080829
 20
835.2643593117004
 30
0.0
 11
288.4666840080829
 21
835.2643593117004
 31
0.0
  0
LINE
  5
2A8C
330
2E2C
100
AcDbEntity
  8
AM_0
100
AcDbLine
 10
252.4666840080829
 20
835.2643593117004
 30
0.0
 11
252.4666840080829
 21
859.2643593117005
 31
0.0
  0
LINE
  5
2A8D
330
2E2C
100
AcDbEntity
  8
AM_0
100
AcDbLine
 10
252.4666840080829
 20
843.2643593117004
 30
0.0
 11
280.4666840080829
 21
843.2643593117004
 31
0.0
  0
LINE
  5
2A8E
330
2E2C
100
AcDbEntity
  8
AM_0
100
AcDbLine
 10
252.4666840080829
 20
851.2643593117005
 30
0.0
 11
280.4666840080829
 21
851.2643593117005
 31
0.0
  0
LINE
  5
2A8F
330
2E2C
100
AcDbEntity
  8
AM_0
100
AcDbLine
 10
280.4666840080829
 20
843.2643593117004
 30
0.0
 11
280.4666840080829
 21
851.2643593117005
 31
0.0
  0
LINE
  5
2A90
330
2E2C
100
AcDbEntity
  8
AM_0
100
AcDbLine
 10
399.4666840080828
 20
785.7551343117004
 30
0.0
 11
399.4666840080828
 21
805.7896843116997
 31
0.0
  0
LINE
  5
2A91
330
2E2C
100
AcDbEntity
  8
AM_0
100
AcDbLine
 10
336.0299280080828
 20
803.4917463117004
 30
0.0
 11
388.4481150080828
 21
776.7833463117001
 31
0.0
  0
LINE
  5
2A92
330
2E2C
100
AcDbEntity
  8
AM_0
100
AcDbLine
 10
389.4666840080828
 20
778.5090123117003
 30
0.0
 11
389.4666840080828
 21
916.0197073117004
 31
0.0
  0
ARC
  5
2A93
330
2E2C
100
AcDbEntity
  8
AM_0
100
AcDbCircle
 10
397.4666840080828
 20
785.7551343117004
 30
0.0
 40
2.0
100
AcDbArc
 50
270.0
 51
0.0
  0
LINE
  5
2A94
330
2E2C
100
AcDbEntity
  8
AM_0
100
AcDbLine
 10
391.4666840080828
 20
773.7643593117004
 30
0.0
 11
401.4666840080828
 21
773.7643593117004
 31
0.0
  0
ARC
  5
2A95
330
2E2C
100
AcDbEntity
  8
AM_0
100
AcDbCircle
 10
391.4666840080828
 20
775.7643593117004
 30
0.0
 40
2.0
100
AcDbArc
 50
190.9969430000004
 51
270.0
  0
ARC
  5
2A96
330
2E2C
100
AcDbEntity
  8
AM_0
100
AcDbCircle
 10
387.5401340080829
 20
775.0013333117005
 30
0.0
 40
2.0
100
AcDbArc
 50
10.99694300000052
 51
62.99999999999824
  0
ARC
  5
2A97
330
2E2C
100
AcDbEntity
  8
AM_0
100
AcDbCircle
 10
391.4666840080828
 20
785.7551343117004
 30
0.0
 40
2.0
100
AcDbArc
 50
180.0
 51
270.0
  0
LINE
  5
2A98
330
2E2C
100
AcDbEntity
  8
AM_0
100
AcDbLine
 10
391.4666840080828
 20
783.7551343117004
 30
0.0
 11
397.4666840080828
 21
783.7551343117004
 31
0.0
  0
LINE
  5
2A99
330
2E2C
100
AcDbEntity
  8
AM_0
100
AcDbLine
 10
292.4666840080829
 20
876.7643593117004
 30
0.0
 11
290.4666840080829
 21
874.7643593117004
 31
0.0
  0
LINE
  5
2A9A
330
2E2C
100
AcDbEntity
  8
AM_0
100
AcDbLine
 10
333.9728770080828
 20
807.5403233117004
 30
0.0
 11
333.9728770080828
 21
886.9883953117003
 31
0.0
  0
LINE
  5
2A9B
330
2E2C
100
AcDbEntity
  8
AM_0
100
AcDbLine
 10
301.3969260080827
 20
808.1089383117003
 30
0.0
 11
301.3969260080827
 21
886.4197803117004
 31
0.0
  0
LINE
  5
2A9C
330
2E2C
100
AcDbEntity
  8
AM_0
100
AcDbLine
 10
292.4666840080829
 20
812.5737603117004
 30
0.0
 11
292.4666840080829
 21
881.9549583117005
 31
0.0
  0
LINE
  5
2A9D
330
2E2C
100
AcDbEntity
  8
AM_0
100
AcDbLine
 10
290.4666840080829
 20
819.7643593117003
 30
0.0
 11
290.4666840080829
 21
874.7643593117004
 31
0.0
  0
LINE
  5
2A9E
330
2E2C
100
AcDbEntity
  8
AM_0
100
AcDbLine
 10
302.4312390080829
 20
805.0904273117003
 30
0.0
 11
331.6645470080828
 21
804.5801583117004
 31
0.0
  0
ARC
  5
2A9F
330
2E2C
100
AcDbEntity
  8
AM_0
100
AcDbCircle
 10
296.4666840080829
 20
812.5737603117004
 30
0.0
 40
4.0
100
AcDbArc
 50
180.0
 51
239.9999999999995
  0
LINE
  5
2AA0
330
2E2C
100
AcDbEntity
  8
AM_0
100
AcDbLine
 10
294.4666840080829
 20
809.1096593117004
 30
0.0
 11
300.5010490080828
 21
805.6257163117004
 31
0.0
  0
ARC
  5
2AA1
330
2E2C
100
AcDbEntity
  8
AM_0
100
AcDbCircle
 10
302.5010490080828
 20
809.0898183117005
 30
0.0
 40
4.0
100
AcDbArc
 50
239.9999999999995
 51
269.0000000000015
  0
LINE
  5
2AA2
330
2E2C
100
AcDbEntity
  8
AM_0
100
AcDbLine
 10
290.4666840080829
 20
819.7643593117003
 30
0.0
 11
292.4666840080829
 21
817.7643593117004
 31
0.0
  0
ARC
  5
2AA3
330
2E2C
100
AcDbEntity
  8
AM_0
100
AcDbCircle
 10
331.4900230080827
 20
794.5816813117004
 30
0.0
 40
10.0
100
AcDbArc
 50
62.99999999999824
 51
89.00000000000151
  0
LINE
  5
2AA4
330
2E2C
100
AcDbEntity
  8
AM_0
100
AcDbLine
 10
288.4666840080829
 20
832.2643593117003
 30
0.0
 11
288.4666840080829
 21
862.2643593117004
 31
0.0
  0
LINE
  5
2AA5
330
2E2C
100
AcDbEntity
  8
AM_0
100
AcDbLine
 10
288.4666840080829
 20
832.2643593117003
 30
0.0
 11
290.4666840080829
 21
832.2643593117003
 31
0.0
  0
LINE
  5
2AA6
330
2E2C
100
AcDbEntity
  8
AM_0
100
AcDbLine
 10
288.4666840080829
 20
862.2643593117004
 30
0.0
 11
290.4666840080829
 21
862.2643593117004
 31
0.0
  0
LINE
  5
2AA7
330
2E2C
100
AcDbEntity
  8
AM_0
100
AcDbLine
 10
391.4666840080828
 20
807.7896843117004
 30
0.0
 11
399.4666840080828
 21
807.7896843117004
 31
0.0
  0
ARC
  5
2AA8
330
2E2C
100
AcDbEntity
  8
AM_0
100
AcDbCircle
 10
401.4666840080828
 20
805.7896843116997
 30
0.0
 40
2.0
100
AcDbArc
 50
120.0000000000005
 51
180.0
  0
LINE
  5
2AA9
330
2E2C
100
AcDbEntity
  8
AM_0
100
AcDbLine
 10
388.4481150080828
 20
917.7453733117003
 30
0.0
 11
336.0299280080828
 21
891.0369723117003
 31
0.0
  0
LINE
  5
2AAA
330
2E2C
100
AcDbEntity
  8
AM_0
100
AcDbLine
 10
331.6645470080828
 20
889.9485603117005
 30
0.0
 11
302.4312390080829
 21
889.4382913117004
 31
0.0
  0
LINE
  5
2AAB
330
2E2C
100
AcDbEntity
  8
AM_0
100
AcDbLine
 10
300.5010490080828
 20
888.9030023117005
 30
0.0
 11
294.4666840080829
 21
885.4190603117004
 31
0.0
  0
ARC
  5
2AAC
330
2E2C
100
AcDbEntity
  8
AM_0
100
AcDbCircle
 10
296.4666840080829
 20
881.9549583117005
 30
0.0
 40
4.0
100
AcDbArc
 50
120.0000000000005
 51
180.0
  0
ARC
  5
2AAD
330
2E2C
100
AcDbEntity
  8
AM_0
100
AcDbCircle
 10
302.5010490080828
 20
885.4389003117004
 30
0.0
 40
4.0
100
AcDbArc
 50
90.9999999999985
 51
120.0000000000005
  0
ARC
  5
2AAE
330
2E2C
100
AcDbEntity
  8
AM_0
100
AcDbCircle
 10
331.4900230080827
 20
899.9470373117004
 30
0.0
 40
10.0
100
AcDbArc
 50
270.9999999999984
 51
296.999999999998
  0
ARC
  5
2AAF
330
2E2C
100
AcDbEntity
  8
AM_0
100
AcDbCircle
 10
387.5401340080829
 20
919.5273863117003
 30
0.0
 40
2.0
100
AcDbArc
 50
296.999999999998
 51
349.0030569999992
  0
LINE
  5
2AB0
330
2E2C
100
AcDbEntity
  8
AM_0
100
AcDbLine
 10
399.4666840080828
 20
908.7735843117004
 30
0.0
 11
399.4666840080828
 21
888.7390353117005
 31
0.0
  0
LINE
  5
2AB1
330
2E2C
100
AcDbEntity
  8
AM_0
100
AcDbLine
 10
391.4666840080828
 20
886.7390353117004
 30
0.0
 11
399.4666840080828
 21
886.7390353117004
 31
0.0
  0
ARC
  5
2AB2
330
2E2C
100
AcDbEntity
  8
AM_0
100
AcDbCircle
 10
401.4666840080828
 20
888.7390353117005
 30
0.0
 40
2.0
100
AcDbArc
 50
180.0
 51
239.9999999999995
  0
ARC
  5
2AB3
330
2E2C
100
AcDbEntity
  8
AM_0
100
AcDbCircle
 10
397.4666840080828
 20
908.7735843117004
 30
0.0
 40
2.0
100
AcDbArc
 50
0.0
 51
90.0
  0
ARC
  5
2AB4
330
2E2C
100
AcDbEntity
  8
AM_0
100
AcDbCircle
 10
391.4666840080828
 20
908.7735843117004
 30
0.0
 40
2.0
100
AcDbArc
 50
90.0
 51
180.0
  0
LINE
  5
2AB5
330
2E2C
100
AcDbEntity
  8
AM_0
100
AcDbLine
 10
391.4666840080828
 20
910.7735843117005
 30
0.0
 11
397.4666840080828
 21
910.7735843117005
 31
0.0
  0
LINE
  5
2AB6
330
2E2C
100
AcDbEntity
  8
AM_0
100
AcDbLine
 10
391.4666840080828
 20
920.7643593117005
 30
0.0
 11
401.4666840080828
 21
920.7643593117005
 31
0.0
  0
ARC
  5
2AB7
330
2E2C
100
AcDbEntity
  8
AM_0
100
AcDbCircle
 10
391.4666840080828
 20
918.7643593117003
 30
0.0
 40
2.0
100
AcDbArc
 50
90.0
 51
169.0030569999995
  0
LINE
  5
2AB9
330
2E2C
100
AcDbEntity
  8
ﾁｭｳｼﾝｾﾝ1
100
AcDbLine
 10
247.3516378221378
 20
847.2643598117004
 30
0.0
 11
666.4807240080829
 21
847.2643598117004
 31
0.0
  0
LINE
  5
2ABA
330
2E2C
100
AcDbEntity
  8
AM_0
100
AcDbLine
 10
401.4666840080828
 20
773.7643598117004
 30
0.0
 11
401.4666840080828
 21
920.7644198117005
 31
0.0
  0
LINE
  5
2ABB
330
2E2C
100
AcDbEntity
  8
AM_0
100
AcDbLine
 10
477.9667540080828
 20
797.6998498117004
 30
0.0
 11
477.9667540080828
 21
896.8288798117004
 31
0.0
  0
LINE
  5
2ABC
330
2E2C
100
AcDbEntity
  8
AM_0
100
AcDbLine
 10
552.9667540080828
 20
756.2643598117004
 30
0.0
 11
552.9667540080828
 21
938.2643598117006
 31
0.0
  0
LINE
  5
2ABD
330
2E2C
100
AcDbEntity
  8
AM_0
100
AcDbLine
 10
580.9667540080827
 20
887.0217498117002
 30
0.0
 11
580.9667540080827
 21
813.5069798117006
 31
0.0
  0
LINE
  5
2ABE
330
2E2C
100
AcDbEntity
  8
AM_0
100
AcDbLine
 10
462.9667540080829
 20
707.5263898117002
 30
0.0
 11
462.9667540080829
 21
843.2643598117
 31
0.0
  0
LINE
  5
2ABF
330
2E2C
100
AcDbEntity
  8
AM_0
100
AcDbLine
 10
574.9667540080827
 20
933.1449798117004
 30
0.0
 11
574.9667540080827
 21
761.3838098117004
 31
0.0
  0
LINE
  5
2AC0
330
2E2C
100
AcDbEntity
  8
AM_0
100
AcDbLine
 10
654.9667540080827
 20
826.2643598117
 30
0.0
 11
654.9667540080827
 21
868.2643598117
 31
0.0
  0
LINE
  5
2AC1
330
2E2C
100
AcDbEntity
  8
AM_0
100
AcDbLine
 10
584.9667540080827
 20
824.7643598117004
 30
0.0
 11
584.9667540080827
 21
869.7643598117004
 31
0.0
  0
LINE
  5
2AC2
330
2E2C
100
AcDbEntity
  8
AM_0
100
AcDbLine
 10
449.9666840080829
 20
711.0545798117004
 30
0.0
 11
449.9666840080829
 21
837.7249298117002
 31
0.0
  0
LINE
  5
2AC3
330
2E2C
100
AcDbEntity
  8
AM_0
100
AcDbLine
 10
435.9667540080828
 20
733.1563898117001
 30
0.0
 11
435.9667540080828
 21
843.2643598117
 31
0.0
  0
LINE
  5
2AC4
330
2E2C
100
AcDbEntity
  8
AM_0
100
AcDbLine
 10
507.0570840080828
 20
724.0902898117004
 30
0.0
 11
525.2459240080828
 21
724.7254198117001
 31
0.0
  0
LINE
  5
2AC5
330
2E2C
100
AcDbEntity
  8
AM_0
100
AcDbLine
 10
467.9667540080829
 20
707.2643598117004
 30
0.0
 11
577.1063340080827
 21
711.0755798117004
 31
0.0
  0
LINE
  5
2AC6
330
2E2C
100
AcDbEntity
  8
AM_0
100
AcDbLine
 10
401.4667540080829
 20
773.7642998117004
 30
0.0
 11
431.1412540080829
 21
772.7280498117004
 31
0.0
  0
LINE
  5
2AC7
330
2E2C
100
AcDbEntity
  8
AM_0
100
AcDbLine
 10
401.4667540080829
 20
807.7896898117003
 30
0.0
 11
435.9667540080828
 21
807.7896898117003
 31
0.0
  0
LINE
  5
2AC8
330
2E2C
100
AcDbEntity
  8
AM_0
100
AcDbLine
 10
401.4667540080829
 20
785.6856898117004
 30
0.0
 11
435.9667540080828
 21
785.6856898117004
 31
0.0
  0
LINE
  5
2AC9
330
2E2C
100
AcDbEntity
  8
AM_0
100
AcDbLine
 10
392.7573940080829
 20
711.2058898117004
 30
0.0
 11
467.9667540080829
 21
707.2643598117004
 31
0.0
  0
LINE
  5
2ACA
330
2E2C
100
AcDbEntity
  8
AM_0
100
AcDbLine
 10
392.6181740080828
 20
755.6721998117004
 30
0.0
 11
435.9668140080829
 21
759.4646798117004
 31
0.0
  0
ARC
  5
2ACB
330
2E2C
100
AcDbEntity
  8
AM_0
100
AcDbCircle
 10
392.9667540080828
 20
715.2004598117001
 30
0.0
 40
4.0
100
AcDbArc
 50
180.0000100000009
 51
266.9999900000001
  0
ARC
  5
2ACC
330
2E2C
100
AcDbEntity
  8
AM_0
100
AcDbCircle
 10
392.9667540080828
 20
751.6873998117004
 30
0.0
 40
4.0
100
AcDbArc
 50
95.00000199999858
 51
180.0000100000009
  0
LINE
  5
2ACD
330
2E2C
100
AcDbEntity
  8
AM_0
100
AcDbLine
 10
388.9667540080829
 20
715.2004598117001
 30
0.0
 11
388.9667540080829
 21
751.6873998117004
 31
0.0
  0
CIRCLE
  5
2ACE
330
2E2C
100
AcDbEntity
  8
AM_0
100
AcDbCircle
 10
409.9667540080829
 20
732.2643598117004
 30
0.0
 40
9.5
  0
LINE
  5
2ACF
330
2E2C
100
AcDbEntity
  8
AM_0
100
AcDbLine
 10
477.9667540080828
 20
720.5891898117004
 30
0.0
 11
477.9667540080828
 21
767.6985698117004
 31
0.0
  0
LINE
  5
2AD0
330
2E2C
100
AcDbEntity
  8
AM_0
100
AcDbLine
 10
462.9666840080829
 20
718.1340498117005
 30
0.0
 11
476.0365740080827
 21
718.5904098117004
 31
0.0
  0
LINE
  5
2AD1
330
2E2C
100
AcDbEntity
  8
AM_0
100
AcDbLine
 10
438.445754008083
 20
730.1853198117004
 30
0.0
 11
447.4876840080828
 21
728.5910198117004
 31
0.0
  0
ARC
  5
2AD2
330
2E2C
100
AcDbEntity
  8
AM_0
100
AcDbCircle
 10
452.9666840080828
 20
711.0545798117004
 30
0.0
 40
3.0
100
AcDbArc
 50
180.0000100000009
 51
266.9999900000001
  0
ARC
  5
2AD3
330
2E2C
100
AcDbEntity
  8
AM_0
100
AcDbCircle
 10
446.9667540080829
 20
725.6366198117001
 30
0.0
 40
3.0
100
AcDbArc
 50
0.0
 51
79.9999980000011
  0
ARC
  5
2AD4
330
2E2C
100
AcDbEntity
  8
AM_0
100
AcDbCircle
 10
451.9667540080829
 20
720.5194298117004
 30
0.0
 40
2.0
100
AcDbArc
 50
179.9999899999988
 51
268.0000099999986
  0
LINE
  5
2AD5
330
2E2C
100
AcDbEntity
  8
AM_0
100
AcDbLine
 10
436.9667540080828
 20
709.8691598117004
 30
0.0
 11
436.9667540080828
 21
717.7179098117004
 31
0.0
  0
ARC
  5
2AD6
330
2E2C
100
AcDbEntity
  8
AM_0
100
AcDbCircle
 10
441.9667540080829
 20
721.5543998117001
 30
0.0
 40
5.0
100
AcDbArc
 50
180.0000100000009
 51
277.1398300000001
  0
LINE
  5
2AD7
330
2E2C
100
AcDbEntity
  8
AM_0
100
AcDbLine
 10
449.9667540080828
 20
717.5174098117004
 30
0.0
 11
442.5882140080829
 21
716.5931598117004
 31
0.0
  0
LINE
  5
2AD8
330
2E2C
100
AcDbEntity
  8
AM_0
100
AcDbLine
 10
451.8969840080829
 20
718.5205298117002
 30
0.0
 11
462.966814008083
 21
718.1339898117004
 31
0.0
  0
ARC
  5
2AD9
330
2E2C
100
AcDbEntity
  8
AM_0
100
AcDbCircle
 10
438.9667540080829
 20
733.1397898117004
 30
0.0
 40
3.0
100
AcDbArc
 50
179.9999899999988
 51
260.0000000000012
  0
ARC
  5
2ADA
330
2E2C
100
AcDbEntity
  8
AM_0
100
AcDbCircle
 10
483.5274140080826
 20
717.9823198117004
 30
0.0
 40
10.0
100
AcDbArc
 50
272.0000000000037
 51
316.5170399999985
  0
LINE
  5
2ADB
330
2E2C
100
AcDbEntity
  8
AM_0
100
AcDbLine
 10
479.8969840080828
 20
724.7049098117003
 30
0.0
 11
504.5000140080828
 21
725.5640398117004
 31
0.0
  0
LINE
  5
2ADC
330
2E2C
100
AcDbEntity
  8
AM_0
100
AcDbLine
 10
482.4667540080828
 20
711.0272398117004
 30
0.0
 11
482.4667540080828
 21
723.0595898117004
 31
0.0
  0
ARC
  5
2ADD
330
2E2C
100
AcDbEntity
  8
AM_0
100
AcDbCircle
 10
479.9667540080829
 20
722.7061298117003
 30
0.0
 40
2.0
100
AcDbArc
 50
91.99999800000055
 51
180.0000100000009
  0
ARC
  5
2ADE
330
2E2C
100
AcDbEntity
  8
AM_0
100
AcDbCircle
 10
475.9667540080829
 20
720.5891898117004
 30
0.0
 40
2.0
100
AcDbArc
 50
272.0000000000037
 51
0.0
  0
LINE
  5
2ADF
330
2E2C
100
AcDbEntity
  8
AM_0
100
AcDbLine
 10
490.7831540080827
 20
711.1009098117001
 30
0.0
 11
500.150344008083
 21
720.9777398117004
 31
0.0
  0
ARC
  5
2AE0
330
2E2C
100
AcDbEntity
  8
AM_0
100
AcDbCircle
 10
507.406084008083
 20
714.0963298117005
 30
0.0
 40
10.0
100
AcDbArc
 50
91.99999800000055
 51
136.5170399999985
  0
LINE
  5
2AE1
330
2E2C
100
AcDbEntity
  8
AM_0
100
AcDbLine
 10
449.9666840080829
 20
795.6998498117004
 30
0.0
 11
475.9667540080829
 21
795.6998498117004
 31
0.0
  0
LINE
  5
2AE2
330
2E2C
100
AcDbEntity
  8
AM_0
100
AcDbLine
 10
449.9666840080829
 20
769.6985698117003
 30
0.0
 11
475.9667540080829
 21
769.6985698117003
 31
0.0
  0
ARC
  5
2AE3
330
2E2C
100
AcDbEntity
  8
AM_0
100
AcDbCircle
 10
430.9667540080829
 20
767.7310998117004
 30
0.0
 40
5.0
100
AcDbArc
 50
0.0
 51
87.99999999999625
  0
POLYLINE
  5
2AE4
330
2E2C
100
AcDbEntity
  8
AM_0
100
AcDb2dPolyline
 66
     1
 10
0.0
 20
0.0
 30
0.0
  0
VERTEX
  5
2AE5
330
2AE4
100
AcDbEntity
  8
AM_0
100
AcDbVertex
100
AcDb2dVertex
 10
482.8964440080828
 20
767.5328698117001
 30
0.0
 42
0.110757
  0
VERTEX
  5
2AE6
330
2AE4
100
AcDbEntity
  8
AM_0
100
AcDbVertex
100
AcDb2dVertex
 10
495.7773940080826
 20
777.4406098117005
 30
0.0
 42
0.2037583
  0
VERTEX
  5
2AE7
330
2AE4
100
AcDbEntity
  8
AM_0
100
AcDbVertex
100
AcDb2dVertex
 10
498.035114008083
 20
785.1060798117003
 30
0.0
  0
VERTEX
  5
2AE8
330
2AE4
100
AcDbEntity
  8
AM_0
100
AcDbVertex
100
AcDb2dVertex
 10
483.2653140080831
 20
804.0211998116998
 30
0.0
 42
-1.0
  0
SEQEND
  5
2AE9
330
2AE4
100
AcDbEntity
  8
AM_0
  0
ARC
  5
2AEA
330
2E2C
100
AcDbEntity
  8
AM_0
100
AcDbCircle
 10
475.9667540080829
 20
797.6998498117004
 30
0.0
 40
2.0
100
AcDbArc
 50
270.0
 51
0.0
  0
LINE
  5
2AEB
330
2E2C
100
AcDbEntity
  8
AM_0
100
AcDbLine
 10
482.4667540080828
 20
769.6985698117003
 30
0.0
 11
482.4667540080828
 21
795.6998498117004
 31
0.0
  0
ARC
  5
2AEC
330
2E2C
100
AcDbEntity
  8
AM_0
100
AcDbCircle
 10
475.9667540080829
 20
767.6985698117004
 30
0.0
 40
2.0
100
AcDbArc
 50
0.0
 51
90.00000299999769
  0
ARC
  5
2AED
330
2E2C
100
AcDbEntity
  8
AM_0
100
AcDbCircle
 10
481.994824008083
 20
769.3181298117004
 30
0.0
 40
2.0
100
AcDbArc
 50
270.0
 51
296.8001999999971
  0
ARC
  5
2AEE
330
2E2C
100
AcDbEntity
  8
AM_0
100
AcDbCircle
 10
481.5163740080828
 20
801.5837598117004
 30
0.0
 40
3.0
100
AcDbArc
 50
54.34832400000471
 51
90.00000299999769
  0
LINE
  5
2AEF
330
2E2C
100
AcDbEntity
  8
AM_0
100
AcDbLine
 10
584.9667540080827
 20
826.2643598117
 30
0.0
 11
654.9667540080827
 21
826.2643598117
 31
0.0
  0
ARC
  5
2AF0
330
2E2C
100
AcDbEntity
  8
AM_0
100
AcDbCircle
 10
569.9667540080826
 20
766.0636198117003
 30
0.0
 40
5.0
100
AcDbArc
 50
272.0000000000037
 51
0.0
  0
ARC
  5
2AF1
330
2E2C
100
AcDbEntity
  8
AM_0
100
AcDbCircle
 10
544.9667540080828
 20
756.2643598117004
 30
0.0
 40
8.0
100
AcDbArc
 50
270.0
 51
0.0
  0
ARC
  5
2AF2
330
2E2C
100
AcDbEntity
  8
AM_0
100
AcDbCircle
 10
524.9667540080828
 20
732.7205398117004
 30
0.0
 40
8.0
100
AcDbArc
 50
272.0000000000037
 51
0.0
  0
LINE
  5
2AF3
330
2E2C
100
AcDbEntity
  8
AM_0
100
AcDbLine
 10
532.9667540080828
 20
714.7118698117004
 30
0.0
 11
532.9667540080828
 21
732.7205398117004
 31
0.0
  0
ARC
  5
2AF4
330
2E2C
100
AcDbEntity
  8
AM_0
100
AcDbCircle
 10
537.9667540080828
 20
714.7118698117004
 30
0.0
 40
5.0
100
AcDbArc
 50
180.0000100000009
 51
271.9999900000014
  0
ARC
  5
2AF5
330
2E2C
100
AcDbEntity
  8
AM_0
100
AcDbCircle
 10
542.9667540080828
 20
738.2643598116997
 30
0.0
 40
10.0
100
AcDbArc
 50
90.00000299999769
 51
180.0000100000009
  0
LINE
  5
2AF6
330
2E2C
100
AcDbEntity
  8
AM_0
100
AcDbLine
 10
532.9667540080828
 20
738.2643598116997
 30
0.0
 11
532.9667540080828
 21
732.7205398117004
 31
0.0
  0
LINE
  5
2AF7
330
2E2C
100
AcDbEntity
  8
AM_0
100
AcDbLine
 10
542.9667540080828
 20
748.2643598117004
 30
0.0
 11
544.9667540080828
 21
748.2643598117004
 31
0.0
  0
CIRCLE
  5
2AF8
330
2E2C
100
AcDbEntity
  8
AM_0
100
AcDbCircle
 10
559.9667540080828
 20
732.2643598117004
 30
0.0
 40
9.5
  0
LINE
  5
2AF9
330
2E2C
100
AcDbEntity
  8
AM_0
100
AcDbLine
 10
580.9667540080827
 20
715.0731398117004
 30
0.0
 11
580.9667540080827
 21
754.4555898117002
 31
0.0
  0
ARC
  5
2AFA
330
2E2C
100
AcDbEntity
  8
AM_0
100
AcDbCircle
 10
576.9667540080827
 20
715.0731398117004
 30
0.0
 40
4.0
100
AcDbArc
 50
272.0000000000037
 51
0.0
  0
LINE
  5
2AFB
330
2E2C
100
AcDbEntity
  8
AM_0
100
AcDbLine
 10
560.2917640080828
 20
760.7226698117004
 30
0.0
 11
570.1412540080829
 21
761.0666698117004
 31
0.0
  0
ARC
  5
2AFC
330
2E2C
100
AcDbEntity
  8
AM_0
100
AcDbCircle
 10
560.570934008083
 20
752.7275598117004
 30
0.0
 40
8.0
100
AcDbArc
 50
91.99999800000055
 51
167.2292499999988
  0
ARC
  5
2AFD
330
2E2C
100
AcDbEntity
  8
AM_0
100
AcDbCircle
 10
576.9667540080827
 20
754.4555898117002
 30
0.0
 40
4.0
100
AcDbArc
 50
0.0
 51
81.7867890000002
  0
ARC
  5
2AFE
330
2E2C
100
AcDbEntity
  8
AM_0
100
AcDbCircle
 10
577.9667540080827
 20
761.3838098117004
 30
0.0
 40
3.0
100
AcDbArc
 50
180.0000100000009
 51
261.786779999997
  0
ARC
  5
2AFF
330
2E2C
100
AcDbEntity
  8
AM_0
100
AcDbCircle
 10
577.9667540080827
 20
813.5069798117006
 30
0.0
 40
3.0
100
AcDbArc
 50
315.0
 51
0.0
  0
ARC
  5
2B00
330
2E2C
100
AcDbEntity
  8
AM_0
100
AcDbCircle
 10
577.9667540080827
 20
813.5069798117006
 30
0.0
 40
3.0
100
AcDbArc
 50
315.0
 51
0.0
  0
LINE
  5
2B01
330
2E2C
100
AcDbEntity
  8
AM_0
100
AcDbLine
 10
575.8455340080828
 20
807.1430198117004
 30
0.0
 11
580.0881440080827
 21
811.3856998117004
 31
0.0
  0
ARC
  5
2B02
330
2E2C
100
AcDbEntity
  8
AM_0
100
AcDbCircle
 10
577.9667540080827
 20
805.0217498117001
 30
0.0
 40
3.0
100
AcDbArc
 50
135.0
 51
180.0000100000009
  0
ARC
  5
2B03
330
2E2C
100
AcDbEntity
  8
AM_0
100
AcDbCircle
 10
577.9667540080827
 20
805.0217498117001
 30
0.0
 40
3.0
100
AcDbArc
 50
135.0
 51
180.0000100000009
  0
LINE
  5
2B04
330
2E2C
100
AcDbEntity
  8
AM_0
100
AcDbLine
 10
580.9668140080827
 20
824.7643598117004
 30
0.0
 11
584.9667540080827
 21
824.7643598117004
 31
0.0
  0
LINE
  5
2B05
330
2E2C
100
AcDbEntity
  8
AM_0
100
AcDbLine
 10
507.0571440080829
 20
970.4384298117004
 30
0.0
 11
525.2459840080829
 21
969.8032998117003
 31
0.0
  0
LINE
  5
2B06
330
2E2C
100
AcDbEntity
  8
AM_0
100
AcDbLine
 10
467.9667540080829
 20
987.2643598116999
 30
0.0
 11
577.1063340080827
 21
983.4531398117004
 31
0.0
  0
CIRCLE
  5
2B07
330
2E2C
100
AcDbEntity
  8
AM_0
100
AcDbCircle
 10
409.9667540080829
 20
962.2643598117006
 30
0.0
 40
9.5
  0
LINE
  5
2B08
330
2E2C
100
AcDbEntity
  8
AM_0
100
AcDbLine
 10
435.9667540080828
 20
851.2642998117003
 30
0.0
 11
435.9667540080828
 21
961.4055398117001
 31
0.0
  0
LINE
  5
2B09
330
2E2C
100
AcDbEntity
  8
AM_0
100
AcDbLine
 10
449.9666840080829
 20
856.8037898117005
 30
0.0
 11
449.9666840080829
 21
983.4741398117003
 31
0.0
  0
LINE
  5
2B0A
330
2E2C
100
AcDbEntity
  8
AM_0
100
AcDbLine
 10
462.9667540080829
 20
851.2642998117003
 30
0.0
 11
462.9667540080829
 21
987.0023398117005
 31
0.0
  0
LINE
  5
2B0B
330
2E2C
100
AcDbEntity
  8
AM_0
100
AcDbLine
 10
477.9667540080828
 20
973.9395298117006
 30
0.0
 11
477.9667540080828
 21
926.8301598117004
 31
0.0
  0
LINE
  5
2B0C
330
2E2C
100
AcDbEntity
  8
AM_0
100
AcDbLine
 10
388.9667540080829
 20
979.3282698117005
 30
0.0
 11
388.9667540080829
 21
942.8412698116996
 31
0.0
  0
LINE
  5
2B0D
330
2E2C
100
AcDbEntity
  8
AM_0
100
AcDbLine
 10
430.4668140080829
 20
851.2642998117003
 30
0.0
 11
463.466814008083
 21
851.2642998117003
 31
0.0
  0
LINE
  5
2B0E
330
2E2C
100
AcDbEntity
  8
AM_0
100
AcDbLine
 10
430.4668140080829
 20
843.2643598117
 30
0.0
 11
463.466814008083
 21
843.2643598117
 31
0.0
  0
LINE
  5
2B0F
330
2E2C
100
AcDbEntity
  8
AM_0
100
AcDbLine
 10
392.6181740080828
 20
938.8565298117004
 30
0.0
 11
435.9668140080829
 21
935.0639798117006
 31
0.0
  0
LINE
  5
2B10
330
2E2C
100
AcDbEntity
  8
AM_0
100
AcDbLine
 10
401.4667540080829
 20
920.7644198117005
 30
0.0
 11
431.1412540080829
 21
921.8006798117004
 31
0.0
  0
LINE
  5
2B11
330
2E2C
100
AcDbEntity
  8
AM_0
100
AcDbLine
 10
401.4667540080829
 20
886.7390298117005
 30
0.0
 11
435.9667540080828
 21
886.7390298117005
 31
0.0
  0
LINE
  5
2B12
330
2E2C
100
AcDbEntity
  8
AM_0
100
AcDbLine
 10
401.4667540080829
 20
908.8429798116999
 30
0.0
 11
435.9667540080828
 21
908.8429798116999
 31
0.0
  0
ARC
  5
2B13
330
2E2C
100
AcDbEntity
  8
AM_0
100
AcDbCircle
 10
430.4668140080829
 20
847.2643598117004
 30
0.0
 40
3.9999962
100
AcDbArc
 50
90.00000299999769
 51
270.0
  0
ARC
  5
2B14
330
2E2C
100
AcDbEntity
  8
AM_0
100
AcDbCircle
 10
392.9667540080828
 20
942.8412698116996
 30
0.0
 40
4.0
100
AcDbArc
 50
180.0000100000009
 51
265.0000100000003
  0
POLYLINE
  5
2B15
330
2E2C
100
AcDbEntity
  8
AM_0
100
AcDb2dPolyline
 66
     1
 10
0.0
 20
0.0
 30
0.0
  0
VERTEX
  5
2B16
330
2B15
100
AcDbEntity
  8
AM_0
100
AcDbVertex
100
AcDb2dVertex
 10
482.8964440080828
 20
926.9958498117004
 30
0.0
 42
-0.110757
  0
VERTEX
  5
2B17
330
2B15
100
AcDbEntity
  8
AM_0
100
AcDbVertex
100
AcDb2dVertex
 10
495.7773940080826
 20
917.0881098117003
 30
0.0
 42
-0.2037583
  0
VERTEX
  5
2B18
330
2B15
100
AcDbEntity
  8
AM_0
100
AcDbVertex
100
AcDb2dVertex
 10
498.035114008083
 20
909.4226398116999
 30
0.0
  0
VERTEX
  5
2B19
330
2B15
100
AcDbEntity
  8
AM_0
100
AcDbVertex
100
AcDb2dVertex
 10
483.2653140080831
 20
890.5075198117001
 30
0.0
 42
-1.0
  0
SEQEND
  5
2B1A
330
2B15
100
AcDbEntity
  8
AM_0
  0
ARC
  5
2B1B
330
2E2C
100
AcDbEntity
  8
AM_0
100
AcDbCircle
 10
446.966814008083
 20
847.2643598117004
 30
0.0
 40
10.0
100
AcDbArc
 50
203.5782699999985
 51
336.4217200000013
  0
ARC
  5
2B1C
330
2E2C
100
AcDbEntity
  8
AM_0
100
AcDbCircle
 10
446.966814008083
 20
847.2643598117004
 30
0.0
 40
10.0
100
AcDbArc
 50
23.57803699999776
 51
156.4219600000008
  0
ARC
  5
2B1D
330
2E2C
100
AcDbEntity
  8
AM_0
100
AcDbCircle
 10
463.466814008083
 20
847.2643598117004
 30
0.0
 40
3.9999962
100
AcDbArc
 50
270.0
 51
90.00000299999769
  0
ARC
  5
2B1E
330
2E2C
100
AcDbEntity
  8
AM_0
100
AcDbCircle
 10
481.5163740080828
 20
892.9449698117004
 30
0.0
 40
3.0
100
AcDbArc
 50
270.0
 51
305.6516699999972
  0
LINE
  5
2B1F
330
2E2C
100
AcDbEntity
  8
AM_0
100
AcDbLine
 10
449.9666840080829
 20
924.8301598117004
 30
0.0
 11
475.9667540080829
 21
924.8301598117004
 31
0.0
  0
LINE
  5
2B20
330
2E2C
100
AcDbEntity
  8
AM_0
100
AcDbLine
 10
449.9666840080829
 20
898.8288798117004
 30
0.0
 11
475.9667540080829
 21
898.8288798117004
 31
0.0
  0
ARC
  5
2B21
330
2E2C
100
AcDbEntity
  8
AM_0
100
AcDbCircle
 10
430.9667540080829
 20
926.7976298117003
 30
0.0
 40
5.0
100
AcDbArc
 50
272.0000000000037
 51
0.0
  0
LINE
  5
2B22
330
2E2C
100
AcDbEntity
  8
AM_0
100
AcDbLine
 10
482.4667540080828
 20
924.8301598117004
 30
0.0
 11
482.4667540080828
 21
898.8288798117004
 31
0.0
  0
ARC
  5
2B23
330
2E2C
100
AcDbEntity
  8
AM_0
100
AcDbCircle
 10
475.9667540080829
 20
896.8288798117004
 30
0.0
 40
2.0
100
AcDbArc
 50
0.0
 51
90.00000299999769
  0
ARC
  5
2B24
330
2E2C
100
AcDbEntity
  8
AM_0
100
AcDbCircle
 10
475.9667540080829
 20
926.8301598117004
 30
0.0
 40
2.0
100
AcDbArc
 50
270.0
 51
0.0
  0
ARC
  5
2B25
330
2E2C
100
AcDbEntity
  8
AM_0
100
AcDbCircle
 10
481.994824008083
 20
925.2105898117005
 30
0.0
 40
2.0
100
AcDbArc
 50
63.19980900000232
 51
90.00000299999769
  0
LINE
  5
2B26
330
2E2C
100
AcDbEntity
  8
AM_0
100
AcDbLine
 10
392.7573940080829
 20
983.3227698117005
 30
0.0
 11
467.9667540080829
 21
987.2643598116999
 31
0.0
  0
ARC
  5
2B27
330
2E2C
100
AcDbEntity
  8
AM_0
100
AcDbCircle
 10
392.9667540080828
 20
979.3282698117005
 30
0.0
 40
4.0
100
AcDbArc
 50
92.99999900000168
 51
180.0000100000009
  0
LINE
  5
2B28
330
2E2C
100
AcDbEntity
  8
AM_0
100
AcDbLine
 10
462.9667540080829
 20
976.3946698117004
 30
0.0
 11
476.0366340080826
 21
975.9383098117005
 31
0.0
  0
ARC
  5
2B29
330
2E2C
100
AcDbEntity
  8
AM_0
100
AcDbCircle
 10
452.9666840080828
 20
983.4741398117003
 30
0.0
 40
3.0
100
AcDbArc
 50
92.99999900000168
 51
180.0000100000009
  0
ARC
  5
2B2A
330
2E2C
100
AcDbEntity
  8
AM_0
100
AcDbCircle
 10
446.9667540080829
 20
968.8921098117001
 30
0.0
 40
3.0
100
AcDbArc
 50
280.0000100000013
 51
0.0
  0
ARC
  5
2B2B
330
2E2C
100
AcDbEntity
  8
AM_0
100
AcDbCircle
 10
451.9667540080829
 20
974.0093598117006
 30
0.0
 40
2.0
100
AcDbArc
 50
91.99999800000055
 51
180.0000100000009
  0
ARC
  5
2B2C
330
2E2C
100
AcDbEntity
  8
AM_0
100
AcDbCircle
 10
441.9667540080829
 20
972.9743198117002
 30
0.0
 40
5.0
100
AcDbArc
 50
82.8601670000001
 51
180.0000100000009
  0
LINE
  5
2B2D
330
2E2C
100
AcDbEntity
  8
AM_0
100
AcDbLine
 10
436.9667540080828
 20
984.6595598117003
 30
0.0
 11
436.9667540080828
 21
976.8108098117004
 31
0.0
  0
LINE
  5
2B2E
330
2E2C
100
AcDbEntity
  8
AM_0
100
AcDbLine
 10
449.9666840080829
 20
977.0113098117004
 30
0.0
 11
442.5882140080829
 21
977.9355698116999
 31
0.0
  0
LINE
  5
2B2F
330
2E2C
100
AcDbEntity
  8
AM_0
100
AcDbLine
 10
438.445814008083
 20
964.3433998117004
 30
0.0
 11
447.4876840080828
 21
965.9376998117004
 31
0.0
  0
ARC
  5
2B30
330
2E2C
100
AcDbEntity
  8
AM_0
100
AcDbCircle
 10
438.9667540080829
 20
961.3889298117005
 30
0.0
 40
3.0
100
AcDbArc
 50
99.99999999999859
 51
180.0000100000009
  0
LINE
  5
2B31
330
2E2C
100
AcDbEntity
  8
AM_0
100
AcDbLine
 10
451.8969840080829
 20
976.0081398117003
 30
0.0
 11
462.9667540080829
 21
976.3946698117004
 31
0.0
  0
ARC
  5
2B32
330
2E2C
100
AcDbEntity
  8
AM_0
100
AcDbCircle
 10
483.5274140080826
 20
976.5463398117004
 30
0.0
 40
10.0
100
AcDbArc
 50
43.48296499999963
 51
87.99999999999625
  0
LINE
  5
2B33
330
2E2C
100
AcDbEntity
  8
AM_0
100
AcDbLine
 10
479.8969840080828
 20
969.8238098117004
 30
0.0
 11
504.5000140080828
 21
968.9646798117005
 31
0.0
  0
LINE
  5
2B34
330
2E2C
100
AcDbEntity
  8
AM_0
100
AcDbLine
 10
482.4667540080828
 20
971.5442098117
 30
0.0
 11
482.4667540080828
 21
983.4976998116999
 31
0.0
  0
ARC
  5
2B35
330
2E2C
100
AcDbEntity
  8
AM_0
100
AcDbCircle
 10
479.9667540080829
 20
971.8225898116999
 30
0.0
 40
2.0
100
AcDbArc
 50
180.0000100000009
 51
267.9999999999963
  0
ARC
  5
2B36
330
2E2C
100
AcDbEntity
  8
AM_0
100
AcDbCircle
 10
475.9667540080829
 20
973.9395298117006
 30
0.0
 40
2.0
100
AcDbArc
 50
0.0
 51
87.99999999999625
  0
LINE
  5
2B37
330
2E2C
100
AcDbEntity
  8
AM_0
100
AcDbLine
 10
490.7832140080829
 20
983.4277498117003
 30
0.0
 11
500.150344008083
 21
973.5509798117005
 31
0.0
  0
ARC
  5
2B38
330
2E2C
100
AcDbEntity
  8
AM_0
100
AcDbCircle
 10
507.406084008083
 20
980.4323898117004
 30
0.0
 40
10.0
100
AcDbArc
 50
223.4829600000014
 51
267.9999999999963
  0
CIRCLE
  5
2B39
330
2E2C
100
AcDbEntity
  8
AM_0
100
AcDbCircle
 10
559.9667540080828
 20
962.2643598117006
 30
0.0
 40
9.5
  0
LINE
  5
2B3A
330
2E2C
100
AcDbEntity
  8
AM_0
100
AcDbLine
 10
532.9667540080828
 20
956.2643598117006
 30
0.0
 11
532.9667540080828
 21
961.8081898117004
 31
0.0
  0
LINE
  5
2B3B
330
2E2C
100
AcDbEntity
  8
ﾁｭｳｼﾝｾﾝ1
100
AcDbLine
 10
559.9667540080828
 20
979.7643598117
 30
0.0
 11
559.9667540080828
 21
944.7643598117004
 31
0.0
  0
LINE
  5
2B3C
330
2E2C
100
AcDbEntity
  8
AM_0
100
AcDbLine
 10
580.9667540080827
 20
979.4555898117003
 30
0.0
 11
580.9667540080827
 21
940.0731398117004
 31
0.0
  0
LINE
  5
2B3D
330
2E2C
100
AcDbEntity
  8
AM_0
100
AcDbLine
 10
584.9667540080827
 20
868.2643598117
 30
0.0
 11
654.9667540080827
 21
868.2643598117
 31
0.0
  0
ARC
  5
2B3E
330
2E2C
100
AcDbEntity
  8
AM_0
100
AcDbCircle
 10
577.9667540080827
 20
895.5069798117007
 30
0.0
 40
3.0
100
AcDbArc
 50
180.0000100000009
 51
225.0
  0
ARC
  5
2B3F
330
2E2C
100
AcDbEntity
  8
AM_0
100
AcDbCircle
 10
577.9667540080827
 20
895.5069798117007
 30
0.0
 40
3.0
100
AcDbArc
 50
179.9999899999988
 51
225.0
  0
LINE
  5
2B40
330
2E2C
100
AcDbEntity
  8
AM_0
100
AcDbLine
 10
580.9668140080827
 20
869.7643598117004
 30
0.0
 11
584.9667540080827
 21
869.7643598117004
 31
0.0
  0
LINE
  5
2B41
330
2E2C
100
AcDbEntity
  8
AM_0
100
AcDbLine
 10
575.8454740080829
 20
893.3856998117004
 30
0.0
 11
580.0881440080827
 21
889.1430198117005
 31
0.0
  0
ARC
  5
2B42
330
2E2C
100
AcDbEntity
  8
AM_0
100
AcDbCircle
 10
577.9667540080827
 20
887.0217498117002
 30
0.0
 40
3.0
100
AcDbArc
 50
0.0
 51
44.99999800000161
  0
ARC
  5
2B43
330
2E2C
100
AcDbEntity
  8
AM_0
100
AcDbCircle
 10
577.9667540080827
 20
887.0217498117002
 30
0.0
 40
3.0
100
AcDbArc
 50
0.0
 51
45.0000010000038
  0
ARC
  5
2B44
330
2E2C
100
AcDbEntity
  8
AM_0
100
AcDbCircle
 10
544.9667540080828
 20
938.2643598117006
 30
0.0
 40
8.0
100
AcDbArc
 50
0.0
 51
90.00000299999769
  0
ARC
  5
2B45
330
2E2C
100
AcDbEntity
  8
AM_0
100
AcDbCircle
 10
542.9667540080828
 20
956.2643598117006
 30
0.0
 40
10.0
100
AcDbArc
 50
180.0000100000009
 51
270.0
  0
LINE
  5
2B46
330
2E2C
100
AcDbEntity
  8
AM_0
100
AcDbLine
 10
542.9667540080828
 20
946.2643598117006
 30
0.0
 11
544.9667540080828
 21
946.2643598117006
 31
0.0
  0
LINE
  5
2B47
330
2E2C
100
AcDbEntity
  8
AM_0
100
AcDbLine
 10
560.2918240080829
 20
933.8060498117004
 30
0.0
 11
570.1412540080829
 21
933.4620498117001
 31
0.0
  0
ARC
  5
2B48
330
2E2C
100
AcDbEntity
  8
AM_0
100
AcDbCircle
 10
560.570934008083
 20
941.8011698117004
 30
0.0
 40
8.0
100
AcDbArc
 50
192.7707500000011
 51
267.9999999999963
  0
ARC
  5
2B49
330
2E2C
100
AcDbEntity
  8
AM_0
100
AcDbCircle
 10
576.9667540080827
 20
940.0731398117004
 30
0.0
 40
4.0
100
AcDbArc
 50
278.2132199999964
 51
0.0
  0
ARC
  5
2B4A
330
2E2C
100
AcDbEntity
  8
AM_0
100
AcDbCircle
 10
577.9667540080827
 20
933.1449798117004
 30
0.0
 40
3.0
100
AcDbArc
 50
98.21320900000209
 51
180.0000100000009
  0
ARC
  5
2B4B
330
2E2C
100
AcDbEntity
  8
AM_0
100
AcDbCircle
 10
569.9667540080826
 20
928.4651098117004
 30
0.0
 40
5.0
100
AcDbArc
 50
0.0
 51
87.99999999999625
  0
LINE
  5
2B4C
330
2E2C
100
AcDbEntity
  8
AM_0
100
AcDbLine
 10
598.9667540080827
 20
853.2643598116997
 30
0.0
 11
654.9667540080827
 21
853.2643598116997
 31
0.0
  0
LINE
  5
2B4D
330
2E2C
100
AcDbEntity
  8
AM_0
100
AcDbLine
 10
598.9667540080827
 20
841.2643598117004
 30
0.0
 11
654.9667540080827
 21
841.2643598117004
 31
0.0
  0
ARC
  5
2B4E
330
2E2C
100
AcDbEntity
  8
AM_0
100
AcDbCircle
 10
598.9667540080827
 20
847.2643598117004
 30
0.0
 40
6.000003799999999
100
AcDbArc
 50
90.00000299999769
 51
270.0
  0
LINE
  5
2B4F
330
2E2C
100
AcDbEntity
  8
AM_0
100
AcDbLine
 10
598.9667540080827
 20
853.2643598116997
 30
0.0
 11
598.9667540080827
 21
841.2643598117004
 31
0.0
  0
LINE
  5
2B50
330
2E2C
100
AcDbEntity
  8
ﾁｭｳｼﾝｾﾝ1
100
AcDbLine
 10
542.4667540080828
 20
962.2643598117006
 30
0.0
 11
577.4667540080827
 21
962.2643598117006
 31
0.0
  0
ARC
  5
2B51
330
2E2C
100
AcDbEntity
  8
AM_0
100
AcDbCircle
 10
524.9667540080828
 20
961.8081898117004
 30
0.0
 40
8.0
100
AcDbArc
 50
0.0
 51
87.99999999999625
  0
LINE
  5
2B52
330
2E2C
100
AcDbEntity
  8
AM_0
100
AcDbLine
 10
532.9667540080828
 20
979.8168498117
 30
0.0
 11
532.9667540080828
 21
961.8081898117004
 31
0.0
  0
ARC
  5
2B53
330
2E2C
100
AcDbEntity
  8
AM_0
100
AcDbCircle
 10
537.9667540080828
 20
979.8168498117
 30
0.0
 40
5.0
100
AcDbArc
 50
87.99999999999625
 51
180.0000100000009
  0
ARC
  5
2B54
330
2E2C
100
AcDbEntity
  8
AM_0
100
AcDbCircle
 10
576.9667540080827
 20
979.4555898117003
 30
0.0
 40
4.0
100
AcDbArc
 50
0.0
 51
87.99999999999625
  0
LINE
  5
2B55
330
2E2C
100
AcDbEntity
  8
ﾁｭｳｼﾝｾﾝ1
100
AcDbLine
 10
559.9667540080828
 20
749.7643598116996
 30
0.0
 11
559.9667540080828
 21
714.7643598117004
 31
0.0
  0
LINE
  5
2B56
330
2E2C
100
AcDbEntity
  8
ﾁｭｳｼﾝｾﾝ1
100
AcDbLine
 10
542.4667540080828
 20
732.2643598117004
 30
0.0
 11
577.4667540080827
 21
732.2643598117004
 31
0.0
  0
LINE
  5
2B57
330
2E2C
100
AcDbEntity
  8
ﾁｭｳｼﾝｾﾝ1
100
AcDbLine
 10
409.9667540080829
 20
749.7643598116996
 30
0.0
 11
409.9667540080829
 21
714.7643598117004
 31
0.0
  0
LINE
  5
2B58
330
2E2C
100
AcDbEntity
  8
ﾁｭｳｼﾝｾﾝ1
100
AcDbLine
 10
392.4667540080828
 20
732.2643598117004
 30
0.0
 11
427.4667540080828
 21
732.2643598117004
 31
0.0
  0
LINE
  5
2B59
330
2E2C
100
AcDbEntity
  8
ﾁｭｳｼﾝｾﾝ1
100
AcDbLine
 10
409.9667540080829
 20
979.7643598117
 30
0.0
 11
409.9667540080829
 21
944.7643598117004
 31
0.0
  0
LINE
  5
2B5A
330
2E2C
100
AcDbEntity
  8
ﾁｭｳｼﾝｾﾝ1
100
AcDbLine
 10
392.4667540080828
 20
962.2643598117006
 30
0.0
 11
427.4667540080828
 21
962.2643598117006
 31
0.0
  0
TEXT
  5
2D4F
330
2E2C
100
AcDbEntity
  8
AM_0
100
AcDbText
 10
731.381052219249
 20
899.6744858723742
 30
0.0
 40
20.0
  1
VX15-060G~VX15-100G
100
AcDbText
  0
LINE
  5
2F4A
330
2E2C
100
AcDbEntity
  8
AM_0
100
AcDbLine
 10
252.466754008083
 20
467.0577711964408
 30
0.0
 11
280.466754008083
 21
467.0577711964408
 31
0.0
  0
ENDSEC
  0
SECTION
  2
OBJECTS
  0
DICTIONARY
  5
2DC9
330
0
100
AcDbDictionary
281
     1
  3
ACAD_CIP_PREVIOUS_PRODUCT_INFO
350
2EE0
  3
ACAD_COLOR
350
2E1F
  3
ACAD_DETAILVIEWSTYLE
350
2E26
  3
ACAD_FIELDLIST
350
2F2A
  3
ACAD_GROUP
350
2DCA
  3
ACAD_LAYOUT
350
2E1E
  3
ACAD_MATERIAL
350
2DCD
  3
ACAD_MLEADERSTYLE
350
2E22
  3
ACAD_MLINESTYLE
350
2E1B
  3
ACAD_PLOTSETTINGS
350
2E1D
  3
ACAD_PLOTSTYLENAME
350
2DCB
  3
ACAD_SCALELIST
350
2DFF
  3
ACAD_SECTIONVIEWSTYLE
350
2E24
  3
ACAD_TABLESTYLE
350
2E20
  3
ACAD_VISUALSTYLE
350
2DE6
  3
ACDB_RECOMPOSE_DATA
350
30F6
  3
AcDbVariableDictionary
350
2FDD
  3
AcDsDecomposeData
350
30FC
  3
AcmDictionary
350
2F06
  3
AMG
350
2EE1
  3
AMGSNAPSETTINGS
350
2F3B
  0
DICTIONARY
  5
2FD7
330
2DBF
100
AcDbDictionary
280
     1
281
     1
  3
ACAD_LAYERSTATES
360
2FD8
  0
DICTIONARY
  5
2FCA
330
2E11
100
AcDbDictionary
280
     1
281
     1
  3
ADSK_XREC_LAYER_RECONCILED
360
2FCB
  0
DICTIONARY
  5
2FCC
330
2E30
100
AcDbDictionary
280
     1
281
     1
  3
ADSK_XREC_LAYER_RECONCILED
360
2FCD
  0
DICTIONARY
  5
2FCE
330
2E4A
100
AcDbDictionary
280
     1
281
     1
  3
ADSK_XREC_LAYER_RECONCILED
360
2FCF
  0
DICTIONARY
  5
2FD0
330
2E4C
100
AcDbDictionary
280
     1
281
     1
  3
ADSK_XREC_LAYER_RECONCILED
360
2FD1
  0
DICTIONARY
  5
2FD2
330
2E4D
100
AcDbDictionary
280
     1
281
     1
  3
ADSK_XREC_LAYER_RECONCILED
360
2FD3
  0
XRECORD
  5
2EE0
102
{ACAD_REACTORS
330
2DC9
102
}
330
2DC9
100
AcDbXrecord
280
     1
300
AMECH_PP
300
2019
300

  0
DICTIONARY
  5
2E1F
102
{ACAD_REACTORS
330
2DC9
102
}
330
2DC9
100
AcDbDictionary
281
     1
  0
DICTIONARY
  5
2E26
102
{ACAD_REACTORS
330
2DC9
102
}
330
2DC9
100
AcDbDictionary
281
     1
  3
Imperial24
350
2E27
  0
FIELDLIST
  5
2F2A
102
{ACAD_REACTORS
330
2DC9
102
}
330
2DC9
100
AcDbIdSet
 90
        8
330
3078
330
3079
330
307A
330
307B
330
307F
330
3080
330
3081
330
3082
100
AcDbFieldList
  0
DICTIONARY
  5
2DCA
102
{ACAD_REACTORS
330
2DC9
102
}
330
2DC9
100
AcDbDictionary
281
     1
  0
DICTIONARY
  5
2E1E
102
{ACAD_REACTORS
330
2DC9
102
}
330
2DC9
100
AcDbDictionary
281
     1
  3
Model
350
2E2F
  3
レイアウト1
350
2E2B
  0
DICTIONARY
  5
2DCD
102
{ACAD_REACTORS
330
2DC9
102
}
330
2DC9
100
AcDbDictionary
281
     1
  3
ByBlock
350
2DD6
  3
ByLayer
350
2DCE
  3
Global
350
2DDE
  0
DICTIONARY
  5
2E22
102
{ACAD_REACTORS
330
2DC9
102
}
330
2DC9
100
AcDbDictionary
281
     1
  3
Standard
350
2E23
  0
DICTIONARY
  5
2E1B
102
{ACAD_REACTORS
330
2DC9
102
}
330
2DC9
100
AcDbDictionary
281
     1
  3
Standard
350
2E1C
  0
DICTIONARY
  5
2E1D
102
{ACAD_REACTORS
330
2DC9
102
}
330
2DC9
100
AcDbDictionary
281
     1
  0
ACDBDICTIONARYWDFLT
  5
2DCB
102
{ACAD_REACTORS
330
2DC9
102
}
330
2DC9
100
AcDbDictionary
281
     1
  3
Normal
350
2DCC
100
AcDbDictionaryWithDefault
340
2DCC
  0
DICTIONARY
  5
2DFF
102
{ACAD_REACTORS
330
2DC9
102
}
330
2DC9
100
AcDbDictionary
281
     1
  3
A0
350
2E00
  3
A1
350
2E01
  3
A2
350
2E02
  3
A3
350
2E03
  3
A4
350
2E04
  3
A5
350
2E05
  3
A6
350
2E06
  3
A7
350
2E07
  3
A8
350
2E08
  3
A9
350
2E09
  3
B0
350
2E0A
  3
B1
350
2E0B
  3
B2
350
2E0C
  3
B3
350
2E0D
  3
B4
350
2E0E
  3
B5
350
2E0F
  3
B6
350
2E10
  0
DICTIONARY
  5
2E24
102
{ACAD_REACTORS
330
2DC9
102
}
330
2DC9
100
AcDbDictionary
281
     1
  3
Imperial24
350
2E25
  0
DICTIONARY
  5
2E20
102
{ACAD_REACTORS
330
2DC9
102
}
330
2DC9
100
AcDbDictionary
281
     1
  3
Standard
350
2E21
  0
DICTIONARY
  5
2DE6
102
{ACAD_REACTORS
330
2DC9
102
}
330
2DC9
100
AcDbDictionary
281
     1
  3
2dWireframe
350
2DEC
  3
Basic
350
2DEB
  3
Brighten
350
2DF2
  3
ColorChange
350
2DF6
  3
Conceptual
350
2DEF
  3
Dim
350
2DF1
  3
EdgeColorOff
350
2DFE
  3
Facepattern
350
2DF5
  3
Flat
350
2DE7
  3
FlatWithEdges
350
2DE8
  3
Gouraud
350
2DE9
  3
GouraudWithEdges
350
2DEA
  3
Hidden
350
2DEE
  3
JitterOff
350
2DFC
  3
Linepattern
350
2DF4
  3
OverhangOff
350
2DFD
  3
Realistic
350
2DF0
  3
Shaded
350
2DFB
  3
Shaded with edges
350
2DFA
  3
Shades of Gray
350
2DF7
  3
Sketchy
350
2DF8
  3
Thicken
350
2DF3
  3
Wireframe
350
2DED
  3
X-Ray
350
2DF9
  0
XRECORD
  5
30F6
102
{ACAD_REACTORS
330
2DC9
102
}
330
2DC9
100
AcDbXrecord
280
     1
 90
        1
330
2E21
  0
DICTIONARY
  5
2FDD
102
{ACAD_REACTORS
330
2DC9
102
}
330
2DC9
100
AcDbDictionary
281
     1
  3
CANNOSCALE
350
2FE3
  3
CMLEADERSTYLE
350
2FDF
  3
CTABLESTYLE
350
2FDE
  3
CVIEWDETAILSTYLE
350
2FE0
  3
CVIEWSECTIONSTYLE
350
2FE1
  3
LAYEREVAL
350
2FE5
  3
LAYERNOTIFY
350
2FE6
  3
LIGHTINGUNITS
350
2FE4
  3
MSLTSCALE
350
2FE2
  0
DICTIONARY
  5
30FC
102
{ACAD_REACTORS
330
2DC9
102
}
330
2DC9
100
AcDbDictionary
281
     1
  3
AcDsRecords
350
30FE
  3
AcDsSchemas
350
30FD
1001
ACAD
1070
     2
  0
DICTIONARY
  5
2F06
102
{ACAD_REACTORS
330
2DC9
102
}
330
2DC9
100
AcDbDictionary
281
     1
  3
AcmStdDictionary
350
2F0F
  0
DICTIONARY
  5
2EE1
102
{ACAD_REACTORS
330
2DC9
102
}
330
2DC9
100
AcDbDictionary
281
     1
  0
DICTIONARY
  5
2F3B
102
{ACAD_REACTORS
330
2DC9
102
}
330
2DC9
100
AcDbDictionary
281
     1
  0
DICTIONARY
  5
2FD8
102
{ACAD_REACTORS
330
2FD7
102
}
330
2FD7
100
AcDbDictionary
281
     1
  0
XRECORD
  5
2FCB
102
{ACAD_REACTORS
330
2FCA
102
}
330
2FCA
100
AcDbXrecord
280
     1
290
     1
  0
XRECORD
  5
2FCD
102
{ACAD_REACTORS
330
2FCC
102
}
330
2FCC
100
AcDbXrecord
280
     1
290
     1
  0
XRECORD
  5
2FCF
102
{ACAD_REACTORS
330
2FCE
102
}
330
2FCE
100
AcDbXrecord
280
     1
290
     1
  0
XRECORD
  5
2FD1
102
{ACAD_REACTORS
330
2FD0
102
}
330
2FD0
100
AcDbXrecord
280
     1
290
     1
  0
XRECORD
  5
2FD3
102
{ACAD_REACTORS
330
2FD2
102
}
330
2FD2
100
AcDbXrecord
280
     1
290
     1
  0
ACDBDETAILVIEWSTYLE
  5
2E27
102
{ACAD_XDICTIONARY
360
3131
102
}
102
{ACAD_REACTORS
330
2E26
330
3073
102
}
330
2E26
100
AcDbModelDocViewStyle
 70
     0
  3
Imperial24
290
     0
100
AcDbDetailViewStyle
 70
     0
 71
     0
 90
        3
 71
     1
340
2E12
 62
   256
 40
0.24
340
0
 62
   256
 40
0.24
300

 40
0.36
280
     3
 71
     2
340
2E19
 90
       25
 62
   256
 71
     3
340
2E12
 62
   256
 40
0.24
 90
        1
 40
0.75
 90
        1
300
%<\AcVar ViewType \f "%tc1">% %<\AcVar ViewDetailId>%\PSCALE %<\AcVar ViewScale \f "%sn">%
 71
     4
340
2E19
 90
       25
 62
   256
340
2E19
 90
       25
 62
   256
280
     0
  0
LAYOUT
  5
2E2F
102
{ACAD_REACTORS
330
2E1E
102
}
330
2E1E
100
AcDbPlotSettings
  1

  2
JUST PDF 3
  4

  6

 40
0.0
 41
0.0
 42
0.0
 43
0.0
 44
0.0
 45
0.0
 46
0.0
 47
0.0
 48
0.0
 49
0.0
140
0.0
141
0.0
142
1.0
143
1.0
 70
  1712
 72
     0
 73
     0
 74
     0
  7

 75
     0
147
1.0
 76
     0
 77
     2
 78
   300
148
0.0
149
0.0
100
AcDbLayout
  1
Model
 70
     1
 71
     0
 10
0.0
 20
0.0
 11
12.0
 21
9.0
 12
0.0
 22
0.0
 32
0.0
 14
0.0
 24
0.0
 34
0.0
 15
0.0
 25
0.0
 35
0.0
146
0.0
 13
0.0
 23
0.0
 33
0.0
 16
1.0
 26
0.0
 36
0.0
 17
0.0
 27
1.0
 37
0.0
 76
     0
330
2E2C
331
2E31
  0
LAYOUT
  5
2E2B
102
{ACAD_REACTORS
330
2E1E
102
}
330
2E1E
100
AcDbPlotSettings
  1

  2
JUST PDF 3
  4

  6

 40
0.0
 41
0.0
 42
0.0
 43
0.0
 44
0.0
 45
0.0
 46
0.0
 47
0.0
 48
0.0
 49
0.0
140
0.0
141
0.0
142
1.0
143
1.0
 70
   688
 72
     0
 73
     0
 74
     5
  7

 75
    16
147
1.0
 76
     0
 77
     2
 78
   300
148
0.0
149
0.0
100
AcDbLayout
  1
レイアウト1
 70
     1
 71
     1
 10
0.0
 20
0.0
 11
420.0
 21
297.0
 12
0.0
 22
0.0
 32
0.0
 14
1.000000000000000E+20
 24
1.000000000000000E+20
 34
1.000000000000000E+20
 15
-1.000000000000000E+20
 25
-1.000000000000000E+20
 35
-1.000000000000000E+20
146
0.0
 13
0.0
 23
0.0
 33
0.0
 16
1.0
 26
0.0
 36
0.0
 17
0.0
 27
1.0
 37
0.0
 76
     0
330
2E28
  0
MATERIAL
  5
2DD6
102
{ACAD_XDICTIONARY
360
2DD7
102
}
102
{ACAD_REACTORS
330
2DCD
102
}
330
2DCD
100
AcDbMaterial
  1
ByBlock
 72
     0
 43
0.0208333333333333
 43
0.0
 43
0.0
 43
0.0
 43
0.0
 43
0.0208333333333333
 43
0.0
 43
0.0
 43
0.0
 43
0.0
 43
1.0
 43
0.0
 43
0.0
 43
0.0
 43
0.0
 43
1.0
 77
     0
 47
0.0208333333333333
 47
0.0
 47
0.0
 47
0.0
 47
0.0
 47
0.0208333333333333
 47
0.0
 47
0.0
 47
0.0
 47
0.0
 47
1.0
 47
0.0
 47
0.0
 47
0.0
 47
0.0
 47
1.0
171
     0
 49
0.0208333333333333
 49
0.0
 49
0.0
 49
0.0
 49
0.0
 49
0.0208333333333333
 49
0.0
 49
0.0
 49
0.0
 49
0.0
 49
1.0
 49
0.0
 49
0.0
 49
0.0
 49
0.0
 49
1.0
175
     0
142
0.0208333333333333
142
0.0
142
0.0
142
0.0
142
0.0
142
0.0208333333333333
142
0.0
142
0.0
142
0.0
142
0.0
142
1.0
142
0.0
142
0.0
142
0.0
142
0.0
142
1.0
179
     0
144
0.0208333333333333
144
0.0
144
0.0
144
0.0
144
0.0
144
0.0208333333333333
144
0.0
144
0.0
144
0.0
144
0.0
144
1.0
144
0.0
144
0.0
144
0.0
144
0.0
144
1.0
147
0.0208333333333333
147
0.0
147
0.0
147
0.0
147
0.0
147
0.0208333333333333
147
0.0
147
0.0
147
0.0
147
0.0
147
1.0
147
0.0
147
0.0
147
0.0
147
0.0
147
1.0
  0
MATERIAL
  5
2DCE
102
{ACAD_XDICTIONARY
360
2DCF
102
}
102
{ACAD_REACTORS
330
2DCD
102
}
330
2DCD
100
AcDbMaterial
  1
ByLayer
 72
     0
 43
0.0208333333333333
 43
0.0
 43
0.0
 43
0.0
 43
0.0
 43
0.0208333333333333
 43
0.0
 43
0.0
 43
0.0
 43
0.0
 43
1.0
 43
0.0
 43
0.0
 43
0.0
 43
0.0
 43
1.0
 77
     0
 47
0.0208333333333333
 47
0.0
 47
0.0
 47
0.0
 47
0.0
 47
0.0208333333333333
 47
0.0
 47
0.0
 47
0.0
 47
0.0
 47
1.0
 47
0.0
 47
0.0
 47
0.0
 47
0.0
 47
1.0
171
     0
 49
0.0208333333333333
 49
0.0
 49
0.0
 49
0.0
 49
0.0
 49
0.0208333333333333
 49
0.0
 49
0.0
 49
0.0
 49
0.0
 49
1.0
 49
0.0
 49
0.0
 49
0.0
 49
0.0
 49
1.0
175
     0
142
0.0208333333333333
142
0.0
142
0.0
142
0.0
142
0.0
142
0.0208333333333333
142
0.0
142
0.0
142
0.0
142
0.0
142
1.0
142
0.0
142
0.0
142
0.0
142
0.0
142
1.0
179
     0
144
0.0208333333333333
144
0.0
144
0.0
144
0.0
144
0.0
144
0.0208333333333333
144
0.0
144
0.0
144
0.0
144
0.0
144
1.0
144
0.0
144
0.0
144
0.0
144
0.0
144
1.0
147
0.0208333333333333
147
0.0
147
0.0
147
0.0
147
0.0
147
0.0208333333333333
147
0.0
147
0.0
147
0.0
147
0.0
147
1.0
147
0.0
147
0.0
147
0.0
147
0.0
147
1.0
  0
MATERIAL
  5
2DDE
102
{ACAD_XDICTIONARY
360
2DDF
102
}
102
{ACAD_REACTORS
330
2DCD
102
}
330
2DCD
100
AcDbMaterial
  1
Global
 72
     0
 43
0.0208333333333333
 43
0.0
 43
0.0
 43
0.0
 43
0.0
 43
0.0208333333333333
 43
0.0
 43
0.0
 43
0.0
 43
0.0
 43
1.0
 43
0.0
 43
0.0
 43
0.0
 43
0.0
 43
1.0
 77
     0
 47
0.0208333333333333
 47
0.0
 47
0.0
 47
0.0
 47
0.0
 47
0.0208333333333333
 47
0.0
 47
0.0
 47
0.0
 47
0.0
 47
1.0
 47
0.0
 47
0.0
 47
0.0
 47
0.0
 47
1.0
171
     0
 49
0.0208333333333333
 49
0.0
 49
0.0
 49
0.0
 49
0.0
 49
0.0208333333333333
 49
0.0
 49
0.0
 49
0.0
 49
0.0
 49
1.0
 49
0.0
 49
0.0
 49
0.0
 49
0.0
 49
1.0
175
     0
142
0.0208333333333333
142
0.0
142
0.0
142
0.0
142
0.0
142
0.0208333333333333
142
0.0
142
0.0
142
0.0
142
0.0
142
1.0
142
0.0
142
0.0
142
0.0
142
0.0
142
1.0
179
     0
144
0.0208333333333333
144
0.0
144
0.0
144
0.0
144
0.0
144
0.0208333333333333
144
0.0
144
0.0
144
0.0
144
0.0
144
1.0
144
0.0
144
0.0
144
0.0
144
0.0
144
1.0
147
0.0208333333333333
147
0.0
147
0.0
147
0.0
147
0.0
147
0.0208333333333333
147
0.0
147
0.0
147
0.0
147
0.0
147
1.0
147
0.0
147
0.0
147
0.0
147
0.0
147
1.0
  0
MLEADERSTYLE
  5
2E23
102
{ACAD_REACTORS
330
2E22
102
}
330
2E22
100
AcDbMLeaderStyle
179
     2
170
     2
171
     1
172
     0
 90
        2
 40
0.0
 41
0.0
173
     1
 91
-1056964608
340
2E17
 92
       -2
290
     1
 42
0.09
291
     1
 43
0.36
  3
Standard
 44
0.18
300

342
2E12
174
     1
178
     6
175
     1
176
     0
 93
-1056964608
 45
0.18
292
     0
297
     0
 46
0.18
 94
-1056964608
 47
1.0
 49
1.0
140
1.0
293
     1
141
0.0
294
     1
177
     0
142
1.0
295
     0
296
     0
143
0.125
271
     0
272
     9
273
     9
  0
MLINESTYLE
  5
2E1C
102
{ACAD_REACTORS
330
2E1B
102
}
330
2E1B
100
AcDbMlineStyle
  2
STANDARD
 70
     0
  3

 62
   256
 51
90.0
 52
90.0
 71
     2
 49
0.5
 62
   256
  6
BYLAYER
 49
-0.5
 62
   256
  6
BYLAYER
  0
ACDBPLACEHOLDER
  5
2DCC
102
{ACAD_REACTORS
330
2DCB
102
}
330
2DCB
  0
SCALE
  5
2E00
102
{ACAD_REACTORS
330
2DFF
102
}
330
2DFF
100
AcDbScale
 70
     0
300
1:1
140
1.0
141
1.0
290
     1
  0
SCALE
  5
2E01
102
{ACAD_REACTORS
330
2DFF
102
}
330
2DFF
100
AcDbScale
 70
     0
300
1/128" = 1'-0"
140
0.0078125
141
12.0
290
     0
  0
SCALE
  5
2E02
102
{ACAD_REACTORS
330
2DFF
102
}
330
2DFF
100
AcDbScale
 70
     0
300
1/64" = 1'-0"
140
0.015625
141
12.0
290
     0
  0
SCALE
  5
2E03
102
{ACAD_REACTORS
330
2DFF
102
}
330
2DFF
100
AcDbScale
 70
     0
300
1/32" = 1'-0"
140
0.03125
141
12.0
290
     0
  0
SCALE
  5
2E04
102
{ACAD_REACTORS
330
2DFF
102
}
330
2DFF
100
AcDbScale
 70
     0
300
1/16" = 1'-0"
140
0.0625
141
12.0
290
     0
  0
SCALE
  5
2E05
102
{ACAD_REACTORS
330
2DFF
102
}
330
2DFF
100
AcDbScale
 70
     0
300
3/32" = 1'-0"
140
0.09375
141
12.0
290
     0
  0
SCALE
  5
2E06
102
{ACAD_REACTORS
330
2DFF
102
}
330
2DFF
100
AcDbScale
 70
     0
300
1/8" = 1'-0"
140
0.125
141
12.0
290
     0
  0
SCALE
  5
2E07
102
{ACAD_REACTORS
330
2DFF
102
}
330
2DFF
100
AcDbScale
 70
     0
300
3/16" = 1'-0"
140
0.1875
141
12.0
290
     0
  0
SCALE
  5
2E08
102
{ACAD_REACTORS
330
2DFF
102
}
330
2DFF
100
AcDbScale
 70
     0
300
1/4" = 1'-0"
140
0.25
141
12.0
290
     0
  0
SCALE
  5
2E09
102
{ACAD_REACTORS
330
2DFF
102
}
330
2DFF
100
AcDbScale
 70
     0
300
3/8" = 1'-0"
140
0.375
141
12.0
290
     0
  0
SCALE
  5
2E0A
102
{ACAD_REACTORS
330
2DFF
102
}
330
2DFF
100
AcDbScale
 70
     0
300
1/2" = 1'-0"
140
0.5
141
12.0
290
     0
  0
SCALE
  5
2E0B
102
{ACAD_REACTORS
330
2DFF
102
}
330
2DFF
100
AcDbScale
 70
     0
300
3/4" = 1'-0"
140
0.75
141
12.0
290
     0
  0
SCALE
  5
2E0C
102
{ACAD_REACTORS
330
2DFF
102
}
330
2DFF
100
AcDbScale
 70
     0
300
1" = 1'-0"
140
1.0
141
12.0
290
     0
  0
SCALE
  5
2E0D
102
{ACAD_REACTORS
330
2DFF
102
}
330
2DFF
100
AcDbScale
 70
     0
300
1-1/2" = 1'-0"
140
1.5
141
12.0
290
     0
  0
SCALE
  5
2E0E
102
{ACAD_REACTORS
330
2DFF
102
}
330
2DFF
100
AcDbScale
 70
     0
300
3" = 1'-0"
140
3.0
141
12.0
290
     0
  0
SCALE
  5
2E0F
102
{ACAD_REACTORS
330
2DFF
102
}
330
2DFF
100
AcDbScale
 70
     0
300
6" = 1'-0"
140
6.0
141
12.0
290
     0
  0
SCALE
  5
2E10
102
{ACAD_REACTORS
330
2DFF
102
}
330
2DFF
100
AcDbScale
 70
     0
300
1'-0" = 1'-0"
140
12.0
141
12.0
290
     0
  0
ACDBSECTIONVIEWSTYLE
  5
2E25
102
{ACAD_XDICTIONARY
360
312F
102
}
102
{ACAD_REACTORS
330
2E24
330
3072
102
}
330
2E24
100
AcDbModelDocViewStyle
 70
     0
  3
Imperial24
290
     0
100
AcDbSectionViewStyle
 70
     0
 71
     0
 90
       78
 71
     1
340
2E12
 62
   256
 40
0.24
340
0
340
0
 62
   256
 40
0.24
300
I, O, Q, S, X, Z
 40
0.48
 90
        3
 40
0.18
 90
        1
 71
     2
340
2E19
 90
       25
 62
   256
340
2E19
 90
       50
 62
   256
 40
0.24
 40
0.0
 40
0.24
 71
     3
340
2E12
 62
   256
 40
0.24
 90
        1
 40
0.75
 90
        1
300
%<\AcVar ViewType \f "%tc1">% %<\AcVar ViewSectionStartId>%-%<\AcVar ViewSectionEndId>%\PSCALE %<\AcVar ViewScale \f "%sn">%
 71
     4
 62
   256
 62
   257
300
ANSI31
 40
1.0
 90
        0
290
     0
290
     0
 90
        6
 40
0.0
 40
1.570796326794896
 40
0.2617993877991494
 40
1.308996938995747
 40
-0.2617993877991494
 40
1.832595714594045
  0
TABLESTYLE
  5
2E21
102
{ACAD_XDICTIONARY
360
2FE7
102
}
102
{ACAD_REACTORS
330
2E20
102
}
330
2E20
100
AcDbTableStyle
280
     0
  3
Standard
 70
     0
 71
     0
 40
0.06
 41
0.06
280
     0
281
     0
  7
STANDARD
140
0.18
170
     2
 62
     0
 63
     7
283
     0
 90
      512
 91
        0
  1

274
    -2
284
     1
 64
     0
275
    -2
285
     1
 65
     0
276
    -2
286
     1
 66
     0
277
    -2
287
     1
 67
     0
278
    -2
288
     1
 68
     0
279
    -2
289
     1
 69
     0
  7
STANDARD
140
0.25
170
     5
 62
     0
 63
     7
283
     0
 90
      512
 91
        0
  1

274
    -2
284
     1
 64
     0
275
    -2
285
     1
 65
     0
276
    -2
286
     1
 66
     0
277
    -2
287
     1
 67
     0
278
    -2
288
     1
 68
     0
279
    -2
289
     1
 69
     0
  7
STANDARD
140
0.18
170
     5
 62
     0
 63
     7
283
     0
 90
      512
 91
        0
  1

274
    -2
284
     1
 64
     0
275
    -2
285
     1
 65
     0
276
    -2
286
     1
 66
     0
277
    -2
287
     1
 67
     0
278
    -2
288
     1
 68
     0
279
    -2
289
     1
 69
     0
  0
VISUALSTYLE
  5
2DEC
102
{ACAD_XDICTIONARY
360
3109
102
}
102
{ACAD_REACTORS
330
2DE6
102
}
330
2DE6
100
AcDbVisualStyle
  2
2dWireframe
 70
     4
177
     2
291
     0
 71
     0
176
     1
 72
     2
176
     1
 73
     0
176
     1
 90
        0
176
     1
 40
0.6
176
     1
 41
30.0
176
     1
 63
     7
421
 16777215
176
     1
 74
     1
176
     1
 91
        4
176
     1
 64
     7
176
     1
 65
   257
176
     1
 75
     1
176
     1
175
     1
176
     1
 42
1.0
176
     1
 92
        0
176
     1
 66
   257
176
     1
 43
1.0
176
     1
 76
     1
176
     1
 77
     6
176
     1
 78
     2
176
     1
 67
     7
176
     1
 79
     5
176
     1
170
     0
176
     1
171
     0
176
     1
290
     0
176
     1
 93
        1
176
     1
 44
0.0
176
     1
173
     0
176
     1
1001
ACAD
1000
AcDbSavedByObjectVersion
1070
     0
  0
VISUALSTYLE
  5
2DEB
102
{ACAD_XDICTIONARY
360
3107
102
}
102
{ACAD_REACTORS
330
2DE6
102
}
330
2DE6
100
AcDbVisualStyle
  2
Basic
 70
     7
177
     2
291
     1
 71
     1
176
     1
 72
     0
176
     1
 73
     1
176
     1
 90
        0
176
     1
 40
0.6
176
     1
 41
30.0
176
     1
 63
     7
421
 16777215
176
     1
 74
     0
176
     1
 91
        4
176
     1
 64
     7
176
     1
 65
   257
176
     1
 75
     1
176
     1
175
     1
176
     1
 42
1.0
176
     1
 92
        8
176
     1
 66
     7
176
     1
 43
1.0
176
     1
 76
     1
176
     1
 77
     6
176
     1
 78
     2
176
     1
 67
     7
176
     1
 79
     5
176
     1
170
     0
176
     1
171
     0
176
     1
290
     0
176
     1
 93
        1
176
     1
 44
0.0
176
     1
173
     0
176
     1
1001
ACAD
1000
AcDbSavedByObjectVersion
1070
     0
  0
VISUALSTYLE
  5
2DF2
102
{ACAD_XDICTIONARY
360
3115
102
}
102
{ACAD_REACTORS
330
2DE6
102
}
330
2DE6
100
AcDbVisualStyle
  2
Brighten
 70
    12
177
     2
291
     1
 71
     2
176
     1
 72
     2
176
     1
 73
     0
176
     1
 90
        0
176
     1
 40
0.6
176
     1
 41
30.0
176
     1
 63
     7
421
 16777215
176
     1
 74
     1
176
     1
 91
        4
176
     1
 64
     7
176
     1
 65
   257
176
     1
 75
     1
176
     1
175
     1
176
     1
 42
1.0
176
     1
 92
        8
176
     1
 66
     7
176
     1
 43
1.0
176
     1
 76
     1
176
     1
 77
     6
176
     1
 78
     2
176
     1
 67
     7
176
     1
 79
     5
176
     1
170
     0
176
     1
171
     0
176
     1
290
     0
176
     1
 93
        1
176
     1
 44
50.0
176
     1
173
     0
176
     1
1001
ACAD
1000
AcDbSavedByObjectVersion
1070
     0
  0
VISUALSTYLE
  5
2DF6
102
{ACAD_XDICTIONARY
360
311D
102
}
102
{ACAD_REACTORS
330
2DE6
102
}
330
2DE6
100
AcDbVisualStyle
  2
ColorChange
 70
    16
177
     2
291
     1
 71
     2
176
     1
 72
     2
176
     1
 73
     3
176
     1
 90
        0
176
     1
 40
0.6
176
     1
 41
30.0
176
     1
 63
     8
421
  8421504
176
     1
 74
     1
176
     1
 91
        4
176
     1
 64
     7
176
     1
 65
   257
176
     1
 75
     1
176
     1
175
     1
176
     1
 42
1.0
176
     1
 92
        8
176
     1
 66
     8
424
  8421504
176
     1
 43
1.0
176
     1
 76
     1
176
     1
 77
     6
176
     1
 78
     2
176
     1
 67
     7
176
     1
 79
     5
176
     1
170
     0
176
     1
171
     0
176
     1
290
     0
176
     1
 93
        1
176
     1
 44
0.0
176
     1
173
     0
176
     1
1001
ACAD
1000
AcDbSavedByObjectVersion
1070
     0
  0
VISUALSTYLE
  5
2DEF
102
{ACAD_XDICTIONARY
360
310F
102
}
102
{ACAD_REACTORS
330
2DE6
102
}
330
2DE6
100
AcDbVisualStyle
  2
Conceptual
 70
     9
177
     2
291
     0
 71
     3
176
     1
 72
     2
176
     1
 73
     0
176
     1
 90
        0
176
     1
 40
0.6
176
     1
 41
30.0
176
     1
 63
     7
421
 16777215
176
     1
 74
     2
176
     1
 91
        2
176
     1
 64
     7
176
     1
 65
   257
176
     1
 75
     1
176
     1
175
     1
176
     1
 42
179.0
176
     1
 92
        8
176
     1
 66
     7
176
     1
 43
1.0
176
     1
 76
     1
176
     1
 77
     6
176
     1
 78
     2
176
     1
 67
     7
176
     1
 79
     3
176
     1
170
     0
176
     1
171
     0
176
     1
290
     0
176
     1
 93
        1
176
     1
 44
0.0
176
     1
173
     0
176
     1
1001
ACAD
1000
AcDbSavedByObjectVersion
1070
     0
  0
VISUALSTYLE
  5
2DF1
102
{ACAD_XDICTIONARY
360
3113
102
}
102
{ACAD_REACTORS
330
2DE6
102
}
330
2DE6
100
AcDbVisualStyle
  2
Dim
 70
    11
177
     2
291
     1
 71
     2
176
     1
 72
     2
176
     1
 73
     0
176
     1
 90
        0
176
     1
 40
0.6
176
     1
 41
30.0
176
     1
 63
     7
421
 16777215
176
     1
 74
     1
176
     1
 91
        4
176
     1
 64
     7
176
     1
 65
   257
176
     1
 75
     1
176
     1
175
     1
176
     1
 42
1.0
176
     1
 92
        8
176
     1
 66
     7
176
     1
 43
1.0
176
     1
 76
     1
176
     1
 77
     6
176
     1
 78
     2
176
     1
 67
     7
176
     1
 79
     5
176
     1
170
     0
176
     1
171
     0
176
     1
290
     0
176
     1
 93
        1
176
     1
 44
-50.0
176
     1
173
     0
176
     1
1001
ACAD
1000
AcDbSavedByObjectVersion
1070
     0
  0
VISUALSTYLE
  5
2DFE
102
{ACAD_XDICTIONARY
360
312D
102
}
102
{ACAD_REACTORS
330
2DE6
102
}
330
2DE6
100
AcDbVisualStyle
  2
EdgeColorOff
 70
    22
177
     2
291
     1
 71
     2
176
     0
 72
     2
176
     0
 73
     0
176
     0
 90
        0
176
     0
 40
0.6
176
     0
 41
30.0
176
     0
 63
     7
421
 16777215
176
     0
 74
     1
176
     0
 91
        4
176
     0
 64
     7
176
     0
 65
   257
176
     0
 75
     1
176
     0
175
     1
176
     0
 42
1.0
176
     0
 92
        8
176
     2
 66
     7
176
     0
 43
1.0
176
     0
 76
     1
176
     0
 77
     6
176
     0
 78
     2
176
     0
 67
     7
176
     0
 79
     5
176
     0
170
     0
176
     0
171
     0
176
     0
290
     0
176
     0
 93
        1
176
     0
 44
0.0
176
     0
173
     0
176
     0
1001
ACAD
1000
AcDbSavedByObjectVersion
1070
     0
  0
VISUALSTYLE
  5
2DF5
102
{ACAD_XDICTIONARY
360
311B
102
}
102
{ACAD_REACTORS
330
2DE6
102
}
330
2DE6
100
AcDbVisualStyle
  2
Facepattern
 70
    15
177
     2
291
     1
 71
     2
176
     1
 72
     2
176
     1
 73
     0
176
     1
 90
        0
176
     1
 40
0.6
176
     1
 41
30.0
176
     1
 63
     7
421
 16777215
176
     1
 74
     1
176
     1
 91
        4
176
     1
 64
     7
176
     1
 65
   257
176
     1
 75
     1
176
     1
175
     1
176
     1
 42
1.0
176
     1
 92
        8
176
     1
 66
     7
176
     1
 43
1.0
176
     1
 76
     1
176
     1
 77
     6
176
     1
 78
     2
176
     1
 67
     7
176
     1
 79
     5
176
     1
170
     0
176
     1
171
     0
176
     1
290
     0
176
     1
 93
        1
176
     1
 44
0.0
176
     1
173
     0
176
     1
1001
ACAD
1000
AcDbSavedByObjectVersion
1070
     0
  0
VISUALSTYLE
  5
2DE7
102
{ACAD_XDICTIONARY
360
30FF
102
}
102
{ACAD_REACTORS
330
2DE6
102
}
330
2DE6
100
AcDbVisualStyle
  2
Flat
 70
     0
177
     2
291
     1
 71
     2
176
     1
 72
     1
176
     1
 73
     1
176
     1
 90
        2
176
     1
 40
0.6
176
     1
 41
30.0
176
     1
 63
     7
421
 16777215
176
     1
 74
     0
176
     1
 91
        0
176
     1
 64
     7
176
     1
 65
   257
176
     1
 75
     1
176
     1
175
     1
176
     1
 42
1.0
176
     1
 92
        8
176
     1
 66
     7
176
     1
 43
1.0
176
     1
 76
     1
176
     1
 77
     6
176
     1
 78
     2
176
     1
 67
     7
176
     1
 79
     5
176
     1
170
     0
176
     1
171
     0
176
     1
290
     0
176
     1
 93
       13
176
     1
 44
0.0
176
     1
173
     0
176
     1
1001
ACAD
1000
AcDbSavedByObjectVersion
1070
     0
  0
VISUALSTYLE
  5
2DE8
102
{ACAD_XDICTIONARY
360
3101
102
}
102
{ACAD_REACTORS
330
2DE6
102
}
330
2DE6
100
AcDbVisualStyle
  2
FlatWithEdges
 70
     1
177
     2
291
     1
 71
     2
176
     1
 72
     1
176
     1
 73
     1
176
     1
 90
        2
176
     1
 40
0.6
176
     1
 41
30.0
176
     1
 63
     7
421
 16777215
176
     1
 74
     1
176
     1
 91
        0
176
     1
 64
     7
176
     1
 65
   257
176
     1
 75
     1
176
     1
175
     1
176
     1
 42
1.0
176
     1
 92
        0
176
     1
 66
   257
176
     1
 43
1.0
176
     1
 76
     1
176
     1
 77
     6
176
     1
 78
     2
176
     1
 67
     7
176
     1
 79
     5
176
     1
170
     0
176
     1
171
     0
176
     1
290
     0
176
     1
 93
       13
176
     1
 44
0.0
176
     1
173
     0
176
     1
1001
ACAD
1000
AcDbSavedByObjectVersion
1070
     0
  0
VISUALSTYLE
  5
2DE9
102
{ACAD_XDICTIONARY
360
3103
102
}
102
{ACAD_REACTORS
330
2DE6
102
}
330
2DE6
100
AcDbVisualStyle
  2
Gouraud
 70
     2
177
     2
291
     1
 71
     2
176
     1
 72
     2
176
     1
 73
     1
176
     1
 90
        2
176
     1
 40
0.6
176
     1
 41
30.0
176
     1
 63
     7
421
 16777215
176
     1
 74
     0
176
     1
 91
        0
176
     1
 64
     7
176
     1
 65
   257
176
     1
 75
     1
176
     1
175
     1
176
     1
 42
1.0
176
     1
 92
        0
176
     1
 66
     7
176
     1
 43
1.0
176
     1
 76
     1
176
     1
 77
     6
176
     1
 78
     2
176
     1
 67
     7
176
     1
 79
     5
176
     1
170
     0
176
     1
171
     0
176
     1
290
     0
176
     1
 93
       13
176
     1
 44
0.0
176
     1
173
     0
176
     1
1001
ACAD
1000
AcDbSavedByObjectVersion
1070
     0
  0
VISUALSTYLE
  5
2DEA
102
{ACAD_XDICTIONARY
360
3105
102
}
102
{ACAD_REACTORS
330
2DE6
102
}
330
2DE6
100
AcDbVisualStyle
  2
GouraudWithEdges
 70
     3
177
     2
291
     1
 71
     2
176
     1
 72
     2
176
     1
 73
     1
176
     1
 90
        2
176
     1
 40
0.6
176
     1
 41
30.0
176
     1
 63
     7
421
 16777215
176
     1
 74
     1
176
     1
 91
        0
176
     1
 64
     7
176
     1
 65
   257
176
     1
 75
     1
176
     1
175
     1
176
     1
 42
1.0
176
     1
 92
        0
176
     1
 66
   257
176
     1
 43
1.0
176
     1
 76
     1
176
     1
 77
     6
176
     1
 78
     2
176
     1
 67
     7
176
     1
 79
     5
176
     1
170
     0
176
     1
171
     0
176
     1
290
     0
176
     1
 93
       13
176
     1
 44
0.0
176
     1
173
     0
176
     1
1001
ACAD
1000
AcDbSavedByObjectVersion
1070
     0
  0
VISUALSTYLE
  5
2DEE
102
{ACAD_XDICTIONARY
360
310D
102
}
102
{ACAD_REACTORS
330
2DE6
102
}
330
2DE6
100
AcDbVisualStyle
  2
Hidden
 70
     6
177
     2
291
     0
 71
     1
176
     1
 72
     2
176
     1
 73
     2
176
     1
 90
        0
176
     1
 40
0.6
176
     1
 41
30.0
176
     1
 63
     7
421
 16777215
176
     1
 74
     2
176
     1
 91
        2
176
     1
 64
     7
176
     1
 65
   257
176
     1
 75
     2
176
     1
175
     1
176
     1
 42
40.0
176
     1
 92
        0
176
     1
 66
   257
176
     1
 43
1.0
176
     1
 76
     1
176
     1
 77
     6
176
     1
 78
     2
176
     1
 67
     7
176
     1
 79
     3
176
     1
170
     0
176
     1
171
     0
176
     1
290
     0
176
     1
 93
        1
176
     1
 44
0.0
176
     1
173
     0
176
     1
1001
ACAD
1000
AcDbSavedByObjectVersion
1070
     0
  0
VISUALSTYLE
  5
2DFC
102
{ACAD_XDICTIONARY
360
3129
102
}
102
{ACAD_REACTORS
330
2DE6
102
}
330
2DE6
100
AcDbVisualStyle
  2
JitterOff
 70
    20
177
     2
291
     1
 71
     2
176
     0
 72
     2
176
     0
 73
     0
176
     0
 90
        0
176
     0
 40
0.6
176
     0
 41
30.0
176
     0
 63
     7
421
 16777215
176
     0
 74
     1
176
     0
 91
        4
176
     0
 64
     7
176
     0
 65
   257
176
     0
 75
     1
176
     0
175
     1
176
     0
 42
1.0
176
     0
 92
       10
176
     2
 66
     7
176
     0
 43
1.0
176
     0
 76
     1
176
     0
 77
     6
176
     0
 78
     2
176
     0
 67
     7
176
     0
 79
     5
176
     0
170
     0
176
     0
171
     0
176
     0
290
     0
176
     0
 93
        1
176
     0
 44
0.0
176
     0
173
     0
176
     0
1001
ACAD
1000
AcDbSavedByObjectVersion
1070
     0
  0
VISUALSTYLE
  5
2DF4
102
{ACAD_XDICTIONARY
360
3119
102
}
102
{ACAD_REACTORS
330
2DE6
102
}
330
2DE6
100
AcDbVisualStyle
  2
Linepattern
 70
    14
177
     2
291
     1
 71
     2
176
     1
 72
     2
176
     1
 73
     0
176
     1
 90
        0
176
     1
 40
0.6
176
     1
 41
30.0
176
     1
 63
     7
421
 16777215
176
     1
 74
     1
176
     1
 91
        4
176
     1
 64
     7
176
     1
 65
   257
176
     1
 75
     7
176
     1
175
     7
176
     1
 42
1.0
176
     1
 92
        8
176
     1
 66
     7
176
     1
 43
1.0
176
     1
 76
     1
176
     1
 77
     6
176
     1
 78
     2
176
     1
 67
     7
176
     1
 79
     5
176
     1
170
     0
176
     1
171
     0
176
     1
290
     0
176
     1
 93
        1
176
     1
 44
0.0
176
     1
173
     0
176
     1
1001
ACAD
1000
AcDbSavedByObjectVersion
1070
     0
  0
VISUALSTYLE
  5
2DFD
102
{ACAD_XDICTIONARY
360
312B
102
}
102
{ACAD_REACTORS
330
2DE6
102
}
330
2DE6
100
AcDbVisualStyle
  2
OverhangOff
 70
    21
177
     2
291
     1
 71
     2
176
     0
 72
     2
176
     0
 73
     0
176
     0
 90
        0
176
     0
 40
0.6
176
     0
 41
30.0
176
     0
 63
     7
421
 16777215
176
     0
 74
     1
176
     0
 91
        4
176
     0
 64
     7
176
     0
 65
   257
176
     0
 75
     1
176
     0
175
     1
176
     0
 42
1.0
176
     0
 92
        9
176
     2
 66
     7
176
     0
 43
1.0
176
     0
 76
     1
176
     0
 77
     6
176
     0
 78
     2
176
     0
 67
     7
176
     0
 79
     5
176
     0
170
     0
176
     0
171
     0
176
     0
290
     0
176
     0
 93
        1
176
     0
 44
0.0
176
     0
173
     0
176
     0
1001
ACAD
1000
AcDbSavedByObjectVersion
1070
     0
  0
VISUALSTYLE
  5
2DF0
102
{ACAD_XDICTIONARY
360
3111
102
}
102
{ACAD_REACTORS
330
2DE6
102
}
330
2DE6
100
AcDbVisualStyle
  2
Realistic
 70
     8
177
     2
291
     0
 71
     2
176
     1
 72
     3
176
     1
 73
     0
176
     1
 90
        2
176
     1
 40
0.6
176
     1
 41
30.0
176
     1
 63
     7
421
 16777215
176
     1
 74
     0
176
     1
 91
        0
176
     1
 64
     7
176
     1
 65
   257
176
     1
 75
     1
176
     1
175
     1
176
     1
 42
1.0
176
     1
 92
        8
176
     1
 66
   257
176
     1
 43
1.0
176
     1
 76
     1
176
     1
 77
     6
176
     1
 78
     2
176
     1
 67
     7
176
     1
 79
     3
176
     1
170
     0
176
     1
171
     0
176
     1
290
     0
176
     1
 93
       13
176
     1
 44
0.0
176
     1
173
     0
176
     1
1001
ACAD
1000
AcDbSavedByObjectVersion
1070
     0
  0
VISUALSTYLE
  5
2DFB
102
{ACAD_XDICTIONARY
360
3127
102
}
102
{ACAD_REACTORS
330
2DE6
102
}
330
2DE6
100
AcDbVisualStyle
  2
Shaded
 70
    27
177
     2
291
     0
 71
     2
176
     1
 72
     2
176
     1
 73
     1
176
     1
 90
        2
176
     1
 40
0.6
176
     1
 41
30.0
176
     1
 63
     7
421
 16777215
176
     1
 74
     0
176
     1
 91
        4
176
     1
 64
     7
176
     1
 65
   257
176
     1
 75
     1
176
     1
175
     1
176
     1
 42
1.0
176
     1
 92
        8
176
     1
 66
   257
176
     1
 43
1.0
176
     1
 76
     1
176
     1
 77
     6
176
     1
 78
     2
176
     1
 67
     8
425
  7895160
176
     1
 79
     3
176
     1
170
     0
176
     1
171
     0
176
     1
290
     0
176
     1
 93
        5
176
     1
 44
0.0
176
     1
173
     0
176
     1
1001
ACAD
1000
AcDbSavedByObjectVersion
1070
     0
  0
VISUALSTYLE
  5
2DFA
102
{ACAD_XDICTIONARY
360
3125
102
}
102
{ACAD_REACTORS
330
2DE6
102
}
330
2DE6
100
AcDbVisualStyle
  2
Shaded with edges
 70
    26
177
     2
291
     0
 71
     2
176
     1
 72
     2
176
     1
 73
     1
176
     1
 90
        2
176
     1
 40
0.6
176
     1
 41
30.0
176
     1
 63
     7
421
 16777215
176
     1
 74
     1
176
     1
 91
        2
176
     1
 64
     7
176
     1
 65
   257
176
     1
 75
     2
176
     1
175
     1
176
     1
 42
1.0
176
     1
 92
        8
176
     1
 66
   257
176
     1
 43
1.0
176
     1
 76
     1
176
     1
 77
     6
176
     1
 78
     2
176
     1
 67
     7
176
     1
 79
     3
176
     1
170
     0
176
     1
171
     0
176
     1
290
     0
176
     1
 93
        5
176
     1
 44
0.0
176
     1
173
     0
176
     1
1001
ACAD
1000
AcDbSavedByObjectVersion
1070
     0
  0
VISUALSTYLE
  5
2DF7
102
{ACAD_XDICTIONARY
360
311F
102
}
102
{ACAD_REACTORS
330
2DE6
102
}
330
2DE6
100
AcDbVisualStyle
  2
Shades of Gray
 70
    23
177
     2
291
     0
 71
     2
176
     1
 72
     2
176
     1
 73
     3
176
     1
 90
        0
176
     1
 40
0.6
176
     1
 41
30.0
176
     1
 63
     7
421
 16777215
176
     1
 74
     2
176
     1
 91
        2
176
     1
 64
     7
176
     1
 65
     7
176
     1
 75
     1
176
     1
175
     1
176
     1
 42
40.0
176
     1
 92
        8
176
     1
 66
     7
176
     1
 43
1.0
176
     1
 76
     1
176
     1
 77
     6
176
     1
 78
     2
176
     1
 67
     7
176
     1
 79
     3
176
     1
170
     0
176
     1
171
     0
176
     1
290
     0
176
     1
 93
        1
176
     1
 44
0.0
176
     1
173
     0
176
     1
1001
ACAD
1000
AcDbSavedByObjectVersion
1070
     0
  0
VISUALSTYLE
  5
2DF8
102
{ACAD_XDICTIONARY
360
3121
102
}
102
{ACAD_REACTORS
330
2DE6
102
}
330
2DE6
100
AcDbVisualStyle
  2
Sketchy
 70
    24
177
     2
291
     0
 71
     1
176
     1
 72
     2
176
     1
 73
     2
176
     1
 90
        0
176
     1
 40
0.6
176
     1
 41
30.0
176
     1
 63
     7
421
 16777215
176
     1
 74
     2
176
     1
 91
        2
176
     1
 64
     7
176
     1
 65
     7
176
     1
 75
     1
176
     1
175
     1
176
     1
 42
40.0
176
     1
 92
       11
176
     1
 66
     7
176
     1
 43
1.0
176
     1
 76
     1
176
     1
 77
     6
176
     1
 78
     2
176
     1
 67
     7
176
     1
 79
     6
176
     1
170
     0
176
     1
171
     0
176
     1
290
     0
176
     1
 93
        1
176
     1
 44
0.0
176
     1
173
     0
176
     1
1001
ACAD
1000
AcDbSavedByObjectVersion
1070
     0
  0
VISUALSTYLE
  5
2DF3
102
{ACAD_XDICTIONARY
360
3117
102
}
102
{ACAD_REACTORS
330
2DE6
102
}
330
2DE6
100
AcDbVisualStyle
  2
Thicken
 70
    13
177
     2
291
     1
 71
     2
176
     1
 72
     2
176
     1
 73
     0
176
     1
 90
        0
176
     1
 40
0.6
176
     1
 41
30.0
176
     1
 63
     7
421
 16777215
176
     1
 74
     1
176
     1
 91
        4
176
     1
 64
     7
176
     1
 65
   257
176
     1
 75
     1
176
     1
175
     1
176
     1
 42
1.0
176
     1
 92
       12
176
     1
 66
     7
176
     1
 43
1.0
176
     1
 76
     1
176
     1
 77
     6
176
     1
 78
     2
176
     1
 67
     7
176
     1
 79
     5
176
     1
170
     0
176
     1
171
     0
176
     1
290
     0
176
     1
 93
        1
176
     1
 44
0.0
176
     1
173
     0
176
     1
1001
ACAD
1000
AcDbSavedByObjectVersion
1070
     0
  0
VISUALSTYLE
  5
2DED
102
{ACAD_XDICTIONARY
360
310B
102
}
102
{ACAD_REACTORS
330
2DE6
102
}
330
2DE6
100
AcDbVisualStyle
  2
Wireframe
 70
     5
177
     2
291
     0
 71
     0
176
     1
 72
     2
176
     1
 73
     0
176
     1
 90
        0
176
     1
 40
0.6
176
     1
 41
30.0
176
     1
 63
     7
421
 16777215
176
     1
 74
     1
176
     1
 91
        4
176
     1
 64
     7
176
     1
 65
   257
176
     1
 75
     1
176
     1
175
     1
176
     1
 42
1.0
176
     1
 92
        0
176
     1
 66
   257
176
     1
 43
1.0
176
     1
 76
     1
176
     1
 77
     6
176
     1
 78
     2
176
     1
 67
     7
176
     1
 79
     3
176
     1
170
     0
176
     1
171
     0
176
     1
290
     0
176
     1
 93
        1
176
     1
 44
0.0
176
     1
173
     0
176
     1
1001
ACAD
1000
AcDbSavedByObjectVersion
1070
     0
  0
VISUALSTYLE
  5
2DF9
102
{ACAD_XDICTIONARY
360
3123
102
}
102
{ACAD_REACTORS
330
2DE6
102
}
330
2DE6
100
AcDbVisualStyle
  2
X-Ray
 70
    25
177
     2
291
     0
 71
     2
176
     1
 72
     2
176
     1
 73
     1
176
     1
 90
        1
176
     1
 40
0.5
176
     1
 41
30.0
176
     1
 63
     7
421
 16777215
176
     1
 74
     1
176
     1
 91
        0
176
     1
 64
     7
176
     1
 65
   257
176
     1
 75
     1
176
     1
175
     1
176
     1
 42
1.0
176
     1
 92
        8
176
     1
 66
     7
176
     1
 43
1.0
176
     1
 76
     1
176
     1
 77
     6
176
     1
 78
     2
176
     1
 67
     7
176
     1
 79
     3
176
     1
170
     0
176
     1
171
     0
176
     1
290
     0
176
     1
 93
       13
176
     1
 44
0.0
176
     1
173
     0
176
     1
1001
ACAD
1000
AcDbSavedByObjectVersion
1070
     0
  0
DICTIONARYVAR
  5
2FE3
102
{ACAD_REACTORS
330
2FDD
102
}
330
2FDD
100
DictionaryVariables
280
     0
  1
1:1
  0
DICTIONARYVAR
  5
2FDF
102
{ACAD_REACTORS
330
2FDD
102
}
330
2FDD
100
DictionaryVariables
280
     0
  1
STANDARD
  0
DICTIONARYVAR
  5
2FDE
102
{ACAD_REACTORS
330
2FDD
102
}
330
2FDD
100
DictionaryVariables
280
     0
  1
STANDARD
  0
DICTIONARYVAR
  5
2FE0
102
{ACAD_REACTORS
330
2FDD
102
}
330
2FDD
100
DictionaryVariables
280
     0
  1
Imperial24
  0
DICTIONARYVAR
  5
2FE1
102
{ACAD_REACTORS
330
2FDD
102
}
330
2FDD
100
DictionaryVariables
280
     0
  1
Imperial24
  0
DICTIONARYVAR
  5
2FE5
102
{ACAD_REACTORS
330
2FDD
102
}
330
2FDD
100
DictionaryVariables
280
     0
  1
1
  0
DICTIONARYVAR
  5
2FE6
102
{ACAD_REACTORS
330
2FDD
102
}
330
2FDD
100
DictionaryVariables
280
     0
  1
15
  0
DICTIONARYVAR
  5
2FE4
102
{ACAD_REACTORS
330
2FDD
102
}
330
2FDD
100
DictionaryVariables
280
     0
  1
0
  0
DICTIONARYVAR
  5
2FE2
102
{ACAD_REACTORS
330
2FDD
102
}
330
2FDD
100
DictionaryVariables
280
     0
  1
0
  0
DICTIONARY
  5
30FE
102
{ACAD_REACTORS
330
30FC
102
}
330
30FC
100
AcDbDictionary
281
     1
  0
DICTIONARY
  5
30FD
102
{ACAD_REACTORS
330
30FC
102
}
330
30FC
100
AcDbDictionary
281
     1
  3
1762597346672
350
30F7
  3
1762597346688
350
30F8
  3
1762597346704
350
30F9
  3
1762597346720
350
30FA
  3
1762597346736
350
30FB
  0
DICTIONARY
  5
2F0F
102
{ACAD_REACTORS
330
2F06
102
}
330
2F06
100
AcDbDictionary
281
     1
  0
DICTIONARY
  5
3131
330
2E27
100
AcDbDictionary
280
     1
281
     1
  3
ACAD_XREC_ROUNDTRIP
360
3132
  0
DICTIONARY
  5
2DD7
330
2DD6
100
AcDbDictionary
280
     1
281
     1
  3
BUMPTILE
360
2DD9
  3
DIFFUSETILE
360
2DD8
  3
OPACITYTILE
360
2DDC
  3
REFLECTIONTILE
360
2DDB
  3
REFRACTIONTILE
360
2DDD
  3
SPECULARTILE
360
2DDA
  0
DICTIONARY
  5
2DCF
330
2DCE
100
AcDbDictionary
280
     1
281
     1
  3
BUMPTILE
360
2DD1
  3
DIFFUSETILE
360
2DD0
  3
OPACITYTILE
360
2DD4
  3
REFLECTIONTILE
360
2DD3
  3
REFRACTIONTILE
360
2DD5
  3
SPECULARTILE
360
2DD2
  0
DICTIONARY
  5
2DDF
330
2DDE
100
AcDbDictionary
280
     1
281
     1
  3
BUMPTILE
360
2DE1
  3
DIFFUSETILE
360
2DE0
  3
OPACITYTILE
360
2DE4
  3
REFLECTIONTILE
360
2DE3
  3
REFRACTIONTILE
360
2DE5
  3
SPECULARTILE
360
2DE2
  0
DICTIONARY
  5
312F
330
2E25
100
AcDbDictionary
280
     1
281
     1
  3
ACAD_XREC_ROUNDTRIP
360
3130
  0
DICTIONARY
  5
2FE7
330
2E21
100
AcDbDictionary
280
     1
281
     1
  3
ACAD_ROUNDTRIP_2008_TABLESTYLE_CELLSTYLEMAP
360
30F5
  0
DICTIONARY
  5
3109
330
2DEC
100
AcDbDictionary
280
     1
281
     1
  3
ACAD_XREC_ROUNDTRIP
360
310A
  0
DICTIONARY
  5
3107
330
2DEB
100
AcDbDictionary
280
     1
281
     1
  3
ACAD_XREC_ROUNDTRIP
360
3108
  0
DICTIONARY
  5
3115
330
2DF2
100
AcDbDictionary
280
     1
281
     1
  3
ACAD_XREC_ROUNDTRIP
360
3116
  0
DICTIONARY
  5
311D
330
2DF6
100
AcDbDictionary
280
     1
281
     1
  3
ACAD_XREC_ROUNDTRIP
360
311E
  0
DICTIONARY
  5
310F
330
2DEF
100
AcDbDictionary
280
     1
281
     1
  3
ACAD_XREC_ROUNDTRIP
360
3110
  0
DICTIONARY
  5
3113
330
2DF1
100
AcDbDictionary
280
     1
281
     1
  3
ACAD_XREC_ROUNDTRIP
360
3114
  0
DICTIONARY
  5
312D
330
2DFE
100
AcDbDictionary
280
     1
281
     1
  3
ACAD_XREC_ROUNDTRIP
360
312E
  0
DICTIONARY
  5
311B
330
2DF5
100
AcDbDictionary
280
     1
281
     1
  3
ACAD_XREC_ROUNDTRIP
360
311C
  0
DICTIONARY
  5
30FF
330
2DE7
100
AcDbDictionary
280
     1
281
     1
  3
ACAD_XREC_ROUNDTRIP
360
3100
  0
DICTIONARY
  5
3101
330
2DE8
100
AcDbDictionary
280
     1
281
     1
  3
ACAD_XREC_ROUNDTRIP
360
3102
  0
DICTIONARY
  5
3103
330
2DE9
100
AcDbDictionary
280
     1
281
     1
  3
ACAD_XREC_ROUNDTRIP
360
3104
  0
DICTIONARY
  5
3105
330
2DEA
100
AcDbDictionary
280
     1
281
     1
  3
ACAD_XREC_ROUNDTRIP
360
3106
  0
DICTIONARY
  5
310D
330
2DEE
100
AcDbDictionary
280
     1
281
     1
  3
ACAD_XREC_ROUNDTRIP
360
310E
  0
DICTIONARY
  5
3129
330
2DFC
100
AcDbDictionary
280
     1
281
     1
  3
ACAD_XREC_ROUNDTRIP
360
312A
  0
DICTIONARY
  5
3119
330
2DF4
100
AcDbDictionary
280
     1
281
     1
  3
ACAD_XREC_ROUNDTRIP
360
311A
  0
DICTIONARY
  5
312B
330
2DFD
100
AcDbDictionary
280
     1
281
     1
  3
ACAD_XREC_ROUNDTRIP
360
312C
  0
DICTIONARY
  5
3111
330
2DF0
100
AcDbDictionary
280
     1
281
     1
  3
ACAD_XREC_ROUNDTRIP
360
3112
  0
DICTIONARY
  5
3127
330
2DFB
100
AcDbDictionary
280
     1
281
     1
  3
ACAD_XREC_ROUNDTRIP
360
3128
  0
DICTIONARY
  5
3125
330
2DFA
100
AcDbDictionary
280
     1
281
     1
  3
ACAD_XREC_ROUNDTRIP
360
3126
  0
DICTIONARY
  5
311F
330
2DF7
100
AcDbDictionary
280
     1
281
     1
  3
ACAD_XREC_ROUNDTRIP
360
3120
  0
DICTIONARY
  5
3121
330
2DF8
100
AcDbDictionary
280
     1
281
     1
  3
ACAD_XREC_ROUNDTRIP
360
3122
  0
DICTIONARY
  5
3117
330
2DF3
100
AcDbDictionary
280
     1
281
     1
  3
ACAD_XREC_ROUNDTRIP
360
3118
  0
DICTIONARY
  5
310B
330
2DED
100
AcDbDictionary
280
     1
281
     1
  3
ACAD_XREC_ROUNDTRIP
360
310C
  0
DICTIONARY
  5
3123
330
2DF9
100
AcDbDictionary
280
     1
281
     1
  3
ACAD_XREC_ROUNDTRIP
360
3124
  0
XRECORD
  5
30F7
102
{ACAD_REACTORS
330
30FD
102
}
330
30FD
100
AcDbXrecord
280
     1
  1
AcDb_Thumbnail_Schema
102
{ATTRRECORD
341
30F8
  2
AcDbDs::TreatedAsObjectData
280
     1
291
     1
102
ATTRRECORD}
102
{ATTRRECORD
341
30F9
  2
AcDbDs::Legacy
280
     1
291
     1
102
ATTRRECORD}
  2
AcDbDs::ID
280
    10
 91
        8
102
{ATTRRECORD
341
30FA
  2
AcDs:Indexable
280
     1
291
     1
102
ATTRRECORD}
102
{ATTRRECORD
341
30FB
  2
AcDbDs::HandleAttribute
280
     7
282
     1
102
ATTRRECORD}
  2
Thumbnail_Data
280
    15
 91
        0
  0
XRECORD
  5
30F8
102
{ACAD_REACTORS
330
30FD
102
}
330
30FD
100
AcDbXrecord
280
     1
  1
AcDbDs::TreatedAsObjectDataSchema
  2
AcDbDs::TreatedAsObjectData
280
     1
 91
        0
  0
XRECORD
  5
30F9
102
{ACAD_REACTORS
330
30FD
102
}
330
30FD
100
AcDbXrecord
280
     1
  1
AcDbDs::LegacySchema
  2
AcDbDs::Legacy
280
     1
 91
        0
  0
XRECORD
  5
30FA
102
{ACAD_REACTORS
330
30FD
102
}
330
30FD
100
AcDbXrecord
280
     1
  1
AcDbDs::IndexedPropertySchema
  2
AcDs:Indexable
280
     1
 91
        0
  0
XRECORD
  5
30FB
102
{ACAD_REACTORS
330
30FD
102
}
330
30FD
100
AcDbXrecord
280
     1
  1
AcDbDs::HandleAttributeSchema
  2
AcDbDs::HandleAttribute
280
     7
 91
        1
284
     1
  0
XRECORD
  5
3132
102
{ACAD_REACTORS
330
3131
102
}
330
3131
100
AcDbXrecord
280
     1
102
DISPLAYNAME
  1
Imperial24
102
FLAGS
 90
        0
  0
XRECORD
  5
2DD9
102
{ACAD_REACTORS
330
2DD7
102
}
330
2DD7
100
AcDbXrecord
280
     1
270
     1
271
     1
  0
XRECORD
  5
2DD8
102
{ACAD_REACTORS
330
2DD7
102
}
330
2DD7
100
AcDbXrecord
280
     1
270
     1
271
     1
  0
XRECORD
  5
2DDC
102
{ACAD_REACTORS
330
2DD7
102
}
330
2DD7
100
AcDbXrecord
280
     1
270
     1
271
     1
  0
XRECORD
  5
2DDB
102
{ACAD_REACTORS
330
2DD7
102
}
330
2DD7
100
AcDbXrecord
280
     1
270
     1
271
     1
  0
XRECORD
  5
2DDD
102
{ACAD_REACTORS
330
2DD7
102
}
330
2DD7
100
AcDbXrecord
280
     1
270
     1
271
     1
  0
XRECORD
  5
2DDA
102
{ACAD_REACTORS
330
2DD7
102
}
330
2DD7
100
AcDbXrecord
280
     1
270
     1
271
     1
  0
XRECORD
  5
2DD1
102
{ACAD_REACTORS
330
2DCF
102
}
330
2DCF
100
AcDbXrecord
280
     1
270
     1
271
     1
  0
XRECORD
  5
2DD0
102
{ACAD_REACTORS
330
2DCF
102
}
330
2DCF
100
AcDbXrecord
280
     1
270
     1
271
     1
  0
XRECORD
  5
2DD4
102
{ACAD_REACTORS
330
2DCF
102
}
330
2DCF
100
AcDbXrecord
280
     1
270
     1
271
     1
  0
XRECORD
  5
2DD3
102
{ACAD_REACTORS
330
2DCF
102
}
330
2DCF
100
AcDbXrecord
280
     1
270
     1
271
     1
  0
XRECORD
  5
2DD5
102
{ACAD_REACTORS
330
2DCF
102
}
330
2DCF
100
AcDbXrecord
280
     1
270
     1
271
     1
  0
XRECORD
  5
2DD2
102
{ACAD_REACTORS
330
2DCF
102
}
330
2DCF
100
AcDbXrecord
280
     1
270
     1
271
     1
  0
XRECORD
  5
2DE1
102
{ACAD_REACTORS
330
2DDF
102
}
330
2DDF
100
AcDbXrecord
280
     1
270
     1
271
     1
  0
XRECORD
  5
2DE0
102
{ACAD_REACTORS
330
2DDF
102
}
330
2DDF
100
AcDbXrecord
280
     1
270
     1
271
     1
  0
XRECORD
  5
2DE4
102
{ACAD_REACTORS
330
2DDF
102
}
330
2DDF
100
AcDbXrecord
280
     1
270
     1
271
     1
  0
XRECORD
  5
2DE3
102
{ACAD_REACTORS
330
2DDF
102
}
330
2DDF
100
AcDbXrecord
280
     1
270
     1
271
     1
  0
XRECORD
  5
2DE5
102
{ACAD_REACTORS
330
2DDF
102
}
330
2DDF
100
AcDbXrecord
280
     1
270
     1
271
     1
  0
XRECORD
  5
2DE2
102
{ACAD_REACTORS
330
2DDF
102
}
330
2DDF
100
AcDbXrecord
280
     1
270
     1
271
     1
  0
XRECORD
  5
3130
102
{ACAD_REACTORS
330
312F
102
}
330
312F
100
AcDbXrecord
280
     1
102
DISPLAYNAME
  1
Imperial24
102
FLAGS
 90
        0
  0
CELLSTYLEMAP
  5
30F5
102
{ACAD_REACTORS
330
2FE7
102
}
330
2FE7
100
AcDbCellStyleMap
 90
        3
300
CELLSTYLE
  1
TABLEFORMAT_BEGIN
 90
        5
170
     1
 91
        0
 92
    32768
 62
   257
 93
        1
300
CONTENTFORMAT
  1
CONTENTFORMAT_BEGIN
 90
        0
 91
        0
 92
      512
 93
        0
300

 40
0.0
140
1.0
 94
        5
 62
     0
340
2E12
144
0.25
309
CONTENTFORMAT_END
171
     1
301
MARGIN
  1
CELLMARGIN_BEGIN
 40
0.06
 40
0.06
 40
0.06
 40
0.06
 40
0.18
 40
0.18
309
CELLMARGIN_END
 94
        6
 95
        1
302
GRIDFORMAT
  1
GRIDFORMAT_BEGIN
 90
        0
 91
        1
 62
     0
 92
       -2
340
0
 93
        0
 40
0.045
309
GRIDFORMAT_END
 95
        2
302
GRIDFORMAT
  1
GRIDFORMAT_BEGIN
 90
        0
 91
        1
 62
     0
 92
       -2
340
0
 93
        0
 40
0.045
309
GRIDFORMAT_END
 95
        4
302
GRIDFORMAT
  1
GRIDFORMAT_BEGIN
 90
        0
 91
        1
 62
     0
 92
       -2
340
0
 93
        0
 40
0.045
309
GRIDFORMAT_END
 95
        8
302
GRIDFORMAT
  1
GRIDFORMAT_BEGIN
 90
        0
 91
        1
 62
     0
 92
       -2
340
0
 93
        0
 40
0.045
309
GRIDFORMAT_END
 95
       16
302
GRIDFORMAT
  1
GRIDFORMAT_BEGIN
 90
        0
 91
        1
 62
     0
 92
       -2
340
0
 93
        0
 40
0.045
309
GRIDFORMAT_END
 95
       32
302
GRIDFORMAT
  1
GRIDFORMAT_BEGIN
 90
        0
 91
        1
 62
     0
 92
       -2
340
0
 93
        0
 40
0.045
309
GRIDFORMAT_END
309
TABLEFORMAT_END
  1
CELLSTYLE_BEGIN
 90
        1
 91
        1
300
_TITLE
309
CELLSTYLE_END
300
CELLSTYLE
  1
TABLEFORMAT_BEGIN
 90
        5
170
     1
 91
        0
 92
        0
 62
   257
 93
        1
300
CONTENTFORMAT
  1
CONTENTFORMAT_BEGIN
 90
        0
 91
        0
 92
      512
 93
        0
300

 40
0.0
140
1.0
 94
        5
 62
     0
340
2E12
144
0.18
309
CONTENTFORMAT_END
171
     1
301
MARGIN
  1
CELLMARGIN_BEGIN
 40
0.06
 40
0.06
 40
0.06
 40
0.06
 40
0.18
 40
0.18
309
CELLMARGIN_END
 94
        6
 95
        1
302
GRIDFORMAT
  1
GRIDFORMAT_BEGIN
 90
        0
 91
        1
 62
     0
 92
       -2
340
0
 93
        0
 40
0.045
309
GRIDFORMAT_END
 95
        2
302
GRIDFORMAT
  1
GRIDFORMAT_BEGIN
 90
        0
 91
        1
 62
     0
 92
       -2
340
0
 93
        0
 40
0.045
309
GRIDFORMAT_END
 95
        4
302
GRIDFORMAT
  1
GRIDFORMAT_BEGIN
 90
        0
 91
        1
 62
     0
 92
       -2
340
0
 93
        0
 40
0.045
309
GRIDFORMAT_END
 95
        8
302
GRIDFORMAT
  1
GRIDFORMAT_BEGIN
 90
        0
 91
        1
 62
     0
 92
       -2
340
0
 93
        0
 40
0.045
309
GRIDFORMAT_END
 95
       16
302
GRIDFORMAT
  1
GRIDFORMAT_BEGIN
 90
        0
 91
        1
 62
     0
 92
       -2
340
0
 93
        0
 40
0.045
309
GRIDFORMAT_END
 95
       32
302
GRIDFORMAT
  1
GRIDFORMAT_BEGIN
 90
        0
 91
        1
 62
     0
 92
       -2
340
0
 93
        0
 40
0.045
309
GRIDFORMAT_END
309
TABLEFORMAT_END
  1
CELLSTYLE_BEGIN
 90
        2
 91
        1
300
_HEADER
309
CELLSTYLE_END
300
CELLSTYLE
  1
TABLEFORMAT_BEGIN
 90
        5
170
     1
 91
        0
 92
        0
 62
   257
 93
        1
300
CONTENTFORMAT
  1
CONTENTFORMAT_BEGIN
 90
        0
 91
        0
 92
      512
 93
        0
300

 40
0.0
140
1.0
 94
        2
 62
     0
340
2E12
144
0.18
309
CONTENTFORMAT_END
171
     1
301
MARGIN
  1
CELLMARGIN_BEGIN
 40
0.06
 40
0.06
 40
0.06
 40
0.06
 40
0.18
 40
0.18
309
CELLMARGIN_END
 94
        6
 95
        1
302
GRIDFORMAT
  1
GRIDFORMAT_BEGIN
 90
        0
 91
        1
 62
     0
 92
       -2
340
0
 93
        0
 40
0.045
309
GRIDFORMAT_END
 95
        2
302
GRIDFORMAT
  1
GRIDFORMAT_BEGIN
 90
        0
 91
        1
 62
     0
 92
       -2
340
0
 93
        0
 40
0.045
309
GRIDFORMAT_END
 95
        4
302
GRIDFORMAT
  1
GRIDFORMAT_BEGIN
 90
        0
 91
        1
 62
     0
 92
       -2
340
0
 93
        0
 40
0.045
309
GRIDFORMAT_END
 95
        8
302
GRIDFORMAT
  1
GRIDFORMAT_BEGIN
 90
        0
 91
        1
 62
     0
 92
       -2
340
0
 93
        0
 40
0.045
309
GRIDFORMAT_END
 95
       16
302
GRIDFORMAT
  1
GRIDFORMAT_BEGIN
 90
        0
 91
        1
 62
     0
 92
       -2
340
0
 93
        0
 40
0.045
309
GRIDFORMAT_END
 95
       32
302
GRIDFORMAT
  1
GRIDFORMAT_BEGIN
 90
        0
 91
        1
 62
     0
 92
       -2
340
0
 93
        0
 40
0.045
309
GRIDFORMAT_END
309
TABLEFORMAT_END
  1
CELLSTYLE_BEGIN
 90
        3
 91
        2
300
_DATA
309
CELLSTYLE_END
  0
XRECORD
  5
310A
102
{ACAD_REACTORS
330
3109
102
}
330
3109
100
AcDbXrecord
280
     1
102
RTVSPost2010Prop28
280
     1
102
RTVSPost2010PropOp28
 70
     1
102
RTVSPost2010Prop29
280
     1
102
RTVSPost2010PropOp29
 70
     1
102
RTVSPost2010Prop30
280
     0
102
RTVSPost2010PropOp30
 70
     1
102
RTVSPost2010Prop31
280
     0
102
RTVSPost2010PropOp31
 70
     1
102
RTVSPost2010Prop32
280
     0
102
RTVSPost2010PropOp32
 70
     1
102
RTVSPost2010Prop33
280
     0
102
RTVSPost2010PropOp33
 70
     1
102
RTVSPost2010Prop34
280
     0
102
RTVSPost2010PropOp34
 70
     1
102
RTVSPost2010Prop35
280
     0
102
RTVSPost2010PropOp35
 70
     1
102
RTVSPost2010Prop36
280
     0
102
RTVSPost2010PropOp36
 70
     1
102
RTVSPost2010Prop37
 90
       50
102
RTVSPost2010PropOp37
 70
     1
102
RTVSPost2010Prop38
140
0.0
102
RTVSPost2010PropOp38
 70
     1
102
RTVSPost2010Prop39
140
1.0
102
RTVSPost2010PropOp39
 70
     1
102
RTVSPost2010Prop40
 90
        0
102
RTVSPost2010PropOp40
 70
     1
102
RTVSPost2010Prop41ColorIndex
 90
       18
102
RTVSPost2010Prop41ColorRGB
 90
        0
102
RTVSPost2010PropOp41
 70
     1
102
RTVSPost2010Prop42
 90
       50
102
RTVSPost2010PropOp42
 70
     1
102
RTVSPost2010Prop43
 90
        3
102
RTVSPost2010PropOp43
 70
     1
102
RTVSPost2010Prop44ColorIndex
 90
        5
102
RTVSPost2010Prop44ColorRGB
 90
      255
102
RTVSPost2010PropOp44
 70
     1
102
RTVSPost2010Prop45
280
     0
102
RTVSPost2010PropOp45
 70
     1
102
RTVSPost2010Prop46
 90
       50
102
RTVSPost2010PropOp46
 70
     1
102
RTVSPost2010Prop47
 90
       50
102
RTVSPost2010PropOp47
 70
     1
102
RTVSPost2010Prop48
 90
       50
102
RTVSPost2010PropOp48
 70
     1
102
RTVSPost2010Prop49
280
     0
102
RTVSPost2010PropOp49
 70
     1
102
RTVSPost2010Prop50
 90
       50
102
RTVSPost2010PropOp50
 70
     1
102
RTVSPost2010Prop51ColorIndex
 90
      256
102
RTVSPost2010Prop51ColorRGB
 90
-16777216
102
RTVSPost2010PropOp51
 70
     0
102
RTVSPost2010Prop52
140
1.0
102
RTVSPost2010PropOp52
 70
     0
102
RTVSPost2010Prop53
 90
        2
102
RTVSPost2010PropOp53
 70
     1
102
RTVSPost2010Prop54
  1
strokes_ogs.tif
102
RTVSPost2010PropOp54
 70
     1
102
RTVSPost2010Prop55
280
     0
102
RTVSPost2010PropOp55
 70
     1
102
RTVSPost2010Prop56
140
1.0
102
RTVSPost2010PropOp56
 70
     1
102
RTVSPost2010Prop57
140
1.0
102
RTVSPost2010PropOp57
 70
     1
  0
XRECORD
  5
3108
102
{ACAD_REACTORS
330
3107
102
}
330
3107
100
AcDbXrecord
280
     1
102
RTVSPost2010Prop28
280
     0
102
RTVSPost2010PropOp28
 70
     1
102
RTVSPost2010Prop29
280
     1
102
RTVSPost2010PropOp29
 70
     1
102
RTVSPost2010Prop30
280
     1
102
RTVSPost2010PropOp30
 70
     1
102
RTVSPost2010Prop31
280
     0
102
RTVSPost2010PropOp31
 70
     1
102
RTVSPost2010Prop32
280
     0
102
RTVSPost2010PropOp32
 70
     1
102
RTVSPost2010Prop33
280
     0
102
RTVSPost2010PropOp33
 70
     1
102
RTVSPost2010Prop34
280
     0
102
RTVSPost2010PropOp34
 70
     1
102
RTVSPost2010Prop35
280
     0
102
RTVSPost2010PropOp35
 70
     1
102
RTVSPost2010Prop36
280
     0
102
RTVSPost2010PropOp36
 70
     1
102
RTVSPost2010Prop37
 90
       50
102
RTVSPost2010PropOp37
 70
     1
102
RTVSPost2010Prop38
140
0.0
102
RTVSPost2010PropOp38
 70
     1
102
RTVSPost2010Prop39
140
1.0
102
RTVSPost2010PropOp39
 70
     1
102
RTVSPost2010Prop40
 90
        0
102
RTVSPost2010PropOp40
 70
     1
102
RTVSPost2010Prop41ColorIndex
 90
       18
102
RTVSPost2010Prop41ColorRGB
 90
        0
102
RTVSPost2010PropOp41
 70
     1
102
RTVSPost2010Prop42
 90
       50
102
RTVSPost2010PropOp42
 70
     1
102
RTVSPost2010Prop43
 90
        3
102
RTVSPost2010PropOp43
 70
     1
102
RTVSPost2010Prop44ColorIndex
 90
        5
102
RTVSPost2010Prop44ColorRGB
 90
      255
102
RTVSPost2010PropOp44
 70
     1
102
RTVSPost2010Prop45
280
     0
102
RTVSPost2010PropOp45
 70
     1
102
RTVSPost2010Prop46
 90
       50
102
RTVSPost2010PropOp46
 70
     1
102
RTVSPost2010Prop47
 90
       50
102
RTVSPost2010PropOp47
 70
     1
102
RTVSPost2010Prop48
 90
       50
102
RTVSPost2010PropOp48
 70
     1
102
RTVSPost2010Prop49
280
     0
102
RTVSPost2010PropOp49
 70
     1
102
RTVSPost2010Prop50
 90
       50
102
RTVSPost2010PropOp50
 70
     1
102
RTVSPost2010Prop51ColorIndex
 90
      256
102
RTVSPost2010Prop51ColorRGB
 90
-16777216
102
RTVSPost2010PropOp51
 70
     0
102
RTVSPost2010Prop52
140
1.0
102
RTVSPost2010PropOp52
 70
     0
102
RTVSPost2010Prop53
 90
        2
102
RTVSPost2010PropOp53
 70
     1
102
RTVSPost2010Prop54
  1
strokes_ogs.tif
102
RTVSPost2010PropOp54
 70
     1
102
RTVSPost2010Prop55
280
     0
102
RTVSPost2010PropOp55
 70
     1
102
RTVSPost2010Prop56
140
1.0
102
RTVSPost2010PropOp56
 70
     1
102
RTVSPost2010Prop57
140
1.0
102
RTVSPost2010PropOp57
 70
     1
  0
XRECORD
  5
3116
102
{ACAD_REACTORS
330
3115
102
}
330
3115
100
AcDbXrecord
280
     1
102
RTVSPost2010Prop28
280
     0
102
RTVSPost2010PropOp28
 70
     1
102
RTVSPost2010Prop29
280
     1
102
RTVSPost2010PropOp29
 70
     1
102
RTVSPost2010Prop30
280
     1
102
RTVSPost2010PropOp30
 70
     1
102
RTVSPost2010Prop31
280
     0
102
RTVSPost2010PropOp31
 70
     1
102
RTVSPost2010Prop32
280
     0
102
RTVSPost2010PropOp32
 70
     1
102
RTVSPost2010Prop33
280
     0
102
RTVSPost2010PropOp33
 70
     1
102
RTVSPost2010Prop34
280
     0
102
RTVSPost2010PropOp34
 70
     1
102
RTVSPost2010Prop35
280
     0
102
RTVSPost2010PropOp35
 70
     1
102
RTVSPost2010Prop36
280
     0
102
RTVSPost2010PropOp36
 70
     1
102
RTVSPost2010Prop37
 90
       50
102
RTVSPost2010PropOp37
 70
     1
102
RTVSPost2010Prop38
140
0.0
102
RTVSPost2010PropOp38
 70
     1
102
RTVSPost2010Prop39
140
1.0
102
RTVSPost2010PropOp39
 70
     1
102
RTVSPost2010Prop40
 90
        0
102
RTVSPost2010PropOp40
 70
     1
102
RTVSPost2010Prop41ColorIndex
 90
       18
102
RTVSPost2010Prop41ColorRGB
 90
        0
102
RTVSPost2010PropOp41
 70
     1
102
RTVSPost2010Prop42
 90
       50
102
RTVSPost2010PropOp42
 70
     1
102
RTVSPost2010Prop43
 90
        3
102
RTVSPost2010PropOp43
 70
     1
102
RTVSPost2010Prop44ColorIndex
 90
        5
102
RTVSPost2010Prop44ColorRGB
 90
      255
102
RTVSPost2010PropOp44
 70
     1
102
RTVSPost2010Prop45
280
     0
102
RTVSPost2010PropOp45
 70
     1
102
RTVSPost2010Prop46
 90
       50
102
RTVSPost2010PropOp46
 70
     1
102
RTVSPost2010Prop47
 90
       50
102
RTVSPost2010PropOp47
 70
     1
102
RTVSPost2010Prop48
 90
       50
102
RTVSPost2010PropOp48
 70
     1
102
RTVSPost2010Prop49
280
     0
102
RTVSPost2010PropOp49
 70
     1
102
RTVSPost2010Prop50
 90
       50
102
RTVSPost2010PropOp50
 70
     1
102
RTVSPost2010Prop51ColorIndex
 90
      256
102
RTVSPost2010Prop51ColorRGB
 90
-16777216
102
RTVSPost2010PropOp51
 70
     0
102
RTVSPost2010Prop52
140
1.0
102
RTVSPost2010PropOp52
 70
     0
102
RTVSPost2010Prop53
 90
        2
102
RTVSPost2010PropOp53
 70
     1
102
RTVSPost2010Prop54
  1
strokes_ogs.tif
102
RTVSPost2010PropOp54
 70
     1
102
RTVSPost2010Prop55
280
     0
102
RTVSPost2010PropOp55
 70
     1
102
RTVSPost2010Prop56
140
1.0
102
RTVSPost2010PropOp56
 70
     1
102
RTVSPost2010Prop57
140
1.0
102
RTVSPost2010PropOp57
 70
     1
  0
XRECORD
  5
311E
102
{ACAD_REACTORS
330
311D
102
}
330
311D
100
AcDbXrecord
280
     1
102
RTVSPost2010Prop28
280
     0
102
RTVSPost2010PropOp28
 70
     1
102
RTVSPost2010Prop29
280
     1
102
RTVSPost2010PropOp29
 70
     1
102
RTVSPost2010Prop30
280
     1
102
RTVSPost2010PropOp30
 70
     1
102
RTVSPost2010Prop31
280
     0
102
RTVSPost2010PropOp31
 70
     1
102
RTVSPost2010Prop32
280
     0
102
RTVSPost2010PropOp32
 70
     1
102
RTVSPost2010Prop33
280
     0
102
RTVSPost2010PropOp33
 70
     1
102
RTVSPost2010Prop34
280
     0
102
RTVSPost2010PropOp34
 70
     1
102
RTVSPost2010Prop35
280
     0
102
RTVSPost2010PropOp35
 70
     1
102
RTVSPost2010Prop36
280
     0
102
RTVSPost2010PropOp36
 70
     1
102
RTVSPost2010Prop37
 90
       50
102
RTVSPost2010PropOp37
 70
     1
102
RTVSPost2010Prop38
140
0.0
102
RTVSPost2010PropOp38
 70
     1
102
RTVSPost2010Prop39
140
1.0
102
RTVSPost2010PropOp39
 70
     1
102
RTVSPost2010Prop40
 90
        0
102
RTVSPost2010PropOp40
 70
     1
102
RTVSPost2010Prop41ColorIndex
 90
       18
102
RTVSPost2010Prop41ColorRGB
 90
        0
102
RTVSPost2010PropOp41
 70
     1
102
RTVSPost2010Prop42
 90
       50
102
RTVSPost2010PropOp42
 70
     1
102
RTVSPost2010Prop43
 90
        3
102
RTVSPost2010PropOp43
 70
     1
102
RTVSPost2010Prop44ColorIndex
 90
        5
102
RTVSPost2010Prop44ColorRGB
 90
      255
102
RTVSPost2010PropOp44
 70
     1
102
RTVSPost2010Prop45
280
     0
102
RTVSPost2010PropOp45
 70
     1
102
RTVSPost2010Prop46
 90
       50
102
RTVSPost2010PropOp46
 70
     1
102
RTVSPost2010Prop47
 90
       50
102
RTVSPost2010PropOp47
 70
     1
102
RTVSPost2010Prop48
 90
       50
102
RTVSPost2010PropOp48
 70
     1
102
RTVSPost2010Prop49
280
     0
102
RTVSPost2010PropOp49
 70
     1
102
RTVSPost2010Prop50
 90
       50
102
RTVSPost2010PropOp50
 70
     1
102
RTVSPost2010Prop51ColorIndex
 90
      256
102
RTVSPost2010Prop51ColorRGB
 90
-16777216
102
RTVSPost2010PropOp51
 70
     0
102
RTVSPost2010Prop52
140
1.0
102
RTVSPost2010PropOp52
 70
     0
102
RTVSPost2010Prop53
 90
        2
102
RTVSPost2010PropOp53
 70
     1
102
RTVSPost2010Prop54
  1
strokes_ogs.tif
102
RTVSPost2010PropOp54
 70
     1
102
RTVSPost2010Prop55
280
     0
102
RTVSPost2010PropOp55
 70
     1
102
RTVSPost2010Prop56
140
1.0
102
RTVSPost2010PropOp56
 70
     1
102
RTVSPost2010Prop57
140
1.0
102
RTVSPost2010PropOp57
 70
     1
  0
XRECORD
  5
3110
102
{ACAD_REACTORS
330
310F
102
}
330
310F
100
AcDbXrecord
280
     1
102
RTVSPost2010Prop28
280
     0
102
RTVSPost2010PropOp28
 70
     1
102
RTVSPost2010Prop29
280
     1
102
RTVSPost2010PropOp29
 70
     1
102
RTVSPost2010Prop30
280
     1
102
RTVSPost2010PropOp30
 70
     1
102
RTVSPost2010Prop31
280
     0
102
RTVSPost2010PropOp31
 70
     1
102
RTVSPost2010Prop32
280
     0
102
RTVSPost2010PropOp32
 70
     1
102
RTVSPost2010Prop33
280
     0
102
RTVSPost2010PropOp33
 70
     1
102
RTVSPost2010Prop34
280
     0
102
RTVSPost2010PropOp34
 70
     1
102
RTVSPost2010Prop35
280
     0
102
RTVSPost2010PropOp35
 70
     1
102
RTVSPost2010Prop36
280
     0
102
RTVSPost2010PropOp36
 70
     1
102
RTVSPost2010Prop37
 90
       50
102
RTVSPost2010PropOp37
 70
     1
102
RTVSPost2010Prop38
140
0.0
102
RTVSPost2010PropOp38
 70
     1
102
RTVSPost2010Prop39
140
1.0
102
RTVSPost2010PropOp39
 70
     1
102
RTVSPost2010Prop40
 90
        0
102
RTVSPost2010PropOp40
 70
     1
102
RTVSPost2010Prop41ColorIndex
 90
       18
102
RTVSPost2010Prop41ColorRGB
 90
        0
102
RTVSPost2010PropOp41
 70
     1
102
RTVSPost2010Prop42
 90
       50
102
RTVSPost2010PropOp42
 70
     1
102
RTVSPost2010Prop43
 90
        3
102
RTVSPost2010PropOp43
 70
     1
102
RTVSPost2010Prop44ColorIndex
 90
        5
102
RTVSPost2010Prop44ColorRGB
 90
      255
102
RTVSPost2010PropOp44
 70
     1
102
RTVSPost2010Prop45
280
     0
102
RTVSPost2010PropOp45
 70
     1
102
RTVSPost2010Prop46
 90
       50
102
RTVSPost2010PropOp46
 70
     1
102
RTVSPost2010Prop47
 90
       50
102
RTVSPost2010PropOp47
 70
     1
102
RTVSPost2010Prop48
 90
       50
102
RTVSPost2010PropOp48
 70
     1
102
RTVSPost2010Prop49
280
     0
102
RTVSPost2010PropOp49
 70
     1
102
RTVSPost2010Prop50
 90
       50
102
RTVSPost2010PropOp50
 70
     1
102
RTVSPost2010Prop51ColorIndex
 90
      256
102
RTVSPost2010Prop51ColorRGB
 90
-16777216
102
RTVSPost2010PropOp51
 70
     0
102
RTVSPost2010Prop52
140
1.0
102
RTVSPost2010PropOp52
 70
     0
102
RTVSPost2010Prop53
 90
        2
102
RTVSPost2010PropOp53
 70
     1
102
RTVSPost2010Prop54
  1
strokes_ogs.tif
102
RTVSPost2010PropOp54
 70
     1
102
RTVSPost2010Prop55
280
     0
102
RTVSPost2010PropOp55
 70
     1
102
RTVSPost2010Prop56
140
1.0
102
RTVSPost2010PropOp56
 70
     1
102
RTVSPost2010Prop57
140
1.0
102
RTVSPost2010PropOp57
 70
     1
  0
XRECORD
  5
3114
102
{ACAD_REACTORS
330
3113
102
}
330
3113
100
AcDbXrecord
280
     1
102
RTVSPost2010Prop28
280
     0
102
RTVSPost2010PropOp28
 70
     1
102
RTVSPost2010Prop29
280
     1
102
RTVSPost2010PropOp29
 70
     1
102
RTVSPost2010Prop30
280
     1
102
RTVSPost2010PropOp30
 70
     1
102
RTVSPost2010Prop31
280
     0
102
RTVSPost2010PropOp31
 70
     1
102
RTVSPost2010Prop32
280
     0
102
RTVSPost2010PropOp32
 70
     1
102
RTVSPost2010Prop33
280
     0
102
RTVSPost2010PropOp33
 70
     1
102
RTVSPost2010Prop34
280
     0
102
RTVSPost2010PropOp34
 70
     1
102
RTVSPost2010Prop35
280
     0
102
RTVSPost2010PropOp35
 70
     1
102
RTVSPost2010Prop36
280
     0
102
RTVSPost2010PropOp36
 70
     1
102
RTVSPost2010Prop37
 90
       50
102
RTVSPost2010PropOp37
 70
     1
102
RTVSPost2010Prop38
140
0.0
102
RTVSPost2010PropOp38
 70
     1
102
RTVSPost2010Prop39
140
1.0
102
RTVSPost2010PropOp39
 70
     1
102
RTVSPost2010Prop40
 90
        0
102
RTVSPost2010PropOp40
 70
     1
102
RTVSPost2010Prop41ColorIndex
 90
       18
102
RTVSPost2010Prop41ColorRGB
 90
        0
102
RTVSPost2010PropOp41
 70
     1
102
RTVSPost2010Prop42
 90
       50
102
RTVSPost2010PropOp42
 70
     1
102
RTVSPost2010Prop43
 90
        3
102
RTVSPost2010PropOp43
 70
     1
102
RTVSPost2010Prop44ColorIndex
 90
        5
102
RTVSPost2010Prop44ColorRGB
 90
      255
102
RTVSPost2010PropOp44
 70
     1
102
RTVSPost2010Prop45
280
     0
102
RTVSPost2010PropOp45
 70
     1
102
RTVSPost2010Prop46
 90
       50
102
RTVSPost2010PropOp46
 70
     1
102
RTVSPost2010Prop47
 90
       50
102
RTVSPost2010PropOp47
 70
     1
102
RTVSPost2010Prop48
 90
       50
102
RTVSPost2010PropOp48
 70
     1
102
RTVSPost2010Prop49
280
     0
102
RTVSPost2010PropOp49
 70
     1
102
RTVSPost2010Prop50
 90
       50
102
RTVSPost2010PropOp50
 70
     1
102
RTVSPost2010Prop51ColorIndex
 90
      256
102
RTVSPost2010Prop51ColorRGB
 90
-16777216
102
RTVSPost2010PropOp51
 70
     0
102
RTVSPost2010Prop52
140
1.0
102
RTVSPost2010PropOp52
 70
     0
102
RTVSPost2010Prop53
 90
        2
102
RTVSPost2010PropOp53
 70
     1
102
RTVSPost2010Prop54
  1
strokes_ogs.tif
102
RTVSPost2010PropOp54
 70
     1
102
RTVSPost2010Prop55
280
     0
102
RTVSPost2010PropOp55
 70
     1
102
RTVSPost2010Prop56
140
1.0
102
RTVSPost2010PropOp56
 70
     1
102
RTVSPost2010Prop57
140
1.0
102
RTVSPost2010PropOp57
 70
     1
  0
XRECORD
  5
312E
102
{ACAD_REACTORS
330
312D
102
}
330
312D
100
AcDbXrecord
280
     1
102
RTVSPost2010Prop28
280
     0
102
RTVSPost2010PropOp28
 70
     1
102
RTVSPost2010Prop29
280
     1
102
RTVSPost2010PropOp29
 70
     1
102
RTVSPost2010Prop30
280
     1
102
RTVSPost2010PropOp30
 70
     1
102
RTVSPost2010Prop31
280
     0
102
RTVSPost2010PropOp31
 70
     1
102
RTVSPost2010Prop32
280
     0
102
RTVSPost2010PropOp32
 70
     1
102
RTVSPost2010Prop33
280
     0
102
RTVSPost2010PropOp33
 70
     1
102
RTVSPost2010Prop34
280
     0
102
RTVSPost2010PropOp34
 70
     1
102
RTVSPost2010Prop35
280
     0
102
RTVSPost2010PropOp35
 70
     1
102
RTVSPost2010Prop36
280
     0
102
RTVSPost2010PropOp36
 70
     1
102
RTVSPost2010Prop37
 90
       50
102
RTVSPost2010PropOp37
 70
     0
102
RTVSPost2010Prop38
140
0.0
102
RTVSPost2010PropOp38
 70
     0
102
RTVSPost2010Prop39
140
1.0
102
RTVSPost2010PropOp39
 70
     0
102
RTVSPost2010Prop40
 90
        0
102
RTVSPost2010PropOp40
 70
     0
102
RTVSPost2010Prop41ColorIndex
 90
       18
102
RTVSPost2010Prop41ColorRGB
 90
        0
102
RTVSPost2010PropOp41
 70
     0
102
RTVSPost2010Prop42
 90
       50
102
RTVSPost2010PropOp42
 70
     0
102
RTVSPost2010Prop43
 90
        3
102
RTVSPost2010PropOp43
 70
     0
102
RTVSPost2010Prop44ColorIndex
 90
        5
102
RTVSPost2010Prop44ColorRGB
 90
      255
102
RTVSPost2010PropOp44
 70
     0
102
RTVSPost2010Prop45
280
     0
102
RTVSPost2010PropOp45
 70
     1
102
RTVSPost2010Prop46
 90
       50
102
RTVSPost2010PropOp46
 70
     0
102
RTVSPost2010Prop47
 90
       50
102
RTVSPost2010PropOp47
 70
     0
102
RTVSPost2010Prop48
 90
       50
102
RTVSPost2010PropOp48
 70
     0
102
RTVSPost2010Prop49
280
     0
102
RTVSPost2010PropOp49
 70
     1
102
RTVSPost2010Prop50
 90
       50
102
RTVSPost2010PropOp50
 70
     0
102
RTVSPost2010Prop51ColorIndex
 90
      256
102
RTVSPost2010Prop51ColorRGB
 90
-16777216
102
RTVSPost2010PropOp51
 70
     0
102
RTVSPost2010Prop52
140
1.0
102
RTVSPost2010PropOp52
 70
     0
102
RTVSPost2010Prop53
 90
        2
102
RTVSPost2010PropOp53
 70
     0
102
RTVSPost2010Prop54
  1
strokes_ogs.tif
102
RTVSPost2010PropOp54
 70
     0
102
RTVSPost2010Prop55
280
     0
102
RTVSPost2010PropOp55
 70
     1
102
RTVSPost2010Prop56
140
1.0
102
RTVSPost2010PropOp56
 70
     0
102
RTVSPost2010Prop57
140
1.0
102
RTVSPost2010PropOp57
 70
     0
  0
XRECORD
  5
311C
102
{ACAD_REACTORS
330
311B
102
}
330
311B
100
AcDbXrecord
280
     1
102
RTVSPost2010Prop28
280
     0
102
RTVSPost2010PropOp28
 70
     1
102
RTVSPost2010Prop29
280
     1
102
RTVSPost2010PropOp29
 70
     1
102
RTVSPost2010Prop30
280
     1
102
RTVSPost2010PropOp30
 70
     1
102
RTVSPost2010Prop31
280
     0
102
RTVSPost2010PropOp31
 70
     1
102
RTVSPost2010Prop32
280
     0
102
RTVSPost2010PropOp32
 70
     1
102
RTVSPost2010Prop33
280
     0
102
RTVSPost2010PropOp33
 70
     1
102
RTVSPost2010Prop34
280
     0
102
RTVSPost2010PropOp34
 70
     1
102
RTVSPost2010Prop35
280
     0
102
RTVSPost2010PropOp35
 70
     1
102
RTVSPost2010Prop36
280
     0
102
RTVSPost2010PropOp36
 70
     1
102
RTVSPost2010Prop37
 90
       50
102
RTVSPost2010PropOp37
 70
     1
102
RTVSPost2010Prop38
140
0.0
102
RTVSPost2010PropOp38
 70
     1
102
RTVSPost2010Prop39
140
1.0
102
RTVSPost2010PropOp39
 70
     1
102
RTVSPost2010Prop40
 90
        0
102
RTVSPost2010PropOp40
 70
     1
102
RTVSPost2010Prop41ColorIndex
 90
       18
102
RTVSPost2010Prop41ColorRGB
 90
        0
102
RTVSPost2010PropOp41
 70
     1
102
RTVSPost2010Prop42
 90
       50
102
RTVSPost2010PropOp42
 70
     1
102
RTVSPost2010Prop43
 90
        3
102
RTVSPost2010PropOp43
 70
     1
102
RTVSPost2010Prop44ColorIndex
 90
        5
102
RTVSPost2010Prop44ColorRGB
 90
      255
102
RTVSPost2010PropOp44
 70
     1
102
RTVSPost2010Prop45
280
     0
102
RTVSPost2010PropOp45
 70
     1
102
RTVSPost2010Prop46
 90
       50
102
RTVSPost2010PropOp46
 70
     1
102
RTVSPost2010Prop47
 90
       50
102
RTVSPost2010PropOp47
 70
     1
102
RTVSPost2010Prop48
 90
       50
102
RTVSPost2010PropOp48
 70
     1
102
RTVSPost2010Prop49
280
     0
102
RTVSPost2010PropOp49
 70
     1
102
RTVSPost2010Prop50
 90
       50
102
RTVSPost2010PropOp50
 70
     1
102
RTVSPost2010Prop51ColorIndex
 90
      256
102
RTVSPost2010Prop51ColorRGB
 90
-16777216
102
RTVSPost2010PropOp51
 70
     0
102
RTVSPost2010Prop52
140
1.0
102
RTVSPost2010PropOp52
 70
     0
102
RTVSPost2010Prop53
 90
        2
102
RTVSPost2010PropOp53
 70
     1
102
RTVSPost2010Prop54
  1
strokes_ogs.tif
102
RTVSPost2010PropOp54
 70
     1
102
RTVSPost2010Prop55
280
     0
102
RTVSPost2010PropOp55
 70
     1
102
RTVSPost2010Prop56
140
1.0
102
RTVSPost2010PropOp56
 70
     1
102
RTVSPost2010Prop57
140
1.0
102
RTVSPost2010PropOp57
 70
     1
  0
XRECORD
  5
3100
102
{ACAD_REACTORS
330
30FF
102
}
330
30FF
100
AcDbXrecord
280
     1
102
RTVSPost2010Prop28
280
     0
102
RTVSPost2010PropOp28
 70
     1
102
RTVSPost2010Prop29
280
     1
102
RTVSPost2010PropOp29
 70
     1
102
RTVSPost2010Prop30
280
     1
102
RTVSPost2010PropOp30
 70
     1
102
RTVSPost2010Prop31
280
     0
102
RTVSPost2010PropOp31
 70
     1
102
RTVSPost2010Prop32
280
     0
102
RTVSPost2010PropOp32
 70
     1
102
RTVSPost2010Prop33
280
     0
102
RTVSPost2010PropOp33
 70
     1
102
RTVSPost2010Prop34
280
     0
102
RTVSPost2010PropOp34
 70
     1
102
RTVSPost2010Prop35
280
     0
102
RTVSPost2010PropOp35
 70
     1
102
RTVSPost2010Prop36
280
     0
102
RTVSPost2010PropOp36
 70
     1
102
RTVSPost2010Prop37
 90
       50
102
RTVSPost2010PropOp37
 70
     1
102
RTVSPost2010Prop38
140
0.0
102
RTVSPost2010PropOp38
 70
     1
102
RTVSPost2010Prop39
140
1.0
102
RTVSPost2010PropOp39
 70
     1
102
RTVSPost2010Prop40
 90
        0
102
RTVSPost2010PropOp40
 70
     1
102
RTVSPost2010Prop41ColorIndex
 90
       18
102
RTVSPost2010Prop41ColorRGB
 90
        0
102
RTVSPost2010PropOp41
 70
     1
102
RTVSPost2010Prop42
 90
       50
102
RTVSPost2010PropOp42
 70
     1
102
RTVSPost2010Prop43
 90
        3
102
RTVSPost2010PropOp43
 70
     1
102
RTVSPost2010Prop44ColorIndex
 90
        5
102
RTVSPost2010Prop44ColorRGB
 90
      255
102
RTVSPost2010PropOp44
 70
     1
102
RTVSPost2010Prop45
280
     0
102
RTVSPost2010PropOp45
 70
     1
102
RTVSPost2010Prop46
 90
       50
102
RTVSPost2010PropOp46
 70
     1
102
RTVSPost2010Prop47
 90
       50
102
RTVSPost2010PropOp47
 70
     1
102
RTVSPost2010Prop48
 90
       50
102
RTVSPost2010PropOp48
 70
     1
102
RTVSPost2010Prop49
280
     0
102
RTVSPost2010PropOp49
 70
     1
102
RTVSPost2010Prop50
 90
       50
102
RTVSPost2010PropOp50
 70
     1
102
RTVSPost2010Prop51ColorIndex
 90
      256
102
RTVSPost2010Prop51ColorRGB
 90
-16777216
102
RTVSPost2010PropOp51
 70
     0
102
RTVSPost2010Prop52
140
1.0
102
RTVSPost2010PropOp52
 70
     0
102
RTVSPost2010Prop53
 90
        2
102
RTVSPost2010PropOp53
 70
     1
102
RTVSPost2010Prop54
  1
strokes_ogs.tif
102
RTVSPost2010PropOp54
 70
     1
102
RTVSPost2010Prop55
280
     0
102
RTVSPost2010PropOp55
 70
     1
102
RTVSPost2010Prop56
140
1.0
102
RTVSPost2010PropOp56
 70
     1
102
RTVSPost2010Prop57
140
1.0
102
RTVSPost2010PropOp57
 70
     1
  0
XRECORD
  5
3102
102
{ACAD_REACTORS
330
3101
102
}
330
3101
100
AcDbXrecord
280
     1
102
RTVSPost2010Prop28
280
     0
102
RTVSPost2010PropOp28
 70
     1
102
RTVSPost2010Prop29
280
     1
102
RTVSPost2010PropOp29
 70
     1
102
RTVSPost2010Prop30
280
     1
102
RTVSPost2010PropOp30
 70
     1
102
RTVSPost2010Prop31
280
     0
102
RTVSPost2010PropOp31
 70
     1
102
RTVSPost2010Prop32
280
     0
102
RTVSPost2010PropOp32
 70
     1
102
RTVSPost2010Prop33
280
     0
102
RTVSPost2010PropOp33
 70
     1
102
RTVSPost2010Prop34
280
     0
102
RTVSPost2010PropOp34
 70
     1
102
RTVSPost2010Prop35
280
     0
102
RTVSPost2010PropOp35
 70
     1
102
RTVSPost2010Prop36
280
     0
102
RTVSPost2010PropOp36
 70
     1
102
RTVSPost2010Prop37
 90
       50
102
RTVSPost2010PropOp37
 70
     1
102
RTVSPost2010Prop38
140
0.0
102
RTVSPost2010PropOp38
 70
     1
102
RTVSPost2010Prop39
140
1.0
102
RTVSPost2010PropOp39
 70
     1
102
RTVSPost2010Prop40
 90
        0
102
RTVSPost2010PropOp40
 70
     1
102
RTVSPost2010Prop41ColorIndex
 90
       18
102
RTVSPost2010Prop41ColorRGB
 90
        0
102
RTVSPost2010PropOp41
 70
     1
102
RTVSPost2010Prop42
 90
       50
102
RTVSPost2010PropOp42
 70
     1
102
RTVSPost2010Prop43
 90
        3
102
RTVSPost2010PropOp43
 70
     1
102
RTVSPost2010Prop44ColorIndex
 90
        5
102
RTVSPost2010Prop44ColorRGB
 90
      255
102
RTVSPost2010PropOp44
 70
     1
102
RTVSPost2010Prop45
280
     0
102
RTVSPost2010PropOp45
 70
     1
102
RTVSPost2010Prop46
 90
       50
102
RTVSPost2010PropOp46
 70
     1
102
RTVSPost2010Prop47
 90
       50
102
RTVSPost2010PropOp47
 70
     1
102
RTVSPost2010Prop48
 90
       50
102
RTVSPost2010PropOp48
 70
     1
102
RTVSPost2010Prop49
280
     0
102
RTVSPost2010PropOp49
 70
     1
102
RTVSPost2010Prop50
 90
       50
102
RTVSPost2010PropOp50
 70
     1
102
RTVSPost2010Prop51ColorIndex
 90
      256
102
RTVSPost2010Prop51ColorRGB
 90
-16777216
102
RTVSPost2010PropOp51
 70
     0
102
RTVSPost2010Prop52
140
1.0
102
RTVSPost2010PropOp52
 70
     0
102
RTVSPost2010Prop53
 90
        2
102
RTVSPost2010PropOp53
 70
     1
102
RTVSPost2010Prop54
  1
strokes_ogs.tif
102
RTVSPost2010PropOp54
 70
     1
102
RTVSPost2010Prop55
280
     0
102
RTVSPost2010PropOp55
 70
     1
102
RTVSPost2010Prop56
140
1.0
102
RTVSPost2010PropOp56
 70
     1
102
RTVSPost2010Prop57
140
1.0
102
RTVSPost2010PropOp57
 70
     1
  0
XRECORD
  5
3104
102
{ACAD_REACTORS
330
3103
102
}
330
3103
100
AcDbXrecord
280
     1
102
RTVSPost2010Prop28
280
     0
102
RTVSPost2010PropOp28
 70
     1
102
RTVSPost2010Prop29
280
     1
102
RTVSPost2010PropOp29
 70
     1
102
RTVSPost2010Prop30
280
     1
102
RTVSPost2010PropOp30
 70
     1
102
RTVSPost2010Prop31
280
     0
102
RTVSPost2010PropOp31
 70
     1
102
RTVSPost2010Prop32
280
     0
102
RTVSPost2010PropOp32
 70
     1
102
RTVSPost2010Prop33
280
     0
102
RTVSPost2010PropOp33
 70
     1
102
RTVSPost2010Prop34
280
     0
102
RTVSPost2010PropOp34
 70
     1
102
RTVSPost2010Prop35
280
     0
102
RTVSPost2010PropOp35
 70
     1
102
RTVSPost2010Prop36
280
     0
102
RTVSPost2010PropOp36
 70
     1
102
RTVSPost2010Prop37
 90
       50
102
RTVSPost2010PropOp37
 70
     1
102
RTVSPost2010Prop38
140
0.0
102
RTVSPost2010PropOp38
 70
     1
102
RTVSPost2010Prop39
140
1.0
102
RTVSPost2010PropOp39
 70
     1
102
RTVSPost2010Prop40
 90
        0
102
RTVSPost2010PropOp40
 70
     1
102
RTVSPost2010Prop41ColorIndex
 90
       18
102
RTVSPost2010Prop41ColorRGB
 90
        0
102
RTVSPost2010PropOp41
 70
     1
102
RTVSPost2010Prop42
 90
       50
102
RTVSPost2010PropOp42
 70
     1
102
RTVSPost2010Prop43
 90
        3
102
RTVSPost2010PropOp43
 70
     1
102
RTVSPost2010Prop44ColorIndex
 90
        5
102
RTVSPost2010Prop44ColorRGB
 90
      255
102
RTVSPost2010PropOp44
 70
     1
102
RTVSPost2010Prop45
280
     0
102
RTVSPost2010PropOp45
 70
     1
102
RTVSPost2010Prop46
 90
       50
102
RTVSPost2010PropOp46
 70
     1
102
RTVSPost2010Prop47
 90
       50
102
RTVSPost2010PropOp47
 70
     1
102
RTVSPost2010Prop48
 90
       50
102
RTVSPost2010PropOp48
 70
     1
102
RTVSPost2010Prop49
280
     0
102
RTVSPost2010PropOp49
 70
     1
102
RTVSPost2010Prop50
 90
       50
102
RTVSPost2010PropOp50
 70
     1
102
RTVSPost2010Prop51ColorIndex
 90
      256
102
RTVSPost2010Prop51ColorRGB
 90
-16777216
102
RTVSPost2010PropOp51
 70
     0
102
RTVSPost2010Prop52
140
1.0
102
RTVSPost2010PropOp52
 70
     0
102
RTVSPost2010Prop53
 90
        2
102
RTVSPost2010PropOp53
 70
     1
102
RTVSPost2010Prop54
  1
strokes_ogs.tif
102
RTVSPost2010PropOp54
 70
     1
102
RTVSPost2010Prop55
280
     0
102
RTVSPost2010PropOp55
 70
     1
102
RTVSPost2010Prop56
140
1.0
102
RTVSPost2010PropOp56
 70
     1
102
RTVSPost2010Prop57
140
1.0
102
RTVSPost2010PropOp57
 70
     1
  0
XRECORD
  5
3106
102
{ACAD_REACTORS
330
3105
102
}
330
3105
100
AcDbXrecord
280
     1
102
RTVSPost2010Prop28
280
     0
102
RTVSPost2010PropOp28
 70
     1
102
RTVSPost2010Prop29
280
     1
102
RTVSPost2010PropOp29
 70
     1
102
RTVSPost2010Prop30
280
     1
102
RTVSPost2010PropOp30
 70
     1
102
RTVSPost2010Prop31
280
     0
102
RTVSPost2010PropOp31
 70
     1
102
RTVSPost2010Prop32
280
     0
102
RTVSPost2010PropOp32
 70
     1
102
RTVSPost2010Prop33
280
     0
102
RTVSPost2010PropOp33
 70
     1
102
RTVSPost2010Prop34
280
     0
102
RTVSPost2010PropOp34
 70
     1
102
RTVSPost2010Prop35
280
     0
102
RTVSPost2010PropOp35
 70
     1
102
RTVSPost2010Prop36
280
     0
102
RTVSPost2010PropOp36
 70
     1
102
RTVSPost2010Prop37
 90
       50
102
RTVSPost2010PropOp37
 70
     1
102
RTVSPost2010Prop38
140
0.0
102
RTVSPost2010PropOp38
 70
     1
102
RTVSPost2010Prop39
140
1.0
102
RTVSPost2010PropOp39
 70
     1
102
RTVSPost2010Prop40
 90
        0
102
RTVSPost2010PropOp40
 70
     1
102
RTVSPost2010Prop41ColorIndex
 90
       18
102
RTVSPost2010Prop41ColorRGB
 90
        0
102
RTVSPost2010PropOp41
 70
     1
102
RTVSPost2010Prop42
 90
       50
102
RTVSPost2010PropOp42
 70
     1
102
RTVSPost2010Prop43
 90
        3
102
RTVSPost2010PropOp43
 70
     1
102
RTVSPost2010Prop44ColorIndex
 90
        5
102
RTVSPost2010Prop44ColorRGB
 90
      255
102
RTVSPost2010PropOp44
 70
     1
102
RTVSPost2010Prop45
280
     0
102
RTVSPost2010PropOp45
 70
     1
102
RTVSPost2010Prop46
 90
       50
102
RTVSPost2010PropOp46
 70
     1
102
RTVSPost2010Prop47
 90
       50
102
RTVSPost2010PropOp47
 70
     1
102
RTVSPost2010Prop48
 90
       50
102
RTVSPost2010PropOp48
 70
     1
102
RTVSPost2010Prop49
280
     0
102
RTVSPost2010PropOp49
 70
     1
102
RTVSPost2010Prop50
 90
       50
102
RTVSPost2010PropOp50
 70
     1
102
RTVSPost2010Prop51ColorIndex
 90
      256
102
RTVSPost2010Prop51ColorRGB
 90
-16777216
102
RTVSPost2010PropOp51
 70
     0
102
RTVSPost2010Prop52
140
1.0
102
RTVSPost2010PropOp52
 70
     0
102
RTVSPost2010Prop53
 90
        2
102
RTVSPost2010PropOp53
 70
     1
102
RTVSPost2010Prop54
  1
strokes_ogs.tif
102
RTVSPost2010PropOp54
 70
     1
102
RTVSPost2010Prop55
280
     0
102
RTVSPost2010PropOp55
 70
     1
102
RTVSPost2010Prop56
140
1.0
102
RTVSPost2010PropOp56
 70
     1
102
RTVSPost2010Prop57
140
1.0
102
RTVSPost2010PropOp57
 70
     1
  0
XRECORD
  5
310E
102
{ACAD_REACTORS
330
310D
102
}
330
310D
100
AcDbXrecord
280
     1
102
RTVSPost2010Prop28
280
     0
102
RTVSPost2010PropOp28
 70
     1
102
RTVSPost2010Prop29
280
     1
102
RTVSPost2010PropOp29
 70
     1
102
RTVSPost2010Prop30
280
     1
102
RTVSPost2010PropOp30
 70
     1
102
RTVSPost2010Prop31
280
     0
102
RTVSPost2010PropOp31
 70
     1
102
RTVSPost2010Prop32
280
     0
102
RTVSPost2010PropOp32
 70
     1
102
RTVSPost2010Prop33
280
     0
102
RTVSPost2010PropOp33
 70
     1
102
RTVSPost2010Prop34
280
     0
102
RTVSPost2010PropOp34
 70
     1
102
RTVSPost2010Prop35
280
     0
102
RTVSPost2010PropOp35
 70
     1
102
RTVSPost2010Prop36
280
     0
102
RTVSPost2010PropOp36
 70
     1
102
RTVSPost2010Prop37
 90
       50
102
RTVSPost2010PropOp37
 70
     1
102
RTVSPost2010Prop38
140
0.0
102
RTVSPost2010PropOp38
 70
     1
102
RTVSPost2010Prop39
140
1.0
102
RTVSPost2010PropOp39
 70
     1
102
RTVSPost2010Prop40
 90
        0
102
RTVSPost2010PropOp40
 70
     1
102
RTVSPost2010Prop41ColorIndex
 90
       18
102
RTVSPost2010Prop41ColorRGB
 90
        0
102
RTVSPost2010PropOp41
 70
     1
102
RTVSPost2010Prop42
 90
       50
102
RTVSPost2010PropOp42
 70
     1
102
RTVSPost2010Prop43
 90
        3
102
RTVSPost2010PropOp43
 70
     1
102
RTVSPost2010Prop44ColorIndex
 90
        5
102
RTVSPost2010Prop44ColorRGB
 90
      255
102
RTVSPost2010PropOp44
 70
     1
102
RTVSPost2010Prop45
280
     0
102
RTVSPost2010PropOp45
 70
     1
102
RTVSPost2010Prop46
 90
       50
102
RTVSPost2010PropOp46
 70
     1
102
RTVSPost2010Prop47
 90
       50
102
RTVSPost2010PropOp47
 70
     1
102
RTVSPost2010Prop48
 90
       50
102
RTVSPost2010PropOp48
 70
     1
102
RTVSPost2010Prop49
280
     0
102
RTVSPost2010PropOp49
 70
     1
102
RTVSPost2010Prop50
 90
       50
102
RTVSPost2010PropOp50
 70
     1
102
RTVSPost2010Prop51ColorIndex
 90
      256
102
RTVSPost2010Prop51ColorRGB
 90
-16777216
102
RTVSPost2010PropOp51
 70
     0
102
RTVSPost2010Prop52
140
1.0
102
RTVSPost2010PropOp52
 70
     0
102
RTVSPost2010Prop53
 90
        2
102
RTVSPost2010PropOp53
 70
     1
102
RTVSPost2010Prop54
  1
strokes_ogs.tif
102
RTVSPost2010PropOp54
 70
     1
102
RTVSPost2010Prop55
280
     0
102
RTVSPost2010PropOp55
 70
     1
102
RTVSPost2010Prop56
140
1.0
102
RTVSPost2010PropOp56
 70
     1
102
RTVSPost2010Prop57
140
1.0
102
RTVSPost2010PropOp57
 70
     1
  0
XRECORD
  5
312A
102
{ACAD_REACTORS
330
3129
102
}
330
3129
100
AcDbXrecord
280
     1
102
RTVSPost2010Prop28
280
     0
102
RTVSPost2010PropOp28
 70
     1
102
RTVSPost2010Prop29
280
     1
102
RTVSPost2010PropOp29
 70
     1
102
RTVSPost2010Prop30
280
     1
102
RTVSPost2010PropOp30
 70
     1
102
RTVSPost2010Prop31
280
     0
102
RTVSPost2010PropOp31
 70
     1
102
RTVSPost2010Prop32
280
     0
102
RTVSPost2010PropOp32
 70
     1
102
RTVSPost2010Prop33
280
     0
102
RTVSPost2010PropOp33
 70
     1
102
RTVSPost2010Prop34
280
     0
102
RTVSPost2010PropOp34
 70
     1
102
RTVSPost2010Prop35
280
     0
102
RTVSPost2010PropOp35
 70
     1
102
RTVSPost2010Prop36
280
     0
102
RTVSPost2010PropOp36
 70
     1
102
RTVSPost2010Prop37
 90
       50
102
RTVSPost2010PropOp37
 70
     0
102
RTVSPost2010Prop38
140
0.0
102
RTVSPost2010PropOp38
 70
     0
102
RTVSPost2010Prop39
140
1.0
102
RTVSPost2010PropOp39
 70
     0
102
RTVSPost2010Prop40
 90
        0
102
RTVSPost2010PropOp40
 70
     0
102
RTVSPost2010Prop41ColorIndex
 90
       18
102
RTVSPost2010Prop41ColorRGB
 90
        0
102
RTVSPost2010PropOp41
 70
     0
102
RTVSPost2010Prop42
 90
       50
102
RTVSPost2010PropOp42
 70
     0
102
RTVSPost2010Prop43
 90
        3
102
RTVSPost2010PropOp43
 70
     0
102
RTVSPost2010Prop44ColorIndex
 90
        5
102
RTVSPost2010Prop44ColorRGB
 90
      255
102
RTVSPost2010PropOp44
 70
     0
102
RTVSPost2010Prop45
280
     0
102
RTVSPost2010PropOp45
 70
     1
102
RTVSPost2010Prop46
 90
       50
102
RTVSPost2010PropOp46
 70
     0
102
RTVSPost2010Prop47
 90
       50
102
RTVSPost2010PropOp47
 70
     0
102
RTVSPost2010Prop48
 90
       50
102
RTVSPost2010PropOp48
 70
     0
102
RTVSPost2010Prop49
280
     0
102
RTVSPost2010PropOp49
 70
     1
102
RTVSPost2010Prop50
 90
       50
102
RTVSPost2010PropOp50
 70
     0
102
RTVSPost2010Prop51ColorIndex
 90
      256
102
RTVSPost2010Prop51ColorRGB
 90
-16777216
102
RTVSPost2010PropOp51
 70
     0
102
RTVSPost2010Prop52
140
1.0
102
RTVSPost2010PropOp52
 70
     0
102
RTVSPost2010Prop53
 90
        2
102
RTVSPost2010PropOp53
 70
     0
102
RTVSPost2010Prop54
  1
strokes_ogs.tif
102
RTVSPost2010PropOp54
 70
     0
102
RTVSPost2010Prop55
280
     0
102
RTVSPost2010PropOp55
 70
     1
102
RTVSPost2010Prop56
140
1.0
102
RTVSPost2010PropOp56
 70
     0
102
RTVSPost2010Prop57
140
1.0
102
RTVSPost2010PropOp57
 70
     0
  0
XRECORD
  5
311A
102
{ACAD_REACTORS
330
3119
102
}
330
3119
100
AcDbXrecord
280
     1
102
RTVSPost2010Prop28
280
     0
102
RTVSPost2010PropOp28
 70
     1
102
RTVSPost2010Prop29
280
     1
102
RTVSPost2010PropOp29
 70
     1
102
RTVSPost2010Prop30
280
     1
102
RTVSPost2010PropOp30
 70
     1
102
RTVSPost2010Prop31
280
     0
102
RTVSPost2010PropOp31
 70
     1
102
RTVSPost2010Prop32
280
     0
102
RTVSPost2010PropOp32
 70
     1
102
RTVSPost2010Prop33
280
     0
102
RTVSPost2010PropOp33
 70
     1
102
RTVSPost2010Prop34
280
     0
102
RTVSPost2010PropOp34
 70
     1
102
RTVSPost2010Prop35
280
     0
102
RTVSPost2010PropOp35
 70
     1
102
RTVSPost2010Prop36
280
     0
102
RTVSPost2010PropOp36
 70
     1
102
RTVSPost2010Prop37
 90
       50
102
RTVSPost2010PropOp37
 70
     1
102
RTVSPost2010Prop38
140
0.0
102
RTVSPost2010PropOp38
 70
     1
102
RTVSPost2010Prop39
140
1.0
102
RTVSPost2010PropOp39
 70
     1
102
RTVSPost2010Prop40
 90
        0
102
RTVSPost2010PropOp40
 70
     1
102
RTVSPost2010Prop41ColorIndex
 90
       18
102
RTVSPost2010Prop41ColorRGB
 90
        0
102
RTVSPost2010PropOp41
 70
     1
102
RTVSPost2010Prop42
 90
       50
102
RTVSPost2010PropOp42
 70
     1
102
RTVSPost2010Prop43
 90
        3
102
RTVSPost2010PropOp43
 70
     1
102
RTVSPost2010Prop44ColorIndex
 90
        5
102
RTVSPost2010Prop44ColorRGB
 90
      255
102
RTVSPost2010PropOp44
 70
     1
102
RTVSPost2010Prop45
280
     0
102
RTVSPost2010PropOp45
 70
     1
102
RTVSPost2010Prop46
 90
       50
102
RTVSPost2010PropOp46
 70
     1
102
RTVSPost2010Prop47
 90
       50
102
RTVSPost2010PropOp47
 70
     1
102
RTVSPost2010Prop48
 90
       50
102
RTVSPost2010PropOp48
 70
     1
102
RTVSPost2010Prop49
280
     0
102
RTVSPost2010PropOp49
 70
     1
102
RTVSPost2010Prop50
 90
       50
102
RTVSPost2010PropOp50
 70
     1
102
RTVSPost2010Prop51ColorIndex
 90
      256
102
RTVSPost2010Prop51ColorRGB
 90
-16777216
102
RTVSPost2010PropOp51
 70
     0
102
RTVSPost2010Prop52
140
1.0
102
RTVSPost2010PropOp52
 70
     0
102
RTVSPost2010Prop53
 90
        2
102
RTVSPost2010PropOp53
 70
     1
102
RTVSPost2010Prop54
  1
strokes_ogs.tif
102
RTVSPost2010PropOp54
 70
     1
102
RTVSPost2010Prop55
280
     0
102
RTVSPost2010PropOp55
 70
     1
102
RTVSPost2010Prop56
140
1.0
102
RTVSPost2010PropOp56
 70
     1
102
RTVSPost2010Prop57
140
1.0
102
RTVSPost2010PropOp57
 70
     1
  0
XRECORD
  5
312C
102
{ACAD_REACTORS
330
312B
102
}
330
312B
100
AcDbXrecord
280
     1
102
RTVSPost2010Prop28
280
     0
102
RTVSPost2010PropOp28
 70
     1
102
RTVSPost2010Prop29
280
     1
102
RTVSPost2010PropOp29
 70
     1
102
RTVSPost2010Prop30
280
     1
102
RTVSPost2010PropOp30
 70
     1
102
RTVSPost2010Prop31
280
     0
102
RTVSPost2010PropOp31
 70
     1
102
RTVSPost2010Prop32
280
     0
102
RTVSPost2010PropOp32
 70
     1
102
RTVSPost2010Prop33
280
     0
102
RTVSPost2010PropOp33
 70
     1
102
RTVSPost2010Prop34
280
     0
102
RTVSPost2010PropOp34
 70
     1
102
RTVSPost2010Prop35
280
     0
102
RTVSPost2010PropOp35
 70
     1
102
RTVSPost2010Prop36
280
     0
102
RTVSPost2010PropOp36
 70
     1
102
RTVSPost2010Prop37
 90
       50
102
RTVSPost2010PropOp37
 70
     0
102
RTVSPost2010Prop38
140
0.0
102
RTVSPost2010PropOp38
 70
     0
102
RTVSPost2010Prop39
140
1.0
102
RTVSPost2010PropOp39
 70
     0
102
RTVSPost2010Prop40
 90
        0
102
RTVSPost2010PropOp40
 70
     0
102
RTVSPost2010Prop41ColorIndex
 90
       18
102
RTVSPost2010Prop41ColorRGB
 90
        0
102
RTVSPost2010PropOp41
 70
     0
102
RTVSPost2010Prop42
 90
       50
102
RTVSPost2010PropOp42
 70
     0
102
RTVSPost2010Prop43
 90
        3
102
RTVSPost2010PropOp43
 70
     0
102
RTVSPost2010Prop44ColorIndex
 90
        5
102
RTVSPost2010Prop44ColorRGB
 90
      255
102
RTVSPost2010PropOp44
 70
     0
102
RTVSPost2010Prop45
280
     0
102
RTVSPost2010PropOp45
 70
     1
102
RTVSPost2010Prop46
 90
       50
102
RTVSPost2010PropOp46
 70
     0
102
RTVSPost2010Prop47
 90
       50
102
RTVSPost2010PropOp47
 70
     0
102
RTVSPost2010Prop48
 90
       50
102
RTVSPost2010PropOp48
 70
     0
102
RTVSPost2010Prop49
280
     0
102
RTVSPost2010PropOp49
 70
     1
102
RTVSPost2010Prop50
 90
       50
102
RTVSPost2010PropOp50
 70
     0
102
RTVSPost2010Prop51ColorIndex
 90
      256
102
RTVSPost2010Prop51ColorRGB
 90
-16777216
102
RTVSPost2010PropOp51
 70
     0
102
RTVSPost2010Prop52
140
1.0
102
RTVSPost2010PropOp52
 70
     0
102
RTVSPost2010Prop53
 90
        2
102
RTVSPost2010PropOp53
 70
     0
102
RTVSPost2010Prop54
  1
strokes_ogs.tif
102
RTVSPost2010PropOp54
 70
     0
102
RTVSPost2010Prop55
280
     0
102
RTVSPost2010PropOp55
 70
     1
102
RTVSPost2010Prop56
140
1.0
102
RTVSPost2010PropOp56
 70
     0
102
RTVSPost2010Prop57
140
1.0
102
RTVSPost2010PropOp57
 70
     0
  0
XRECORD
  5
3112
102
{ACAD_REACTORS
330
3111
102
}
330
3111
100
AcDbXrecord
280
     1
102
RTVSPost2010Prop28
280
     0
102
RTVSPost2010PropOp28
 70
     1
102
RTVSPost2010Prop29
280
     1
102
RTVSPost2010PropOp29
 70
     1
102
RTVSPost2010Prop30
280
     1
102
RTVSPost2010PropOp30
 70
     1
102
RTVSPost2010Prop31
280
     0
102
RTVSPost2010PropOp31
 70
     1
102
RTVSPost2010Prop32
280
     0
102
RTVSPost2010PropOp32
 70
     1
102
RTVSPost2010Prop33
280
     0
102
RTVSPost2010PropOp33
 70
     1
102
RTVSPost2010Prop34
280
     0
102
RTVSPost2010PropOp34
 70
     1
102
RTVSPost2010Prop35
280
     0
102
RTVSPost2010PropOp35
 70
     1
102
RTVSPost2010Prop36
280
     0
102
RTVSPost2010PropOp36
 70
     1
102
RTVSPost2010Prop37
 90
       50
102
RTVSPost2010PropOp37
 70
     1
102
RTVSPost2010Prop38
140
0.0
102
RTVSPost2010PropOp38
 70
     1
102
RTVSPost2010Prop39
140
1.0
102
RTVSPost2010PropOp39
 70
     1
102
RTVSPost2010Prop40
 90
        0
102
RTVSPost2010PropOp40
 70
     1
102
RTVSPost2010Prop41ColorIndex
 90
       18
102
RTVSPost2010Prop41ColorRGB
 90
        0
102
RTVSPost2010PropOp41
 70
     1
102
RTVSPost2010Prop42
 90
       50
102
RTVSPost2010PropOp42
 70
     1
102
RTVSPost2010Prop43
 90
        3
102
RTVSPost2010PropOp43
 70
     1
102
RTVSPost2010Prop44ColorIndex
 90
        5
102
RTVSPost2010Prop44ColorRGB
 90
      255
102
RTVSPost2010PropOp44
 70
     1
102
RTVSPost2010Prop45
280
     0
102
RTVSPost2010PropOp45
 70
     1
102
RTVSPost2010Prop46
 90
       50
102
RTVSPost2010PropOp46
 70
     1
102
RTVSPost2010Prop47
 90
       50
102
RTVSPost2010PropOp47
 70
     1
102
RTVSPost2010Prop48
 90
       50
102
RTVSPost2010PropOp48
 70
     1
102
RTVSPost2010Prop49
280
     0
102
RTVSPost2010PropOp49
 70
     1
102
RTVSPost2010Prop50
 90
       50
102
RTVSPost2010PropOp50
 70
     1
102
RTVSPost2010Prop51ColorIndex
 90
      256
102
RTVSPost2010Prop51ColorRGB
 90
-16777216
102
RTVSPost2010PropOp51
 70
     0
102
RTVSPost2010Prop52
140
1.0
102
RTVSPost2010PropOp52
 70
     0
102
RTVSPost2010Prop53
 90
        2
102
RTVSPost2010PropOp53
 70
     1
102
RTVSPost2010Prop54
  1
strokes_ogs.tif
102
RTVSPost2010PropOp54
 70
     1
102
RTVSPost2010Prop55
280
     0
102
RTVSPost2010PropOp55
 70
     1
102
RTVSPost2010Prop56
140
1.0
102
RTVSPost2010PropOp56
 70
     1
102
RTVSPost2010Prop57
140
1.0
102
RTVSPost2010PropOp57
 70
     1
  0
XRECORD
  5
3128
102
{ACAD_REACTORS
330
3127
102
}
330
3127
100
AcDbXrecord
280
     1
102
RTVSPost2010Prop28
280
     0
102
RTVSPost2010PropOp28
 70
     1
102
RTVSPost2010Prop29
280
     1
102
RTVSPost2010PropOp29
 70
     1
102
RTVSPost2010Prop30
280
     1
102
RTVSPost2010PropOp30
 70
     1
102
RTVSPost2010Prop31
280
     0
102
RTVSPost2010PropOp31
 70
     1
102
RTVSPost2010Prop32
280
     0
102
RTVSPost2010PropOp32
 70
     1
102
RTVSPost2010Prop33
280
     0
102
RTVSPost2010PropOp33
 70
     1
102
RTVSPost2010Prop34
280
     0
102
RTVSPost2010PropOp34
 70
     1
102
RTVSPost2010Prop35
280
     0
102
RTVSPost2010PropOp35
 70
     1
102
RTVSPost2010Prop36
280
     0
102
RTVSPost2010PropOp36
 70
     1
102
RTVSPost2010Prop37
 90
       50
102
RTVSPost2010PropOp37
 70
     1
102
RTVSPost2010Prop38
140
0.0
102
RTVSPost2010PropOp38
 70
     1
102
RTVSPost2010Prop39
140
1.0
102
RTVSPost2010PropOp39
 70
     1
102
RTVSPost2010Prop40
 90
        0
102
RTVSPost2010PropOp40
 70
     1
102
RTVSPost2010Prop41ColorIndex
 90
       18
102
RTVSPost2010Prop41ColorRGB
 90
        0
102
RTVSPost2010PropOp41
 70
     1
102
RTVSPost2010Prop42
 90
       50
102
RTVSPost2010PropOp42
 70
     1
102
RTVSPost2010Prop43
 90
        3
102
RTVSPost2010PropOp43
 70
     1
102
RTVSPost2010Prop44ColorIndex
 90
        5
102
RTVSPost2010Prop44ColorRGB
 90
      255
102
RTVSPost2010PropOp44
 70
     1
102
RTVSPost2010Prop45
280
     0
102
RTVSPost2010PropOp45
 70
     1
102
RTVSPost2010Prop46
 90
       50
102
RTVSPost2010PropOp46
 70
     1
102
RTVSPost2010Prop47
 90
       50
102
RTVSPost2010PropOp47
 70
     1
102
RTVSPost2010Prop48
 90
       50
102
RTVSPost2010PropOp48
 70
     1
102
RTVSPost2010Prop49
280
     0
102
RTVSPost2010PropOp49
 70
     1
102
RTVSPost2010Prop50
 90
       50
102
RTVSPost2010PropOp50
 70
     1
102
RTVSPost2010Prop51ColorIndex
 90
      256
102
RTVSPost2010Prop51ColorRGB
 90
-16777216
102
RTVSPost2010PropOp51
 70
     0
102
RTVSPost2010Prop52
140
1.0
102
RTVSPost2010PropOp52
 70
     0
102
RTVSPost2010Prop53
 90
        2
102
RTVSPost2010PropOp53
 70
     1
102
RTVSPost2010Prop54
  1
strokes_ogs.tif
102
RTVSPost2010PropOp54
 70
     1
102
RTVSPost2010Prop55
280
     0
102
RTVSPost2010PropOp55
 70
     1
102
RTVSPost2010Prop56
140
1.0
102
RTVSPost2010PropOp56
 70
     1
102
RTVSPost2010Prop57
140
1.0
102
RTVSPost2010PropOp57
 70
     1
  0
XRECORD
  5
3126
102
{ACAD_REACTORS
330
3125
102
}
330
3125
100
AcDbXrecord
280
     1
102
RTVSPost2010Prop28
280
     0
102
RTVSPost2010PropOp28
 70
     1
102
RTVSPost2010Prop29
280
     1
102
RTVSPost2010PropOp29
 70
     1
102
RTVSPost2010Prop30
280
     1
102
RTVSPost2010PropOp30
 70
     1
102
RTVSPost2010Prop31
280
     0
102
RTVSPost2010PropOp31
 70
     1
102
RTVSPost2010Prop32
280
     0
102
RTVSPost2010PropOp32
 70
     1
102
RTVSPost2010Prop33
280
     0
102
RTVSPost2010PropOp33
 70
     1
102
RTVSPost2010Prop34
280
     0
102
RTVSPost2010PropOp34
 70
     1
102
RTVSPost2010Prop35
280
     0
102
RTVSPost2010PropOp35
 70
     1
102
RTVSPost2010Prop36
280
     0
102
RTVSPost2010PropOp36
 70
     1
102
RTVSPost2010Prop37
 90
       50
102
RTVSPost2010PropOp37
 70
     1
102
RTVSPost2010Prop38
140
0.0
102
RTVSPost2010PropOp38
 70
     1
102
RTVSPost2010Prop39
140
1.0
102
RTVSPost2010PropOp39
 70
     1
102
RTVSPost2010Prop40
 90
        0
102
RTVSPost2010PropOp40
 70
     1
102
RTVSPost2010Prop41ColorIndex
 90
       18
102
RTVSPost2010Prop41ColorRGB
 90
        0
102
RTVSPost2010PropOp41
 70
     1
102
RTVSPost2010Prop42
 90
       50
102
RTVSPost2010PropOp42
 70
     1
102
RTVSPost2010Prop43
 90
        3
102
RTVSPost2010PropOp43
 70
     1
102
RTVSPost2010Prop44ColorIndex
 90
        5
102
RTVSPost2010Prop44ColorRGB
 90
      255
102
RTVSPost2010PropOp44
 70
     1
102
RTVSPost2010Prop45
280
     0
102
RTVSPost2010PropOp45
 70
     1
102
RTVSPost2010Prop46
 90
       50
102
RTVSPost2010PropOp46
 70
     1
102
RTVSPost2010Prop47
 90
       50
102
RTVSPost2010PropOp47
 70
     1
102
RTVSPost2010Prop48
 90
       50
102
RTVSPost2010PropOp48
 70
     1
102
RTVSPost2010Prop49
280
     0
102
RTVSPost2010PropOp49
 70
     1
102
RTVSPost2010Prop50
 90
       50
102
RTVSPost2010PropOp50
 70
     1
102
RTVSPost2010Prop51ColorIndex
 90
      256
102
RTVSPost2010Prop51ColorRGB
 90
-16777216
102
RTVSPost2010PropOp51
 70
     0
102
RTVSPost2010Prop52
140
1.0
102
RTVSPost2010PropOp52
 70
     0
102
RTVSPost2010Prop53
 90
        2
102
RTVSPost2010PropOp53
 70
     1
102
RTVSPost2010Prop54
  1
strokes_ogs.tif
102
RTVSPost2010PropOp54
 70
     1
102
RTVSPost2010Prop55
280
     0
102
RTVSPost2010PropOp55
 70
     1
102
RTVSPost2010Prop56
140
1.0
102
RTVSPost2010PropOp56
 70
     1
102
RTVSPost2010Prop57
140
1.0
102
RTVSPost2010PropOp57
 70
     1
  0
XRECORD
  5
3120
102
{ACAD_REACTORS
330
311F
102
}
330
311F
100
AcDbXrecord
280
     1
102
RTVSPost2010Prop28
280
     0
102
RTVSPost2010PropOp28
 70
     1
102
RTVSPost2010Prop29
280
     1
102
RTVSPost2010PropOp29
 70
     1
102
RTVSPost2010Prop30
280
     1
102
RTVSPost2010PropOp30
 70
     1
102
RTVSPost2010Prop31
280
     0
102
RTVSPost2010PropOp31
 70
     1
102
RTVSPost2010Prop32
280
     0
102
RTVSPost2010PropOp32
 70
     1
102
RTVSPost2010Prop33
280
     0
102
RTVSPost2010PropOp33
 70
     1
102
RTVSPost2010Prop34
280
     0
102
RTVSPost2010PropOp34
 70
     1
102
RTVSPost2010Prop35
280
     0
102
RTVSPost2010PropOp35
 70
     1
102
RTVSPost2010Prop36
280
     0
102
RTVSPost2010PropOp36
 70
     1
102
RTVSPost2010Prop37
 90
       50
102
RTVSPost2010PropOp37
 70
     1
102
RTVSPost2010Prop38
140
0.0
102
RTVSPost2010PropOp38
 70
     1
102
RTVSPost2010Prop39
140
1.0
102
RTVSPost2010PropOp39
 70
     1
102
RTVSPost2010Prop40
 90
        0
102
RTVSPost2010PropOp40
 70
     1
102
RTVSPost2010Prop41ColorIndex
 90
       18
102
RTVSPost2010Prop41ColorRGB
 90
        0
102
RTVSPost2010PropOp41
 70
     1
102
RTVSPost2010Prop42
 90
       50
102
RTVSPost2010PropOp42
 70
     1
102
RTVSPost2010Prop43
 90
        3
102
RTVSPost2010PropOp43
 70
     1
102
RTVSPost2010Prop44ColorIndex
 90
        5
102
RTVSPost2010Prop44ColorRGB
 90
      255
102
RTVSPost2010PropOp44
 70
     1
102
RTVSPost2010Prop45
280
     0
102
RTVSPost2010PropOp45
 70
     1
102
RTVSPost2010Prop46
 90
       50
102
RTVSPost2010PropOp46
 70
     1
102
RTVSPost2010Prop47
 90
       50
102
RTVSPost2010PropOp47
 70
     1
102
RTVSPost2010Prop48
 90
       50
102
RTVSPost2010PropOp48
 70
     1
102
RTVSPost2010Prop49
280
     0
102
RTVSPost2010PropOp49
 70
     1
102
RTVSPost2010Prop50
 90
       50
102
RTVSPost2010PropOp50
 70
     1
102
RTVSPost2010Prop51ColorIndex
 90
      256
102
RTVSPost2010Prop51ColorRGB
 90
-16777216
102
RTVSPost2010PropOp51
 70
     0
102
RTVSPost2010Prop52
140
1.0
102
RTVSPost2010PropOp52
 70
     0
102
RTVSPost2010Prop53
 90
        2
102
RTVSPost2010PropOp53
 70
     1
102
RTVSPost2010Prop54
  1
strokes_ogs.tif
102
RTVSPost2010PropOp54
 70
     1
102
RTVSPost2010Prop55
280
     0
102
RTVSPost2010PropOp55
 70
     1
102
RTVSPost2010Prop56
140
1.0
102
RTVSPost2010PropOp56
 70
     1
102
RTVSPost2010Prop57
140
1.0
102
RTVSPost2010PropOp57
 70
     1
  0
XRECORD
  5
3122
102
{ACAD_REACTORS
330
3121
102
}
330
3121
100
AcDbXrecord
280
     1
102
RTVSPost2010Prop28
280
     0
102
RTVSPost2010PropOp28
 70
     1
102
RTVSPost2010Prop29
280
     1
102
RTVSPost2010PropOp29
 70
     1
102
RTVSPost2010Prop30
280
     1
102
RTVSPost2010PropOp30
 70
     1
102
RTVSPost2010Prop31
280
     0
102
RTVSPost2010PropOp31
 70
     1
102
RTVSPost2010Prop32
280
     0
102
RTVSPost2010PropOp32
 70
     1
102
RTVSPost2010Prop33
280
     0
102
RTVSPost2010PropOp33
 70
     1
102
RTVSPost2010Prop34
280
     0
102
RTVSPost2010PropOp34
 70
     1
102
RTVSPost2010Prop35
280
     0
102
RTVSPost2010PropOp35
 70
     1
102
RTVSPost2010Prop36
280
     0
102
RTVSPost2010PropOp36
 70
     1
102
RTVSPost2010Prop37
 90
       50
102
RTVSPost2010PropOp37
 70
     1
102
RTVSPost2010Prop38
140
0.0
102
RTVSPost2010PropOp38
 70
     1
102
RTVSPost2010Prop39
140
1.0
102
RTVSPost2010PropOp39
 70
     1
102
RTVSPost2010Prop40
 90
        0
102
RTVSPost2010PropOp40
 70
     1
102
RTVSPost2010Prop41ColorIndex
 90
       18
102
RTVSPost2010Prop41ColorRGB
 90
        0
102
RTVSPost2010PropOp41
 70
     1
102
RTVSPost2010Prop42
 90
       50
102
RTVSPost2010PropOp42
 70
     1
102
RTVSPost2010Prop43
 90
        3
102
RTVSPost2010PropOp43
 70
     1
102
RTVSPost2010Prop44ColorIndex
 90
        5
102
RTVSPost2010Prop44ColorRGB
 90
      255
102
RTVSPost2010PropOp44
 70
     1
102
RTVSPost2010Prop45
280
     0
102
RTVSPost2010PropOp45
 70
     1
102
RTVSPost2010Prop46
 90
       50
102
RTVSPost2010PropOp46
 70
     1
102
RTVSPost2010Prop47
 90
       50
102
RTVSPost2010PropOp47
 70
     1
102
RTVSPost2010Prop48
 90
       50
102
RTVSPost2010PropOp48
 70
     1
102
RTVSPost2010Prop49
280
     0
102
RTVSPost2010PropOp49
 70
     1
102
RTVSPost2010Prop50
 90
       50
102
RTVSPost2010PropOp50
 70
     1
102
RTVSPost2010Prop51ColorIndex
 90
      256
102
RTVSPost2010Prop51ColorRGB
 90
-16777216
102
RTVSPost2010PropOp51
 70
     0
102
RTVSPost2010Prop52
140
1.0
102
RTVSPost2010PropOp52
 70
     0
102
RTVSPost2010Prop53
 90
        2
102
RTVSPost2010PropOp53
 70
     1
102
RTVSPost2010Prop54
  1
strokes_ogs.tif
102
RTVSPost2010PropOp54
 70
     1
102
RTVSPost2010Prop55
280
     0
102
RTVSPost2010PropOp55
 70
     1
102
RTVSPost2010Prop56
140
1.0
102
RTVSPost2010PropOp56
 70
     1
102
RTVSPost2010Prop57
140
1.0
102
RTVSPost2010PropOp57
 70
     1
  0
XRECORD
  5
3118
102
{ACAD_REACTORS
330
3117
102
}
330
3117
100
AcDbXrecord
280
     1
102
RTVSPost2010Prop28
280
     0
102
RTVSPost2010PropOp28
 70
     1
102
RTVSPost2010Prop29
280
     1
102
RTVSPost2010PropOp29
 70
     1
102
RTVSPost2010Prop30
280
     1
102
RTVSPost2010PropOp30
 70
     1
102
RTVSPost2010Prop31
280
     0
102
RTVSPost2010PropOp31
 70
     1
102
RTVSPost2010Prop32
280
     0
102
RTVSPost2010PropOp32
 70
     1
102
RTVSPost2010Prop33
280
     0
102
RTVSPost2010PropOp33
 70
     1
102
RTVSPost2010Prop34
280
     0
102
RTVSPost2010PropOp34
 70
     1
102
RTVSPost2010Prop35
280
     0
102
RTVSPost2010PropOp35
 70
     1
102
RTVSPost2010Prop36
280
     0
102
RTVSPost2010PropOp36
 70
     1
102
RTVSPost2010Prop37
 90
       50
102
RTVSPost2010PropOp37
 70
     1
102
RTVSPost2010Prop38
140
0.0
102
RTVSPost2010PropOp38
 70
     1
102
RTVSPost2010Prop39
140
1.0
102
RTVSPost2010PropOp39
 70
     1
102
RTVSPost2010Prop40
 90
        0
102
RTVSPost2010PropOp40
 70
     1
102
RTVSPost2010Prop41ColorIndex
 90
       18
102
RTVSPost2010Prop41ColorRGB
 90
        0
102
RTVSPost2010PropOp41
 70
     1
102
RTVSPost2010Prop42
 90
       50
102
RTVSPost2010PropOp42
 70
     1
102
RTVSPost2010Prop43
 90
        3
102
RTVSPost2010PropOp43
 70
     1
102
RTVSPost2010Prop44ColorIndex
 90
        5
102
RTVSPost2010Prop44ColorRGB
 90
      255
102
RTVSPost2010PropOp44
 70
     1
102
RTVSPost2010Prop45
280
     0
102
RTVSPost2010PropOp45
 70
     1
102
RTVSPost2010Prop46
 90
       50
102
RTVSPost2010PropOp46
 70
     1
102
RTVSPost2010Prop47
 90
       50
102
RTVSPost2010PropOp47
 70
     1
102
RTVSPost2010Prop48
 90
       50
102
RTVSPost2010PropOp48
 70
     1
102
RTVSPost2010Prop49
280
     0
102
RTVSPost2010PropOp49
 70
     1
102
RTVSPost2010Prop50
 90
       50
102
RTVSPost2010PropOp50
 70
     1
102
RTVSPost2010Prop51ColorIndex
 90
      256
102
RTVSPost2010Prop51ColorRGB
 90
-16777216
102
RTVSPost2010PropOp51
 70
     0
102
RTVSPost2010Prop52
140
1.0
102
RTVSPost2010PropOp52
 70
     0
102
RTVSPost2010Prop53
 90
        2
102
RTVSPost2010PropOp53
 70
     1
102
RTVSPost2010Prop54
  1
strokes_ogs.tif
102
RTVSPost2010PropOp54
 70
     1
102
RTVSPost2010Prop55
280
     0
102
RTVSPost2010PropOp55
 70
     1
102
RTVSPost2010Prop56
140
1.0
102
RTVSPost2010PropOp56
 70
     1
102
RTVSPost2010Prop57
140
1.0
102
RTVSPost2010PropOp57
 70
     1
  0
XRECORD
  5
310C
102
{ACAD_REACTORS
330
310B
102
}
330
310B
100
AcDbXrecord
280
     1
102
RTVSPost2010Prop28
280
     0
102
RTVSPost2010PropOp28
 70
     1
102
RTVSPost2010Prop29
280
     1
102
RTVSPost2010PropOp29
 70
     1
102
RTVSPost2010Prop30
280
     1
102
RTVSPost2010PropOp30
 70
     1
102
RTVSPost2010Prop31
280
     0
102
RTVSPost2010PropOp31
 70
     1
102
RTVSPost2010Prop32
280
     0
102
RTVSPost2010PropOp32
 70
     1
102
RTVSPost2010Prop33
280
     0
102
RTVSPost2010PropOp33
 70
     1
102
RTVSPost2010Prop34
280
     0
102
RTVSPost2010PropOp34
 70
     1
102
RTVSPost2010Prop35
280
     0
102
RTVSPost2010PropOp35
 70
     1
102
RTVSPost2010Prop36
280
     0
102
RTVSPost2010PropOp36
 70
     1
102
RTVSPost2010Prop37
 90
       50
102
RTVSPost2010PropOp37
 70
     1
102
RTVSPost2010Prop38
140
0.0
102
RTVSPost2010PropOp38
 70
     1
102
RTVSPost2010Prop39
140
1.0
102
RTVSPost2010PropOp39
 70
     1
102
RTVSPost2010Prop40
 90
        0
102
RTVSPost2010PropOp40
 70
     1
102
RTVSPost2010Prop41ColorIndex
 90
       18
102
RTVSPost2010Prop41ColorRGB
 90
        0
102
RTVSPost2010PropOp41
 70
     1
102
RTVSPost2010Prop42
 90
       50
102
RTVSPost2010PropOp42
 70
     1
102
RTVSPost2010Prop43
 90
        3
102
RTVSPost2010PropOp43
 70
     1
102
RTVSPost2010Prop44ColorIndex
 90
        5
102
RTVSPost2010Prop44ColorRGB
 90
      255
102
RTVSPost2010PropOp44
 70
     1
102
RTVSPost2010Prop45
280
     0
102
RTVSPost2010PropOp45
 70
     1
102
RTVSPost2010Prop46
 90
       50
102
RTVSPost2010PropOp46
 70
     1
102
RTVSPost2010Prop47
 90
       50
102
RTVSPost2010PropOp47
 70
     1
102
RTVSPost2010Prop48
 90
       50
102
RTVSPost2010PropOp48
 70
     1
102
RTVSPost2010Prop49
280
     0
102
RTVSPost2010PropOp49
 70
     1
102
RTVSPost2010Prop50
 90
       50
102
RTVSPost2010PropOp50
 70
     1
102
RTVSPost2010Prop51ColorIndex
 90
      256
102
RTVSPost2010Prop51ColorRGB
 90
-16777216
102
RTVSPost2010PropOp51
 70
     0
102
RTVSPost2010Prop52
140
1.0
102
RTVSPost2010PropOp52
 70
     0
102
RTVSPost2010Prop53
 90
        2
102
RTVSPost2010PropOp53
 70
     1
102
RTVSPost2010Prop54
  1
strokes_ogs.tif
102
RTVSPost2010PropOp54
 70
     1
102
RTVSPost2010Prop55
280
     0
102
RTVSPost2010PropOp55
 70
     1
102
RTVSPost2010Prop56
140
1.0
102
RTVSPost2010PropOp56
 70
     1
102
RTVSPost2010Prop57
140
1.0
102
RTVSPost2010PropOp57
 70
     1
  0
XRECORD
  5
3124
102
{ACAD_REACTORS
330
3123
102
}
330
3123
100
AcDbXrecord
280
     1
102
RTVSPost2010Prop28
280
     0
102
RTVSPost2010PropOp28
 70
     1
102
RTVSPost2010Prop29
280
     1
102
RTVSPost2010PropOp29
 70
     1
102
RTVSPost2010Prop30
280
     1
102
RTVSPost2010PropOp30
 70
     1
102
RTVSPost2010Prop31
280
     0
102
RTVSPost2010PropOp31
 70
     1
102
RTVSPost2010Prop32
280
     0
102
RTVSPost2010PropOp32
 70
     1
102
RTVSPost2010Prop33
280
     0
102
RTVSPost2010PropOp33
 70
     1
102
RTVSPost2010Prop34
280
     0
102
RTVSPost2010PropOp34
 70
     1
102
RTVSPost2010Prop35
280
     0
102
RTVSPost2010PropOp35
 70
     1
102
RTVSPost2010Prop36
280
     0
102
RTVSPost2010PropOp36
 70
     1
102
RTVSPost2010Prop37
 90
       50
102
RTVSPost2010PropOp37
 70
     1
102
RTVSPost2010Prop38
140
0.0
102
RTVSPost2010PropOp38
 70
     1
102
RTVSPost2010Prop39
140
1.0
102
RTVSPost2010PropOp39
 70
     1
102
RTVSPost2010Prop40
 90
        0
102
RTVSPost2010PropOp40
 70
     1
102
RTVSPost2010Prop41ColorIndex
 90
       18
102
RTVSPost2010Prop41ColorRGB
 90
        0
102
RTVSPost2010PropOp41
 70
     1
102
RTVSPost2010Prop42
 90
       50
102
RTVSPost2010PropOp42
 70
     1
102
RTVSPost2010Prop43
 90
        3
102
RTVSPost2010PropOp43
 70
     1
102
RTVSPost2010Prop44ColorIndex
 90
        5
102
RTVSPost2010Prop44ColorRGB
 90
      255
102
RTVSPost2010PropOp44
 70
     1
102
RTVSPost2010Prop45
280
     0
102
RTVSPost2010PropOp45
 70
     1
102
RTVSPost2010Prop46
 90
       50
102
RTVSPost2010PropOp46
 70
     1
102
RTVSPost2010Prop47
 90
       50
102
RTVSPost2010PropOp47
 70
     1
102
RTVSPost2010Prop48
 90
       50
102
RTVSPost2010PropOp48
 70
     1
102
RTVSPost2010Prop49
280
     0
102
RTVSPost2010PropOp49
 70
     1
102
RTVSPost2010Prop50
 90
       50
102
RTVSPost2010PropOp50
 70
     1
102
RTVSPost2010Prop51ColorIndex
 90
      256
102
RTVSPost2010Prop51ColorRGB
 90
-16777216
102
RTVSPost2010PropOp51
 70
     0
102
RTVSPost2010Prop52
140
1.0
102
RTVSPost2010PropOp52
 70
     0
102
RTVSPost2010Prop53
 90
        2
102
RTVSPost2010PropOp53
 70
     1
102
RTVSPost2010Prop54
  1
strokes_ogs.tif
102
RTVSPost2010PropOp54
 70
     1
102
RTVSPost2010Prop55
280
     0
102
RTVSPost2010PropOp55
 70
     1
102
RTVSPost2010Prop56
140
1.0
102
RTVSPost2010PropOp56
 70
     1
102
RTVSPost2010Prop57
140
1.0
102
RTVSPost2010PropOp57
 70
     1
  0
ENDSEC
  0
EOF
