  0
SECTION
  2
HEADER
  9
$ACADVER
  1
AC1024
  9
$ACADMAINTVER
 70
   226
  9
$DWGCODEPAGE
  3
ANSI_932
  9
$LASTSAVEDBY
  1
y-sakai
  9
$INSBASE
 10
0.0
 20
0.0
 30
0.0
  9
$EXTMIN
 10
224.1757237878342
 20
281.5743220398649
 30
-0.0015258207003583
  9
$EXTMAX
 10
1157.300646924181
 20
1083.969329866668
 30
0.0000000349246037
  9
$LIMMIN
 10
0.0
 20
0.0
  9
$LIMMAX
 10
1422.5
 20
925.0
  9
$ORTHOMODE
 70
     0
  9
$REGENMODE
 70
     1
  9
$FILLMODE
 70
     1
  9
$QTEXTMODE
 70
     0
  9
$MIRRTEXT
 70
     1
  9
$LTSCALE
 40
5.0
  9
$ATTMODE
 70
     1
  9
$TEXTSIZE
 40
2.5
  9
$TRACEWID
 40
1.0
  9
$TEXTSTYLE
  7
STANDARD
  9
$CLAYER
  8
AM_0
  9
$CELTYPE
  6
ByLayer
  9
$CECOLOR
 62
   256
  9
$CELTSCALE
 40
1.0
  9
$DISPSILH
 70
     0
  9
$DIMSCALE
 40
1.0
  9
$DIMASZ
 40
2.5
  9
$DIMEXO
 40
1.0
  9
$DIMDLI
 40
8.0
  9
$DIMRND
 40
0.0
  9
$DIMDLE
 40
0.0
  9
$DIMEXE
 40
0.6
  9
$DIMTP
 40
0.1
  9
$DIMTM
 40
0.1
  9
$DIMTXT
 40
2.5
  9
$DIMCEN
 40
0.0
  9
$DIMTSZ
 40
0.0
  9
$DIMTOL
 70
     0
  9
$DIMLIM
 70
     0
  9
$DIMTIH
 70
     0
  9
$DIMTOH
 70
     0
  9
$DIMSE1
 70
     0
  9
$DIMSE2
 70
     0
  9
$DIMTAD
 70
     1
  9
$DIMZIN
 70
     8
  9
$DIMBLK
  1

  9
$DIMASO
 70
     1
  9
$DIMSHO
 70
     1
  9
$DIMPOST
  1

  9
$DIMAPOST
  1
"
  9
$DIMALT
 70
     0
  9
$DIMALTD
 70
     2
  9
$DIMALTF
 40
0.0393701
  9
$DIMLFAC
 40
1.0
  9
$DIMTOFL
 70
     1
  9
$DIMTVP
 40
0.0
  9
$DIMTIX
 70
     0
  9
$DIMSOXD
 70
     0
  9
$DIMSAH
 70
     0
  9
$DIMBLK1
  1

  9
$DIMBLK2
  1

  9
$DIMSTYLE
  2
AM_ISO
  9
$DIMCLRD
 70
   256
  9
$DIMCLRE
 70
   256
  9
$DIMCLRT
 70
     4
  9
$DIMTFAC
 40
0.71
  9
$DIMGAP
 40
0.8
  9
$DIMJUST
 70
     0
  9
$DIMSD1
 70
     0
  9
$DIMSD2
 70
     0
  9
$DIMTOLJ
 70
     1
  9
$DIMTZIN
 70
     0
  9
$DIMALTZ
 70
     0
  9
$DIMALTTZ
 70
     0
  9
$DIMUPT
 70
     0
  9
$DIMDEC
 70
     4
  9
$DIMTDEC
 70
     4
  9
$DIMALTU
 70
     2
  9
$DIMALTTD
 70
     2
  9
$DIMTXSTY
  7
STANDARD
  9
$DIMAUNIT
 70
     0
  9
$DIMADEC
 70
     0
  9
$DIMALTRND
 40
0.0
  9
$DIMAZIN
 70
     0
  9
$DIMDSEP
 70
    46
  9
$DIMATFIT
 70
     3
  9
$DIMFRAC
 70
     0
  9
$DIMLDRBLK
  1

  9
$DIMLUNIT
 70
     2
  9
$DIMLWD
 70
    -2
  9
$DIMLWE
 70
    -2
  9
$DIMTMOVE
 70
     0
  9
$DIMFXL
 40
1.0
  9
$DIMFXLON
 70
     0
  9
$DIMJOGANG
 40
0.7853981633974483
  9
$DIMTFILL
 70
     0
  9
$DIMTFILLCLR
 70
     0
  9
$DIMARCSYM
 70
     0
  9
$DIMLTYPE
  6

  9
$DIMLTEX1
  6

  9
$DIMLTEX2
  6

  9
$DIMTXTDIRECTION
 70
     0
  9
$LUNITS
 70
     2
  9
$LUPREC
 70
     2
  9
$SKETCHINC
 40
1.0
  9
$FILLETRAD
 40
25.0
  9
$AUNITS
 70
     0
  9
$AUPREC
 70
     0
  9
$MENU
  1
.
  9
$ELEVATION
 40
0.0
  9
$PELEVATION
 40
0.0
  9
$THICKNESS
 40
0.0
  9
$LIMCHECK
 70
     0
  9
$CHAMFERA
 40
10.0
  9
$CHAMFERB
 40
5.0
  9
$CHAMFERC
 40
0.0
  9
$CHAMFERD
 40
0.0
  9
$SKPOLY
 70
     0
  9
$TDCREATE
 40
2452066.585486111
  9
$TDUCREATE
 40
2452066.210486111
  9
$TDUPDATE
 40
2460362.585300926
  9
$TDUUPDATE
 40
2460362.210300926
  9
$TDINDWG
 40
0.1230203009
  9
$TDUSRTIMER
 40
0.1230201157
  9
$USRTIMER
 70
     1
  9
$ANGBASE
 50
0.0
  9
$ANGDIR
 70
     0
  9
$PDMODE
 70
     0
  9
$PDSIZE
 40
0.0
  9
$PLINEWID
 40
0.0
  9
$SPLFRAME
 70
     0
  9
$SPLINETYPE
 70
     6
  9
$SPLINESEGS
 70
     8
  9
$HANDSEED
  5
2FAA
  9
$SURFTAB1
 70
     6
  9
$SURFTAB2
 70
     6
  9
$SURFTYPE
 70
     6
  9
$SURFU
 70
     6
  9
$SURFV
 70
     6
  9
$UCSBASE
  2

  9
$UCSNAME
  2

  9
$UCSORG
 10
0.0
 20
0.0
 30
0.0
  9
$UCSXDIR
 10
1.0
 20
0.0
 30
0.0
  9
$UCSYDIR
 10
0.0
 20
1.0
 30
0.0
  9
$UCSORTHOREF
  2

  9
$UCSORTHOVIEW
 70
     0
  9
$UCSORGTOP
 10
0.0
 20
0.0
 30
0.0
  9
$UCSORGBOTTOM
 10
0.0
 20
0.0
 30
0.0
  9
$UCSORGLEFT
 10
0.0
 20
0.0
 30
0.0
  9
$UCSORGRIGHT
 10
0.0
 20
0.0
 30
0.0
  9
$UCSORGFRONT
 10
0.0
 20
0.0
 30
0.0
  9
$UCSORGBACK
 10
0.0
 20
0.0
 30
0.0
  9
$PUCSBASE
  2

  9
$PUCSNAME
  2

  9
$PUCSORG
 10
0.0
 20
0.0
 30
0.0
  9
$PUCSXDIR
 10
1.0
 20
0.0
 30
0.0
  9
$PUCSYDIR
 10
0.0
 20
1.0
 30
0.0
  9
$PUCSORTHOREF
  2

  9
$PUCSORTHOVIEW
 70
     0
  9
$PUCSORGTOP
 10
0.0
 20
0.0
 30
0.0
  9
$PUCSORGBOTTOM
 10
0.0
 20
0.0
 30
0.0
  9
$PUCSORGLEFT
 10
0.0
 20
0.0
 30
0.0
  9
$PUCSORGRIGHT
 10
0.0
 20
0.0
 30
0.0
  9
$PUCSORGFRONT
 10
0.0
 20
0.0
 30
0.0
  9
$PUCSORGBACK
 10
0.0
 20
0.0
 30
0.0
  9
$USERI1
 70
     0
  9
$USERI2
 70
     0
  9
$USERI3
 70
     0
  9
$USERI4
 70
     0
  9
$USERI5
 70
     0
  9
$USERR1
 40
0.0
  9
$USERR2
 40
0.0
  9
$USERR3
 40
0.0
  9
$USERR4
 40
0.0
  9
$USERR5
 40
0.0
  9
$WORLDVIEW
 70
     1
  9
$SHADEDGE
 70
     3
  9
$SHADEDIF
 70
    70
  9
$TILEMODE
 70
     1
  9
$MAXACTVP
 70
    64
  9
$PINSBASE
 10
0.0
 20
0.0
 30
0.0
  9
$PLIMCHECK
 70
     0
  9
$PEXTMIN
 10
1.000000000000000E+20
 20
1.000000000000000E+20
 30
1.000000000000000E+20
  9
$PEXTMAX
 10
-1.000000000000000E+20
 20
-1.000000000000000E+20
 30
-1.000000000000000E+20
  9
$PLIMMIN
 10
0.0
 20
0.0
  9
$PLIMMAX
 10
420.0
 20
297.0
  9
$UNITMODE
 70
     0
  9
$VISRETAIN
 70
     1
  9
$PLINEGEN
 70
     0
  9
$PSLTSCALE
 70
     1
  9
$TREEDEPTH
 70
  3020
  9
$CMLSTYLE
  2
Standard
  9
$CMLJUST
 70
     0
  9
$CMLSCALE
 40
1.0
  9
$PROXYGRAPHICS
 70
     1
  9
$MEASUREMENT
 70
     0
  9
$CELWEIGHT
370
    -1
  9
$ENDCAPS
280
     0
  9
$JOINSTYLE
280
     0
  9
$LWDISPLAY
290
     0
  9
$INSUNITS
 70
     0
  9
$HYPERLINKBASE
  1

  9
$STYLESHEET
  1

  9
$XEDIT
290
     1
  9
$CEPSNTYPE
380
     0
  9
$PSTYLEMODE
290
     1
  9
$FINGERPRINTGUID
  2
{1B4FF2B9-1257-BF46-BB37-04F93011153F}
  9
$VERSIONGUID
  2
{1456E80D-9CEC-1540-BCF3-D10CF3D6AD1D}
  9
$EXTNAMES
290
     1
  9
$PSVPSCALE
 40
0.0
  9
$OLESTARTUP
290
     0
  9
$SORTENTS
280
   127
  9
$INDEXCTL
280
     0
  9
$HIDETEXT
280
     0
  9
$XCLIPFRAME
280
     2
  9
$HALOGAP
280
     0
  9
$OBSCOLOR
 70
   257
  9
$OBSLTYPE
280
     0
  9
$INTERSECTIONDISPLAY
280
     0
  9
$INTERSECTIONCOLOR
 70
   257
  9
$DIMASSOC
280
     1
  9
$PROJECTNAME
  1

  9
$CAMERADISPLAY
290
     0
  9
$LENSLENGTH
 40
50.0
  9
$CAMERAHEIGHT
 40
0.0
  9
$STEPSPERSEC
 40
2.0
  9
$STEPSIZE
 40
6.0
  9
$3DDWFPREC
 40
2.0
  9
$PSOLWIDTH
 40
0.25
  9
$PSOLHEIGHT
 40
4.0
  9
$LOFTANG1
 40
1.570796326794896
  9
$LOFTANG2
 40
1.570796326794896
  9
$LOFTMAG1
 40
0.0
  9
$LOFTMAG2
 40
0.0
  9
$LOFTPARAM
 70
     7
  9
$LOFTNORMALS
280
     1
  9
$LATITUDE
 40
37.795
  9
$LONGITUDE
 40
-122.394
  9
$NORTHDIRECTION
 40
0.0
  9
$TIMEZONE
 70
 -8000
  9
$LIGHTGLYPHDISPLAY
280
     1
  9
$TILEMODELIGHTSYNCH
280
     1
  9
$CMATERIAL
347
2C3F
  9
$SOLIDHIST
280
     0
  9
$SHOWHIST
280
     1
  9
$DWFFRAME
280
     2
  9
$DGNFRAME
280
     0
  9
$REALWORLDSCALE
290
     1
  9
$INTERFERECOLOR
 62
     1
  9
$INTERFEREOBJVS
345
2C61
  9
$INTERFEREVPVS
346
2C5E
  9
$CSHADOW
280
     0
  9
$SHADOWPLANELOCATION
 40
0.0
  0
ENDSEC
  0
SECTION
  2
CLASSES
  0
CLASS
  1
ACDBDICTIONARYWDFLT
  2
AcDbDictionaryWithDefault
  3
ObjectDBX Classes
 90
        0
 91
        1
280
     0
281
     0
  0
CLASS
  1
MATERIAL
  2
AcDbMaterial
  3
ObjectDBX Classes
 90
     1153
 91
        3
280
     0
281
     0
  0
CLASS
  1
VISUALSTYLE
  2
AcDbVisualStyle
  3
ObjectDBX Classes
 90
     4095
 91
       24
280
     0
281
     0
  0
CLASS
  1
SCALE
  2
AcDbScale
  3
ObjectDBX Classes
 90
     1153
 91
       17
280
     0
281
     0
  0
CLASS
  1
TABLESTYLE
  2
AcDbTableStyle
  3
ObjectDBX Classes
 90
     4095
 91
        1
280
     0
281
     0
  0
CLASS
  1
MLEADERSTYLE
  2
AcDbMLeaderStyle
  3
ACDB_MLEADERSTYLE_CLASS
 90
     4095
 91
        1
280
     0
281
     0
  0
CLASS
  1
ACDBSECTIONVIEWSTYLE
  2
AcDbSectionViewStyle
  3
ObjectDBX Classes
 90
     1025
 91
        2
280
     0
281
     0
  0
CLASS
  1
ACDBDETAILVIEWSTYLE
  2
AcDbDetailViewStyle
  3
ObjectDBX Classes
 90
     1025
 91
        2
280
     0
281
     0
  0
CLASS
  1
AMGSETTINGSOBJ
  2
AmgSettingsObj
  3
"AcadM|Product Description: AutoCAD Mechanical|Company: Autodesk, Inc."
 90
     1024
 91
        2
280
     0
281
     0
  0
CLASS
  1
ACME_DOCUMENT
  2
AcMeDbDoc
  3
AcMeServices
 90
     1024
 91
        1
280
     0
281
     0
  0
CLASS
  1
ACMESCOPE
  2
AcMeScope
  3
AcMeServices
 90
     1024
 91
        1
280
     0
281
     0
  0
CLASS
  1
ACMECOMMANDHISTORY
  2
AcMeCommandHistory
  3
AcMeServices
 90
     1024
 91
        1
280
     0
281
     0
  0
CLASS
  1
ACIMSYSVARMAN
  2
AcImSysVarManager
  3
AcMeServices
 90
     1024
 91
        3
280
     0
281
     0
  0
CLASS
  1
ACIMINTSYSVAR
  2
AcImIntSysVar
  3
AcMeServices
 90
     1024
 91
        3
280
     0
281
     0
  0
CLASS
  1
ACMESTATEMGR
  2
AcMeStateMgr
  3
AcMeServices
 90
     1024
 91
        1
280
     0
281
     0
  0
CLASS
  1
ACDBENTITYCACHE
  2
AcMeEntityCache
  3
AcMeServices
 90
     1024
 91
        1
280
     0
281
     0
  0
CLASS
  1
ACGREFMASTER
  2
AcGrefMaster
  3
AcAttribServices
 90
     1024
 91
        1
280
     0
281
     0
  0
CLASS
  1
ACME_DATABASE
  2
AcMeDbDatabase
  3
AcMeServices
 90
     1024
 91
        1
280
     0
281
     0
  0
CLASS
  1
ACRFINSADJUSTERMGR
  2
AcRfInsAdjusterMgr
  3
AcMeServices
 90
     1024
 91
        1
280
     0
281
     0
  0
CLASS
  1
ACGREFACADMASTER
  2
AcGrefacadMaster
  3
AcGrefServices
 90
     1024
 91
        1
280
     0
281
     0
  0
CLASS
  1
AMIMASTER
  2
AmiMaster
  3
AmiServices
 90
     1024
 91
        1
280
     0
281
     0
  0
CLASS
  1
AMDTMENUSTATEMGR
  2
AmdtMenuStateMgr
  3
McadcomServices
 90
     1024
 91
        1
280
     0
281
     0
  0
CLASS
  1
AMDTMCOMMENUSTATE
  2
AmdtMcomMenuState
  3
McadcomServices
 90
     1024
 91
        1
280
     0
281
     0
  0
CLASS
  1
MAPIAMMOUDLE
  2
MApiAmModule
  3
MApiAmServices
 90
     1024
 91
        1
280
     0
281
     0
  0
CLASS
  1
ACIMSTRSYSVAR
  2
AcImStrSysVar
  3
AcMeServices
 90
     1024
 91
        5
280
     0
281
     0
  0
CLASS
  1
AMDTAMMENUSTATE
  2
AmdtAmMenuState
  3
DesignerAssemblies_arx
 90
     1024
 91
        1
280
     0
281
     0
  0
CLASS
  1
ACAMPROJECT
  2
AcAmProject
  3
DesignerAssemblies
 90
     1024
 91
        1
280
     0
281
     0
  0
CLASS
  1
ACAMGRCOMPDEF
  2
AcAmGrCompDef
  3
DesignerAssemblies
 90
     1024
 91
        1
280
     0
281
     0
  0
CLASS
  1
ACAMCOMPDEF
  2
AcAmCompDef
  3
DesignerAssemblies
 90
     1024
 91
        1
280
     0
281
     0
  0
CLASS
  1
ACAMCOMPDEFMGR
  2
AcAmCompDefMgr
  3
DesignerAssemblies
 90
     1024
 91
        1
280
     0
281
     0
  0
CLASS
  1
AMCONTEXTMGR
  2
AcAmContextMgr
  3
DesignerAssemblies
 90
     1024
 91
        1
280
     0
281
     0
  0
CLASS
  1
ACAMCONTEXTMODELER
  2
AcAmContextModeler
  3
DesignerAssemblies
 90
     1024
 91
        1
280
     0
281
     0
  0
CLASS
  1
ACMDATADICTIONARY
  2
AcmDataDictionary
  3
"AcmSymBB|Product Description: AutoCAD Mechanical|Company: Autodesk, Inc."
 90
     1024
 91
        1
280
     0
281
     0
  0
CLASS
  1
ACAMGRCOMPDEFSET
  2
AcAmGrCompDefSet
  3
DesignerAssemblies
 90
     1024
 91
        1
280
     0
281
     0
  0
CLASS
  1
AMDTBROWSERDBTAB
  2
AmdtBrowserDbTab
  3
McadcomServices
 90
     1024
 91
        1
280
     0
281
     0
  0
CLASS
  1
CBROWSERAPPOBJECT
  2
CBrowserAppObject
  3
McadcomServices
 90
     1024
 91
        2
280
     0
281
     0
  0
CLASS
  1
DM_PLACEHOLDER
  2
AcDmSelsetPlaceholder
  3
McadcomServices
 90
     1024
 91
        1
280
     0
281
     0
  0
CLASS
  1
EXACXREFPANELOBJECT
  2
ExAcXREFPanelObject
  3
EXAC_ESW
 90
     1025
 91
        1
280
     0
281
     0
  0
CLASS
  1
NPOCOLLECTION
  2
AcDbImpNonPersistentObjectsCollection
  3
ObjectDBX Classes
 90
     1153
 91
        1
280
     0
281
     0
  0
CLASS
  1
ACMSTANDARDANSI
  2
AcmStandardANSI
  3
"Amdt_StdImp|Product Description: AutoCAD Mechanical|Company: Autodesk, Inc."
 90
     1024
 91
        1
280
     0
281
     0
  0
CLASS
  1
ACMSURFSTANDARDANSI
  2
AcmSurfTextStdANSI
  3
"Amdt_StdImp|Product Description: AutoCAD Mechanical|Company: Autodesk, Inc."
 90
     1024
 91
        1
280
     0
281
     0
  0
CLASS
  1
ACMFCFSTANDARDANSI
  2
AcmFCFStdANSI
  3
"Amdt_StdImp|Product Description: AutoCAD Mechanical|Company: Autodesk, Inc."
 90
     1024
 91
        1
280
     0
281
     0
  0
CLASS
  1
ACMWELDSTANDARDANSI
  2
AcmWeldingStdANSI
  3
"Amdt_StdImp|Product Description: AutoCAD Mechanical|Company: Autodesk, Inc."
 90
     1024
 91
        1
280
     0
281
     0
  0
CLASS
  1
ACMIDSTANDARDANSI
  2
AcmIdStdANSI
  3
"Amdt_StdImp|Product Description: AutoCAD Mechanical|Company: Autodesk, Inc."
 90
     1024
 91
        1
280
     0
281
     0
  0
CLASS
  1
ACMDATUMSTANDARDANSI
  2
AcmDatumStdANSI
  3
"Amdt_StdImp|Product Description: AutoCAD Mechanical|Company: Autodesk, Inc."
 90
     1024
 91
        1
280
     0
281
     0
  0
CLASS
  1
ACMBOMSTANDARDANSI
  2
AcmBOMStdANSI
  3
"Amdt_StdImp|Product Description: AutoCAD Mechanical|Company: Autodesk, Inc."
 90
     1024
 91
        1
280
     0
281
     0
  0
CLASS
  1
ACMDETAILSTANDARDANSI
  2
AmdtDetailSymStdANSI
  3
"Amdt_StdImp|Product Description: AutoCAD Mechanical|Company: Autodesk, Inc."
 90
     1024
 91
        1
280
     0
281
     0
  0
CLASS
  1
ACMSECTIONSTANDARDANSI
  2
AmdtSectionSymStdANSI
  3
"Amdt_StdImp|Product Description: AutoCAD Mechanical|Company: Autodesk, Inc."
 90
     1024
 91
        1
280
     0
281
     0
  0
CLASS
  1
ACMCENTERLINESTANDARDANSI
  2
AmdtCenterLineStdANSI
  3
"Amdt_StdImp|Product Description: AutoCAD Mechanical|Company: Autodesk, Inc."
 90
     1024
 91
        1
280
     0
281
     0
  0
CLASS
  1
ACMTHREADLINESTANDARDANSI
  2
AmdtThreadLineStdANSI
  3
"Amdt_StdImp|Product Description: AutoCAD Mechanical|Company: Autodesk, Inc."
 90
     1024
 91
        1
280
     0
281
     0
  0
CLASS
  1
ACMNOTESTANDARDANSI
  2
AmdtNoteStdANSI
  3
"Amdt_StdImp|Product Description: AutoCAD Mechanical|Company: Autodesk, Inc."
 90
     1024
 91
        1
280
     0
281
     0
  0
CLASS
  1
ACMTAPERSTANDARDANSI
  2
AcmTaperStdANSI
  3
"Amdt_StdImp|Product Description: AutoCAD Mechanical|Company: Autodesk, Inc."
 90
     1024
 91
        1
280
     0
281
     0
  0
CLASS
  1
ACMANOOTATIONVIEWSTANDARDANSI
  2
AmdtAnViewStdANSI
  3
"Amdt_StdImp|Product Description: AutoCAD Mechanical|Company: Autodesk, Inc."
 90
     1024
 91
        1
280
     0
281
     0
  0
CLASS
  1
ACAMGLAYSTD
  2
AcAmgLayStd
  3
"AmgLay|Product Description: AutoCAD Mechanical|Company: Autodesk, Inc."
 90
     1024
 91
        1
280
     0
281
     0
  0
CLASS
  1
ACAMGDIMSTD
  2
AcAmgDimStd
  3
"AmgDim|Product Description: AutoCAD Mechanical|Company: Autodesk, Inc."
 90
     1024
 91
        1
280
     0
281
     0
  0
CLASS
  1
ACAMGHOLECHARTSTDANSI
  2
AcAmgHoleChartStdANSI
  3
"AmgDim" "Product Description: AutoCAD Mechanical|Company: Autodesk, Inc."
 90
     1024
 91
        1
280
     0
281
     0
  0
CLASS
  1
AMGOBJPROPCFG
  2
AmgObjPropCfg
  3
"AmgLay|Product Description: AutoCAD Mechanical|Company: Autodesk, Inc."
 90
     1024
 91
        1
280
     0
281
     0
  0
CLASS
  1
ACAMGTITLESTD
  2
AcAmgTitleStd
  3
"AmgTitle|Product Description: AutoCAD Mechanical|Company: Autodesk, Inc."
 90
     1024
 91
        1
280
     0
281
     0
  0
CLASS
  1
ACMSECTIONSTANDARDCUSTOM
  2
AmdtSectionSymStdCustom
  3
"Amdt_StdImp|Product Description: AutoCAD Mechanical|Company: Autodesk, Inc."
 90
     1024
 91
        1
280
     0
281
     0
  0
CLASS
  1
ACMDETAILTANDARDCUSTOM
  2
AmdtDetailSymStdCustom
  3
"Amdt_StdImp|Product Description: AutoCAD Mechanical|Company: Autodesk, Inc."
 90
     1024
 91
        1
280
     0
281
     0
  0
CLASS
  1
FIELD
  2
AcDbField
  3
ObjectDBX Classes
 90
     1152
 91
        8
280
     0
281
     0
  0
CLASS
  1
FIELDLIST
  2
AcDbFieldList
  3
ObjectDBX Classes
 90
     1152
 91
        1
280
     0
281
     0
  0
CLASS
  1
AMDTNOTETEMPLATEDB
  2
AmdtNoteTemplateDB
  3
"AcmSymBB" "Product Description: AutoCAD Mechanical|Company: Autodesk, Inc."
 90
     1024
 91
        7
280
     0
281
     0
  0
CLASS
  1
SORTENTSTABLE
  2
AcDbSortentsTable
  3
ObjectDBX Classes
 90
        0
 91
        0
280
     0
281
     0
  0
CLASS
  1
ACAMGFILTERDAT
  2
AcAmgFilterDat
  3
"AcadM|Product Description: AutoCAD Mechanical|Company: Autodesk, Inc."
 90
     1024
 91
        0
280
     0
281
     0
  0
CLASS
  1
DICTIONARYVAR
  2
AcDbDictionaryVar
  3
ObjectDBX Classes
 90
        0
 91
        9
280
     0
281
     0
  0
CLASS
  1
CELLSTYLEMAP
  2
AcDbCellStyleMap
  3
ObjectDBX Classes
 90
     1152
 91
        3
280
     0
281
     0
  0
ENDSEC
  0
SECTION
  2
TABLES
  0
TABLE
  2
VPORT
  5
2C36
330
0
100
AcDbSymbolTable
 70
     1
  0
VPORT
  5
2CA2
330
2C36
100
AcDbSymbolTableRecord
100
AcDbViewportTableRecord
  2
*ACTIVE
 70
     0
 10
0.0
 20
0.0
 11
1.0
 21
1.0
 12
690.7381853560077
 22
682.7718259532664
 13
0.0
 23
0.0
 14
12.5
 24
12.5
 15
50.0
 25
50.0
 16
0.0
 26
0.0
 36
1.0
 17
0.0
 27
0.0
 37
0.0
 40
809.0816328920263
 41
2.197496522948539
 42
50.0
 43
0.0
 44
0.0
 50
0.0
 51
0.0
 71
     0
 72
   100
 73
     1
 74
     3
 75
     0
 76
     0
 77
     0
 78
     0
281
     0
 65
     0
110
0.0
120
0.0
130
0.0
111
1.0
121
0.0
131
0.0
112
0.0
122
1.0
132
0.0
 79
     0
146
0.0
348
2C5D
 60
     3
 61
     5
292
     1
282
     0
141
0.0
142
0.0
 63
   250
421
  3355443
1001
ACAD_NAV_VCDISPLAY
1070
     3
  0
ENDTAB
  0
TABLE
  2
LTYPE
  5
2C33
330
0
100
AcDbSymbolTable
 70
    19
  0
LTYPE
  5
2C88
330
2C33
100
AcDbSymbolTableRecord
100
AcDbLinetypeTableRecord
  2
ByBlock
 70
     0
  3

 72
    65
 73
     0
 40
0.0
  0
LTYPE
  5
2C89
330
2C33
100
AcDbSymbolTableRecord
100
AcDbLinetypeTableRecord
  2
ByLayer
 70
     0
  3

 72
    65
 73
     0
 40
0.0
  0
LTYPE
  5
2C8A
330
2C33
100
AcDbSymbolTableRecord
100
AcDbLinetypeTableRecord
  2
CONTINUOUS
 70
     0
  3
Solid line
 72
    65
 73
     0
 40
0.0
  0
LTYPE
  5
2CA6
330
2C33
100
AcDbSymbolTableRecord
100
AcDbLinetypeTableRecord
  2
AMCONSTR
 70
     0
  3
_______________________
 72
    65
 73
     2
 40
9999.0
 49
9999.0
 74
     0
 49
0.0
 74
     0
  0
LTYPE
  5
2CAE
330
2C33
100
AcDbSymbolTableRecord
100
AcDbLinetypeTableRecord
  2
PHANTOM2
 70
     0
  3
Phantom (.5x) ___ _ _ ___ _ _ ___ _ _ ___ _ _
 72
    65
 73
     6
 40
31.75
 49
15.875
 74
     0
 49
-3.174999999999998
 74
     0
 49
3.174999999999998
 74
     0
 49
-3.174999999999998
 74
     0
 49
3.174999999999998
 74
     0
 49
-3.174999999999998
 74
     0
  0
LTYPE
  5
2CB1
330
2C33
100
AcDbSymbolTableRecord
100
AcDbLinetypeTableRecord
  2
GEN7
 70
     0
  3
____ . ____ . ____ . ____ . ____ . ____ . ____
 72
    65
 73
     4
 40
14.25
 49
9.75
 74
     0
 49
-1.5
 74
     0
 49
1.5
 74
     0
 49
-1.5
 74
     0
  0
LTYPE
  5
2CB2
330
2C33
100
AcDbSymbolTableRecord
100
AcDbLinetypeTableRecord
  2
GEN3B
 70
     0
  3
 - - - - -
 72
    65
 73
     2
 40
1.0
 49
0.5
 74
     0
 49
-0.5
 74
     0
  0
LTYPE
  5
2CB3
330
2C33
100
AcDbSymbolTableRecord
100
AcDbLinetypeTableRecord
  2
GEN7A
 70
     0
  3
__ . __ . __
 72
    65
 73
     4
 40
7.375
 49
4.75
 74
     0
 49
-0.875
 74
     0
 49
0.875
 74
     0
 49
-0.875
 74
     0
  0
LTYPE
  5
2CBA
330
2C33
100
AcDbSymbolTableRecord
100
AcDbLinetypeTableRecord
  2
ACANSTGB
 70
     0
  3
__ . . __ . .
 72
    65
 73
     6
 40
0.35433070866
 49
0.15748031496
 74
     0
 49
-0.03937007874
 74
     0
 49
0.03937007874
 74
     0
 49
-0.03937007874
 74
     0
 49
0.03937007874
 74
     0
 49
-0.03937007874
 74
     0
  0
LTYPE
  5
2CBB
330
2C33
100
AcDbSymbolTableRecord
100
AcDbLinetypeTableRecord
  2
ACANSTGL
 70
     0
  3
_ _ _ _ _
 72
    65
 73
     2
 40
0.11811023622
 49
0.07874015748
 74
     0
 49
-0.03937007874
 74
     0
  0
LTYPE
  5
2EAC
330
2C33
100
AcDbSymbolTableRecord
100
AcDbLinetypeTableRecord
  2
HIDDEN
 70
     0
  3
Hidden __ __ __ __ __ __ __ __ __ __ __ __ __ _
 72
    65
 73
     2
 40
0.375
 49
0.25
 74
     0
 49
-0.125
 74
     0
  0
LTYPE
  5
2EAD
330
2C33
100
AcDbSymbolTableRecord
100
AcDbLinetypeTableRecord
  2
CENTER
 70
     0
  3
Center ____ _ ____ _ ____ _ ____ _ ____ _ ____
 72
    65
 73
     4
 40
2.0
 49
1.25
 74
     0
 49
-0.25
 74
     0
 49
0.25
 74
     0
 49
-0.25
 74
     0
  0
LTYPE
  5
2EE3
330
2C33
100
AcDbSymbolTableRecord
100
AcDbLinetypeTableRecord
  2
CENTER2
 70
     0
  3
Center (.5x) ___ _ ___ _ ___ _ ___ _ ___ _ ___
 72
    65
 73
     4
 40
1.125
 49
0.75
 74
     0
 49
-0.125
 74
     0
 49
0.125
 74
     0
 49
-0.125
 74
     0
  0
LTYPE
  5
2EE4
330
2C33
100
AcDbSymbolTableRecord
100
AcDbLinetypeTableRecord
  2
HIDDEN2
 70
     0
  3
Hidden (.5x) _ _ _ _ _ _ _ _ _ _ _ _ _ _ _ _ _
 72
    65
 73
     2
 40
0.1875
 49
0.125
 74
     0
 49
-0.0625
 74
     0
  0
LTYPE
  5
2EE7
330
2C33
100
AcDbSymbolTableRecord
100
AcDbLinetypeTableRecord
  2
Amzigzag2
 70
     0
  3
/\/-/\/-/\/-/\/-/\/-/\/
 72
    65
 73
     2
 40
0.4401
 49
0.0001
 74
     4
 75
   136
340
2EE6
 46
0.0016
 50
0.0
 44
0.0
 45
0.0
 49
-0.4400000000000001
 74
     0
  0
ENDTAB
  0
TABLE
  2
LAYER
  5
2C30
102
{ACAD_XDICTIONARY
360
2E4E
102
}
330
0
100
AcDbSymbolTable
 70
     7
  0
LAYER
  5
2C82
102
{ACAD_XDICTIONARY
360
2E3F
102
}
330
2C30
100
AcDbSymbolTableRecord
100
AcDbLayerTableRecord
  2
0
 70
     0
 62
     7
  6
CONTINUOUS
370
    -3
390
2C3D
347
2C4F
  0
LAYER
  5
2CA1
102
{ACAD_XDICTIONARY
360
2E41
102
}
330
2C30
100
AcDbSymbolTableRecord
100
AcDbLayerTableRecord
  2
AM_0
 70
     0
 62
     7
  6
CONTINUOUS
370
    -3
390
2C3D
347
2C4F
  0
LAYER
  5
2CBC
102
{ACAD_XDICTIONARY
360
2E43
102
}
330
2C30
100
AcDbSymbolTableRecord
100
AcDbLayerTableRecord
  2
AM_5
 70
     0
 62
     2
  6
CONTINUOUS
370
    -3
390
2C3D
347
2C4F
  0
LAYER
  5
2CBD
330
2C30
100
AcDbSymbolTableRecord
100
AcDbLayerTableRecord
  2
DEFPOINTS
 70
     0
 62
     7
  6
CONTINUOUS
290
     0
370
    -3
390
2C3D
347
2C4F
  0
LAYER
  5
2CBE
102
{ACAD_XDICTIONARY
360
2E45
102
}
330
2C30
100
AcDbSymbolTableRecord
100
AcDbLayerTableRecord
  2
ｶｸﾚｾﾝ2
 70
     0
 62
     3
  6
GEN3B
370
    -3
390
2C3D
347
2C4F
  0
LAYER
  5
2CBF
102
{ACAD_XDICTIONARY
360
2E47
102
}
330
2C30
100
AcDbSymbolTableRecord
100
AcDbLayerTableRecord
  2
ﾁｭｳｼﾝｾﾝ
 70
     0
 62
     1
  6
GEN7
370
    -3
390
2C3D
347
2C4F
  0
LAYER
  5
2CC0
102
{ACAD_XDICTIONARY
360
2E49
102
}
330
2C30
100
AcDbSymbolTableRecord
100
AcDbLayerTableRecord
  2
ﾁｭｳｼﾝｾﾝ1
 70
     0
 62
     1
  6
GEN7A
370
    -3
390
2C3D
347
2C4F
  0
ENDTAB
  0
TABLE
  2
STYLE
  5
2C31
330
0
100
AcDbSymbolTable
 70
     4
  0
STYLE
  5
2C83
330
2C31
100
AcDbSymbolTableRecord
100
AcDbTextStyleTableRecord
  2
STANDARD
 70
     0
 40
0.0
 41
0.8299999999999998
 50
0.0
 71
     0
 42
2.5
  3
txt.shx
  4
bigfont.shx
  0
STYLE
  5
2CC5
330
2C31
100
AcDbSymbolTableRecord
100
AcDbTextStyleTableRecord
  2
ACANSGDT
 70
     0
 40
0.0
 41
1.0
 50
0.0
 71
     0
 42
2.5
  3
amgdt.shx
  4

  0
STYLE
  5
2EE6
330
2C31
100
AcDbSymbolTableRecord
100
AcDbTextStyleTableRecord
  2

 70
     1
 40
0.0
 41
1.0
 50
0.0
 71
     0
 42
2.5
  3
genltshp.shx
  4

  0
ENDTAB
  0
TABLE
  2
VIEW
  5
2C34
330
0
100
AcDbSymbolTable
 70
     7
  0
VIEW
  5
2CC8
330
2C34
100
AcDbSymbolTableRecord
100
AcDbViewTableRecord
  2
AM_VIEW1
 70
     0
 40
462.5
 10
416.0796500920808
 20
693.75
 41
832.1593001841621
 11
0.0
 21
0.0
 31
1.0
 12
0.0
 22
0.0
 32
0.0
 42
50.0
 43
0.0
 44
0.0
 50
0.0
 71
     0
281
     0
 72
     0
 73
     0
348
2C5D
  0
VIEW
  5
2CC9
330
2C34
100
AcDbSymbolTableRecord
100
AcDbViewTableRecord
  2
AM_VIEW2
 70
     0
 40
462.5
 10
1006.420349907918
 20
693.75
 41
832.1593001841621
 11
0.0
 21
0.0
 31
1.0
 12
0.0
 22
0.0
 32
0.0
 42
50.0
 43
0.0
 44
0.0
 50
0.0
 71
     0
281
     0
 72
     0
 73
     0
348
2C5D
  0
VIEW
  5
2CCA
330
2C34
100
AcDbSymbolTableRecord
100
AcDbViewTableRecord
  2
AM_VIEW3
 70
     0
 40
462.5
 10
416.0796500920808
 20
231.25
 41
832.1593001841621
 11
0.0
 21
0.0
 31
1.0
 12
0.0
 22
0.0
 32
0.0
 42
50.0
 43
0.0
 44
0.0
 50
0.0
 71
     0
281
     0
 72
     0
 73
     0
348
2C5D
  0
VIEW
  5
2CCB
330
2C34
100
AcDbSymbolTableRecord
100
AcDbViewTableRecord
  2
AM_VIEW4
 70
     0
 40
462.5
 10
1006.420349907918
 20
231.25
 41
832.1593001841621
 11
0.0
 21
0.0
 31
1.0
 12
0.0
 22
0.0
 32
0.0
 42
50.0
 43
0.0
 44
0.0
 50
0.0
 71
     0
281
     0
 72
     0
 73
     0
348
2C5D
  0
VIEW
  5
2CCC
330
2C34
100
AcDbSymbolTableRecord
100
AcDbViewTableRecord
  2
AM_VIEW5
 70
     0
 40
462.5
 10
711.2499999999997
 20
462.5
 41
832.1593001841616
 11
0.0
 21
0.0
 31
1.0
 12
0.0
 22
0.0
 32
0.0
 42
50.0
 43
0.0
 44
0.0
 50
0.0
 71
     0
281
     0
 72
     0
 73
     0
348
2C5D
  0
VIEW
  5
2CCD
330
2C34
100
AcDbSymbolTableRecord
100
AcDbViewTableRecord
  2
AM_VIEW6
 70
     0
 40
924.99075
 10
711.2499999999997
 20
462.5
 41
1664.30195718232
 11
0.0
 21
0.0
 31
1.0
 12
0.0
 22
0.0
 32
0.0
 42
50.0
 43
0.0
 44
0.0
 50
0.0
 71
     0
281
     0
 72
     0
 73
     0
348
2C5D
  0
ENDTAB
  0
TABLE
  2
UCS
  5
2C35
330
0
100
AcDbSymbolTable
 70
     0
  0
ENDTAB
  0
TABLE
  2
APPID
  5
2C37
330
0
100
AcDbSymbolTable
 70
    95
  0
APPID
  5
2C84
330
2C37
100
AcDbSymbolTableRecord
100
AcDbRegAppTableRecord
  2
ACAD
 70
     0
  0
APPID
  5
2C8B
330
2C37
100
AcDbSymbolTableRecord
100
AcDbRegAppTableRecord
  2
ACADANNOTATIVE
 70
     0
  0
APPID
  5
2CCE
330
2C37
100
AcDbSymbolTableRecord
100
AcDbRegAppTableRecord
  2
MCAD_NO_VIS
 70
     0
  0
APPID
  5
2CCF
330
2C37
100
AcDbSymbolTableRecord
100
AcDbRegAppTableRecord
  2
ACAD_TEMP_GRAPHIC
 70
     0
  0
APPID
  5
2CD0
330
2C37
100
AcDbSymbolTableRecord
100
AcDbRegAppTableRecord
  2
ACATTRIBSERVICES
 70
     0
  0
APPID
  5
2CD1
330
2C37
100
AcDbSymbolTableRecord
100
AcDbRegAppTableRecord
  2
GENIUS_GENREC_14
 70
     0
  0
APPID
  5
2CD2
330
2C37
100
AcDbSymbolTableRecord
100
AcDbRegAppTableRecord
  2
GENIUS_GENOBJ-N-REC_13
 70
     0
  0
APPID
  5
2CD3
330
2C37
100
AcDbSymbolTableRecord
100
AcDbRegAppTableRecord
  2
GENIUS_GENODEF_13
 70
     0
  0
APPID
  5
2CD4
330
2C37
100
AcDbSymbolTableRecord
100
AcDbRegAppTableRecord
  2
GENIUS_GENOLIS_13
 70
     0
  0
APPID
  5
2CD5
330
2C37
100
AcDbSymbolTableRecord
100
AcDbRegAppTableRecord
  2
GENIUS_GENOBJ-N-TIT_13
 70
     0
  0
APPID
  5
2CD6
330
2C37
100
AcDbSymbolTableRecord
100
AcDbRegAppTableRecord
  2
GENIUS_GENOENT_13
 70
     0
  0
APPID
  5
2CD7
330
2C37
100
AcDbSymbolTableRecord
100
AcDbRegAppTableRecord
  2
GENIUS_GENTITLE_13
 70
     0
  0
APPID
  5
2CD8
330
2C37
100
AcDbSymbolTableRecord
100
AcDbRegAppTableRecord
  2
GENIUS_GENOREF_13
 70
     0
  0
APPID
  5
2CD9
330
2C37
100
AcDbSymbolTableRecord
100
AcDbRegAppTableRecord
  2
GENIUS_GENSCREG_15
 70
     0
  0
APPID
  5
2CDA
330
2C37
100
AcDbSymbolTableRecord
100
AcDbRegAppTableRecord
  2
GENIUS_GENOBJ-N-SDF_13
 70
     0
  0
APPID
  5
2CDB
330
2C37
100
AcDbSymbolTableRecord
100
AcDbRegAppTableRecord
  2
GENIUS_GENFIL_13
 70
     0
  0
APPID
  5
2CDC
330
2C37
100
AcDbSymbolTableRecord
100
AcDbRegAppTableRecord
  2
GENIUS_GENOBJ-N-CHA_13
 70
     0
  0
APPID
  5
2CDD
330
2C37
100
AcDbSymbolTableRecord
100
AcDbRegAppTableRecord
  2
GENIUS_GENDTOL_13
 70
     0
  0
APPID
  5
2CDE
330
2C37
100
AcDbSymbolTableRecord
100
AcDbRegAppTableRecord
  2
GENIUS_GENOBJ-N-FIL_13
 70
     0
  0
APPID
  5
2CDF
330
2C37
100
AcDbSymbolTableRecord
100
AcDbRegAppTableRecord
  2
AD_DRAW
 70
     0
  0
APPID
  5
2CE0
330
2C37
100
AcDbSymbolTableRecord
100
AcDbRegAppTableRecord
  2
DESIGNERASSEMBLIES
 70
     0
  0
APPID
  5
2CE1
330
2C37
100
AcDbSymbolTableRecord
100
AcDbRegAppTableRecord
  2
ASURF_PCURVE_APPNAME
 70
     0
  0
APPID
  5
2CE2
330
2C37
100
AcDbSymbolTableRecord
100
AcDbRegAppTableRecord
  2
GENIUS_GE3SECT_13
 70
     0
  0
APPID
  5
2CE3
330
2C37
100
AcDbSymbolTableRecord
100
AcDbRegAppTableRecord
  2
GENIUS_GENCFG_13
 70
     0
  0
APPID
  5
2CE4
330
2C37
100
AcDbSymbolTableRecord
100
AcDbRegAppTableRecord
  2
GENIUS_GE3CFG0_13
 70
     0
  0
APPID
  5
2CE5
330
2C37
100
AcDbSymbolTableRecord
100
AcDbRegAppTableRecord
  2
GENIUS_GENCFG0_13
 70
     0
  0
APPID
  5
2CE6
330
2C37
100
AcDbSymbolTableRecord
100
AcDbRegAppTableRecord
  2
GENIUS_GENCFG1_13
 70
     0
  0
APPID
  5
2CE7
330
2C37
100
AcDbSymbolTableRecord
100
AcDbRegAppTableRecord
  2
GENIUS_GENCFG2_13
 70
     0
  0
APPID
  5
2CE8
330
2C37
100
AcDbSymbolTableRecord
100
AcDbRegAppTableRecord
  2
GENIUS_GENCFG3_13
 70
     0
  0
APPID
  5
2CE9
330
2C37
100
AcDbSymbolTableRecord
100
AcDbRegAppTableRecord
  2
GENIUS_GENCFG4_13
 70
     0
  0
APPID
  5
2CEA
330
2C37
100
AcDbSymbolTableRecord
100
AcDbRegAppTableRecord
  2
GENIUS_GEVCFG0_13
 70
     0
  0
APPID
  5
2CEB
330
2C37
100
AcDbSymbolTableRecord
100
AcDbRegAppTableRecord
  2
GENIUS_GENHINW_13
 70
     0
  0
APPID
  5
2CEC
330
2C37
100
AcDbSymbolTableRecord
100
AcDbRegAppTableRecord
  2
GENIUS_FIRSTVISTXT_14
 70
     0
  0
APPID
  5
2CED
330
2C37
100
AcDbSymbolTableRecord
100
AcDbRegAppTableRecord
  2
GENIUS_GENOBJ-N-LEADER_13
 70
     0
  0
APPID
  5
2CEE
330
2C37
100
AcDbSymbolTableRecord
100
AcDbRegAppTableRecord
  2
GEV_VCCNULL_SWITCH_OFF
 70
     0
  0
APPID
  5
2CEF
330
2C37
100
AcDbSymbolTableRecord
100
AcDbRegAppTableRecord
  2
GENIUS_GEFCFG0_13
 70
     0
  0
APPID
  5
2CF0
330
2C37
100
AcDbSymbolTableRecord
100
AcDbRegAppTableRecord
  2
GENIUS_GENZVEED_13
 70
     0
  0
APPID
  5
2CF1
330
2C37
100
AcDbSymbolTableRecord
100
AcDbRegAppTableRecord
  2
GENIUS_GENSCREG_13
 70
     0
  0
APPID
  5
2CF2
330
2C37
100
AcDbSymbolTableRecord
100
AcDbRegAppTableRecord
  2
GENIUS_DUMCFG0_13
 70
     0
  0
APPID
  5
2CF3
330
2C37
100
AcDbSymbolTableRecord
100
AcDbRegAppTableRecord
  2
GEVID936201362
 70
     0
  0
APPID
  5
2CF4
330
2C37
100
AcDbSymbolTableRecord
100
AcDbRegAppTableRecord
  2
GEVDC
 70
     0
  0
APPID
  5
2CF5
330
2C37
100
AcDbSymbolTableRecord
100
AcDbRegAppTableRecord
  2
GEVCON
 70
     0
  0
APPID
  5
2CF6
330
2C37
100
AcDbSymbolTableRecord
100
AcDbRegAppTableRecord
  2
VCC
 70
     0
  0
APPID
  5
2CF7
330
2C37
100
AcDbSymbolTableRecord
100
AcDbRegAppTableRecord
  2
GEVPT
 70
     0
  0
APPID
  5
2CF8
330
2C37
100
AcDbSymbolTableRecord
100
AcDbRegAppTableRecord
  2
GEVIT
 70
     0
  0
APPID
  5
2CF9
330
2C37
100
AcDbSymbolTableRecord
100
AcDbRegAppTableRecord
  2
GENBH
 70
     0
  0
APPID
  5
2CFA
330
2C37
100
AcDbSymbolTableRecord
100
AcDbRegAppTableRecord
  2
GEVMK
 70
     0
  0
APPID
  5
2CFB
330
2C37
100
AcDbSymbolTableRecord
100
AcDbRegAppTableRecord
  2
GENIUS_GENBH_13
 70
     0
  0
APPID
  5
2CFC
330
2C37
100
AcDbSymbolTableRecord
100
AcDbRegAppTableRecord
  2
GENIUS_GENOBJ-NBEHI-BHF_13
 70
     0
  0
APPID
  5
2CFD
330
2C37
100
AcDbSymbolTableRecord
100
AcDbRegAppTableRecord
  2
GENIUS_GENOBJ-NBEHI-BHB_13
 70
     0
  0
APPID
  5
2CFE
330
2C37
100
AcDbSymbolTableRecord
100
AcDbRegAppTableRecord
  2
GENIUS_GENOBJ-F-DESC_13
 70
     0
  0
APPID
  5
2CFF
330
2C37
100
AcDbSymbolTableRecord
100
AcDbRegAppTableRecord
  2
GENIUS_GEFDESC_14
 70
     0
  0
APPID
  5
2D00
330
2C37
100
AcDbSymbolTableRecord
100
AcDbRegAppTableRecord
  2
GENIUS_GENOBJ-F-PART_13
 70
     0
  0
APPID
  5
2D01
330
2C37
100
AcDbSymbolTableRecord
100
AcDbRegAppTableRecord
  2
GENIUS_GEFSTDP_13
 70
     0
  0
APPID
  5
2D02
330
2C37
100
AcDbSymbolTableRecord
100
AcDbRegAppTableRecord
  2
GENIUS_GEFPARTINS_13
 70
     0
  0
APPID
  5
2D03
330
2C37
100
AcDbSymbolTableRecord
100
AcDbRegAppTableRecord
  2
GENIUS_GENTRA_14
 70
     0
  0
APPID
  5
2D04
330
2C37
100
AcDbSymbolTableRecord
100
AcDbRegAppTableRecord
  2
GENIUS_GENINF13_13
 70
     0
  0
APPID
  5
2D05
330
2C37
100
AcDbSymbolTableRecord
100
AcDbRegAppTableRecord
  2
GENIUS_GENOBJ-N-INFOPT_13
 70
     0
  0
APPID
  5
2D06
330
2C37
100
AcDbSymbolTableRecord
100
AcDbRegAppTableRecord
  2
GENIUS_GENOBJ-N-RSSYM_13
 70
     0
  0
APPID
  5
2D07
330
2C37
100
AcDbSymbolTableRecord
100
AcDbRegAppTableRecord
  2
GENIUS_GENSYMENT_13
 70
     0
  0
APPID
  5
2D08
330
2C37
100
AcDbSymbolTableRecord
100
AcDbRegAppTableRecord
  2
GENIUS_GENSCSYM_13
 70
     0
  0
APPID
  5
2D09
330
2C37
100
AcDbSymbolTableRecord
100
AcDbRegAppTableRecord
  2
GENIUS_GEFINFNAM_13
 70
     0
  0
APPID
  5
2D0A
330
2C37
100
AcDbSymbolTableRecord
100
AcDbRegAppTableRecord
  2
GENIUS_GENOBJ-N-CEN_13
 70
     0
  0
APPID
  5
2D0B
330
2C37
100
AcDbSymbolTableRecord
100
AcDbRegAppTableRecord
  2
GENIUS_GENOBJ-N-CRS_13
 70
     0
  0
APPID
  5
2D0C
330
2C37
100
AcDbSymbolTableRecord
100
AcDbRegAppTableRecord
  2
GENIUS_GENOBJ-N-CRC_13
 70
     0
  0
APPID
  5
2D0D
330
2C37
100
AcDbSymbolTableRecord
100
AcDbRegAppTableRecord
  2
GENIUS_GENCRC_14
 70
     0
  0
APPID
  5
2D0E
330
2C37
100
AcDbSymbolTableRecord
100
AcDbRegAppTableRecord
  2
GEVID942827039
 70
     0
  0
APPID
  5
2D0F
330
2C37
100
AcDbSymbolTableRecord
100
AcDbRegAppTableRecord
  2
GEVID942827040
 70
     0
  0
APPID
  5
2D10
330
2C37
100
AcDbSymbolTableRecord
100
AcDbRegAppTableRecord
  2
GEVID942827041
 70
     0
  0
APPID
  5
2D11
330
2C37
100
AcDbSymbolTableRecord
100
AcDbRegAppTableRecord
  2
GENIUS_GENOBJ-F-SCPASSM_13
 70
     0
  0
APPID
  5
2D12
330
2C37
100
AcDbSymbolTableRecord
100
AcDbRegAppTableRecord
  2
GENIUS_GENDIMSH_14
 70
     0
  0
APPID
  5
2D13
330
2C37
100
AcDbSymbolTableRecord
100
AcDbRegAppTableRecord
  2
GEVID942827042
 70
     0
  0
APPID
  5
2D14
330
2C37
100
AcDbSymbolTableRecord
100
AcDbRegAppTableRecord
  2
GEVID946020473
 70
     0
  0
APPID
  5
2D15
330
2C37
100
AcDbSymbolTableRecord
100
AcDbRegAppTableRecord
  2
GEVID946020474
 70
     0
  0
APPID
  5
2D16
330
2C37
100
AcDbSymbolTableRecord
100
AcDbRegAppTableRecord
  2
GEVID946020475
 70
     0
  0
APPID
  5
2D17
330
2C37
100
AcDbSymbolTableRecord
100
AcDbRegAppTableRecord
  2
GENIUS_GENOBJ-N-HTC_13
 70
     0
  0
APPID
  5
2D18
330
2C37
100
AcDbSymbolTableRecord
100
AcDbRegAppTableRecord
  2
GENIUS_GENHATCH_13
 70
     0
  0
APPID
  5
2D19
330
2C37
100
AcDbSymbolTableRecord
100
AcDbRegAppTableRecord
  2
GEVID948854295
 70
     0
  0
APPID
  5
2D1A
330
2C37
100
AcDbSymbolTableRecord
100
AcDbRegAppTableRecord
  2
GEVID939402019
 70
     0
  0
APPID
  5
2D1B
330
2C37
100
AcDbSymbolTableRecord
100
AcDbRegAppTableRecord
  2
GEVID952919491
 70
     0
  0
APPID
  5
2D1C
330
2C37
100
AcDbSymbolTableRecord
100
AcDbRegAppTableRecord
  2
GEVID952919492
 70
     0
  0
APPID
  5
2D1D
330
2C37
100
AcDbSymbolTableRecord
100
AcDbRegAppTableRecord
  2
GENIUS_GEFWELD_13
 70
     0
  0
APPID
  5
2D1E
330
2C37
100
AcDbSymbolTableRecord
100
AcDbRegAppTableRecord
  2
GENIUS_GENOBJ-F-WELS_13
 70
     0
  0
APPID
  5
2D1F
330
2C37
100
AcDbSymbolTableRecord
100
AcDbRegAppTableRecord
  2
GEVID952919493
 70
     0
  0
APPID
  5
2D20
330
2C37
100
AcDbSymbolTableRecord
100
AcDbRegAppTableRecord
  2
GENIUS_GENOBJ-N-RSBK_13
 70
     0
  0
APPID
  5
2D21
330
2C37
100
AcDbSymbolTableRecord
100
AcDbRegAppTableRecord
  2
GENIUS_GENOBJ-N-LIB_13
 70
     0
  0
APPID
  5
2D22
330
2C37
100
AcDbSymbolTableRecord
100
AcDbRegAppTableRecord
  2
GENIUS_GENSCALE_13
 70
     0
  0
APPID
  5
2D23
330
2C37
100
AcDbSymbolTableRecord
100
AcDbRegAppTableRecord
  2
GEVID986376691
 70
     0
  0
APPID
  5
2D24
330
2C37
100
AcDbSymbolTableRecord
100
AcDbRegAppTableRecord
  2
DCO15
 70
     0
  0
APPID
  5
2D25
330
2C37
100
AcDbSymbolTableRecord
100
AcDbRegAppTableRecord
  2
ACAD_DSTYLE_DIMBREAK
 70
     0
  0
APPID
  5
2D26
330
2C37
100
AcDbSymbolTableRecord
100
AcDbRegAppTableRecord
  2
ACAD_DSTYLE_DIMJAG
 70
     0
  0
APPID
  5
2D27
330
2C37
100
AcDbSymbolTableRecord
100
AcDbRegAppTableRecord
  2
ACAD_NAV_VCDISPLAY
 70
     0
  0
APPID
  5
2D28
330
2C37
100
AcDbSymbolTableRecord
100
AcDbRegAppTableRecord
  2
ACADANNOPO
 70
     0
  0
APPID
  5
2D29
330
2C37
100
AcDbSymbolTableRecord
100
AcDbRegAppTableRecord
  2
ACAD_EXEMPT_FROM_CAD_STANDARDS
 70
     0
  0
APPID
  5
2D2A
330
2C37
100
AcDbSymbolTableRecord
100
AcDbRegAppTableRecord
  2
ACAD_MLEADERVER
 70
     0
  0
ENDTAB
  0
TABLE
  2
DIMSTYLE
  5
2C38
330
0
100
AcDbSymbolTable
 70
     8
100
AcDbDimStyleTable
 71
     1
340
2D2B
  0
DIMSTYLE
105
2C85
330
2C38
100
AcDbSymbolTableRecord
100
AcDbDimStyleTableRecord
  2
STANDARD
 70
     0
271
     2
272
     2
279
     2
284
     8
285
     8
286
     8
340
2C83
  0
DIMSTYLE
105
2D2B
330
2C38
100
AcDbSymbolTableRecord
100
AcDbDimStyleTableRecord
  2
AM_ISO
 70
     0
  4
"
 41
2.5
 42
1.0
 43
8.0
 44
0.6
 47
0.1
 48
0.1
 73
     0
 74
     0
 77
     1
 78
     8
140
2.5
141
0.0
143
0.0393701
146
0.71
147
0.8
172
     1
176
   256
177
   256
178
     4
271
     2
272
     2
279
     2
284
     8
285
     8
286
     8
340
2C83
  0
DIMSTYLE
105
2D39
102
{ACAD_REACTORS
330
2ED1
102
}
330
2C38
100
AcDbSymbolTableRecord
100
AcDbDimStyleTableRecord
  2
AM_ANSI
 70
     0
  4
mm
 41
0.1
 42
0.05
 43
0.5
 44
0.1
 47
0.1
 48
0.1
 78
     7
140
0.12
141
0.0
146
0.71
147
0.06
176
   256
177
   256
178
     2
271
     2
272
     2
279
     2
284
     8
285
     8
286
     8
340
2C83
  0
DIMSTYLE
105
2D3A
330
2C38
100
AcDbSymbolTableRecord
100
AcDbDimStyleTableRecord
  2
AM_ANSI$3
 70
     0
  4
mm
 41
0.1
 42
0.05
 43
0.5
 44
0.1
 47
0.1
 48
0.1
 78
     7
140
0.12
141
0.0
146
0.71
147
0.06
176
   256
177
   256
178
     2
271
     2
272
     2
279
     2
284
     8
285
     8
286
     8
340
2C83
  0
DIMSTYLE
105
2D3B
330
2C38
100
AcDbSymbolTableRecord
100
AcDbDimStyleTableRecord
  2
AM_ANSI$4
 70
     0
  4
mm
 41
0.1
 42
0.05
 43
0.5
 44
0.1
 47
0.1
 48
0.1
 78
     7
140
0.12
141
0.0
146
0.71
147
0.06
176
   256
177
   256
178
     2
271
     2
272
     2
279
     2
284
     8
285
     8
286
     8
340
2C83
  0
DIMSTYLE
105
2D3C
330
2C38
100
AcDbSymbolTableRecord
100
AcDbDimStyleTableRecord
  2
AM_ANSI$7
 70
     0
  4
mm
 41
0.1
 42
0.05
 43
0.5
 44
0.1
 47
0.1
 48
0.1
 78
     7
140
0.24
141
0.0
146
0.71
147
0.06
176
   256
177
   256
178
     2
271
     2
272
     2
279
     2
284
     8
285
     8
286
     8
340
2C83
  0
DIMSTYLE
105
2D3D
330
2C38
100
AcDbSymbolTableRecord
100
AcDbDimStyleTableRecord
  2
AM_ANSI$SF
 70
     0
  4
mm
 41
0.1
 42
0.05
 43
0.5
 44
0.1
 47
0.1
 48
0.1
 75
     1
 76
     1
 78
     7
140
0.12
141
0.0
146
0.71
147
0.06
176
   256
177
   256
178
     2
271
     2
272
     2
279
     2
284
     8
285
     8
286
     8
340
2C83
  0
DIMSTYLE
105
2D3E
330
2C38
100
AcDbSymbolTableRecord
100
AcDbDimStyleTableRecord
  2
AM_ANSI$SH
 70
     0
  4
mm
 41
0.1
 42
0.05
 43
0.5
 44
0.1
 47
0.1
 48
0.1
 75
     1
 76
     1
 78
     7
140
0.12
141
0.0
146
0.71
147
0.06
173
     1
176
   256
177
   256
178
     2
271
     2
272
     2
279
     2
284
     8
285
     8
286
     8
340
2C83
  0
ENDTAB
  0
TABLE
  2
BLOCK_RECORD
  5
2C2F
330
0
100
AcDbSymbolTable
 70
     2
  0
BLOCK_RECORD
  5
2C9D
330
2C2F
100
AcDbSymbolTableRecord
100
AcDbBlockTableRecord
  2
*Model_Space
340
2CA0
 70
     0
280
     1
281
     0
  0
BLOCK_RECORD
  5
2C99
330
2C2F
100
AcDbSymbolTableRecord
100
AcDbBlockTableRecord
  2
*Paper_Space
340
2C9C
 70
     0
280
     1
281
     0
  0
BLOCK_RECORD
  5
2D50
330
2C2F
100
AcDbSymbolTableRecord
100
AcDbBlockTableRecord
  2
_ACMFILLEDHALF
340
0
 70
     0
280
     1
281
     0
  0
ENDTAB
  0
ENDSEC
  0
SECTION
  2
BLOCKS
  0
BLOCK
  5
2C9E
330
2C9D
100
AcDbEntity
  8
0
100
AcDbBlockBegin
  2
*Model_Space
 70
     0
 10
0.0
 20
0.0
 30
0.0
  3
*Model_Space
  1

  0
ENDBLK
  5
2C9F
330
2C9D
100
AcDbEntity
  8
0
100
AcDbBlockEnd
  0
BLOCK
  5
2C9A
330
2C99
100
AcDbEntity
 67
     1
  8
0
100
AcDbBlockBegin
  2
*Paper_Space
 70
     0
 10
0.0
 20
0.0
 30
0.0
  3
*Paper_Space
  1

  0
ENDBLK
  5
2C9B
330
2C99
100
AcDbEntity
 67
     1
  8
0
100
AcDbBlockEnd
  0
BLOCK
  5
2D51
330
2D50
100
AcDbEntity
  8
0
100
AcDbBlockBegin
  2
_ACMFILLEDHALF
 70
     0
 10
0.0
 20
0.0
 30
0.0
  3
_ACMFILLEDHALF
  1

  0
TRACE
  5
2B97
330
2D50
100
AcDbEntity
  8
AM_0
 62
     0
100
AcDbTrace
 10
-0.8
 20
0.0
 30
0.0
 11
-1.0
 21
0.166666666
 31
0.0
 12
0.0
 22
0.0
 32
0.0
 13
0.0
 23
0.0
 33
0.0
  0
LINE
  5
2B98
330
2D50
100
AcDbEntity
  8
AM_0
 62
     0
100
AcDbLine
 10
-1.0
 20
0.0
 30
0.0
 11
-0.8
 21
0.0
 31
0.0
  0
ENDBLK
  5
2B96
330
2D50
100
AcDbEntity
  8
0
100
AcDbBlockEnd
  0
ENDSEC
  0
SECTION
  2
ENTITIES
  0
LINE
  5
285A
330
2C9D
100
AcDbEntity
  8
AM_0
100
AcDbLine
 10
366.5327953345663
 20
373.8943275148162
 30
0.0
 11
366.5327953345663
 21
511.4050225148162
 31
0.0
  0
LINE
  5
285B
330
2C9D
100
AcDbEntity
  8
AM_0
100
AcDbLine
 10
311.0389883345663
 20
402.9256385148163
 30
0.0
 11
311.0389883345663
 21
482.3737105148163
 31
0.0
  0
LINE
  5
285C
330
2C9D
100
AcDbEntity
  8
AM_0
100
AcDbLine
 10
278.4630373345661
 20
403.4942535148163
 30
0.0
 11
278.4630373345661
 21
481.8050955148162
 31
0.0
  0
LINE
  5
285D
330
2C9D
100
AcDbEntity
  8
AM_0
100
AcDbLine
 10
267.5327953345663
 20
415.1496745148163
 30
0.0
 11
267.5327953345663
 21
470.1496745148163
 31
0.0
  0
LINE
  5
285E
330
2C9D
100
AcDbEntity
  8
AM_0
100
AcDbLine
 10
269.5327953345663
 20
407.9590755148163
 30
0.0
 11
269.5327953345663
 21
477.340273514816
 31
0.0
  0
LINE
  5
285F
330
2C9D
100
AcDbEntity
  8
AM_0
100
AcDbLine
 10
414.5327453345656
 20
606.7509645148162
 30
0.0
 11
414.5327453345656
 21
318.7835245148161
 31
0.0
  0
LINE
  5
2860
330
2C9D
100
AcDbEntity
  8
AM_0
100
AcDbLine
 10
394.0327453345659
 20
547.3154645148163
 30
0.0
 11
394.0327453345659
 21
338.7554495148161
 31
0.0
  0
LINE
  5
2861
330
2C9D
100
AcDbEntity
  8
AM_0
100
AcDbLine
 10
378.5327953345657
 20
369.1496745148161
 30
0.0
 11
378.5327953345657
 21
516.1496795148162
 31
0.0
  0
LINE
  5
2862
330
2C9D
100
AcDbEntity
  8
AM_0
100
AcDbLine
 10
442.5327453345659
 20
609.6496645148159
 30
0.0
 11
442.5327453345659
 21
377.0435945148162
 31
0.0
  0
LINE
  5
2863
330
2C9D
100
AcDbEntity
  8
AM_0
100
AcDbLine
 10
524.5327453345658
 20
524.6073195148162
 30
0.0
 11
524.5327453345658
 21
327.6496745148163
 31
0.0
  0
LINE
  5
2864
330
2C9D
100
AcDbEntity
  8
AM_0
100
AcDbLine
 10
557.532745334566
 20
591.9768645148161
 30
0.0
 11
557.532745334566
 21
343.9566845148162
 31
0.0
  0
LINE
  5
2865
330
2C9D
100
AcDbEntity
  8
AM_0
100
AcDbLine
 10
447.5327453345657
 20
479.7556645148159
 30
0.0
 11
447.5327453345657
 21
389.8886595148161
 31
0.0
  0
LINE
  5
2866
330
2C9D
100
AcDbEntity
  8
AM_0
100
AcDbLine
 10
589.5327453345656
 20
545.7183145148162
 30
0.0
 11
589.5327453345656
 21
429.5810745148162
 31
0.0
  0
LINE
  5
2867
330
2C9D
100
AcDbEntity
  8
AM_0
100
AcDbLine
 10
584.5327453345658
 20
568.0679645148162
 30
0.0
 11
584.5327453345658
 21
321.3099245148161
 31
0.0
  0
LINE
  5
2868
330
2C9D
100
AcDbEntity
  8
AM_0
100
AcDbLine
 10
595.532745334566
 20
517.6496795148159
 30
0.0
 11
595.532745334566
 21
457.6496795148162
 31
0.0
  0
LINE
  5
2869
330
2C9D
100
AcDbEntity
  8
AM_0
100
AcDbLine
 10
677.532745334566
 20
519.1496795148159
 30
0.0
 11
677.532745334566
 21
460.1496795148163
 31
0.0
  0
LINE
  5
286A
330
2C9D
100
AcDbEntity
  8
ﾁｭｳｼﾝｾﾝ
100
AcDbLine
 10
224.2352195698877
 20
442.6496745148162
 30
0.0
 11
452.2968953345658
 21
442.6496745148162
 31
0.0
  0
LINE
  5
286B
330
2C9D
100
AcDbEntity
  8
AM_0
100
AcDbLine
 10
265.5327953345663
 20
457.6496745148163
 30
0.0
 11
267.5327953345663
 21
457.6496745148163
 31
0.0
  0
LINE
  5
286C
330
2C9D
100
AcDbEntity
  8
AM_0
100
AcDbLine
 10
265.5327953345663
 20
427.6496745148163
 30
0.0
 11
267.5327953345663
 21
427.6496745148163
 31
0.0
  0
LINE
  5
286E
330
2C9D
100
AcDbEntity
  8
AM_0
100
AcDbLine
 10
229.5327953345662
 20
430.6496745148161
 30
0.0
 11
265.5327953345663
 21
430.6496745148161
 31
0.0
  0
LINE
  5
286F
330
2C9D
100
AcDbEntity
  8
AM_0
100
AcDbLine
 10
229.5327953345662
 20
454.6496745148163
 30
0.0
 11
265.5327953345663
 21
454.6496745148163
 31
0.0
  0
LINE
  5
2870
330
2C9D
100
AcDbEntity
  8
AM_0
100
AcDbLine
 10
229.5327953345662
 20
430.6496745148161
 30
0.0
 11
229.5327953345662
 21
454.6496745148163
 31
0.0
  0
LINE
  5
2871
330
2C9D
100
AcDbEntity
  8
AM_0
100
AcDbLine
 10
229.5327953345662
 20
454.6496745148163
 30
0.0
 11
229.5327953345662
 21
457.6496745148159
 31
0.0
  0
LINE
  5
2872
330
2C9D
100
AcDbEntity
  8
AM_0
100
AcDbLine
 10
265.5327953345663
 20
427.6496745148163
 30
0.0
 11
265.5327953345663
 21
457.6496745148163
 31
0.0
  0
LINE
  5
2873
330
2C9D
100
AcDbEntity
  8
AM_0
100
AcDbLine
 10
257.5327953345663
 20
454.6496745148163
 30
0.0
 11
257.5327953345663
 21
457.6496745148159
 31
0.0
  0
LINE
  5
2874
330
2C9D
100
AcDbEntity
  8
AM_0
100
AcDbLine
 10
359.5327453345657
 20
287.6496745148161
 30
0.0
 11
589.5327453345656
 21
287.6496745148161
 31
0.0
  0
ARC
  5
2875
330
2C9D
100
AcDbEntity
  8
AM_0
100
AcDbCircle
 10
364.5327453345657
 20
312.6496745148163
 30
0.0
 40
5.0
100
AcDbArc
 50
90.00000300000001
 51
180.00001
  0
ARC
  5
2876
330
2C9D
100
AcDbEntity
  8
AM_0
100
AcDbCircle
 10
411.3621453345656
 20
322.6496745148163
 30
0.0
 40
5.0
100
AcDbArc
 50
270.0
 51
334.75947
  0
LINE
  5
2877
330
2C9D
100
AcDbEntity
  8
AM_0
100
AcDbLine
 10
407.738795334566
 20
317.6497045148162
 30
0.0
 11
396.128745334566
 21
332.6295345148162
 31
0.0
  0
LINE
  5
2878
330
2C9D
100
AcDbEntity
  8
ﾁｭｳｼﾝｾﾝ1
100
AcDbLine
 10
389.5327453345657
 20
321.5575445148163
 30
0.0
 11
389.5327453345657
 21
284.6496745148161
 31
0.0
  0
LINE
  5
2879
330
2C9D
100
AcDbEntity
  8
AM_0
100
AcDbLine
 10
364.5327453345657
 20
317.6496745148162
 30
0.0
 11
411.3621453345656
 21
317.6496745148162
 31
0.0
  0
LINE
  5
287A
330
2C9D
100
AcDbEntity
  8
AM_0
100
AcDbLine
 10
359.5327453345657
 20
312.6496745148163
 30
0.0
 11
359.5327453345657
 21
287.6496745148161
 31
0.0
  0
LINE
  5
287B
330
2C9D
100
AcDbEntity
  8
ｶｸﾚｾﾝ2
100
AcDbLine
 10
399.0327453345657
 20
317.6496745148162
 30
0.0
 11
399.0327453345657
 21
287.6496745148161
 31
0.0
  0
LINE
  5
287C
330
2C9D
100
AcDbEntity
  8
ｶｸﾚｾﾝ2
100
AcDbLine
 10
380.0327453345659
 20
317.6496745148162
 30
0.0
 11
380.0327453345659
 21
287.6496745148161
 31
0.0
  0
LINE
  5
287D
330
2C9D
100
AcDbEntity
  8
AM_0
100
AcDbLine
 10
368.5327953345663
 20
369.1496745148163
 30
0.0
 11
378.5327953345663
 21
369.1496745148163
 31
0.0
  0
LINE
  5
287E
330
2C9D
100
AcDbEntity
  8
AM_0
100
AcDbLine
 10
376.5327953345663
 20
381.1404495148162
 30
0.0
 11
376.5327953345663
 21
401.1749995148162
 31
0.0
  0
LINE
  5
287F
330
2C9D
100
AcDbEntity
  8
AM_0
100
AcDbLine
 10
313.0960393345663
 20
398.8770615148162
 30
0.0
 11
365.5142263345663
 21
372.1686615148162
 31
0.0
  0
ARC
  5
2880
330
2C9D
100
AcDbEntity
  8
AM_0
100
AcDbCircle
 10
364.6062453345663
 20
370.3866485148162
 30
0.0
 40
2.0
100
AcDbArc
 50
10.99694300000296
 51
62.99999999999824
  0
ARC
  5
2881
330
2C9D
100
AcDbEntity
  8
AM_0
100
AcDbCircle
 10
368.5327953345663
 20
371.1496745148163
 30
0.0
 40
2.0
100
AcDbArc
 50
190.9969430000028
 51
270.0
  0
ARC
  5
2882
330
2C9D
100
AcDbEntity
  8
AM_0
100
AcDbCircle
 10
368.5327953345663
 20
381.1404495148162
 30
0.0
 40
2.0
100
AcDbArc
 50
180.0
 51
270.0
  0
LINE
  5
2883
330
2C9D
100
AcDbEntity
  8
AM_0
100
AcDbLine
 10
368.5327953345663
 20
379.1404495148162
 30
0.0
 11
374.5327953345663
 21
379.1404495148162
 31
0.0
  0
ARC
  5
2884
330
2C9D
100
AcDbEntity
  8
AM_0
100
AcDbCircle
 10
374.5327953345663
 20
381.1404495148162
 30
0.0
 40
2.0
100
AcDbArc
 50
270.0
 51
0.0
  0
LINE
  5
2885
330
2C9D
100
AcDbEntity
  8
AM_0
100
AcDbLine
 10
279.4973503345663
 20
400.4757425148159
 30
0.0
 11
308.7306583345662
 21
399.9654735148162
 31
0.0
  0
ARC
  5
2886
330
2C9D
100
AcDbEntity
  8
AM_0
100
AcDbCircle
 10
273.5327953345663
 20
407.9590755148163
 30
0.0
 40
4.0
100
AcDbArc
 50
180.0
 51
239.9999999999999
  0
LINE
  5
2887
330
2C9D
100
AcDbEntity
  8
AM_0
100
AcDbLine
 10
271.5327953345663
 20
404.4949745148163
 30
0.0
 11
277.5671603345663
 21
401.0110315148159
 31
0.0
  0
ARC
  5
2888
330
2C9D
100
AcDbEntity
  8
AM_0
100
AcDbCircle
 10
279.5671603345663
 20
404.4751335148162
 30
0.0
 40
4.0
100
AcDbArc
 50
239.9999999999999
 51
268.9999999999981
  0
LINE
  5
2889
330
2C9D
100
AcDbEntity
  8
AM_0
100
AcDbLine
 10
267.5327953345663
 20
415.1496745148163
 30
0.0
 11
269.5327953345663
 21
413.1496745148163
 31
0.0
  0
ARC
  5
288A
330
2C9D
100
AcDbEntity
  8
AM_0
100
AcDbCircle
 10
308.5561343345661
 20
389.9669965148163
 30
0.0
 40
10.0
100
AcDbArc
 50
62.99999999999824
 51
88.99999999999822
  0
LINE
  5
288B
330
2C9D
100
AcDbEntity
  8
AM_0
100
AcDbLine
 10
368.5327953345663
 20
403.1749995148163
 30
0.0
 11
376.5327953345663
 21
403.1749995148163
 31
0.0
  0
ARC
  5
288C
330
2C9D
100
AcDbEntity
  8
AM_0
100
AcDbCircle
 10
378.5327953345663
 20
401.1749995148162
 30
0.0
 40
2.0
100
AcDbArc
 50
120.0000000000001
 51
180.0
  0
LINE
  5
288D
330
2C9D
100
AcDbEntity
  8
AM_0
100
AcDbLine
 10
415.8847953345659
 20
320.5175645148161
 30
0.0
 11
446.5780453345659
 21
385.6244695148162
 31
0.0
  0
ARC
  5
288E
330
2C9D
100
AcDbEntity
  8
AM_0
100
AcDbCircle
 10
404.0327453345659
 20
338.7554495148161
 30
0.0
 40
10.0
100
AcDbArc
 50
179.9999899999999
 51
217.7772299999999
  0
ARC
  5
288F
330
2C9D
100
AcDbEntity
  8
AM_0
100
AcDbCircle
 10
389.0327453345659
 20
363.7799545148162
 30
0.0
 40
5.0
100
AcDbArc
 50
0.0
 51
88.0
  0
LINE
  5
2890
330
2C9D
100
AcDbEntity
  8
AM_0
100
AcDbLine
 10
378.5327953345657
 20
369.1496445148162
 30
0.0
 11
389.207245334566
 21
368.7769045148161
 31
0.0
  0
LINE
  5
2891
330
2C9D
100
AcDbEntity
  8
AM_0
100
AcDbLine
 10
378.5327953345657
 20
381.069719514816
 30
0.0
 11
394.0327453345659
 21
381.069719514816
 31
0.0
  0
ARC
  5
2892
330
2C9D
100
AcDbEntity
  8
AM_0
100
AcDbCircle
 10
437.532745334566
 20
389.8886595148161
 30
0.0
 40
10.0
100
AcDbArc
 50
334.75947
 51
0.0
  0
LINE
  5
2893
330
2C9D
100
AcDbEntity
  8
AM_0
100
AcDbLine
 10
378.5327953345657
 20
403.1750045148162
 30
0.0
 11
394.0327453345659
 21
403.1750045148162
 31
0.0
  0
ARC
  5
2894
330
2C9D
100
AcDbEntity
  8
AM_0
100
AcDbCircle
 10
589.5327453345656
 20
321.3099245148161
 30
0.0
 40
5.0
100
AcDbArc
 50
179.9999899999999
 51
240.00001
  0
ARC
  5
2895
330
2C9D
100
AcDbEntity
  8
AM_0
100
AcDbCircle
 10
534.5327453345658
 20
327.6496745148163
 30
0.0
 40
10.0
100
AcDbArc
 50
179.9999899999999
 51
270.0
  0
ARC
  5
2896
330
2C9D
100
AcDbEntity
  8
AM_0
100
AcDbCircle
 10
584.5327453345658
 20
312.6496745148163
 30
0.0
 40
5.0
100
AcDbArc
 50
0.0
 51
90.00000300000001
  0
LINE
  5
2897
330
2C9D
100
AcDbEntity
  8
ﾁｭｳｼﾝｾﾝ1
100
AcDbLine
 10
559.5327453345658
 20
321.5575445148163
 30
0.0
 11
559.5327453345658
 21
284.6496745148161
 31
0.0
  0
LINE
  5
2898
330
2C9D
100
AcDbEntity
  8
AM_0
100
AcDbLine
 10
534.5327453345658
 20
317.6496745148162
 30
0.0
 11
584.5327453345658
 21
317.6496745148162
 31
0.0
  0
LINE
  5
2899
330
2C9D
100
AcDbEntity
  8
ｶｸﾚｾﾝ2
100
AcDbLine
 10
550.032745334566
 20
317.6496745148162
 30
0.0
 11
550.032745334566
 21
287.6496745148161
 31
0.0
  0
LINE
  5
289A
330
2C9D
100
AcDbEntity
  8
ｶｸﾚｾﾝ2
100
AcDbLine
 10
569.032745334566
 20
317.6496745148162
 30
0.0
 11
569.032745334566
 21
287.6496745148161
 31
0.0
  0
LINE
  5
289B
330
2C9D
100
AcDbEntity
  8
AM_0
100
AcDbLine
 10
589.5327453345656
 20
312.6496745148163
 30
0.0
 11
589.5327453345656
 21
287.6496745148161
 31
0.0
  0
LINE
  5
289C
330
2C9D
100
AcDbEntity
  8
AM_0
100
AcDbLine
 10
595.532745334566
 20
460.1496795148163
 30
0.0
 11
677.532745334566
 21
460.1496795148163
 31
0.0
  0
LINE
  5
289D
330
2C9D
100
AcDbEntity
  8
AM_0
100
AcDbLine
 10
524.5327453345658
 20
333.9566845148161
 30
0.0
 11
547.532745334566
 21
333.9566845148161
 31
0.0
  0
ARC
  5
289E
330
2C9D
100
AcDbEntity
  8
AM_0
100
AcDbCircle
 10
547.532745334566
 20
343.9566845148162
 30
0.0
 40
10.0
100
AcDbArc
 50
270.0
 51
0.0
  0
ARC
  5
289F
330
2C9D
100
AcDbEntity
  8
AM_0
100
AcDbCircle
 10
586.532745334566
 20
425.5437195148162
 30
0.0
 40
2.00000005
100
AcDbArc
 50
91.99999799999996
 51
180.00001
  0
ARC
  5
28A0
330
2C9D
100
AcDbEntity
  8
AM_0
100
AcDbCircle
 10
587.532745334566
 20
429.5810745148162
 30
0.0
 40
2.00000005
100
AcDbArc
 50
272.0
 51
0.0
  0
LINE
  5
28A1
330
2C9D
100
AcDbEntity
  8
AM_0
100
AcDbLine
 10
586.4629453345659
 20
427.5424395148162
 30
0.0
 11
587.6024953345659
 21
427.5822345148162
 31
0.0
  0
LINE
  5
28A2
330
2C9D
100
AcDbEntity
  8
AM_0
100
AcDbLine
 10
589.5327453345656
 20
457.6496795148162
 30
0.0
 11
595.532745334566
 21
457.6496795148162
 31
0.0
  0
LINE
  5
28A3
330
2C9D
100
AcDbEntity
  8
AM_0
100
AcDbLine
 10
470.5610453345657
 20
604.6708645148161
 30
0.0
 11
547.8817953345659
 21
601.9707645148165
 31
0.0
  0
LINE
  5
28A4
330
2C9D
100
AcDbEntity
  8
ﾁｭｳｼﾝｾﾝ
100
AcDbLine
 10
403.6901453345659
 20
487.6496795148162
 30
0.0
 11
682.9615953345657
 21
487.6496795148162
 31
0.0
  0
ARC
  5
28A5
330
2C9D
100
AcDbEntity
  8
AM_0
100
AcDbCircle
 10
416.5327453345659
 20
606.7509645148162
 30
0.0
 40
2.00000005
100
AcDbArc
 50
91.99999799999996
 51
180.00001
  0
ARC
  5
28A6
330
2C9D
100
AcDbEntity
  8
AM_0
100
AcDbCircle
 10
462.532745334566
 20
603.9482145148163
 30
0.0
 40
5.0
100
AcDbArc
 50
34.88735
 51
88.0
  0
LINE
  5
28A7
330
2C9D
100
AcDbEntity
  8
AM_0
100
AcDbLine
 10
409.5327453345657
 20
607.6497145148159
 30
0.0
 11
409.5327453345657
 21
577.5823645148161
 31
0.0
  0
LINE
  5
28A8
330
2C9D
100
AcDbEntity
  8
AM_0
100
AcDbLine
 10
368.5327953345663
 20
516.1496745148164
 30
0.0
 11
378.5327953345663
 21
516.1496745148164
 31
0.0
  0
LINE
  5
28A9
330
2C9D
100
AcDbEntity
  8
AM_0
100
AcDbLine
 10
365.5142263345663
 20
513.1306885148162
 30
0.0
 11
313.0960393345663
 21
486.4222875148162
 31
0.0
  0
LINE
  5
28AA
330
2C9D
100
AcDbEntity
  8
AM_0
100
AcDbLine
 10
308.7306583345662
 20
485.3338755148162
 30
0.0
 11
279.4973503345663
 21
484.8236065148163
 31
0.0
  0
ARC
  5
28AB
330
2C9D
100
AcDbEntity
  8
AM_0
100
AcDbCircle
 10
273.5327953345663
 20
477.340273514816
 30
0.0
 40
4.0
100
AcDbArc
 50
120.0000000000001
 51
180.0
  0
LINE
  5
28AC
330
2C9D
100
AcDbEntity
  8
AM_0
100
AcDbLine
 10
269.5327953345663
 20
472.1496745148161
 30
0.0
 11
267.5327953345663
 21
470.1496745148163
 31
0.0
  0
LINE
  5
28AD
330
2C9D
100
AcDbEntity
  8
AM_0
100
AcDbLine
 10
277.5671603345663
 20
484.2883175148163
 30
0.0
 11
271.5327953345663
 21
480.8043755148163
 31
0.0
  0
ARC
  5
28AE
330
2C9D
100
AcDbEntity
  8
AM_0
100
AcDbCircle
 10
279.5671603345663
 20
480.8242155148162
 30
0.0
 40
4.0
100
AcDbArc
 50
91.00000000000177
 51
120.0000000000001
  0
ARC
  5
28AF
330
2C9D
100
AcDbEntity
  8
AM_0
100
AcDbCircle
 10
308.5561343345661
 20
495.3323525148163
 30
0.0
 40
10.0
100
AcDbArc
 50
271.0000000000017
 51
297.0000000000016
  0
LINE
  5
28B0
330
2C9D
100
AcDbEntity
  8
AM_0
100
AcDbLine
 10
376.5327953345663
 20
504.1588995148162
 30
0.0
 11
376.5327953345663
 21
484.1243505148162
 31
0.0
  0
ARC
  5
28B1
330
2C9D
100
AcDbEntity
  8
AM_0
100
AcDbCircle
 10
378.5327953345663
 20
484.1243505148162
 30
0.0
 40
2.0
100
AcDbArc
 50
180.0
 51
239.9999999999999
  0
LINE
  5
28B2
330
2C9D
100
AcDbEntity
  8
AM_0
100
AcDbLine
 10
368.5327953345663
 20
482.1243505148163
 30
0.0
 11
376.5327953345663
 21
482.1243505148163
 31
0.0
  0
ARC
  5
28B3
330
2C9D
100
AcDbEntity
  8
AM_0
100
AcDbCircle
 10
368.5327953345663
 20
514.1496745148161
 30
0.0
 40
2.0
100
AcDbArc
 50
90.0
 51
169.003056999997
  0
ARC
  5
28B4
330
2C9D
100
AcDbEntity
  8
AM_0
100
AcDbCircle
 10
364.6062453345663
 20
514.9127015148162
 30
0.0
 40
2.0
100
AcDbArc
 50
297.0000000000016
 51
349.0030569999968
  0
LINE
  5
28B5
330
2C9D
100
AcDbEntity
  8
AM_0
100
AcDbLine
 10
368.5327953345663
 20
506.1588995148163
 30
0.0
 11
374.5327953345663
 21
506.1588995148163
 31
0.0
  0
ARC
  5
28B6
330
2C9D
100
AcDbEntity
  8
AM_0
100
AcDbCircle
 10
368.5327953345663
 20
504.1588995148162
 30
0.0
 40
2.0
100
AcDbArc
 50
90.0
 51
180.0
  0
ARC
  5
28B7
330
2C9D
100
AcDbEntity
  8
AM_0
100
AcDbCircle
 10
374.5327953345663
 20
504.1588995148162
 30
0.0
 40
2.0
100
AcDbArc
 50
0.0
 51
90.0
  0
LINE
  5
28B8
330
2C9D
100
AcDbEntity
  8
AM_0
100
AcDbLine
 10
467.5327453345659
 20
603.9482145148163
 30
0.0
 11
467.5327453345659
 21
479.7556645148159
 31
0.0
  0
LINE
  5
28B9
330
2C9D
100
AcDbEntity
  8
AM_0
100
AcDbLine
 10
378.5327953345657
 20
482.1243795148162
 30
0.0
 11
394.0327453345659
 21
482.1243795148162
 31
0.0
  0
ARC
  5
28BA
330
2C9D
100
AcDbEntity
  8
AM_0
100
AcDbCircle
 10
389.0327453345659
 20
521.5193995148163
 30
0.0
 40
5.0
100
AcDbArc
 50
272.0
 51
0.0
  0
LINE
  5
28BB
330
2C9D
100
AcDbEntity
  8
AM_0
100
AcDbLine
 10
378.5327953345657
 20
504.2297245148161
 30
0.0
 11
394.0327453345659
 21
504.2297245148161
 31
0.0
  0
LINE
  5
28BC
330
2C9D
100
AcDbEntity
  8
AM_0
100
AcDbLine
 10
378.5327453345658
 20
516.1496795148162
 30
0.0
 11
389.207245334566
 21
516.5224195148161
 31
0.0
  0
LINE
  5
28BD
330
2C9D
100
AcDbEntity
  8
AM_0
100
AcDbLine
 10
447.5327453345657
 20
479.7556645148159
 30
0.0
 11
467.5327453345659
 21
479.7556645148159
 31
0.0
  0
LINE
  5
28BE
330
2C9D
100
AcDbEntity
  8
AM_0
100
AcDbLine
 10
395.429895334566
 20
552.4134645148161
 30
0.0
 11
408.8342453345656
 21
575.0333645148161
 31
0.0
  0
ARC
  5
28BF
330
2C9D
100
AcDbEntity
  8
AM_0
100
AcDbCircle
 10
404.0327453345659
 20
547.3154645148163
 30
0.0
 40
10.0
100
AcDbArc
 50
149.34933
 51
180.00001
  0
ARC
  5
28C0
330
2C9D
100
AcDbEntity
  8
AM_0
100
AcDbCircle
 10
404.5327453345656
 20
577.5823645148161
 30
0.0
 40
5.0
100
AcDbArc
 50
329.34933
 51
0.0
  0
ARC
  5
28C1
330
2C9D
100
AcDbEntity
  8
AM_0
100
AcDbCircle
 10
409.5327453345657
 20
586.0198645148162
 30
0.0
 40
5.0
100
AcDbArc
 50
329.34933
 51
0.0
  0
LINE
  5
28C2
330
2C9D
100
AcDbEntity
  8
AM_0
100
AcDbLine
 10
408.8342453345656
 20
575.0333645148161
 30
0.0
 11
413.834245334566
 21
583.4708645148161
 31
0.0
  0
ARC
  5
28C3
330
2C9D
100
AcDbEntity
  8
AM_0
100
AcDbCircle
 10
470.735545334566
 20
609.6679145148161
 30
0.0
 40
5.0
100
AcDbArc
 50
214.8873399999999
 51
268.0
  0
ARC
  5
28C4
330
2C9D
100
AcDbEntity
  8
AM_0
100
AcDbCircle
 10
424.5327453345656
 20
635.6496645148163
 30
0.0
 40
25.0000005
100
AcDbArc
 50
306.46672
 51
233.53329
  0
CIRCLE
  5
28C5
330
2C9D
100
AcDbEntity
  8
AM_0
100
AcDbCircle
 10
424.5327453345656
 20
635.6496645148163
 30
0.0
 40
15.0
  0
LINE
  5
28C6
330
2C9D
100
AcDbEntity
  8
AM_0
100
AcDbLine
 10
424.5327953345656
 20
620.6497145148163
 30
0.0
 11
434.010895334566
 21
618.7706645148161
 31
0.0
  0
LINE
  5
28C7
330
2C9D
100
AcDbEntity
  8
AM_0
100
AcDbLine
 10
414.7386953345661
 20
618.6496645148158
 30
0.0
 11
434.3267453345657
 21
618.6496645148158
 31
0.0
  0
LINE
  5
28C8
330
2C9D
100
AcDbEntity
  8
AM_0
100
AcDbLine
 10
416.4629453345659
 20
608.7497645148161
 30
0.0
 11
442.2327453345657
 21
609.6496645148159
 31
0.0
  0
LINE
  5
28C9
330
2C9D
100
AcDbEntity
  8
AM_0
100
AcDbLine
 10
411.5327453345659
 20
609.6496645148159
 30
0.0
 11
442.5327453345659
 21
609.6496645148159
 31
0.0
  0
LINE
  5
28CA
330
2C9D
100
AcDbEntity
  8
AM_0
100
AcDbLine
 10
415.0547953345656
 20
618.7706645148161
 30
0.0
 11
424.5327453345656
 21
620.6496645148163
 31
0.0
  0
ARC
  5
28CB
330
2C9D
100
AcDbEntity
  8
AM_0
100
AcDbCircle
 10
406.107695334566
 20
610.7193645148163
 30
0.0
 40
6.0
100
AcDbArc
 50
349.72995
 51
53.53329100000001
  0
ARC
  5
28CC
330
2C9D
100
AcDbEntity
  8
AM_0
100
AcDbCircle
 10
415.2491953345658
 20
617.7897645148163
 30
0.0
 40
1.0
100
AcDbArc
 50
101.21329
 51
164.99999
  0
ARC
  5
28CD
330
2C9D
100
AcDbEntity
  8
AM_0
100
AcDbCircle
 10
411.5327453345659
 20
607.6497145148159
 30
0.0
 40
2.00000005
100
AcDbArc
 50
90.00000300000001
 51
180.00001
  0
LINE
  5
28CE
330
2C9D
100
AcDbEntity
  8
AM_0
100
AcDbLine
 10
412.0327453345656
 20
609.6496645148159
 30
0.0
 11
414.2832453345656
 21
618.0486145148163
 31
0.0
  0
LINE
  5
28CF
330
2C9D
100
AcDbEntity
  8
AM_0
100
AcDbLine
 10
442.5327953345656
 20
609.6496645148159
 30
0.0
 11
462.7072453345658
 21
608.9451145148164
 31
0.0
  0
ARC
  5
28D0
330
2C9D
100
AcDbEntity
  8
AM_0
100
AcDbCircle
 10
442.9577453345658
 20
610.7193645148163
 30
0.0
 40
6.0
100
AcDbArc
 50
126.4666999999999
 51
190.27006
  0
ARC
  5
28D1
330
2C9D
100
AcDbEntity
  8
AM_0
100
AcDbCircle
 10
433.8163953345659
 20
617.7897645148163
 30
0.0
 40
1.0
100
AcDbArc
 50
15.0
 51
78.78671
  0
LINE
  5
28D2
330
2C9D
100
AcDbEntity
  8
AM_0
100
AcDbLine
 10
437.0327953345657
 20
609.6495645148162
 30
0.0
 11
434.782295334566
 21
618.0485645148161
 31
0.0
  0
LINE
  5
28D3
330
2C9D
100
AcDbEntity
  8
AM_0
100
AcDbLine
 10
595.532745334566
 20
515.1496795148159
 30
0.0
 11
677.532745334566
 21
515.1496795148159
 31
0.0
  0
ARC
  5
28D4
330
2C9D
100
AcDbEntity
  8
AM_0
100
AcDbCircle
 10
539.5327453345656
 20
524.6073195148162
 30
0.0
 40
15.0
100
AcDbArc
 50
90.00000300000001
 51
180.00001
  0
LINE
  5
28D5
330
2C9D
100
AcDbEntity
  8
AM_0
100
AcDbLine
 10
589.5327453345656
 20
517.6496795148159
 30
0.0
 11
595.532745334566
 21
517.6496795148159
 31
0.0
  0
LINE
  5
28D6
330
2C9D
100
AcDbEntity
  8
AM_0
100
AcDbLine
 10
539.5327453345656
 20
539.6073145148161
 30
0.0
 11
557.532745334566
 21
539.6073145148161
 31
0.0
  0
ARC
  5
28D7
330
2C9D
100
AcDbEntity
  8
AM_0
100
AcDbCircle
 10
579.5327453345658
 20
568.0679645148162
 30
0.0
 40
5.0
100
AcDbArc
 50
0.0
 51
84.99999699999998
  0
ARC
  5
28D8
330
2C9D
100
AcDbEntity
  8
AM_0
100
AcDbCircle
 10
586.532745334566
 20
549.7556645148163
 30
0.0
 40
2.00000005
100
AcDbArc
 50
179.9999899999999
 51
268.0000099999999
  0
ARC
  5
28D9
330
2C9D
100
AcDbEntity
  8
AM_0
100
AcDbCircle
 10
587.532745334566
 20
545.7183145148162
 30
0.0
 40
2.00000005
100
AcDbArc
 50
0.0
 51
88.0
  0
LINE
  5
28DA
330
2C9D
100
AcDbEntity
  8
AM_0
100
AcDbLine
 10
586.463045334566
 20
547.7568645148162
 30
0.0
 11
587.602645334566
 21
547.7171145148163
 31
0.0
  0
LINE
  5
28DB
330
2C9D
100
AcDbEntity
  8
AM_0
100
AcDbLine
 10
566.6610953345657
 20
574.2132645148163
 30
0.0
 11
579.9683953345661
 21
573.0490145148161
 31
0.0
  0
ARC
  5
28DC
330
2C9D
100
AcDbEntity
  8
AM_0
100
AcDbCircle
 10
567.5327453345659
 20
584.1751645148161
 30
0.0
 40
10.0
100
AcDbArc
 50
179.9999899999999
 51
265.0
  0
ARC
  5
28DD
330
2C9D
100
AcDbEntity
  8
AM_0
100
AcDbCircle
 10
547.532745334566
 20
591.9768645148161
 30
0.0
 40
10.0
100
AcDbArc
 50
0.0
 51
88.0
  0
LINE
  5
28DE
330
2C9D
100
AcDbEntity
  8
AM_0
100
AcDbLine
 10
615.532745334566
 20
519.1496795148159
 30
0.0
 11
677.532745334566
 21
519.1496795148159
 31
0.0
  0
LINE
  5
28DF
330
2C9D
100
AcDbEntity
  8
AM_0
100
AcDbLine
 10
615.532745334566
 20
519.1496795148159
 30
0.0
 11
615.532745334566
 21
515.1496795148159
 31
0.0
  0
LINE
  5
28E0
330
2C9D
100
AcDbEntity
  8
AM_0
100
AcDbLine
 10
880.1630314335524
 20
329.6495970148161
 30
0.0
 11
880.1630314335524
 21
472.6496320148163
 31
0.0
  0
LINE
  5
28E1
330
2C9D
100
AcDbEntity
  8
ﾁｭｳｼﾝｾﾝ
100
AcDbLine
 10
980.1630314335524
 20
281.6496120148162
 30
0.0
 11
980.1630314335524
 21
663.6489170148161
 31
0.0
  0
LINE
  5
28E2
330
2C9D
100
AcDbEntity
  8
AM_0
100
AcDbLine
 10
863.1630114335521
 20
394.6135270148161
 30
0.0
 11
863.1630114335521
 21
538.5834170148163
 31
0.0
  0
LINE
  5
28E3
330
2C9D
100
AcDbEntity
  8
AM_0
100
AcDbLine
 10
815.1630614335521
 20
317.6496270148163
 30
0.0
 11
853.3604114335524
 21
514.1579320148162
 31
0.0
  0
LINE
  5
28E4
330
2C9D
100
AcDbEntity
  8
AM_0
100
AcDbLine
 10
1080.163001433551
 20
329.6495970148161
 30
0.0
 11
1080.163001433551
 21
472.6496320148163
 31
0.0
  0
LINE
  5
28E5
330
2C9D
100
AcDbEntity
  8
AM_0
100
AcDbLine
 10
1097.163001433551
 20
394.6135270148161
 30
0.0
 11
1097.163001433551
 21
538.5834170148163
 31
0.0
  0
LINE
  5
28E6
330
2C9D
100
AcDbEntity
  8
AM_0
100
AcDbLine
 10
1145.163021433551
 20
317.6496270148163
 30
0.0
 11
1106.96567643355
 21
514.1579620148162
 31
0.0
  0
ARC
  5
28E7
330
2C9D
100
AcDbEntity
  8
AM_0
100
AcDbCircle
 10
980.1630314335524
 20
487.6496320148162
 30
0.0
 40
27.5000005
100
AcDbArc
 50
106.91239
 51
73.087597
  0
ARC
  5
28E8
330
2C9D
100
AcDbEntity
  8
AM_0
100
AcDbCircle
 10
980.1630314335524
 20
487.6496320148162
 30
0.0
 40
60.0
100
AcDbArc
 50
90.00000300000001
 51
270.0
  0
ARC
  5
28E9
330
2C9D
100
AcDbEntity
  8
AM_0
100
AcDbCircle
 10
980.1630314335524
 20
487.6496320148162
 30
0.0
 40
60.0
100
AcDbArc
 50
270.0
 51
90.00000300000001
  0
LINE
  5
28EA
330
2C9D
100
AcDbEntity
  8
AM_0
100
AcDbLine
 10
980.1630314335524
 20
303.6496270148162
 30
0.0
 11
921.1536914335523
 21
303.6496270148162
 31
0.0
  0
LINE
  5
28EB
330
2C9D
100
AcDbEntity
  8
AM_0
100
AcDbLine
 10
980.1630314335524
 20
294.6495970148161
 30
0.0
 11
890.1630314335521
 21
294.6495970148161
 31
0.0
  0
LINE
  5
28EC
330
2C9D
100
AcDbEntity
  8
ﾁｭｳｼﾝｾﾝ1
100
AcDbLine
 10
847.6630114335524
 20
322.3108820148162
 30
0.0
 11
847.6630114335524
 21
284.6496270148161
 31
0.0
  0
ARC
  5
28ED
330
2C9D
100
AcDbEntity
  8
AM_0
100
AcDbCircle
 10
820.1630114335522
 20
312.6496270148162
 30
0.0
 40
5.0
100
AcDbArc
 50
90.00000300000001
 51
180.00001
  0
ARC
  5
28EE
330
2C9D
100
AcDbEntity
  8
AM_0
100
AcDbCircle
 10
868.1630014335521
 20
329.6495970148161
 30
0.0
 40
12.0
100
AcDbArc
 50
270.0
 51
0.0
  0
ARC
  5
28EF
330
2C9D
100
AcDbEntity
  8
AM_0
100
AcDbCircle
 10
880.1630314335524
 20
312.6496270148162
 30
0.0
 40
5.0
100
AcDbArc
 50
0.0
 51
90.00000300000001
  0
LINE
  5
28F0
330
2C9D
100
AcDbEntity
  8
AM_0
100
AcDbLine
 10
880.1630314335524
 20
317.6496270148163
 30
0.0
 11
820.1630114335522
 21
317.6496270148163
 31
0.0
  0
LINE
  5
28F1
330
2C9D
100
AcDbEntity
  8
AM_0
100
AcDbLine
 10
885.1630314335524
 20
287.6496270148162
 30
0.0
 11
815.1630114335523
 21
287.6496270148162
 31
0.0
  0
LINE
  5
28F2
330
2C9D
100
AcDbEntity
  8
AM_0
100
AcDbLine
 10
815.1630114335523
 20
317.6496270148163
 30
0.0
 11
815.1630114335523
 21
287.6496270148162
 31
0.0
  0
LINE
  5
28F3
330
2C9D
100
AcDbEntity
  8
ｶｸﾚｾﾝ2
100
AcDbLine
 10
838.1630114335521
 20
317.6496270148163
 30
0.0
 11
838.1630114335521
 21
287.6496270148162
 31
0.0
  0
LINE
  5
28F4
330
2C9D
100
AcDbEntity
  8
ｶｸﾚｾﾝ2
100
AcDbLine
 10
857.1630114335523
 20
317.6496270148163
 30
0.0
 11
857.1630114335523
 21
287.6496270148162
 31
0.0
  0
ARC
  5
28F5
330
2C9D
100
AcDbEntity
  8
AM_0
100
AcDbCircle
 10
903.3534914335524
 20
301.697937014816
 30
0.0
 40
10.0
100
AcDbArc
 50
54.999999
 51
135.0
  0
LINE
  5
28F6
330
2C9D
100
AcDbEntity
  8
AM_0
100
AcDbLine
 10
885.1630314335524
 20
312.6496270148162
 30
0.0
 11
885.1630314335524
 21
287.6496270148162
 31
0.0
  0
ARC
  5
28F7
330
2C9D
100
AcDbEntity
  8
AM_0
100
AcDbCircle
 10
895.1630314335524
 20
293.507477014816
 30
0.0
 40
10.0
100
AcDbArc
 50
135.0
 51
180.00001
  0
ARC
  5
28F8
330
2C9D
100
AcDbEntity
  8
AM_0
100
AcDbCircle
 10
890.1630314335521
 20
289.649597014816
 30
0.0
 40
5.0
100
AcDbArc
 50
90.00000300000001
 51
180.00001
  0
LINE
  5
28F9
330
2C9D
100
AcDbEntity
  8
AM_0
100
AcDbLine
 10
888.0919564335524
 20
300.5785520148161
 30
0.0
 11
896.2824464335524
 21
308.7690120148161
 31
0.0
  0
ARC
  5
28FA
330
2C9D
100
AcDbEntity
  8
AM_0
100
AcDbCircle
 10
921.1536914335523
 20
313.6496270148161
 30
0.0
 40
10.0
100
AcDbArc
 50
235.0
 51
270.0
  0
LINE
  5
28FB
330
2C9D
100
AcDbEntity
  8
AM_0
100
AcDbLine
 10
915.4179114335519
 20
305.4581320148161
 30
0.0
 11
909.0892414335526
 21
309.8894970148161
 31
0.0
  0
ARC
  5
28FC
330
2C9D
100
AcDbEntity
  8
AM_0
100
AcDbCircle
 10
980.1630314335524
 20
394.6495970148162
 30
0.0
 40
117.0
100
AcDbArc
 50
179.9999899999999
 51
211.2732999999999
  0
ARC
  5
28FD
330
2C9D
100
AcDbEntity
  8
AM_0
100
AcDbCircle
 10
1140.163001433551
 20
312.6496270148162
 30
0.0
 40
5.0
100
AcDbArc
 50
0.0
 51
90.00000300000001
  0
LINE
  5
28FE
330
2C9D
100
AcDbEntity
  8
ﾁｭｳｼﾝｾﾝ1
100
AcDbLine
 10
1112.663001433552
 20
322.3108820148162
 30
0.0
 11
1112.663001433552
 21
284.6496270148161
 31
0.0
  0
ARC
  5
28FF
330
2C9D
100
AcDbEntity
  8
AM_0
100
AcDbCircle
 10
1092.163001433551
 20
329.6495970148161
 30
0.0
 40
12.0
100
AcDbArc
 50
180.00001
 51
270.0
  0
ARC
  5
2900
330
2C9D
100
AcDbEntity
  8
AM_0
100
AcDbCircle
 10
1080.163001433551
 20
312.6496270148162
 30
0.0
 40
5.0
100
AcDbArc
 50
90.00000300000001
 51
180.00001
  0
ARC
  5
2901
330
2C9D
100
AcDbEntity
  8
AM_0
100
AcDbCircle
 10
1039.17231143355
 20
313.6496270148161
 30
0.0
 40
10.0
100
AcDbArc
 50
270.0
 51
305.0
  0
LINE
  5
2902
330
2C9D
100
AcDbEntity
  8
AM_0
100
AcDbLine
 10
980.1630314335524
 20
294.6495970148161
 30
0.0
 11
1070.163001433551
 21
294.6495970148161
 31
0.0
  0
LINE
  5
2903
330
2C9D
100
AcDbEntity
  8
AM_0
100
AcDbLine
 10
980.1630314335524
 20
303.6496270148162
 30
0.0
 11
1039.17231143355
 21
303.6496270148162
 31
0.0
  0
LINE
  5
2904
330
2C9D
100
AcDbEntity
  8
AM_0
100
AcDbLine
 10
1080.163001433551
 20
317.6496270148163
 30
0.0
 11
1140.163001433551
 21
317.6496270148163
 31
0.0
  0
LINE
  5
2905
330
2C9D
100
AcDbEntity
  8
AM_0
100
AcDbLine
 10
1075.163001433552
 20
287.6496270148162
 30
0.0
 11
1145.163006433552
 21
287.6496270148162
 31
0.0
  0
ARC
  5
2906
330
2C9D
100
AcDbEntity
  8
AM_0
100
AcDbCircle
 10
1065.163001433552
 20
293.507477014816
 30
0.0
 40
10.0
100
AcDbArc
 50
0.0
 51
45.00000099999999
  0
ARC
  5
2907
330
2C9D
100
AcDbEntity
  8
AM_0
100
AcDbCircle
 10
1070.163001433551
 20
289.649597014816
 30
0.0
 40
5.0
100
AcDbArc
 50
0.0
 51
90.00000300000001
  0
ARC
  5
2908
330
2C9D
100
AcDbEntity
  8
AM_0
100
AcDbCircle
 10
1056.972511433552
 20
301.697937014816
 30
0.0
 40
10.0
100
AcDbArc
 50
45.00000099999999
 51
125.0
  0
LINE
  5
2909
330
2C9D
100
AcDbEntity
  8
AM_0
100
AcDbLine
 10
1044.908091433552
 20
305.4580970148161
 30
0.0
 11
1051.236761433551
 21
309.8894970148161
 31
0.0
  0
LINE
  5
290A
330
2C9D
100
AcDbEntity
  8
AM_0
100
AcDbLine
 10
1072.234106433552
 20
300.578522014816
 30
0.0
 11
1064.043616433552
 21
308.7690120148161
 31
0.0
  0
LINE
  5
290B
330
2C9D
100
AcDbEntity
  8
AM_0
100
AcDbLine
 10
1075.163001433552
 20
312.6496270148162
 30
0.0
 11
1075.163001433552
 21
287.6496270148162
 31
0.0
  0
LINE
  5
290C
330
2C9D
100
AcDbEntity
  8
ｶｸﾚｾﾝ2
100
AcDbLine
 10
1122.163001433551
 20
317.6496270148163
 30
0.0
 11
1122.163001433551
 21
287.6496270148162
 31
0.0
  0
LINE
  5
290D
330
2C9D
100
AcDbEntity
  8
ｶｸﾚｾﾝ2
100
AcDbLine
 10
1103.163001433552
 20
317.6496270148163
 30
0.0
 11
1103.163001433552
 21
287.6496270148162
 31
0.0
  0
LINE
  5
290E
330
2C9D
100
AcDbEntity
  8
AM_0
100
AcDbLine
 10
1145.163006433552
 20
317.6496270148163
 30
0.0
 11
1145.163006433552
 21
287.6496270148162
 31
0.0
  0
ARC
  5
290F
330
2C9D
100
AcDbEntity
  8
AM_0
100
AcDbCircle
 10
980.1630314335524
 20
394.6495970148162
 30
0.0
 40
117.0
100
AcDbArc
 50
328.7266999999999
 51
0.0
  0
LINE
  5
2910
330
2C9D
100
AcDbEntity
  8
ﾁｭｳｼﾝｾﾝ
100
AcDbLine
 10
1057.844068774093
 20
487.6496320148162
 30
0.0
 11
903.3534914335524
 21
487.6496320148162
 31
0.0
  0
ARC
  5
2911
330
2C9D
100
AcDbEntity
  8
AM_0
100
AcDbCircle
 10
980.1630314335524
 20
472.6496320148163
 30
0.0
 40
100.0
100
AcDbArc
 50
90.00000300000001
 51
180.00001
  0
ARC
  5
2912
330
2C9D
100
AcDbEntity
  8
AM_0
100
AcDbCircle
 10
980.1630314335524
 20
462.6496320148162
 30
0.0
 40
147.0
100
AcDbArc
 50
90.00000300000001
 51
134.5979599999998
  0
ARC
  5
2913
330
2C9D
100
AcDbEntity
  8
AM_0
100
AcDbCircle
 10
980.1630314335524
 20
462.6496320148162
 30
0.0
 40
142.0
100
AcDbArc
 50
90.00000300000001
 51
136.4456399999999
  0
ARC
  5
2914
330
2C9D
100
AcDbEntity
  8
AM_0
100
AcDbCircle
 10
944.6517114335524
 20
496.4127220148163
 30
0.0
 40
93.0
100
AcDbArc
 50
136.4456399999999
 51
169.0
  0
ARC
  5
2915
330
2C9D
100
AcDbEntity
  8
AM_0
100
AcDbCircle
 10
947.1630014335524
 20
496.1160320148159
 30
0.0
 40
100.0
100
AcDbArc
 50
134.5979599999998
 51
180.00001
  0
LINE
  5
2916
330
2C9D
100
AcDbEntity
  8
AM_0
100
AcDbLine
 10
847.1630114335521
 20
496.1160320148159
 30
0.0
 11
847.1630114335521
 21
482.2753320148162
 31
0.0
  0
ARC
  5
2917
330
2C9D
100
AcDbEntity
  8
AM_0
100
AcDbCircle
 10
873.163001433552
 20
538.5834170148163
 30
0.0
 40
10.0
100
AcDbArc
 50
149.4639199999998
 51
180.00001
  0
ARC
  5
2918
330
2C9D
100
AcDbEntity
  8
AM_0
100
AcDbCircle
 10
980.1630314335524
 20
462.6496320148162
 30
0.0
 40
147.0
100
AcDbArc
 50
45.40204299999999
 51
90.00000300000001
  0
ARC
  5
2919
330
2C9D
100
AcDbEntity
  8
AM_0
100
AcDbCircle
 10
980.1630314335524
 20
462.6496320148162
 30
0.0
 40
142.0
100
AcDbArc
 50
43.554364
 51
90.00000300000001
  0
ARC
  5
291A
330
2C9D
100
AcDbEntity
  8
AM_0
100
AcDbCircle
 10
980.1630314335524
 20
472.6496320148163
 30
0.0
 40
100.0
100
AcDbArc
 50
0.0
 51
90.00000300000001
  0
CIRCLE
  5
291B
330
2C9D
100
AcDbEntity
  8
AM_5
100
AcDbCircle
 10
980.1630314335524
 20
487.6496320148162
 30
0.0
 40
6.0
  0
CIRCLE
  5
291C
330
2C9D
100
AcDbEntity
  8
AM_0
100
AcDbCircle
 10
980.1630314335524
 20
487.6496320148162
 30
0.0
 40
4.500000049999997
  0
LINE
  5
291D
330
2C9D
100
AcDbEntity
  8
AM_0
100
AcDbLine
 10
972.1630014335524
 20
509.1496320148162
 30
0.0
 11
972.1630014335524
 21
519.1496320148162
 31
0.0
  0
LINE
  5
291E
330
2C9D
100
AcDbEntity
  8
AM_0
100
AcDbLine
 10
988.1630014335524
 20
509.1496320148162
 30
0.0
 11
988.1630014335524
 21
519.1496320148162
 31
0.0
  0
LINE
  5
291F
330
2C9D
100
AcDbEntity
  8
AM_0
100
AcDbLine
 10
972.1630014335524
 20
509.1496320148162
 30
0.0
 11
988.1630014335524
 21
509.1496320148162
 31
0.0
  0
LINE
  5
2920
330
2C9D
100
AcDbEntity
  8
AM_0
100
AcDbLine
 10
972.1630014335524
 20
519.1496320148162
 30
0.0
 11
988.1630014335524
 21
519.1496320148162
 31
0.0
  0
ARC
  5
2921
330
2C9D
100
AcDbEntity
  8
AM_0
100
AcDbCircle
 10
1015.674291433552
 20
496.4127220148163
 30
0.0
 40
93.0
100
AcDbArc
 50
11.0
 51
43.554364
  0
ARC
  5
2922
330
2C9D
100
AcDbEntity
  8
AM_0
100
AcDbCircle
 10
1013.163001433551
 20
496.1160320148159
 30
0.0
 40
100.0
100
AcDbArc
 50
0.0
 51
45.40204299999999
  0
LINE
  5
2923
330
2C9D
100
AcDbEntity
  8
AM_0
100
AcDbLine
 10
1113.163016433552
 20
496.1160320148159
 30
0.0
 11
1113.163016433552
 21
482.2753320148162
 31
0.0
  0
ARC
  5
2924
330
2C9D
100
AcDbEntity
  8
AM_0
100
AcDbCircle
 10
1087.163001433552
 20
538.5834170148163
 30
0.0
 40
10.0
100
AcDbArc
 50
0.0
 51
30.53608499999999
  0
LINE
  5
2925
330
2C9D
100
AcDbEntity
  8
AM_0
100
AcDbLine
 10
985.1630014335524
 20
619.6583670148161
 30
0.0
 11
989.6410614335524
 21
618.7706170148162
 31
0.0
  0
LINE
  5
2926
330
2C9D
100
AcDbEntity
  8
AM_0
100
AcDbLine
 10
985.1630314335524
 20
655.6496170148163
 30
0.0
 11
985.1630314335524
 21
613.6496170148159
 31
0.0
  0
LINE
  5
2927
330
2C9D
100
AcDbEntity
  8
AM_0
100
AcDbLine
 10
975.1630314335525
 20
655.6496170148163
 30
0.0
 11
975.1630314335525
 21
613.6496170148159
 31
0.0
  0
ARC
  5
2928
330
2C9D
100
AcDbEntity
  8
AM_0
100
AcDbCircle
 10
973.163001433552
 20
613.6496170148159
 30
0.0
 40
2.00000005
100
AcDbArc
 50
270.0
 51
0.0
  0
LINE
  5
2929
330
2C9D
100
AcDbEntity
  8
AM_0
100
AcDbLine
 10
970.6849414335524
 20
618.7706170148162
 30
0.0
 11
975.1630014335519
 21
619.6583670148161
 31
0.0
  0
LINE
  5
292A
330
2C9D
100
AcDbEntity
  8
AM_0
100
AcDbLine
 10
967.5170064335524
 20
609.1046670148163
 30
0.0
 11
969.9135214335525
 21
618.0485170148163
 31
0.0
  0
ARC
  5
292B
330
2C9D
100
AcDbEntity
  8
AM_0
100
AcDbCircle
 10
970.8794314335523
 20
617.7897170148162
 30
0.0
 40
1.0
100
AcDbArc
 50
101.21329
 51
164.99999
  0
ARC
  5
292C
330
2C9D
100
AcDbEntity
  8
AM_0
100
AcDbCircle
 10
987.1630014335524
 20
613.6496170148159
 30
0.0
 40
2.00000005
100
AcDbArc
 50
179.9999899999999
 51
270.0
  0
ARC
  5
292D
330
2C9D
100
AcDbEntity
  8
AM_0
100
AcDbCircle
 10
980.1630314335524
 20
655.6496170148163
 30
0.0
 40
5.0
100
AcDbArc
 50
359.9999899999998
 51
179.9999899999999
  0
ARC
  5
292E
330
2C9D
100
AcDbEntity
  8
AM_0
100
AcDbCircle
 10
989.4465714335524
 20
617.7897170148162
 30
0.0
 40
1.0
100
AcDbArc
 50
15.0
 51
78.78671
  0
LINE
  5
292F
330
2C9D
100
AcDbEntity
  8
AM_0
100
AcDbLine
 10
992.8090564335525
 20
609.1046170148159
 30
0.0
 11
990.4125414335524
 21
618.0485170148163
 31
0.0
  0
ARC
  5
2930
330
2C9D
100
AcDbEntity
  8
AM_0
100
AcDbCircle
 10
257.5328053345658
 20
918.9693205333627
 30
0.0
 40
4.000000000000055
100
AcDbArc
 50
270.0
 51
90.0
  0
LINE
  5
2931
330
2C9D
100
AcDbEntity
  8
AM_0
100
AcDbLine
 10
229.5328053345659
 20
930.9693205333628
 30
0.0
 11
265.5328053345658
 21
930.9693205333628
 31
0.0
  0
LINE
  5
2932
330
2C9D
100
AcDbEntity
  8
AM_0
100
AcDbLine
 10
229.5328053345659
 20
906.9693205333628
 30
0.0
 11
265.5328053345658
 21
906.9693205333628
 31
0.0
  0
LINE
  5
2933
330
2C9D
100
AcDbEntity
  8
AM_0
100
AcDbLine
 10
229.5328053345659
 20
906.9693205333628
 30
0.0
 11
229.5328053345659
 21
930.9693205333628
 31
0.0
  0
LINE
  5
2934
330
2C9D
100
AcDbEntity
  8
AM_0
100
AcDbLine
 10
229.5328053345659
 20
914.9693205333628
 30
0.0
 11
257.5328053345658
 21
914.9693205333628
 31
0.0
  0
LINE
  5
2935
330
2C9D
100
AcDbEntity
  8
AM_0
100
AcDbLine
 10
229.5328053345659
 20
922.9693205333628
 30
0.0
 11
257.5328053345658
 21
922.9693205333628
 31
0.0
  0
LINE
  5
2936
330
2C9D
100
AcDbEntity
  8
AM_0
100
AcDbLine
 10
257.5328053345658
 20
914.9693205333628
 30
0.0
 11
257.5328053345658
 21
922.9693205333628
 31
0.0
  0
LINE
  5
2937
330
2C9D
100
AcDbEntity
  8
AM_0
100
AcDbLine
 10
376.532805334566
 20
857.4600955333629
 30
0.0
 11
376.532805334566
 21
877.494645533363
 31
0.0
  0
LINE
  5
2938
330
2C9D
100
AcDbEntity
  8
AM_0
100
AcDbLine
 10
313.0960493345658
 20
875.1967075333624
 30
0.0
 11
365.514236334566
 21
848.4883075333621
 31
0.0
  0
LINE
  5
2939
330
2C9D
100
AcDbEntity
  8
AM_0
100
AcDbLine
 10
366.532805334566
 20
850.2139735333626
 30
0.0
 11
366.532805334566
 21
987.7246685333624
 31
0.0
  0
ARC
  5
293A
330
2C9D
100
AcDbEntity
  8
AM_0
100
AcDbCircle
 10
374.532805334566
 20
857.4600955333629
 30
0.0
 40
2.0
100
AcDbArc
 50
270.0
 51
0.0
  0
LINE
  5
293B
330
2C9D
100
AcDbEntity
  8
AM_0
100
AcDbLine
 10
368.532805334566
 20
845.4693205333628
 30
0.0
 11
378.532805334566
 21
845.4693205333628
 31
0.0
  0
ARC
  5
293C
330
2C9D
100
AcDbEntity
  8
AM_0
100
AcDbCircle
 10
368.532805334566
 20
847.4693205333629
 30
0.0
 40
2.0
100
AcDbArc
 50
190.9969430000004
 51
270.0
  0
ARC
  5
293D
330
2C9D
100
AcDbEntity
  8
AM_0
100
AcDbCircle
 10
364.6062553345659
 20
846.7062945333628
 30
0.0
 40
2.0
100
AcDbArc
 50
10.99694300000052
 51
62.99999999999824
  0
ARC
  5
293E
330
2C9D
100
AcDbEntity
  8
AM_0
100
AcDbCircle
 10
368.532805334566
 20
857.4600955333629
 30
0.0
 40
2.0
100
AcDbArc
 50
180.0
 51
270.0
  0
LINE
  5
293F
330
2C9D
100
AcDbEntity
  8
AM_0
100
AcDbLine
 10
368.532805334566
 20
855.4600955333627
 30
0.0
 11
374.532805334566
 21
855.4600955333627
 31
0.0
  0
LINE
  5
2940
330
2C9D
100
AcDbEntity
  8
AM_0
100
AcDbLine
 10
269.5328053345658
 20
948.4693205333627
 30
0.0
 11
267.5328053345658
 21
946.4693205333627
 31
0.0
  0
LINE
  5
2941
330
2C9D
100
AcDbEntity
  8
AM_0
100
AcDbLine
 10
311.0389983345659
 20
879.2452845333624
 30
0.0
 11
311.0389983345659
 21
958.6933565333627
 31
0.0
  0
LINE
  5
2942
330
2C9D
100
AcDbEntity
  8
AM_0
100
AcDbLine
 10
278.4630473345659
 20
879.8138995333626
 30
0.0
 11
278.4630473345659
 21
958.124741533363
 31
0.0
  0
LINE
  5
2943
330
2C9D
100
AcDbEntity
  8
AM_0
100
AcDbLine
 10
269.5328053345658
 20
884.2787215333627
 30
0.0
 11
269.5328053345658
 21
953.6599195333627
 31
0.0
  0
LINE
  5
2944
330
2C9D
100
AcDbEntity
  8
AM_0
100
AcDbLine
 10
267.5328053345658
 20
891.4693205333627
 30
0.0
 11
267.5328053345658
 21
946.4693205333627
 31
0.0
  0
LINE
  5
2945
330
2C9D
100
AcDbEntity
  8
AM_0
100
AcDbLine
 10
279.4973603345658
 20
876.7953885333627
 30
0.0
 11
308.7306683345659
 21
876.2851195333627
 31
0.0
  0
ARC
  5
2946
330
2C9D
100
AcDbEntity
  8
AM_0
100
AcDbCircle
 10
273.5328053345658
 20
884.2787215333627
 30
0.0
 40
4.0
100
AcDbArc
 50
180.0
 51
239.9999999999995
  0
LINE
  5
2947
330
2C9D
100
AcDbEntity
  8
AM_0
100
AcDbLine
 10
271.5328053345658
 20
880.8146205333629
 30
0.0
 11
277.5671703345659
 21
877.3306775333628
 31
0.0
  0
ARC
  5
2948
330
2C9D
100
AcDbEntity
  8
AM_0
100
AcDbCircle
 10
279.5671703345659
 20
880.7947795333628
 30
0.0
 40
4.0
100
AcDbArc
 50
239.9999999999995
 51
269.0000000000015
  0
LINE
  5
2949
330
2C9D
100
AcDbEntity
  8
AM_0
100
AcDbLine
 10
267.5328053345658
 20
891.4693205333627
 30
0.0
 11
269.5328053345658
 21
889.4693205333629
 31
0.0
  0
ARC
  5
294A
330
2C9D
100
AcDbEntity
  8
AM_0
100
AcDbCircle
 10
308.5561443345659
 20
866.2866425333627
 30
0.0
 40
10.0
100
AcDbArc
 50
62.99999999999824
 51
89.00000000000151
  0
LINE
  5
294B
330
2C9D
100
AcDbEntity
  8
AM_0
100
AcDbLine
 10
265.5328053345658
 20
903.9693205333627
 30
0.0
 11
265.5328053345658
 21
933.9693205333627
 31
0.0
  0
LINE
  5
294C
330
2C9D
100
AcDbEntity
  8
AM_0
100
AcDbLine
 10
265.5328053345658
 20
903.9693205333627
 30
0.0
 11
267.5328053345658
 21
903.9693205333627
 31
0.0
  0
LINE
  5
294D
330
2C9D
100
AcDbEntity
  8
AM_0
100
AcDbLine
 10
265.5328053345658
 20
933.9693205333627
 30
0.0
 11
267.5328053345658
 21
933.9693205333627
 31
0.0
  0
LINE
  5
294E
330
2C9D
100
AcDbEntity
  8
AM_0
100
AcDbLine
 10
368.532805334566
 20
879.4946455333629
 30
0.0
 11
376.532805334566
 21
879.4946455333629
 31
0.0
  0
ARC
  5
294F
330
2C9D
100
AcDbEntity
  8
AM_0
100
AcDbCircle
 10
378.532805334566
 20
877.494645533363
 30
0.0
 40
2.0
100
AcDbArc
 50
120.0000000000005
 51
180.0
  0
LINE
  5
2950
330
2C9D
100
AcDbEntity
  8
AM_0
100
AcDbLine
 10
365.514236334566
 20
989.450334533363
 30
0.0
 11
313.0960493345658
 21
962.7419335333627
 31
0.0
  0
LINE
  5
2951
330
2C9D
100
AcDbEntity
  8
AM_0
100
AcDbLine
 10
308.7306683345659
 20
961.6535215333627
 30
0.0
 11
279.4973603345658
 21
961.1432525333624
 31
0.0
  0
LINE
  5
2952
330
2C9D
100
AcDbEntity
  8
AM_0
100
AcDbLine
 10
277.5671703345659
 20
960.6079635333626
 30
0.0
 11
271.5328053345658
 21
957.1240215333624
 31
0.0
  0
ARC
  5
2953
330
2C9D
100
AcDbEntity
  8
AM_0
100
AcDbCircle
 10
273.5328053345658
 20
953.6599195333627
 30
0.0
 40
4.0
100
AcDbArc
 50
120.0000000000005
 51
180.0
  0
ARC
  5
2954
330
2C9D
100
AcDbEntity
  8
AM_0
100
AcDbCircle
 10
279.5671703345659
 20
957.1438615333628
 30
0.0
 40
4.0
100
AcDbArc
 50
90.9999999999985
 51
120.0000000000005
  0
ARC
  5
2955
330
2C9D
100
AcDbEntity
  8
AM_0
100
AcDbCircle
 10
308.5561443345659
 20
971.6519985333624
 30
0.0
 40
10.0
100
AcDbArc
 50
270.9999999999984
 51
296.999999999998
  0
ARC
  5
2956
330
2C9D
100
AcDbEntity
  8
AM_0
100
AcDbCircle
 10
364.6062553345659
 20
991.2323475333627
 30
0.0
 40
2.0
100
AcDbArc
 50
296.999999999998
 51
349.0030569999992
  0
LINE
  5
2957
330
2C9D
100
AcDbEntity
  8
AM_0
100
AcDbLine
 10
376.532805334566
 20
980.4785455333627
 30
0.0
 11
376.532805334566
 21
960.4439965333627
 31
0.0
  0
LINE
  5
2958
330
2C9D
100
AcDbEntity
  8
AM_0
100
AcDbLine
 10
368.532805334566
 20
958.4439965333627
 30
0.0
 11
376.532805334566
 21
958.4439965333627
 31
0.0
  0
ARC
  5
2959
330
2C9D
100
AcDbEntity
  8
AM_0
100
AcDbCircle
 10
378.532805334566
 20
960.4439965333627
 30
0.0
 40
2.0
100
AcDbArc
 50
180.0
 51
239.9999999999995
  0
ARC
  5
295A
330
2C9D
100
AcDbEntity
  8
AM_0
100
AcDbCircle
 10
374.532805334566
 20
980.4785455333627
 30
0.0
 40
2.0
100
AcDbArc
 50
0.0
 51
90.0
  0
ARC
  5
295B
330
2C9D
100
AcDbEntity
  8
AM_0
100
AcDbCircle
 10
368.532805334566
 20
980.4785455333627
 30
0.0
 40
2.0
100
AcDbArc
 50
90.0
 51
180.0
  0
LINE
  5
295C
330
2C9D
100
AcDbEntity
  8
AM_0
100
AcDbLine
 10
368.532805334566
 20
982.4785455333627
 30
0.0
 11
374.532805334566
 21
982.4785455333627
 31
0.0
  0
LINE
  5
295D
330
2C9D
100
AcDbEntity
  8
AM_0
100
AcDbLine
 10
368.532805334566
 20
992.4693205333626
 30
0.0
 11
378.532805334566
 21
992.4693205333626
 31
0.0
  0
ARC
  5
295E
330
2C9D
100
AcDbEntity
  8
AM_0
100
AcDbCircle
 10
368.532805334566
 20
990.4693205333627
 30
0.0
 40
2.0
100
AcDbArc
 50
90.0
 51
169.0030569999995
  0
LINE
  5
2960
330
2C9D
100
AcDbEntity
  8
ﾁｭｳｼﾝｾﾝ
100
AcDbLine
 10
224.2352195698877
 20
918.9693210333627
 30
0.0
 11
682.9615953345657
 21
918.9693210333627
 31
0.0
  0
ARC
  5
2961
330
2C9D
100
AcDbEntity
  8
AM_0
100
AcDbCircle
 10
409.5328053345658
 20
905.7405610333628
 30
0.0
 40
5.0
100
AcDbArc
 50
0.0
 51
41.40962400000026
  0
LINE
  5
2962
330
2C9D
100
AcDbEntity
  8
AM_0
100
AcDbLine
 10
442.5328053345658
 20
913.9693210333627
 30
0.0
 11
442.5328053345658
 21
785.9693210333627
 31
0.0
  0
LINE
  5
2963
330
2C9D
100
AcDbEntity
  8
AM_0
100
AcDbLine
 10
394.0327453345659
 20
812.5136310333623
 30
0.0
 11
394.0327453345659
 21
1025.425011033361
 31
0.0
  0
LINE
  5
2964
330
2C9D
100
AcDbEntity
  8
AM_0
100
AcDbLine
 10
467.5327453345659
 20
786.8423010333629
 30
0.0
 11
467.5327453345659
 21
1051.096271033362
 31
0.0
  0
LINE
  5
2965
330
2C9D
100
AcDbEntity
  8
AM_0
100
AcDbLine
 10
557.532805334566
 20
810.8471910333623
 30
0.0
 11
557.532805334566
 21
1027.091391033362
 31
0.0
  0
LINE
  5
2966
330
2C9D
100
AcDbEntity
  8
AM_0
100
AcDbLine
 10
584.5328053345657
 20
1016.340291033362
 30
0.0
 11
584.5328053345657
 21
821.5983510333627
 31
0.0
  0
LINE
  5
2967
330
2C9D
100
AcDbEntity
  8
AM_0
100
AcDbLine
 10
589.5328053345657
 20
977.0379210333627
 30
0.0
 11
589.5328053345657
 21
860.9007110333624
 31
0.0
  0
LINE
  5
2968
330
2C9D
100
AcDbEntity
  8
AM_0
100
AcDbLine
 10
595.532745334566
 20
948.9693210333625
 30
0.0
 11
595.532745334566
 21
888.9693210333629
 31
0.0
  0
LINE
  5
2969
330
2C9D
100
AcDbEntity
  8
AM_0
100
AcDbLine
 10
677.532745334566
 20
946.4693210333624
 30
0.0
 11
677.532745334566
 21
891.4693210333627
 31
0.0
  0
LINE
  5
296A
330
2C9D
100
AcDbEntity
  8
AM_0
100
AcDbLine
 10
378.532805334566
 20
845.4693210333623
 30
0.0
 11
378.532805334566
 21
992.4693210333627
 31
0.0
  0
LINE
  5
296B
330
2C9D
100
AcDbEntity
  8
AM_0
100
AcDbLine
 10
471.6775153345657
 20
790.9870810333627
 30
0.0
 11
521.3727653345658
 21
792.7224310333624
 31
0.0
  0
LINE
  5
296C
330
2C9D
100
AcDbEntity
  8
AM_0
100
AcDbLine
 10
447.5327453345657
 20
753.9692610333627
 30
0.0
 11
584.7073053345654
 21
758.7595410333624
 31
0.0
  0
ARC
  5
296D
330
2C9D
100
AcDbEntity
  8
AM_0
100
AcDbCircle
 10
364.532805334566
 20
761.8708110333624
 30
0.0
 40
5.0
100
AcDbArc
 50
180.0000100000009
 51
268.0000000000026
  0
LINE
  5
296E
330
2C9D
100
AcDbEntity
  8
AM_0
100
AcDbLine
 10
415.0690553345659
 20
755.3113010333627
 30
0.0
 11
445.532805334566
 21
766.0823510333629
 31
0.0
  0
LINE
  5
296F
330
2C9D
100
AcDbEntity
  8
AM_0
100
AcDbLine
 10
447.5328053345658
 20
753.9693210333622
 30
0.0
 11
364.3583053345659
 21
756.8738610333625
 31
0.0
  0
LINE
  5
2970
330
2C9D
100
AcDbEntity
  8
AM_0
100
AcDbLine
 10
442.5328053345658
 20
785.9693210333627
 30
0.0
 11
419.3583053345657
 21
786.7785810333624
 31
0.0
  0
LINE
  5
2971
330
2C9D
100
AcDbEntity
  8
AM_0
100
AcDbLine
 10
418.5328053345658
 20
767.1426010333624
 30
0.0
 11
445.5328653345656
 21
776.6889810333624
 31
0.0
  0
LINE
  5
2972
330
2C9D
100
AcDbEntity
  8
AM_0
100
AcDbLine
 10
414.5328053345658
 20
791.7755310333624
 30
0.0
 11
414.5328053345658
 21
905.7405610333628
 31
0.0
  0
CIRCLE
  5
2973
330
2C9D
100
AcDbEntity
  8
AM_0
100
AcDbCircle
 10
389.532805334566
 20
786.4693210333625
 30
0.0
 40
9.5
  0
LINE
  5
2974
330
2C9D
100
AcDbEntity
  8
AM_0
100
AcDbLine
 10
363.664515334566
 20
809.1810510333626
 30
0.0
 11
394.0327453345659
 21
814.5357810333623
 31
0.0
  0
LINE
  5
2975
330
2C9D
100
AcDbEntity
  8
AM_0
100
AcDbLine
 10
359.532805334566
 20
761.8708110333624
 30
0.0
 11
359.532805334566
 21
804.2570410333627
 31
0.0
  0
ARC
  5
2976
330
2C9D
100
AcDbEntity
  8
AM_0
100
AcDbCircle
 10
364.532805334566
 20
804.2570410333627
 30
0.0
 40
5.0
100
AcDbArc
 50
99.99999999999859
 51
180.0
  0
ARC
  5
2977
330
2C9D
100
AcDbEntity
  8
AM_0
100
AcDbCircle
 10
417.5328053345658
 20
769.9710310333625
 30
0.0
 40
3.0
100
AcDbArc
 50
180.0000100000009
 51
289.4720299999971
  0
ARC
  5
2978
330
2C9D
100
AcDbEntity
  8
AM_0
100
AcDbCircle
 10
419.532805334566
 20
791.7755310333624
 30
0.0
 40
5.0
100
AcDbArc
 50
180.0000100000009
 51
268.0000000000026
  0
LINE
  5
2979
330
2C9D
100
AcDbEntity
  8
AM_0
100
AcDbLine
 10
409.7073053345656
 20
807.1378310333628
 30
0.0
 11
398.8582453345657
 21
807.5166810333627
 31
0.0
  0
ARC
  5
297A
330
2C9D
100
AcDbEntity
  8
AM_0
100
AcDbCircle
 10
399.0327453345659
 20
812.5136310333623
 30
0.0
 40
5.0
100
AcDbArc
 50
180.0000100000009
 51
268.0000000000026
  0
ARC
  5
297B
330
2C9D
100
AcDbEntity
  8
AM_0
100
AcDbCircle
 10
409.5328053345658
 20
802.1408310333626
 30
0.0
 40
5.0
100
AcDbArc
 50
0.0
 51
88.00000000000279
  0
LINE
  5
297C
330
2C9D
100
AcDbEntity
  8
AM_0
100
AcDbLine
 10
378.5327453345659
 20
845.4692610333623
 30
0.0
 11
389.2073053345657
 21
845.0965110333623
 31
0.0
  0
LINE
  5
297D
330
2C9D
100
AcDbEntity
  8
AM_0
100
AcDbLine
 10
378.532805334566
 20
879.4945910333623
 30
0.0
 11
394.0327453345659
 21
879.4945910333623
 31
0.0
  0
LINE
  5
297E
330
2C9D
100
AcDbEntity
  8
AM_0
100
AcDbLine
 10
378.532805334566
 20
857.3893610333625
 30
0.0
 11
394.0327453345659
 21
857.3893610333625
 31
0.0
  0
ARC
  5
297F
330
2C9D
100
AcDbEntity
  8
AM_0
100
AcDbCircle
 10
389.0327453345659
 20
840.0995710333628
 30
0.0
 40
5.0
100
AcDbArc
 50
0.0
 51
88.00000000000279
  0
LINE
  5
2980
330
2C9D
100
AcDbEntity
  8
AM_0
100
AcDbLine
 10
467.5328053345658
 20
786.8423010333629
 30
0.0
 11
471.6775153345657
 21
790.9870810333627
 31
0.0
  0
LINE
  5
2981
330
2C9D
100
AcDbEntity
  8
AM_0
100
AcDbLine
 10
442.5327453345659
 20
785.9693210333627
 30
0.0
 11
467.5327453345659
 21
786.8423010333629
 31
0.0
  0
ARC
  5
2982
330
2C9D
100
AcDbEntity
  8
AM_0
100
AcDbCircle
 10
444.532805334566
 20
779.5174110333625
 30
0.0
 40
3.0
100
AcDbArc
 50
289.4720200000018
 51
0.0
  0
LINE
  5
2983
330
2C9D
100
AcDbEntity
  8
AM_0
100
AcDbLine
 10
447.5328053345658
 20
768.9107210333627
 30
0.0
 11
447.5328053345658
 21
786.1438810333627
 31
0.0
  0
ARC
  5
2984
330
2C9D
100
AcDbEntity
  8
AM_0
100
AcDbCircle
 10
444.532805334566
 20
768.9107210333627
 30
0.0
 40
3.0
100
AcDbArc
 50
289.4720200000018
 51
0.0
  0
ARC
  5
2985
330
2C9D
100
AcDbEntity
  8
AM_0
100
AcDbCircle
 10
529.5328053345659
 20
761.8358310333627
 30
0.0
 40
5.0
100
AcDbArc
 50
180.0000100000009
 51
271.9999900000014
  0
ARC
  5
2986
330
2C9D
100
AcDbEntity
  8
AM_0
100
AcDbCircle
 10
584.5328053345657
 20
763.7564910333622
 30
0.0
 40
5.0
100
AcDbArc
 50
271.9999999999971
 51
0.0
  0
LINE
  5
2987
330
2C9D
100
AcDbEntity
  8
AM_0
100
AcDbLine
 10
589.5328053345657
 20
888.9693210333629
 30
0.0
 11
595.532745334566
 21
888.9693210333629
 31
0.0
  0
ARC
  5
2988
330
2C9D
100
AcDbEntity
  8
AM_0
100
AcDbCircle
 10
549.532805334566
 20
810.8471910333623
 30
0.0
 40
8.0
100
AcDbArc
 50
271.9999999999971
 51
0.0
  0
CIRCLE
  5
2989
330
2C9D
100
AcDbEntity
  8
AM_0
100
AcDbCircle
 10
559.5328053345656
 20
786.4693210333625
 30
0.0
 40
9.5
  0
LINE
  5
298A
330
2C9D
100
AcDbEntity
  8
ﾁｭｳｼﾝｾﾝ1
100
AcDbLine
 10
540.0328053345656
 20
786.4693210333625
 30
0.0
 11
579.032805334566
 21
786.4693210333625
 31
0.0
  0
ARC
  5
298B
330
2C9D
100
AcDbEntity
  8
AM_0
100
AcDbCircle
 10
521.1982053345661
 20
797.7194410333627
 30
0.0
 40
5.0
100
AcDbArc
 50
271.9999999999971
 51
334.4264800000029
  0
ARC
  5
298C
330
2C9D
100
AcDbEntity
  8
AM_0
100
AcDbCircle
 10
536.532805334566
 20
790.3810610333627
 30
0.0
 40
12.0
100
AcDbArc
 50
91.99999800000055
 51
180.0000100000009
  0
LINE
  5
298D
330
2C9D
100
AcDbEntity
  8
AM_0
100
AcDbLine
 10
524.532805334566
 20
761.8358310333627
 30
0.0
 11
524.532805334566
 21
790.3810610333627
 31
0.0
  0
LINE
  5
298E
330
2C9D
100
AcDbEntity
  8
AM_0
100
AcDbLine
 10
536.1139753345659
 20
802.3737410333623
 30
0.0
 11
549.811975334566
 21
802.8520710333626
 31
0.0
  0
LINE
  5
298F
330
2C9D
100
AcDbEntity
  8
AM_0
100
AcDbLine
 10
589.5328053345657
 20
763.7564910333622
 30
0.0
 11
589.5328053345657
 21
814.1820910333624
 31
0.0
  0
LINE
  5
2990
330
2C9D
100
AcDbEntity
  8
ﾁｭｳｼﾝｾﾝ1
100
AcDbLine
 10
559.5328053345656
 20
766.9693210333622
 30
0.0
 11
559.5328053345656
 21
805.9693210333627
 31
0.0
  0
LINE
  5
2991
330
2C9D
100
AcDbEntity
  8
AM_0
100
AcDbLine
 10
565.2536253345657
 20
819.2389110333625
 30
0.0
 11
576.811975334566
 21
819.6425310333623
 31
0.0
  0
ARC
  5
2992
330
2C9D
100
AcDbEntity
  8
AM_0
100
AcDbCircle
 10
565.532805334566
 20
811.2437910333627
 30
0.0
 40
8.0
100
AcDbArc
 50
91.99999800000055
 51
180.0000100000009
  0
ARC
  5
2993
330
2C9D
100
AcDbEntity
  8
AM_0
100
AcDbCircle
 10
576.5328053345657
 20
827.6376510333628
 30
0.0
 40
8.0
100
AcDbArc
 50
271.9999999999971
 51
0.0
  0
ARC
  5
2994
330
2C9D
100
AcDbEntity
  8
AM_0
100
AcDbCircle
 10
587.5328053345659
 20
821.5983510333627
 30
0.0
 40
3.0
100
AcDbArc
 50
180.0000100000009
 51
247.9756900000006
  0
ARC
  5
2995
330
2C9D
100
AcDbEntity
  8
AM_0
100
AcDbCircle
 10
584.5328053345657
 20
814.1820910333624
 30
0.0
 40
5.0
100
AcDbArc
 50
0.0
 51
67.97568899999639
  0
ARC
  5
2996
330
2C9D
100
AcDbEntity
  8
AM_0
100
AcDbCircle
 10
586.532805334566
 20
856.8633610333627
 30
0.0
 40
2.0
100
AcDbArc
 50
91.99999800000055
 51
180.0000100000009
  0
ARC
  5
2997
330
2C9D
100
AcDbEntity
  8
AM_0
100
AcDbCircle
 10
587.5328053345659
 20
860.9007110333624
 30
0.0
 40
2.0
100
AcDbArc
 50
271.9999999999971
 51
0.0
  0
LINE
  5
2998
330
2C9D
100
AcDbEntity
  8
AM_0
100
AcDbLine
 10
586.4629753345658
 20
858.8621410333628
 30
0.0
 11
587.6026253345659
 21
858.9019310333624
 31
0.0
  0
LINE
  5
2999
330
2C9D
100
AcDbEntity
  8
AM_0
100
AcDbLine
 10
595.532745334566
 20
891.4693210333627
 30
0.0
 11
677.532745334566
 21
891.4693210333627
 31
0.0
  0
LINE
  5
299A
330
2C9D
100
AcDbEntity
  8
AM_0
100
AcDbLine
 10
447.5328053345658
 20
1083.969321033362
 30
0.0
 11
584.7073053345654
 21
1079.179031033362
 31
0.0
  0
LINE
  5
299B
330
2C9D
100
AcDbEntity
  8
AM_0
100
AcDbLine
 10
471.6775153345657
 20
1046.951491033361
 30
0.0
 11
521.3727653345658
 21
1045.216141033362
 31
0.0
  0
CIRCLE
  5
299C
330
2C9D
100
AcDbEntity
  8
AM_0
100
AcDbCircle
 10
389.532805334566
 20
1051.469321033361
 30
0.0
 40
9.5
  0
LINE
  5
299D
330
2C9D
100
AcDbEntity
  8
AM_0
100
AcDbLine
 10
359.532805334566
 20
1076.067831033362
 30
0.0
 11
359.532805334566
 21
1033.681601033362
 31
0.0
  0
LINE
  5
299E
330
2C9D
100
AcDbEntity
  8
AM_0
100
AcDbLine
 10
447.5328053345658
 20
1069.027851033361
 30
0.0
 11
447.5328053345658
 21
1051.794701033361
 31
0.0
  0
ARC
  5
299F
330
2C9D
100
AcDbEntity
  8
AM_0
100
AcDbCircle
 10
424.532805334566
 20
918.9693210333627
 30
0.0
 40
12.5
100
AcDbArc
 50
203.5781799999973
 51
336.4218300000007
  0
ARC
  5
29A0
330
2C9D
100
AcDbEntity
  8
AM_0
100
AcDbCircle
 10
424.532805334566
 20
918.9693210333627
 30
0.0
 40
12.5
100
AcDbArc
 50
23.57817999999753
 51
156.4218200000024
  0
LINE
  5
29A1
330
2C9D
100
AcDbEntity
  8
AM_0
100
AcDbLine
 10
404.5328053345659
 20
923.9693210333625
 30
0.0
 11
444.532805334566
 21
923.9693210333625
 31
0.0
  0
LINE
  5
29A2
330
2C9D
100
AcDbEntity
  8
AM_0
100
AcDbLine
 10
404.5328053345659
 20
913.9693210333627
 30
0.0
 11
444.532805334566
 21
913.9693210333627
 31
0.0
  0
LINE
  5
29A3
330
2C9D
100
AcDbEntity
  8
AM_0
100
AcDbLine
 10
442.5327453345659
 20
1051.969321033362
 30
0.0
 11
419.3583053345657
 21
1051.159991033361
 31
0.0
  0
LINE
  5
29A4
330
2C9D
100
AcDbEntity
  8
AM_0
100
AcDbLine
 10
414.5328053345658
 20
932.1980810333624
 30
0.0
 11
414.5328053345658
 21
1046.163041033361
 31
0.0
  0
LINE
  5
29A5
330
2C9D
100
AcDbEntity
  8
AM_0
100
AcDbLine
 10
378.532805334566
 20
958.4439910333625
 30
0.0
 11
394.0327453345659
 21
958.4439910333625
 31
0.0
  0
ARC
  5
29A6
330
2C9D
100
AcDbEntity
  8
AM_0
100
AcDbCircle
 10
404.5328053345659
 20
918.9693210333627
 30
0.0
 40
5.0
100
AcDbArc
 50
90.00000299999769
 51
270.0
  0
ARC
  5
29A7
330
2C9D
100
AcDbEntity
  8
AM_0
100
AcDbCircle
 10
424.532805334566
 20
918.9693210333627
 30
0.0
 40
15.0
100
AcDbArc
 50
138.590370000001
 51
160.528769999999
  0
ARC
  5
29A8
330
2C9D
100
AcDbEntity
  8
AM_0
100
AcDbCircle
 10
424.532805334566
 20
918.9693210333627
 30
0.0
 40
15.0
100
AcDbArc
 50
199.4712300000005
 51
221.4096299999988
  0
ARC
  5
29A9
330
2C9D
100
AcDbEntity
  8
AM_0
100
AcDbCircle
 10
409.5328053345658
 20
932.1980810333624
 30
0.0
 40
5.0
100
AcDbArc
 50
318.590370000001
 51
0.0
  0
LINE
  5
29AA
330
2C9D
100
AcDbEntity
  8
AM_0
100
AcDbLine
 10
363.6645753345657
 20
1028.757521033362
 30
0.0
 11
394.032805334566
 21
1023.402791033362
 31
0.0
  0
LINE
  5
29AB
330
2C9D
100
AcDbEntity
  8
AM_0
100
AcDbLine
 10
378.5327453345659
 20
992.4693210333627
 30
0.0
 11
389.207245334566
 21
992.8420610333628
 31
0.0
  0
LINE
  5
29AC
330
2C9D
100
AcDbEntity
  8
AM_0
100
AcDbLine
 10
378.532805334566
 20
980.5493310333627
 30
0.0
 11
394.0327453345659
 21
980.5493310333627
 31
0.0
  0
ARC
  5
29AD
330
2C9D
100
AcDbEntity
  8
AM_0
100
AcDbCircle
 10
364.532805334566
 20
1033.681601033362
 30
0.0
 40
5.0
100
AcDbArc
 50
180.0000100000009
 51
259.9999899999987
  0
ARC
  5
29AE
330
2C9D
100
AcDbEntity
  8
AM_0
100
AcDbCircle
 10
389.0327453345659
 20
997.8390110333624
 30
0.0
 40
5.0
100
AcDbArc
 50
271.9999999999971
 51
0.0
  0
LINE
  5
29AF
330
2C9D
100
AcDbEntity
  8
AM_0
100
AcDbLine
 10
409.7072453345658
 20
1030.800801033362
 30
0.0
 11
398.8582453345657
 21
1030.421951033361
 31
0.0
  0
ARC
  5
29B0
330
2C9D
100
AcDbEntity
  8
AM_0
100
AcDbCircle
 10
399.0327453345659
 20
1025.425011033361
 30
0.0
 40
5.0
100
AcDbArc
 50
91.99999800000055
 51
180.0000100000009
  0
ARC
  5
29B1
330
2C9D
100
AcDbEntity
  8
AM_0
100
AcDbCircle
 10
409.5328053345658
 20
1035.797751033362
 30
0.0
 40
5.0
100
AcDbArc
 50
271.9999999999971
 51
0.0
  0
ARC
  5
29B2
330
2C9D
100
AcDbEntity
  8
AM_0
100
AcDbCircle
 10
419.532805334566
 20
1046.163041033361
 30
0.0
 40
5.0
100
AcDbArc
 50
91.99999800000055
 51
180.0000100000009
  0
LINE
  5
29B3
330
2C9D
100
AcDbEntity
  8
AM_0
100
AcDbLine
 10
442.5328053345658
 20
1051.969321033362
 30
0.0
 11
442.5328053345658
 21
923.9693210333625
 31
0.0
  0
ARC
  5
29B4
330
2C9D
100
AcDbEntity
  8
AM_0
100
AcDbCircle
 10
444.532805334566
 20
918.9693210333627
 30
0.0
 40
5.0
100
AcDbArc
 50
270.0
 51
90.00000299999769
  0
LINE
  5
29B5
330
2C9D
100
AcDbEntity
  8
AM_0
100
AcDbLine
 10
467.5328053345658
 20
1051.096271033362
 30
0.0
 11
471.6775153345657
 21
1046.951561033361
 31
0.0
  0
LINE
  5
29B6
330
2C9D
100
AcDbEntity
  8
AM_0
100
AcDbLine
 10
442.5328053345658
 20
1051.969261033362
 30
0.0
 11
467.5328053345658
 21
1051.096271033362
 31
0.0
  0
LINE
  5
29B7
330
2C9D
100
AcDbEntity
  8
AM_0
100
AcDbLine
 10
415.0690553345659
 20
1082.627341033362
 30
0.0
 11
445.532805334566
 21
1071.856281033362
 31
0.0
  0
LINE
  5
29B8
330
2C9D
100
AcDbEntity
  8
AM_0
100
AcDbLine
 10
418.5328053345658
 20
1070.795981033362
 30
0.0
 11
445.5328653345656
 21
1061.249591033361
 31
0.0
  0
LINE
  5
29B9
330
2C9D
100
AcDbEntity
  8
AM_0
100
AcDbLine
 10
447.5328053345658
 20
1083.969321033362
 30
0.0
 11
364.3582453345656
 21
1081.064781033361
 31
0.0
  0
ARC
  5
29BA
330
2C9D
100
AcDbEntity
  8
AM_0
100
AcDbCircle
 10
364.532805334566
 20
1076.067831033362
 30
0.0
 40
5.0
100
AcDbArc
 50
91.99999800000055
 51
180.0000100000009
  0
ARC
  5
29BB
330
2C9D
100
AcDbEntity
  8
AM_0
100
AcDbCircle
 10
417.5328053345658
 20
1067.967551033362
 30
0.0
 40
3.0
100
AcDbArc
 50
70.52797299999963
 51
180.0000100000009
  0
ARC
  5
29BC
330
2C9D
100
AcDbEntity
  8
AM_0
100
AcDbCircle
 10
444.532805334566
 20
1069.027851033361
 30
0.0
 40
3.0
100
AcDbArc
 50
0.0
 51
70.52797299999963
  0
ARC
  5
29BD
330
2C9D
100
AcDbEntity
  8
AM_0
100
AcDbCircle
 10
444.532805334566
 20
1058.421161033362
 30
0.0
 40
3.0
100
AcDbArc
 50
0.0
 51
70.52797299999963
  0
CIRCLE
  5
29BE
330
2C9D
100
AcDbEntity
  8
AM_0
100
AcDbCircle
 10
559.5328053345656
 20
1051.469321033361
 30
0.0
 40
9.5
  0
LINE
  5
29BF
330
2C9D
100
AcDbEntity
  8
AM_0
100
AcDbLine
 10
589.5328053345657
 20
1074.182091033362
 30
0.0
 11
589.5328053345657
 21
1023.756491033361
 31
0.0
  0
LINE
  5
29C0
330
2C9D
100
AcDbEntity
  8
AM_0
100
AcDbLine
 10
524.532805334566
 20
1076.102741033362
 30
0.0
 11
524.532805334566
 21
1047.557571033362
 31
0.0
  0
LINE
  5
29C1
330
2C9D
100
AcDbEntity
  8
AM_0
100
AcDbLine
 10
589.5328053345657
 20
948.9693210333625
 30
0.0
 11
595.532745334566
 21
948.9693210333625
 31
0.0
  0
ARC
  5
29C2
330
2C9D
100
AcDbEntity
  8
AM_0
100
AcDbCircle
 10
586.532805334566
 20
981.0752710333627
 30
0.0
 40
2.0
100
AcDbArc
 50
180.0000100000009
 51
268.0000000000026
  0
ARC
  5
29C3
330
2C9D
100
AcDbEntity
  8
AM_0
100
AcDbCircle
 10
587.5328053345659
 20
977.0379210333627
 30
0.0
 40
2.0
100
AcDbArc
 50
0.0
 51
88.00000000000279
  0
LINE
  5
29C4
330
2C9D
100
AcDbEntity
  8
AM_0
100
AcDbLine
 10
586.4629753345658
 20
979.0764910333624
 30
0.0
 11
587.6026253345659
 21
979.0367010333623
 31
0.0
  0
ARC
  5
29C5
330
2C9D
100
AcDbEntity
  8
AM_0
100
AcDbCircle
 10
549.532805334566
 20
1027.091391033362
 30
0.0
 40
8.0
100
AcDbArc
 50
0.0
 51
88.00000000000279
  0
ARC
  5
29C6
330
2C9D
100
AcDbEntity
  8
AM_0
100
AcDbCircle
 10
536.532805334566
 20
1047.557571033362
 30
0.0
 40
12.0
100
AcDbArc
 50
180.0000100000009
 51
268.0000000000026
  0
ARC
  5
29C7
330
2C9D
100
AcDbEntity
  8
AM_0
100
AcDbCircle
 10
521.1982053345661
 20
1040.219191033362
 30
0.0
 40
5.0
100
AcDbArc
 50
25.5735169999985
 51
88.00000000000279
  0
LINE
  5
29C8
330
2C9D
100
AcDbEntity
  8
AM_0
100
AcDbLine
 10
536.1139753345659
 20
1035.564841033361
 30
0.0
 11
549.8120353345658
 21
1035.08650103336
 31
0.0
  0
ARC
  5
29C9
330
2C9D
100
AcDbEntity
  8
AM_0
100
AcDbCircle
 10
587.5328053345659
 20
1016.340291033362
 30
0.0
 40
3.0
100
AcDbArc
 50
112.0243099999992
 51
180.0000100000009
  0
ARC
  5
29CA
330
2C9D
100
AcDbEntity
  8
AM_0
100
AcDbCircle
 10
576.5328053345657
 20
1010.300921033362
 30
0.0
 40
8.0
100
AcDbArc
 50
0.0
 51
88.00000000000279
  0
ARC
  5
29CB
330
2C9D
100
AcDbEntity
  8
AM_0
100
AcDbCircle
 10
565.532805334566
 20
1026.694781033362
 30
0.0
 40
8.0
100
AcDbArc
 50
180.0000100000009
 51
268.0000000000026
  0
LINE
  5
29CC
330
2C9D
100
AcDbEntity
  8
AM_0
100
AcDbLine
 10
565.2536253345657
 20
1018.699661033362
 30
0.0
 11
576.811975334566
 21
1018.296041033361
 31
0.0
  0
ARC
  5
29CD
330
2C9D
100
AcDbEntity
  8
AM_0
100
AcDbCircle
 10
584.5328053345657
 20
1023.756491033361
 30
0.0
 40
5.0
100
AcDbArc
 50
292.0243099999992
 51
0.0
  0
LINE
  5
29CE
330
2C9D
100
AcDbEntity
  8
AM_0
100
AcDbLine
 10
615.532805334566
 20
926.9693210333624
 30
0.0
 11
677.532745334566
 21
926.9693210333624
 31
0.0
  0
LINE
  5
29CF
330
2C9D
100
AcDbEntity
  8
AM_0
100
AcDbLine
 10
615.532805334566
 20
910.9692610333627
 30
0.0
 11
677.532745334566
 21
910.9692610333627
 31
0.0
  0
LINE
  5
29D0
330
2C9D
100
AcDbEntity
  8
AM_0
100
AcDbLine
 10
595.532745334566
 20
946.4693210333624
 30
0.0
 11
677.532745334566
 21
946.4693210333624
 31
0.0
  0
ARC
  5
29D1
330
2C9D
100
AcDbEntity
  8
AM_0
100
AcDbCircle
 10
615.532805334566
 20
918.9692610333628
 30
0.0
 40
8.000011399999998
100
AcDbArc
 50
90.00000299999769
 51
270.0
  0
LINE
  5
29D2
330
2C9D
100
AcDbEntity
  8
AM_0
100
AcDbLine
 10
615.532745334566
 20
926.9693210333624
 30
0.0
 11
615.532745334566
 21
910.9692610333627
 31
0.0
  0
ARC
  5
29D3
330
2C9D
100
AcDbEntity
  8
AM_0
100
AcDbCircle
 10
529.5328053345659
 20
1076.102741033362
 30
0.0
 40
5.0
100
AcDbArc
 50
88.00000000000279
 51
180.0000100000009
  0
ARC
  5
29D4
330
2C9D
100
AcDbEntity
  8
AM_0
100
AcDbCircle
 10
584.5328053345657
 20
1074.182091033362
 30
0.0
 40
5.0
100
AcDbArc
 50
0.0
 51
88.00000000000279
  0
LINE
  5
29D5
330
2C9D
100
AcDbEntity
  8
ﾁｭｳｼﾝｾﾝ
100
AcDbLine
 10
847.6853589335524
 20
442.6496745148162
 30
0.0
 11
1112.640703933551
 21
442.6496745148162
 31
0.0
  0
LINE
  5
29D6
330
2C9D
100
AcDbEntity
  8
ﾁｭｳｼﾝｾﾝ1
100
AcDbLine
 10
540.0328053345656
 20
1051.469321033361
 30
0.0
 11
579.032805334566
 21
1051.469321033361
 31
0.0
  0
LINE
  5
29D7
330
2C9D
100
AcDbEntity
  8
ﾁｭｳｼﾝｾﾝ1
100
AcDbLine
 10
559.5328053345656
 20
1031.969321033362
 30
0.0
 11
559.5328053345656
 21
1070.969321033361
 31
0.0
  0
LINE
  5
29D8
330
2C9D
100
AcDbEntity
  8
ﾁｭｳｼﾝｾﾝ1
100
AcDbLine
 10
370.032805334566
 20
1051.469321033361
 30
0.0
 11
409.0328053345658
 21
1051.469321033361
 31
0.0
  0
LINE
  5
29D9
330
2C9D
100
AcDbEntity
  8
ﾁｭｳｼﾝｾﾝ1
100
AcDbLine
 10
389.532805334566
 20
1031.969321033362
 30
0.0
 11
389.532805334566
 21
1070.969321033361
 31
0.0
  0
LINE
  5
29DA
330
2C9D
100
AcDbEntity
  8
ﾁｭｳｼﾝｾﾝ1
100
AcDbLine
 10
370.032805334566
 20
786.4693210333625
 30
0.0
 11
409.0328053345658
 21
786.4693210333625
 31
0.0
  0
LINE
  5
29DB
330
2C9D
100
AcDbEntity
  8
ﾁｭｳｼﾝｾﾝ1
100
AcDbLine
 10
389.532805334566
 20
766.9693210333622
 30
0.0
 11
389.532805334566
 21
805.9693210333627
 31
0.0
  0
TEXT
  5
2BBE
330
2C9D
100
AcDbEntity
  8
AM_0
100
AcDbText
 10
800.6169933206487
 20
944.90895715037
 30
0.0
 40
20.0
  1
VX15-120G~VX15-200G
100
AcDbText
  0
LINE
  5
2DBD
330
2C9D
100
AcDbEntity
  8
AM_0
100
AcDbLine
 10
229.5327953345662
 20
457.6496745148159
 30
0.0
 11
257.5327953345663
 21
457.6496745148159
 31
0.0
  0
ENDSEC
  0
SECTION
  2
OBJECTS
  0
DICTIONARY
  5
2C3A
330
0
100
AcDbDictionary
281
     1
  3
ACAD_CIP_PREVIOUS_PRODUCT_INFO
350
2D53
  3
ACAD_COLOR
350
2C90
  3
ACAD_DETAILVIEWSTYLE
350
2C97
  3
ACAD_FIELDLIST
350
2D9D
  3
ACAD_GROUP
350
2C3B
  3
ACAD_LAYOUT
350
2C8F
  3
ACAD_MATERIAL
350
2C3E
  3
ACAD_MLEADERSTYLE
350
2C93
  3
ACAD_MLINESTYLE
350
2C8C
  3
ACAD_PLOTSETTINGS
350
2C8E
  3
ACAD_PLOTSTYLENAME
350
2C3C
  3
ACAD_SCALELIST
350
2C70
  3
ACAD_SECTIONVIEWSTYLE
350
2C95
  3
ACAD_TABLESTYLE
350
2C91
  3
ACAD_VISUALSTYLE
350
2C57
  3
ACDB_RECOMPOSE_DATA
350
2F6D
  3
AcDbVariableDictionary
350
2E54
  3
AcDsDecomposeData
350
2F73
  3
AcmDictionary
350
2D79
  3
AMG
350
2D54
  3
AMGSNAPSETTINGS
350
2DB5
  0
DICTIONARY
  5
2E4E
330
2C30
100
AcDbDictionary
280
     1
281
     1
  3
ACAD_LAYERSTATES
360
2E4F
  0
DICTIONARY
  5
2E3F
330
2C82
100
AcDbDictionary
280
     1
281
     1
  3
ADSK_XREC_LAYER_RECONCILED
360
2E40
  0
DICTIONARY
  5
2E41
330
2CA1
100
AcDbDictionary
280
     1
281
     1
  3
ADSK_XREC_LAYER_RECONCILED
360
2E42
  0
DICTIONARY
  5
2E43
330
2CBC
100
AcDbDictionary
280
     1
281
     1
  3
ADSK_XREC_LAYER_RECONCILED
360
2E44
  0
DICTIONARY
  5
2E45
330
2CBE
100
AcDbDictionary
280
     1
281
     1
  3
ADSK_XREC_LAYER_RECONCILED
360
2E46
  0
DICTIONARY
  5
2E47
330
2CBF
100
AcDbDictionary
280
     1
281
     1
  3
ADSK_XREC_LAYER_RECONCILED
360
2E48
  0
DICTIONARY
  5
2E49
330
2CC0
100
AcDbDictionary
280
     1
281
     1
  3
ADSK_XREC_LAYER_RECONCILED
360
2E4A
  0
XRECORD
  5
2D53
102
{ACAD_REACTORS
330
2C3A
102
}
330
2C3A
100
AcDbXrecord
280
     1
300
AMECH_PP
300
2019
300

  0
DICTIONARY
  5
2C90
102
{ACAD_REACTORS
330
2C3A
102
}
330
2C3A
100
AcDbDictionary
281
     1
  0
DICTIONARY
  5
2C97
102
{ACAD_REACTORS
330
2C3A
102
}
330
2C3A
100
AcDbDictionary
281
     1
  3
Imperial24
350
2C98
  0
FIELDLIST
  5
2D9D
102
{ACAD_REACTORS
330
2C3A
102
}
330
2C3A
100
AcDbIdSet
 90
        8
330
2EEF
330
2EF0
330
2EF1
330
2EF2
330
2EF6
330
2EF7
330
2EF8
330
2EF9
100
AcDbFieldList
  0
DICTIONARY
  5
2C3B
102
{ACAD_REACTORS
330
2C3A
102
}
330
2C3A
100
AcDbDictionary
281
     1
  0
DICTIONARY
  5
2C8F
102
{ACAD_REACTORS
330
2C3A
102
}
330
2C3A
100
AcDbDictionary
281
     1
  3
Model
350
2CA0
  3
レイアウト1
350
2C9C
  0
DICTIONARY
  5
2C3E
102
{ACAD_REACTORS
330
2C3A
102
}
330
2C3A
100
AcDbDictionary
281
     1
  3
ByBlock
350
2C47
  3
ByLayer
350
2C3F
  3
Global
350
2C4F
  0
DICTIONARY
  5
2C93
102
{ACAD_REACTORS
330
2C3A
102
}
330
2C3A
100
AcDbDictionary
281
     1
  3
Standard
350
2C94
  0
DICTIONARY
  5
2C8C
102
{ACAD_REACTORS
330
2C3A
102
}
330
2C3A
100
AcDbDictionary
281
     1
  3
Standard
350
2C8D
  0
DICTIONARY
  5
2C8E
102
{ACAD_REACTORS
330
2C3A
102
}
330
2C3A
100
AcDbDictionary
281
     1
  0
ACDBDICTIONARYWDFLT
  5
2C3C
102
{ACAD_REACTORS
330
2C3A
102
}
330
2C3A
100
AcDbDictionary
281
     1
  3
Normal
350
2C3D
100
AcDbDictionaryWithDefault
340
2C3D
  0
DICTIONARY
  5
2C70
102
{ACAD_REACTORS
330
2C3A
102
}
330
2C3A
100
AcDbDictionary
281
     1
  3
A0
350
2C71
  3
A1
350
2C72
  3
A2
350
2C73
  3
A3
350
2C74
  3
A4
350
2C75
  3
A5
350
2C76
  3
A6
350
2C77
  3
A7
350
2C78
  3
A8
350
2C79
  3
A9
350
2C7A
  3
B0
350
2C7B
  3
B1
350
2C7C
  3
B2
350
2C7D
  3
B3
350
2C7E
  3
B4
350
2C7F
  3
B5
350
2C80
  3
B6
350
2C81
  0
DICTIONARY
  5
2C95
102
{ACAD_REACTORS
330
2C3A
102
}
330
2C3A
100
AcDbDictionary
281
     1
  3
Imperial24
350
2C96
  0
DICTIONARY
  5
2C91
102
{ACAD_REACTORS
330
2C3A
102
}
330
2C3A
100
AcDbDictionary
281
     1
  3
Standard
350
2C92
  0
DICTIONARY
  5
2C57
102
{ACAD_REACTORS
330
2C3A
102
}
330
2C3A
100
AcDbDictionary
281
     1
  3
2dWireframe
350
2C5D
  3
Basic
350
2C5C
  3
Brighten
350
2C63
  3
ColorChange
350
2C67
  3
Conceptual
350
2C60
  3
Dim
350
2C62
  3
EdgeColorOff
350
2C6F
  3
Facepattern
350
2C66
  3
Flat
350
2C58
  3
FlatWithEdges
350
2C59
  3
Gouraud
350
2C5A
  3
GouraudWithEdges
350
2C5B
  3
Hidden
350
2C5F
  3
JitterOff
350
2C6D
  3
Linepattern
350
2C65
  3
OverhangOff
350
2C6E
  3
Realistic
350
2C61
  3
Shaded
350
2C6C
  3
Shaded with edges
350
2C6B
  3
Shades of Gray
350
2C68
  3
Sketchy
350
2C69
  3
Thicken
350
2C64
  3
Wireframe
350
2C5E
  3
X-Ray
350
2C6A
  0
XRECORD
  5
2F6D
102
{ACAD_REACTORS
330
2C3A
102
}
330
2C3A
100
AcDbXrecord
280
     1
 90
        1
330
2C92
  0
DICTIONARY
  5
2E54
102
{ACAD_REACTORS
330
2C3A
102
}
330
2C3A
100
AcDbDictionary
281
     1
  3
CANNOSCALE
350
2E5A
  3
CMLEADERSTYLE
350
2E56
  3
CTABLESTYLE
350
2E55
  3
CVIEWDETAILSTYLE
350
2E57
  3
CVIEWSECTIONSTYLE
350
2E58
  3
LAYEREVAL
350
2E5C
  3
LAYERNOTIFY
350
2E5D
  3
LIGHTINGUNITS
350
2E5B
  3
MSLTSCALE
350
2E59
  0
DICTIONARY
  5
2F73
102
{ACAD_REACTORS
330
2C3A
102
}
330
2C3A
100
AcDbDictionary
281
     1
  3
AcDsRecords
350
2F75
  3
AcDsSchemas
350
2F74
1001
ACAD
1070
     2
  0
DICTIONARY
  5
2D79
102
{ACAD_REACTORS
330
2C3A
102
}
330
2C3A
100
AcDbDictionary
281
     1
  3
AcmStdDictionary
350
2D82
  0
DICTIONARY
  5
2D54
102
{ACAD_REACTORS
330
2C3A
102
}
330
2C3A
100
AcDbDictionary
281
     1
  0
DICTIONARY
  5
2DB5
102
{ACAD_REACTORS
330
2C3A
102
}
330
2C3A
100
AcDbDictionary
281
     1
  0
DICTIONARY
  5
2E4F
102
{ACAD_REACTORS
330
2E4E
102
}
330
2E4E
100
AcDbDictionary
281
     1
  0
XRECORD
  5
2E40
102
{ACAD_REACTORS
330
2E3F
102
}
330
2E3F
100
AcDbXrecord
280
     1
290
     1
  0
XRECORD
  5
2E42
102
{ACAD_REACTORS
330
2E41
102
}
330
2E41
100
AcDbXrecord
280
     1
290
     1
  0
XRECORD
  5
2E44
102
{ACAD_REACTORS
330
2E43
102
}
330
2E43
100
AcDbXrecord
280
     1
290
     1
  0
XRECORD
  5
2E46
102
{ACAD_REACTORS
330
2E45
102
}
330
2E45
100
AcDbXrecord
280
     1
290
     1
  0
XRECORD
  5
2E48
102
{ACAD_REACTORS
330
2E47
102
}
330
2E47
100
AcDbXrecord
280
     1
290
     1
  0
XRECORD
  5
2E4A
102
{ACAD_REACTORS
330
2E49
102
}
330
2E49
100
AcDbXrecord
280
     1
290
     1
  0
ACDBDETAILVIEWSTYLE
  5
2C98
102
{ACAD_XDICTIONARY
360
2FA8
102
}
102
{ACAD_REACTORS
330
2C97
330
2EEA
102
}
330
2C97
100
AcDbModelDocViewStyle
 70
     0
  3
Imperial24
290
     0
100
AcDbDetailViewStyle
 70
     0
 71
     0
 90
        3
 71
     1
340
2C83
 62
   256
 40
0.24
340
0
 62
   256
 40
0.24
300

 40
0.36
280
     3
 71
     2
340
2C8A
 90
       25
 62
   256
 71
     3
340
2C83
 62
   256
 40
0.24
 90
        1
 40
0.75
 90
        1
300
%<\AcVar ViewType \f "%tc1">% %<\AcVar ViewDetailId>%\PSCALE %<\AcVar ViewScale \f "%sn">%
 71
     4
340
2C8A
 90
       25
 62
   256
340
2C8A
 90
       25
 62
   256
280
     0
  0
LAYOUT
  5
2CA0
102
{ACAD_REACTORS
330
2C8F
102
}
330
2C8F
100
AcDbPlotSettings
  1

  2
JUST PDF 3
  4

  6

 40
0.0
 41
0.0
 42
0.0
 43
0.0
 44
0.0
 45
0.0
 46
0.0
 47
0.0
 48
0.0
 49
0.0
140
0.0
141
0.0
142
1.0
143
1.0
 70
  1712
 72
     0
 73
     0
 74
     0
  7

 75
     0
147
1.0
 76
     0
 77
     2
 78
   300
148
0.0
149
0.0
100
AcDbLayout
  1
Model
 70
     1
 71
     0
 10
0.0
 20
0.0
 11
12.0
 21
9.0
 12
0.0
 22
0.0
 32
0.0
 14
0.0
 24
0.0
 34
0.0
 15
0.0
 25
0.0
 35
0.0
146
0.0
 13
0.0
 23
0.0
 33
0.0
 16
1.0
 26
0.0
 36
0.0
 17
0.0
 27
1.0
 37
0.0
 76
     0
330
2C9D
331
2CA2
  0
LAYOUT
  5
2C9C
102
{ACAD_REACTORS
330
2C8F
102
}
330
2C8F
100
AcDbPlotSettings
  1

  2
JUST PDF 3
  4

  6

 40
0.0
 41
0.0
 42
0.0
 43
0.0
 44
0.0
 45
0.0
 46
0.0
 47
0.0
 48
0.0
 49
0.0
140
0.0
141
0.0
142
1.0
143
1.0
 70
   688
 72
     0
 73
     0
 74
     5
  7

 75
    16
147
1.0
 76
     0
 77
     2
 78
   300
148
0.0
149
0.0
100
AcDbLayout
  1
レイアウト1
 70
     1
 71
     1
 10
0.0
 20
0.0
 11
420.0
 21
297.0
 12
0.0
 22
0.0
 32
0.0
 14
1.000000000000000E+20
 24
1.000000000000000E+20
 34
1.000000000000000E+20
 15
-1.000000000000000E+20
 25
-1.000000000000000E+20
 35
-1.000000000000000E+20
146
0.0
 13
0.0
 23
0.0
 33
0.0
 16
1.0
 26
0.0
 36
0.0
 17
0.0
 27
1.0
 37
0.0
 76
     0
330
2C99
  0
MATERIAL
  5
2C47
102
{ACAD_XDICTIONARY
360
2C48
102
}
102
{ACAD_REACTORS
330
2C3E
102
}
330
2C3E
100
AcDbMaterial
  1
ByBlock
 72
     0
 43
0.0208333333333333
 43
0.0
 43
0.0
 43
0.0
 43
0.0
 43
0.0208333333333333
 43
0.0
 43
0.0
 43
0.0
 43
0.0
 43
1.0
 43
0.0
 43
0.0
 43
0.0
 43
0.0
 43
1.0
 77
     0
 47
0.0208333333333333
 47
0.0
 47
0.0
 47
0.0
 47
0.0
 47
0.0208333333333333
 47
0.0
 47
0.0
 47
0.0
 47
0.0
 47
1.0
 47
0.0
 47
0.0
 47
0.0
 47
0.0
 47
1.0
171
     0
 49
0.0208333333333333
 49
0.0
 49
0.0
 49
0.0
 49
0.0
 49
0.0208333333333333
 49
0.0
 49
0.0
 49
0.0
 49
0.0
 49
1.0
 49
0.0
 49
0.0
 49
0.0
 49
0.0
 49
1.0
175
     0
142
0.0208333333333333
142
0.0
142
0.0
142
0.0
142
0.0
142
0.0208333333333333
142
0.0
142
0.0
142
0.0
142
0.0
142
1.0
142
0.0
142
0.0
142
0.0
142
0.0
142
1.0
179
     0
144
0.0208333333333333
144
0.0
144
0.0
144
0.0
144
0.0
144
0.0208333333333333
144
0.0
144
0.0
144
0.0
144
0.0
144
1.0
144
0.0
144
0.0
144
0.0
144
0.0
144
1.0
147
0.0208333333333333
147
0.0
147
0.0
147
0.0
147
0.0
147
0.0208333333333333
147
0.0
147
0.0
147
0.0
147
0.0
147
1.0
147
0.0
147
0.0
147
0.0
147
0.0
147
1.0
  0
MATERIAL
  5
2C3F
102
{ACAD_XDICTIONARY
360
2C40
102
}
102
{ACAD_REACTORS
330
2C3E
102
}
330
2C3E
100
AcDbMaterial
  1
ByLayer
 72
     0
 43
0.0208333333333333
 43
0.0
 43
0.0
 43
0.0
 43
0.0
 43
0.0208333333333333
 43
0.0
 43
0.0
 43
0.0
 43
0.0
 43
1.0
 43
0.0
 43
0.0
 43
0.0
 43
0.0
 43
1.0
 77
     0
 47
0.0208333333333333
 47
0.0
 47
0.0
 47
0.0
 47
0.0
 47
0.0208333333333333
 47
0.0
 47
0.0
 47
0.0
 47
0.0
 47
1.0
 47
0.0
 47
0.0
 47
0.0
 47
0.0
 47
1.0
171
     0
 49
0.0208333333333333
 49
0.0
 49
0.0
 49
0.0
 49
0.0
 49
0.0208333333333333
 49
0.0
 49
0.0
 49
0.0
 49
0.0
 49
1.0
 49
0.0
 49
0.0
 49
0.0
 49
0.0
 49
1.0
175
     0
142
0.0208333333333333
142
0.0
142
0.0
142
0.0
142
0.0
142
0.0208333333333333
142
0.0
142
0.0
142
0.0
142
0.0
142
1.0
142
0.0
142
0.0
142
0.0
142
0.0
142
1.0
179
     0
144
0.0208333333333333
144
0.0
144
0.0
144
0.0
144
0.0
144
0.0208333333333333
144
0.0
144
0.0
144
0.0
144
0.0
144
1.0
144
0.0
144
0.0
144
0.0
144
0.0
144
1.0
147
0.0208333333333333
147
0.0
147
0.0
147
0.0
147
0.0
147
0.0208333333333333
147
0.0
147
0.0
147
0.0
147
0.0
147
1.0
147
0.0
147
0.0
147
0.0
147
0.0
147
1.0
  0
MATERIAL
  5
2C4F
102
{ACAD_XDICTIONARY
360
2C50
102
}
102
{ACAD_REACTORS
330
2C3E
102
}
330
2C3E
100
AcDbMaterial
  1
Global
 72
     0
 43
0.0208333333333333
 43
0.0
 43
0.0
 43
0.0
 43
0.0
 43
0.0208333333333333
 43
0.0
 43
0.0
 43
0.0
 43
0.0
 43
1.0
 43
0.0
 43
0.0
 43
0.0
 43
0.0
 43
1.0
 77
     0
 47
0.0208333333333333
 47
0.0
 47
0.0
 47
0.0
 47
0.0
 47
0.0208333333333333
 47
0.0
 47
0.0
 47
0.0
 47
0.0
 47
1.0
 47
0.0
 47
0.0
 47
0.0
 47
0.0
 47
1.0
171
     0
 49
0.0208333333333333
 49
0.0
 49
0.0
 49
0.0
 49
0.0
 49
0.0208333333333333
 49
0.0
 49
0.0
 49
0.0
 49
0.0
 49
1.0
 49
0.0
 49
0.0
 49
0.0
 49
0.0
 49
1.0
175
     0
142
0.0208333333333333
142
0.0
142
0.0
142
0.0
142
0.0
142
0.0208333333333333
142
0.0
142
0.0
142
0.0
142
0.0
142
1.0
142
0.0
142
0.0
142
0.0
142
0.0
142
1.0
179
     0
144
0.0208333333333333
144
0.0
144
0.0
144
0.0
144
0.0
144
0.0208333333333333
144
0.0
144
0.0
144
0.0
144
0.0
144
1.0
144
0.0
144
0.0
144
0.0
144
0.0
144
1.0
147
0.0208333333333333
147
0.0
147
0.0
147
0.0
147
0.0
147
0.0208333333333333
147
0.0
147
0.0
147
0.0
147
0.0
147
1.0
147
0.0
147
0.0
147
0.0
147
0.0
147
1.0
  0
MLEADERSTYLE
  5
2C94
102
{ACAD_REACTORS
330
2C93
102
}
330
2C93
100
AcDbMLeaderStyle
179
     2
170
     2
171
     1
172
     0
 90
        2
 40
0.0
 41
0.0
173
     1
 91
-1056964608
340
2C88
 92
       -2
290
     1
 42
0.09
291
     1
 43
0.36
  3
Standard
 44
0.18
300

342
2C83
174
     1
178
     6
175
     1
176
     0
 93
-1056964608
 45
0.18
292
     0
297
     0
 46
0.18
 94
-1056964608
 47
1.0
 49
1.0
140
1.0
293
     1
141
0.0
294
     1
177
     0
142
1.0
295
     0
296
     0
143
0.125
271
     0
272
     9
273
     9
  0
MLINESTYLE
  5
2C8D
102
{ACAD_REACTORS
330
2C8C
102
}
330
2C8C
100
AcDbMlineStyle
  2
STANDARD
 70
     0
  3

 62
   256
 51
90.0
 52
90.0
 71
     2
 49
0.5
 62
   256
  6
BYLAYER
 49
-0.5
 62
   256
  6
BYLAYER
  0
ACDBPLACEHOLDER
  5
2C3D
102
{ACAD_REACTORS
330
2C3C
102
}
330
2C3C
  0
SCALE
  5
2C71
102
{ACAD_REACTORS
330
2C70
102
}
330
2C70
100
AcDbScale
 70
     0
300
1:1
140
1.0
141
1.0
290
     1
  0
SCALE
  5
2C72
102
{ACAD_REACTORS
330
2C70
102
}
330
2C70
100
AcDbScale
 70
     0
300
1/128" = 1'-0"
140
0.0078125
141
12.0
290
     0
  0
SCALE
  5
2C73
102
{ACAD_REACTORS
330
2C70
102
}
330
2C70
100
AcDbScale
 70
     0
300
1/64" = 1'-0"
140
0.015625
141
12.0
290
     0
  0
SCALE
  5
2C74
102
{ACAD_REACTORS
330
2C70
102
}
330
2C70
100
AcDbScale
 70
     0
300
1/32" = 1'-0"
140
0.03125
141
12.0
290
     0
  0
SCALE
  5
2C75
102
{ACAD_REACTORS
330
2C70
102
}
330
2C70
100
AcDbScale
 70
     0
300
1/16" = 1'-0"
140
0.0625
141
12.0
290
     0
  0
SCALE
  5
2C76
102
{ACAD_REACTORS
330
2C70
102
}
330
2C70
100
AcDbScale
 70
     0
300
3/32" = 1'-0"
140
0.09375
141
12.0
290
     0
  0
SCALE
  5
2C77
102
{ACAD_REACTORS
330
2C70
102
}
330
2C70
100
AcDbScale
 70
     0
300
1/8" = 1'-0"
140
0.125
141
12.0
290
     0
  0
SCALE
  5
2C78
102
{ACAD_REACTORS
330
2C70
102
}
330
2C70
100
AcDbScale
 70
     0
300
3/16" = 1'-0"
140
0.1875
141
12.0
290
     0
  0
SCALE
  5
2C79
102
{ACAD_REACTORS
330
2C70
102
}
330
2C70
100
AcDbScale
 70
     0
300
1/4" = 1'-0"
140
0.25
141
12.0
290
     0
  0
SCALE
  5
2C7A
102
{ACAD_REACTORS
330
2C70
102
}
330
2C70
100
AcDbScale
 70
     0
300
3/8" = 1'-0"
140
0.375
141
12.0
290
     0
  0
SCALE
  5
2C7B
102
{ACAD_REACTORS
330
2C70
102
}
330
2C70
100
AcDbScale
 70
     0
300
1/2" = 1'-0"
140
0.5
141
12.0
290
     0
  0
SCALE
  5
2C7C
102
{ACAD_REACTORS
330
2C70
102
}
330
2C70
100
AcDbScale
 70
     0
300
3/4" = 1'-0"
140
0.75
141
12.0
290
     0
  0
SCALE
  5
2C7D
102
{ACAD_REACTORS
330
2C70
102
}
330
2C70
100
AcDbScale
 70
     0
300
1" = 1'-0"
140
1.0
141
12.0
290
     0
  0
SCALE
  5
2C7E
102
{ACAD_REACTORS
330
2C70
102
}
330
2C70
100
AcDbScale
 70
     0
300
1-1/2" = 1'-0"
140
1.5
141
12.0
290
     0
  0
SCALE
  5
2C7F
102
{ACAD_REACTORS
330
2C70
102
}
330
2C70
100
AcDbScale
 70
     0
300
3" = 1'-0"
140
3.0
141
12.0
290
     0
  0
SCALE
  5
2C80
102
{ACAD_REACTORS
330
2C70
102
}
330
2C70
100
AcDbScale
 70
     0
300
6" = 1'-0"
140
6.0
141
12.0
290
     0
  0
SCALE
  5
2C81
102
{ACAD_REACTORS
330
2C70
102
}
330
2C70
100
AcDbScale
 70
     0
300
1'-0" = 1'-0"
140
12.0
141
12.0
290
     0
  0
ACDBSECTIONVIEWSTYLE
  5
2C96
102
{ACAD_XDICTIONARY
360
2FA6
102
}
102
{ACAD_REACTORS
330
2C95
330
2EE9
102
}
330
2C95
100
AcDbModelDocViewStyle
 70
     0
  3
Imperial24
290
     0
100
AcDbSectionViewStyle
 70
     0
 71
     0
 90
       78
 71
     1
340
2C83
 62
   256
 40
0.24
340
0
340
0
 62
   256
 40
0.24
300
I, O, Q, S, X, Z
 40
0.48
 90
        3
 40
0.18
 90
        1
 71
     2
340
2C8A
 90
       25
 62
   256
340
2C8A
 90
       50
 62
   256
 40
0.24
 40
0.0
 40
0.24
 71
     3
340
2C83
 62
   256
 40
0.24
 90
        1
 40
0.75
 90
        1
300
%<\AcVar ViewType \f "%tc1">% %<\AcVar ViewSectionStartId>%-%<\AcVar ViewSectionEndId>%\PSCALE %<\AcVar ViewScale \f "%sn">%
 71
     4
 62
   256
 62
   257
300
ANSI31
 40
1.0
 90
        0
290
     0
290
     0
 90
        6
 40
0.0
 40
1.570796326794896
 40
0.2617993877991494
 40
1.308996938995747
 40
-0.2617993877991494
 40
1.832595714594045
  0
TABLESTYLE
  5
2C92
102
{ACAD_XDICTIONARY
360
2E5E
102
}
102
{ACAD_REACTORS
330
2C91
102
}
330
2C91
100
AcDbTableStyle
280
     0
  3
Standard
 70
     0
 71
     0
 40
0.06
 41
0.06
280
     0
281
     0
  7
STANDARD
140
0.18
170
     2
 62
     0
 63
     7
283
     0
 90
      512
 91
        0
  1

274
    -2
284
     1
 64
     0
275
    -2
285
     1
 65
     0
276
    -2
286
     1
 66
     0
277
    -2
287
     1
 67
     0
278
    -2
288
     1
 68
     0
279
    -2
289
     1
 69
     0
  7
STANDARD
140
0.25
170
     5
 62
     0
 63
     7
283
     0
 90
      512
 91
        0
  1

274
    -2
284
     1
 64
     0
275
    -2
285
     1
 65
     0
276
    -2
286
     1
 66
     0
277
    -2
287
     1
 67
     0
278
    -2
288
     1
 68
     0
279
    -2
289
     1
 69
     0
  7
STANDARD
140
0.18
170
     5
 62
     0
 63
     7
283
     0
 90
      512
 91
        0
  1

274
    -2
284
     1
 64
     0
275
    -2
285
     1
 65
     0
276
    -2
286
     1
 66
     0
277
    -2
287
     1
 67
     0
278
    -2
288
     1
 68
     0
279
    -2
289
     1
 69
     0
  0
VISUALSTYLE
  5
2C5D
102
{ACAD_XDICTIONARY
360
2F80
102
}
102
{ACAD_REACTORS
330
2C57
102
}
330
2C57
100
AcDbVisualStyle
  2
2dWireframe
 70
     4
177
     2
291
     0
 71
     0
176
     1
 72
     2
176
     1
 73
     0
176
     1
 90
        0
176
     1
 40
0.6
176
     1
 41
30.0
176
     1
 63
     7
421
 16777215
176
     1
 74
     1
176
     1
 91
        4
176
     1
 64
     7
176
     1
 65
   257
176
     1
 75
     1
176
     1
175
     1
176
     1
 42
1.0
176
     1
 92
        0
176
     1
 66
   257
176
     1
 43
1.0
176
     1
 76
     1
176
     1
 77
     6
176
     1
 78
     2
176
     1
 67
     7
176
     1
 79
     5
176
     1
170
     0
176
     1
171
     0
176
     1
290
     0
176
     1
 93
        1
176
     1
 44
0.0
176
     1
173
     0
176
     1
1001
ACAD
1000
AcDbSavedByObjectVersion
1070
     0
  0
VISUALSTYLE
  5
2C5C
102
{ACAD_XDICTIONARY
360
2F7E
102
}
102
{ACAD_REACTORS
330
2C57
102
}
330
2C57
100
AcDbVisualStyle
  2
Basic
 70
     7
177
     2
291
     1
 71
     1
176
     1
 72
     0
176
     1
 73
     1
176
     1
 90
        0
176
     1
 40
0.6
176
     1
 41
30.0
176
     1
 63
     7
421
 16777215
176
     1
 74
     0
176
     1
 91
        4
176
     1
 64
     7
176
     1
 65
   257
176
     1
 75
     1
176
     1
175
     1
176
     1
 42
1.0
176
     1
 92
        8
176
     1
 66
     7
176
     1
 43
1.0
176
     1
 76
     1
176
     1
 77
     6
176
     1
 78
     2
176
     1
 67
     7
176
     1
 79
     5
176
     1
170
     0
176
     1
171
     0
176
     1
290
     0
176
     1
 93
        1
176
     1
 44
0.0
176
     1
173
     0
176
     1
1001
ACAD
1000
AcDbSavedByObjectVersion
1070
     0
  0
VISUALSTYLE
  5
2C63
102
{ACAD_XDICTIONARY
360
2F8C
102
}
102
{ACAD_REACTORS
330
2C57
102
}
330
2C57
100
AcDbVisualStyle
  2
Brighten
 70
    12
177
     2
291
     1
 71
     2
176
     1
 72
     2
176
     1
 73
     0
176
     1
 90
        0
176
     1
 40
0.6
176
     1
 41
30.0
176
     1
 63
     7
421
 16777215
176
     1
 74
     1
176
     1
 91
        4
176
     1
 64
     7
176
     1
 65
   257
176
     1
 75
     1
176
     1
175
     1
176
     1
 42
1.0
176
     1
 92
        8
176
     1
 66
     7
176
     1
 43
1.0
176
     1
 76
     1
176
     1
 77
     6
176
     1
 78
     2
176
     1
 67
     7
176
     1
 79
     5
176
     1
170
     0
176
     1
171
     0
176
     1
290
     0
176
     1
 93
        1
176
     1
 44
50.0
176
     1
173
     0
176
     1
1001
ACAD
1000
AcDbSavedByObjectVersion
1070
     0
  0
VISUALSTYLE
  5
2C67
102
{ACAD_XDICTIONARY
360
2F94
102
}
102
{ACAD_REACTORS
330
2C57
102
}
330
2C57
100
AcDbVisualStyle
  2
ColorChange
 70
    16
177
     2
291
     1
 71
     2
176
     1
 72
     2
176
     1
 73
     3
176
     1
 90
        0
176
     1
 40
0.6
176
     1
 41
30.0
176
     1
 63
     8
421
  8421504
176
     1
 74
     1
176
     1
 91
        4
176
     1
 64
     7
176
     1
 65
   257
176
     1
 75
     1
176
     1
175
     1
176
     1
 42
1.0
176
     1
 92
        8
176
     1
 66
     8
424
  8421504
176
     1
 43
1.0
176
     1
 76
     1
176
     1
 77
     6
176
     1
 78
     2
176
     1
 67
     7
176
     1
 79
     5
176
     1
170
     0
176
     1
171
     0
176
     1
290
     0
176
     1
 93
        1
176
     1
 44
0.0
176
     1
173
     0
176
     1
1001
ACAD
1000
AcDbSavedByObjectVersion
1070
     0
  0
VISUALSTYLE
  5
2C60
102
{ACAD_XDICTIONARY
360
2F86
102
}
102
{ACAD_REACTORS
330
2C57
102
}
330
2C57
100
AcDbVisualStyle
  2
Conceptual
 70
     9
177
     2
291
     0
 71
     3
176
     1
 72
     2
176
     1
 73
     0
176
     1
 90
        0
176
     1
 40
0.6
176
     1
 41
30.0
176
     1
 63
     7
421
 16777215
176
     1
 74
     2
176
     1
 91
        2
176
     1
 64
     7
176
     1
 65
   257
176
     1
 75
     1
176
     1
175
     1
176
     1
 42
179.0
176
     1
 92
        8
176
     1
 66
     7
176
     1
 43
1.0
176
     1
 76
     1
176
     1
 77
     6
176
     1
 78
     2
176
     1
 67
     7
176
     1
 79
     3
176
     1
170
     0
176
     1
171
     0
176
     1
290
     0
176
     1
 93
        1
176
     1
 44
0.0
176
     1
173
     0
176
     1
1001
ACAD
1000
AcDbSavedByObjectVersion
1070
     0
  0
VISUALSTYLE
  5
2C62
102
{ACAD_XDICTIONARY
360
2F8A
102
}
102
{ACAD_REACTORS
330
2C57
102
}
330
2C57
100
AcDbVisualStyle
  2
Dim
 70
    11
177
     2
291
     1
 71
     2
176
     1
 72
     2
176
     1
 73
     0
176
     1
 90
        0
176
     1
 40
0.6
176
     1
 41
30.0
176
     1
 63
     7
421
 16777215
176
     1
 74
     1
176
     1
 91
        4
176
     1
 64
     7
176
     1
 65
   257
176
     1
 75
     1
176
     1
175
     1
176
     1
 42
1.0
176
     1
 92
        8
176
     1
 66
     7
176
     1
 43
1.0
176
     1
 76
     1
176
     1
 77
     6
176
     1
 78
     2
176
     1
 67
     7
176
     1
 79
     5
176
     1
170
     0
176
     1
171
     0
176
     1
290
     0
176
     1
 93
        1
176
     1
 44
-50.0
176
     1
173
     0
176
     1
1001
ACAD
1000
AcDbSavedByObjectVersion
1070
     0
  0
VISUALSTYLE
  5
2C6F
102
{ACAD_XDICTIONARY
360
2FA4
102
}
102
{ACAD_REACTORS
330
2C57
102
}
330
2C57
100
AcDbVisualStyle
  2
EdgeColorOff
 70
    22
177
     2
291
     1
 71
     2
176
     0
 72
     2
176
     0
 73
     0
176
     0
 90
        0
176
     0
 40
0.6
176
     0
 41
30.0
176
     0
 63
     7
421
 16777215
176
     0
 74
     1
176
     0
 91
        4
176
     0
 64
     7
176
     0
 65
   257
176
     0
 75
     1
176
     0
175
     1
176
     0
 42
1.0
176
     0
 92
        8
176
     2
 66
     7
176
     0
 43
1.0
176
     0
 76
     1
176
     0
 77
     6
176
     0
 78
     2
176
     0
 67
     7
176
     0
 79
     5
176
     0
170
     0
176
     0
171
     0
176
     0
290
     0
176
     0
 93
        1
176
     0
 44
0.0
176
     0
173
     0
176
     0
1001
ACAD
1000
AcDbSavedByObjectVersion
1070
     0
  0
VISUALSTYLE
  5
2C66
102
{ACAD_XDICTIONARY
360
2F92
102
}
102
{ACAD_REACTORS
330
2C57
102
}
330
2C57
100
AcDbVisualStyle
  2
Facepattern
 70
    15
177
     2
291
     1
 71
     2
176
     1
 72
     2
176
     1
 73
     0
176
     1
 90
        0
176
     1
 40
0.6
176
     1
 41
30.0
176
     1
 63
     7
421
 16777215
176
     1
 74
     1
176
     1
 91
        4
176
     1
 64
     7
176
     1
 65
   257
176
     1
 75
     1
176
     1
175
     1
176
     1
 42
1.0
176
     1
 92
        8
176
     1
 66
     7
176
     1
 43
1.0
176
     1
 76
     1
176
     1
 77
     6
176
     1
 78
     2
176
     1
 67
     7
176
     1
 79
     5
176
     1
170
     0
176
     1
171
     0
176
     1
290
     0
176
     1
 93
        1
176
     1
 44
0.0
176
     1
173
     0
176
     1
1001
ACAD
1000
AcDbSavedByObjectVersion
1070
     0
  0
VISUALSTYLE
  5
2C58
102
{ACAD_XDICTIONARY
360
2F76
102
}
102
{ACAD_REACTORS
330
2C57
102
}
330
2C57
100
AcDbVisualStyle
  2
Flat
 70
     0
177
     2
291
     1
 71
     2
176
     1
 72
     1
176
     1
 73
     1
176
     1
 90
        2
176
     1
 40
0.6
176
     1
 41
30.0
176
     1
 63
     7
421
 16777215
176
     1
 74
     0
176
     1
 91
        0
176
     1
 64
     7
176
     1
 65
   257
176
     1
 75
     1
176
     1
175
     1
176
     1
 42
1.0
176
     1
 92
        8
176
     1
 66
     7
176
     1
 43
1.0
176
     1
 76
     1
176
     1
 77
     6
176
     1
 78
     2
176
     1
 67
     7
176
     1
 79
     5
176
     1
170
     0
176
     1
171
     0
176
     1
290
     0
176
     1
 93
       13
176
     1
 44
0.0
176
     1
173
     0
176
     1
1001
ACAD
1000
AcDbSavedByObjectVersion
1070
     0
  0
VISUALSTYLE
  5
2C59
102
{ACAD_XDICTIONARY
360
2F78
102
}
102
{ACAD_REACTORS
330
2C57
102
}
330
2C57
100
AcDbVisualStyle
  2
FlatWithEdges
 70
     1
177
     2
291
     1
 71
     2
176
     1
 72
     1
176
     1
 73
     1
176
     1
 90
        2
176
     1
 40
0.6
176
     1
 41
30.0
176
     1
 63
     7
421
 16777215
176
     1
 74
     1
176
     1
 91
        0
176
     1
 64
     7
176
     1
 65
   257
176
     1
 75
     1
176
     1
175
     1
176
     1
 42
1.0
176
     1
 92
        0
176
     1
 66
   257
176
     1
 43
1.0
176
     1
 76
     1
176
     1
 77
     6
176
     1
 78
     2
176
     1
 67
     7
176
     1
 79
     5
176
     1
170
     0
176
     1
171
     0
176
     1
290
     0
176
     1
 93
       13
176
     1
 44
0.0
176
     1
173
     0
176
     1
1001
ACAD
1000
AcDbSavedByObjectVersion
1070
     0
  0
VISUALSTYLE
  5
2C5A
102
{ACAD_XDICTIONARY
360
2F7A
102
}
102
{ACAD_REACTORS
330
2C57
102
}
330
2C57
100
AcDbVisualStyle
  2
Gouraud
 70
     2
177
     2
291
     1
 71
     2
176
     1
 72
     2
176
     1
 73
     1
176
     1
 90
        2
176
     1
 40
0.6
176
     1
 41
30.0
176
     1
 63
     7
421
 16777215
176
     1
 74
     0
176
     1
 91
        0
176
     1
 64
     7
176
     1
 65
   257
176
     1
 75
     1
176
     1
175
     1
176
     1
 42
1.0
176
     1
 92
        0
176
     1
 66
     7
176
     1
 43
1.0
176
     1
 76
     1
176
     1
 77
     6
176
     1
 78
     2
176
     1
 67
     7
176
     1
 79
     5
176
     1
170
     0
176
     1
171
     0
176
     1
290
     0
176
     1
 93
       13
176
     1
 44
0.0
176
     1
173
     0
176
     1
1001
ACAD
1000
AcDbSavedByObjectVersion
1070
     0
  0
VISUALSTYLE
  5
2C5B
102
{ACAD_XDICTIONARY
360
2F7C
102
}
102
{ACAD_REACTORS
330
2C57
102
}
330
2C57
100
AcDbVisualStyle
  2
GouraudWithEdges
 70
     3
177
     2
291
     1
 71
     2
176
     1
 72
     2
176
     1
 73
     1
176
     1
 90
        2
176
     1
 40
0.6
176
     1
 41
30.0
176
     1
 63
     7
421
 16777215
176
     1
 74
     1
176
     1
 91
        0
176
     1
 64
     7
176
     1
 65
   257
176
     1
 75
     1
176
     1
175
     1
176
     1
 42
1.0
176
     1
 92
        0
176
     1
 66
   257
176
     1
 43
1.0
176
     1
 76
     1
176
     1
 77
     6
176
     1
 78
     2
176
     1
 67
     7
176
     1
 79
     5
176
     1
170
     0
176
     1
171
     0
176
     1
290
     0
176
     1
 93
       13
176
     1
 44
0.0
176
     1
173
     0
176
     1
1001
ACAD
1000
AcDbSavedByObjectVersion
1070
     0
  0
VISUALSTYLE
  5
2C5F
102
{ACAD_XDICTIONARY
360
2F84
102
}
102
{ACAD_REACTORS
330
2C57
102
}
330
2C57
100
AcDbVisualStyle
  2
Hidden
 70
     6
177
     2
291
     0
 71
     1
176
     1
 72
     2
176
     1
 73
     2
176
     1
 90
        0
176
     1
 40
0.6
176
     1
 41
30.0
176
     1
 63
     7
421
 16777215
176
     1
 74
     2
176
     1
 91
        2
176
     1
 64
     7
176
     1
 65
   257
176
     1
 75
     2
176
     1
175
     1
176
     1
 42
40.0
176
     1
 92
        0
176
     1
 66
   257
176
     1
 43
1.0
176
     1
 76
     1
176
     1
 77
     6
176
     1
 78
     2
176
     1
 67
     7
176
     1
 79
     3
176
     1
170
     0
176
     1
171
     0
176
     1
290
     0
176
     1
 93
        1
176
     1
 44
0.0
176
     1
173
     0
176
     1
1001
ACAD
1000
AcDbSavedByObjectVersion
1070
     0
  0
VISUALSTYLE
  5
2C6D
102
{ACAD_XDICTIONARY
360
2FA0
102
}
102
{ACAD_REACTORS
330
2C57
102
}
330
2C57
100
AcDbVisualStyle
  2
JitterOff
 70
    20
177
     2
291
     1
 71
     2
176
     0
 72
     2
176
     0
 73
     0
176
     0
 90
        0
176
     0
 40
0.6
176
     0
 41
30.0
176
     0
 63
     7
421
 16777215
176
     0
 74
     1
176
     0
 91
        4
176
     0
 64
     7
176
     0
 65
   257
176
     0
 75
     1
176
     0
175
     1
176
     0
 42
1.0
176
     0
 92
       10
176
     2
 66
     7
176
     0
 43
1.0
176
     0
 76
     1
176
     0
 77
     6
176
     0
 78
     2
176
     0
 67
     7
176
     0
 79
     5
176
     0
170
     0
176
     0
171
     0
176
     0
290
     0
176
     0
 93
        1
176
     0
 44
0.0
176
     0
173
     0
176
     0
1001
ACAD
1000
AcDbSavedByObjectVersion
1070
     0
  0
VISUALSTYLE
  5
2C65
102
{ACAD_XDICTIONARY
360
2F90
102
}
102
{ACAD_REACTORS
330
2C57
102
}
330
2C57
100
AcDbVisualStyle
  2
Linepattern
 70
    14
177
     2
291
     1
 71
     2
176
     1
 72
     2
176
     1
 73
     0
176
     1
 90
        0
176
     1
 40
0.6
176
     1
 41
30.0
176
     1
 63
     7
421
 16777215
176
     1
 74
     1
176
     1
 91
        4
176
     1
 64
     7
176
     1
 65
   257
176
     1
 75
     7
176
     1
175
     7
176
     1
 42
1.0
176
     1
 92
        8
176
     1
 66
     7
176
     1
 43
1.0
176
     1
 76
     1
176
     1
 77
     6
176
     1
 78
     2
176
     1
 67
     7
176
     1
 79
     5
176
     1
170
     0
176
     1
171
     0
176
     1
290
     0
176
     1
 93
        1
176
     1
 44
0.0
176
     1
173
     0
176
     1
1001
ACAD
1000
AcDbSavedByObjectVersion
1070
     0
  0
VISUALSTYLE
  5
2C6E
102
{ACAD_XDICTIONARY
360
2FA2
102
}
102
{ACAD_REACTORS
330
2C57
102
}
330
2C57
100
AcDbVisualStyle
  2
OverhangOff
 70
    21
177
     2
291
     1
 71
     2
176
     0
 72
     2
176
     0
 73
     0
176
     0
 90
        0
176
     0
 40
0.6
176
     0
 41
30.0
176
     0
 63
     7
421
 16777215
176
     0
 74
     1
176
     0
 91
        4
176
     0
 64
     7
176
     0
 65
   257
176
     0
 75
     1
176
     0
175
     1
176
     0
 42
1.0
176
     0
 92
        9
176
     2
 66
     7
176
     0
 43
1.0
176
     0
 76
     1
176
     0
 77
     6
176
     0
 78
     2
176
     0
 67
     7
176
     0
 79
     5
176
     0
170
     0
176
     0
171
     0
176
     0
290
     0
176
     0
 93
        1
176
     0
 44
0.0
176
     0
173
     0
176
     0
1001
ACAD
1000
AcDbSavedByObjectVersion
1070
     0
  0
VISUALSTYLE
  5
2C61
102
{ACAD_XDICTIONARY
360
2F88
102
}
102
{ACAD_REACTORS
330
2C57
102
}
330
2C57
100
AcDbVisualStyle
  2
Realistic
 70
     8
177
     2
291
     0
 71
     2
176
     1
 72
     3
176
     1
 73
     0
176
     1
 90
        2
176
     1
 40
0.6
176
     1
 41
30.0
176
     1
 63
     7
421
 16777215
176
     1
 74
     0
176
     1
 91
        0
176
     1
 64
     7
176
     1
 65
   257
176
     1
 75
     1
176
     1
175
     1
176
     1
 42
1.0
176
     1
 92
        8
176
     1
 66
   257
176
     1
 43
1.0
176
     1
 76
     1
176
     1
 77
     6
176
     1
 78
     2
176
     1
 67
     7
176
     1
 79
     3
176
     1
170
     0
176
     1
171
     0
176
     1
290
     0
176
     1
 93
       13
176
     1
 44
0.0
176
     1
173
     0
176
     1
1001
ACAD
1000
AcDbSavedByObjectVersion
1070
     0
  0
VISUALSTYLE
  5
2C6C
102
{ACAD_XDICTIONARY
360
2F9E
102
}
102
{ACAD_REACTORS
330
2C57
102
}
330
2C57
100
AcDbVisualStyle
  2
Shaded
 70
    27
177
     2
291
     0
 71
     2
176
     1
 72
     2
176
     1
 73
     1
176
     1
 90
        2
176
     1
 40
0.6
176
     1
 41
30.0
176
     1
 63
     7
421
 16777215
176
     1
 74
     0
176
     1
 91
        4
176
     1
 64
     7
176
     1
 65
   257
176
     1
 75
     1
176
     1
175
     1
176
     1
 42
1.0
176
     1
 92
        8
176
     1
 66
   257
176
     1
 43
1.0
176
     1
 76
     1
176
     1
 77
     6
176
     1
 78
     2
176
     1
 67
     8
425
  7895160
176
     1
 79
     3
176
     1
170
     0
176
     1
171
     0
176
     1
290
     0
176
     1
 93
        5
176
     1
 44
0.0
176
     1
173
     0
176
     1
1001
ACAD
1000
AcDbSavedByObjectVersion
1070
     0
  0
VISUALSTYLE
  5
2C6B
102
{ACAD_XDICTIONARY
360
2F9C
102
}
102
{ACAD_REACTORS
330
2C57
102
}
330
2C57
100
AcDbVisualStyle
  2
Shaded with edges
 70
    26
177
     2
291
     0
 71
     2
176
     1
 72
     2
176
     1
 73
     1
176
     1
 90
        2
176
     1
 40
0.6
176
     1
 41
30.0
176
     1
 63
     7
421
 16777215
176
     1
 74
     1
176
     1
 91
        2
176
     1
 64
     7
176
     1
 65
   257
176
     1
 75
     2
176
     1
175
     1
176
     1
 42
1.0
176
     1
 92
        8
176
     1
 66
   257
176
     1
 43
1.0
176
     1
 76
     1
176
     1
 77
     6
176
     1
 78
     2
176
     1
 67
     7
176
     1
 79
     3
176
     1
170
     0
176
     1
171
     0
176
     1
290
     0
176
     1
 93
        5
176
     1
 44
0.0
176
     1
173
     0
176
     1
1001
ACAD
1000
AcDbSavedByObjectVersion
1070
     0
  0
VISUALSTYLE
  5
2C68
102
{ACAD_XDICTIONARY
360
2F96
102
}
102
{ACAD_REACTORS
330
2C57
102
}
330
2C57
100
AcDbVisualStyle
  2
Shades of Gray
 70
    23
177
     2
291
     0
 71
     2
176
     1
 72
     2
176
     1
 73
     3
176
     1
 90
        0
176
     1
 40
0.6
176
     1
 41
30.0
176
     1
 63
     7
421
 16777215
176
     1
 74
     2
176
     1
 91
        2
176
     1
 64
     7
176
     1
 65
     7
176
     1
 75
     1
176
     1
175
     1
176
     1
 42
40.0
176
     1
 92
        8
176
     1
 66
     7
176
     1
 43
1.0
176
     1
 76
     1
176
     1
 77
     6
176
     1
 78
     2
176
     1
 67
     7
176
     1
 79
     3
176
     1
170
     0
176
     1
171
     0
176
     1
290
     0
176
     1
 93
        1
176
     1
 44
0.0
176
     1
173
     0
176
     1
1001
ACAD
1000
AcDbSavedByObjectVersion
1070
     0
  0
VISUALSTYLE
  5
2C69
102
{ACAD_XDICTIONARY
360
2F98
102
}
102
{ACAD_REACTORS
330
2C57
102
}
330
2C57
100
AcDbVisualStyle
  2
Sketchy
 70
    24
177
     2
291
     0
 71
     1
176
     1
 72
     2
176
     1
 73
     2
176
     1
 90
        0
176
     1
 40
0.6
176
     1
 41
30.0
176
     1
 63
     7
421
 16777215
176
     1
 74
     2
176
     1
 91
        2
176
     1
 64
     7
176
     1
 65
     7
176
     1
 75
     1
176
     1
175
     1
176
     1
 42
40.0
176
     1
 92
       11
176
     1
 66
     7
176
     1
 43
1.0
176
     1
 76
     1
176
     1
 77
     6
176
     1
 78
     2
176
     1
 67
     7
176
     1
 79
     6
176
     1
170
     0
176
     1
171
     0
176
     1
290
     0
176
     1
 93
        1
176
     1
 44
0.0
176
     1
173
     0
176
     1
1001
ACAD
1000
AcDbSavedByObjectVersion
1070
     0
  0
VISUALSTYLE
  5
2C64
102
{ACAD_XDICTIONARY
360
2F8E
102
}
102
{ACAD_REACTORS
330
2C57
102
}
330
2C57
100
AcDbVisualStyle
  2
Thicken
 70
    13
177
     2
291
     1
 71
     2
176
     1
 72
     2
176
     1
 73
     0
176
     1
 90
        0
176
     1
 40
0.6
176
     1
 41
30.0
176
     1
 63
     7
421
 16777215
176
     1
 74
     1
176
     1
 91
        4
176
     1
 64
     7
176
     1
 65
   257
176
     1
 75
     1
176
     1
175
     1
176
     1
 42
1.0
176
     1
 92
       12
176
     1
 66
     7
176
     1
 43
1.0
176
     1
 76
     1
176
     1
 77
     6
176
     1
 78
     2
176
     1
 67
     7
176
     1
 79
     5
176
     1
170
     0
176
     1
171
     0
176
     1
290
     0
176
     1
 93
        1
176
     1
 44
0.0
176
     1
173
     0
176
     1
1001
ACAD
1000
AcDbSavedByObjectVersion
1070
     0
  0
VISUALSTYLE
  5
2C5E
102
{ACAD_XDICTIONARY
360
2F82
102
}
102
{ACAD_REACTORS
330
2C57
102
}
330
2C57
100
AcDbVisualStyle
  2
Wireframe
 70
     5
177
     2
291
     0
 71
     0
176
     1
 72
     2
176
     1
 73
     0
176
     1
 90
        0
176
     1
 40
0.6
176
     1
 41
30.0
176
     1
 63
     7
421
 16777215
176
     1
 74
     1
176
     1
 91
        4
176
     1
 64
     7
176
     1
 65
   257
176
     1
 75
     1
176
     1
175
     1
176
     1
 42
1.0
176
     1
 92
        0
176
     1
 66
   257
176
     1
 43
1.0
176
     1
 76
     1
176
     1
 77
     6
176
     1
 78
     2
176
     1
 67
     7
176
     1
 79
     3
176
     1
170
     0
176
     1
171
     0
176
     1
290
     0
176
     1
 93
        1
176
     1
 44
0.0
176
     1
173
     0
176
     1
1001
ACAD
1000
AcDbSavedByObjectVersion
1070
     0
  0
VISUALSTYLE
  5
2C6A
102
{ACAD_XDICTIONARY
360
2F9A
102
}
102
{ACAD_REACTORS
330
2C57
102
}
330
2C57
100
AcDbVisualStyle
  2
X-Ray
 70
    25
177
     2
291
     0
 71
     2
176
     1
 72
     2
176
     1
 73
     1
176
     1
 90
        1
176
     1
 40
0.5
176
     1
 41
30.0
176
     1
 63
     7
421
 16777215
176
     1
 74
     1
176
     1
 91
        0
176
     1
 64
     7
176
     1
 65
   257
176
     1
 75
     1
176
     1
175
     1
176
     1
 42
1.0
176
     1
 92
        8
176
     1
 66
     7
176
     1
 43
1.0
176
     1
 76
     1
176
     1
 77
     6
176
     1
 78
     2
176
     1
 67
     7
176
     1
 79
     3
176
     1
170
     0
176
     1
171
     0
176
     1
290
     0
176
     1
 93
       13
176
     1
 44
0.0
176
     1
173
     0
176
     1
1001
ACAD
1000
AcDbSavedByObjectVersion
1070
     0
  0
DICTIONARYVAR
  5
2E5A
102
{ACAD_REACTORS
330
2E54
102
}
330
2E54
100
DictionaryVariables
280
     0
  1
1:1
  0
DICTIONARYVAR
  5
2E56
102
{ACAD_REACTORS
330
2E54
102
}
330
2E54
100
DictionaryVariables
280
     0
  1
STANDARD
  0
DICTIONARYVAR
  5
2E55
102
{ACAD_REACTORS
330
2E54
102
}
330
2E54
100
DictionaryVariables
280
     0
  1
STANDARD
  0
DICTIONARYVAR
  5
2E57
102
{ACAD_REACTORS
330
2E54
102
}
330
2E54
100
DictionaryVariables
280
     0
  1
Imperial24
  0
DICTIONARYVAR
  5
2E58
102
{ACAD_REACTORS
330
2E54
102
}
330
2E54
100
DictionaryVariables
280
     0
  1
Imperial24
  0
DICTIONARYVAR
  5
2E5C
102
{ACAD_REACTORS
330
2E54
102
}
330
2E54
100
DictionaryVariables
280
     0
  1
1
  0
DICTIONARYVAR
  5
2E5D
102
{ACAD_REACTORS
330
2E54
102
}
330
2E54
100
DictionaryVariables
280
     0
  1
15
  0
DICTIONARYVAR
  5
2E5B
102
{ACAD_REACTORS
330
2E54
102
}
330
2E54
100
DictionaryVariables
280
     0
  1
0
  0
DICTIONARYVAR
  5
2E59
102
{ACAD_REACTORS
330
2E54
102
}
330
2E54
100
DictionaryVariables
280
     0
  1
0
  0
DICTIONARY
  5
2F75
102
{ACAD_REACTORS
330
2F73
102
}
330
2F73
100
AcDbDictionary
281
     1
  0
DICTIONARY
  5
2F74
102
{ACAD_REACTORS
330
2F73
102
}
330
2F73
100
AcDbDictionary
281
     1
  3
1761408151136
350
2F6E
  3
1761408151152
350
2F6F
  3
1761408151168
350
2F70
  3
1761408151184
350
2F71
  3
1761408151200
350
2F72
  0
DICTIONARY
  5
2D82
102
{ACAD_REACTORS
330
2D79
102
}
330
2D79
100
AcDbDictionary
281
     1
  0
DICTIONARY
  5
2FA8
330
2C98
100
AcDbDictionary
280
     1
281
     1
  3
ACAD_XREC_ROUNDTRIP
360
2FA9
  0
DICTIONARY
  5
2C48
330
2C47
100
AcDbDictionary
280
     1
281
     1
  3
BUMPTILE
360
2C4A
  3
DIFFUSETILE
360
2C49
  3
OPACITYTILE
360
2C4D
  3
REFLECTIONTILE
360
2C4C
  3
REFRACTIONTILE
360
2C4E
  3
SPECULARTILE
360
2C4B
  0
DICTIONARY
  5
2C40
330
2C3F
100
AcDbDictionary
280
     1
281
     1
  3
BUMPTILE
360
2C42
  3
DIFFUSETILE
360
2C41
  3
OPACITYTILE
360
2C45
  3
REFLECTIONTILE
360
2C44
  3
REFRACTIONTILE
360
2C46
  3
SPECULARTILE
360
2C43
  0
DICTIONARY
  5
2C50
330
2C4F
100
AcDbDictionary
280
     1
281
     1
  3
BUMPTILE
360
2C52
  3
DIFFUSETILE
360
2C51
  3
OPACITYTILE
360
2C55
  3
REFLECTIONTILE
360
2C54
  3
REFRACTIONTILE
360
2C56
  3
SPECULARTILE
360
2C53
  0
DICTIONARY
  5
2FA6
330
2C96
100
AcDbDictionary
280
     1
281
     1
  3
ACAD_XREC_ROUNDTRIP
360
2FA7
  0
DICTIONARY
  5
2E5E
330
2C92
100
AcDbDictionary
280
     1
281
     1
  3
ACAD_ROUNDTRIP_2008_TABLESTYLE_CELLSTYLEMAP
360
2F6C
  0
DICTIONARY
  5
2F80
330
2C5D
100
AcDbDictionary
280
     1
281
     1
  3
ACAD_XREC_ROUNDTRIP
360
2F81
  0
DICTIONARY
  5
2F7E
330
2C5C
100
AcDbDictionary
280
     1
281
     1
  3
ACAD_XREC_ROUNDTRIP
360
2F7F
  0
DICTIONARY
  5
2F8C
330
2C63
100
AcDbDictionary
280
     1
281
     1
  3
ACAD_XREC_ROUNDTRIP
360
2F8D
  0
DICTIONARY
  5
2F94
330
2C67
100
AcDbDictionary
280
     1
281
     1
  3
ACAD_XREC_ROUNDTRIP
360
2F95
  0
DICTIONARY
  5
2F86
330
2C60
100
AcDbDictionary
280
     1
281
     1
  3
ACAD_XREC_ROUNDTRIP
360
2F87
  0
DICTIONARY
  5
2F8A
330
2C62
100
AcDbDictionary
280
     1
281
     1
  3
ACAD_XREC_ROUNDTRIP
360
2F8B
  0
DICTIONARY
  5
2FA4
330
2C6F
100
AcDbDictionary
280
     1
281
     1
  3
ACAD_XREC_ROUNDTRIP
360
2FA5
  0
DICTIONARY
  5
2F92
330
2C66
100
AcDbDictionary
280
     1
281
     1
  3
ACAD_XREC_ROUNDTRIP
360
2F93
  0
DICTIONARY
  5
2F76
330
2C58
100
AcDbDictionary
280
     1
281
     1
  3
ACAD_XREC_ROUNDTRIP
360
2F77
  0
DICTIONARY
  5
2F78
330
2C59
100
AcDbDictionary
280
     1
281
     1
  3
ACAD_XREC_ROUNDTRIP
360
2F79
  0
DICTIONARY
  5
2F7A
330
2C5A
100
AcDbDictionary
280
     1
281
     1
  3
ACAD_XREC_ROUNDTRIP
360
2F7B
  0
DICTIONARY
  5
2F7C
330
2C5B
100
AcDbDictionary
280
     1
281
     1
  3
ACAD_XREC_ROUNDTRIP
360
2F7D
  0
DICTIONARY
  5
2F84
330
2C5F
100
AcDbDictionary
280
     1
281
     1
  3
ACAD_XREC_ROUNDTRIP
360
2F85
  0
DICTIONARY
  5
2FA0
330
2C6D
100
AcDbDictionary
280
     1
281
     1
  3
ACAD_XREC_ROUNDTRIP
360
2FA1
  0
DICTIONARY
  5
2F90
330
2C65
100
AcDbDictionary
280
     1
281
     1
  3
ACAD_XREC_ROUNDTRIP
360
2F91
  0
DICTIONARY
  5
2FA2
330
2C6E
100
AcDbDictionary
280
     1
281
     1
  3
ACAD_XREC_ROUNDTRIP
360
2FA3
  0
DICTIONARY
  5
2F88
330
2C61
100
AcDbDictionary
280
     1
281
     1
  3
ACAD_XREC_ROUNDTRIP
360
2F89
  0
DICTIONARY
  5
2F9E
330
2C6C
100
AcDbDictionary
280
     1
281
     1
  3
ACAD_XREC_ROUNDTRIP
360
2F9F
  0
DICTIONARY
  5
2F9C
330
2C6B
100
AcDbDictionary
280
     1
281
     1
  3
ACAD_XREC_ROUNDTRIP
360
2F9D
  0
DICTIONARY
  5
2F96
330
2C68
100
AcDbDictionary
280
     1
281
     1
  3
ACAD_XREC_ROUNDTRIP
360
2F97
  0
DICTIONARY
  5
2F98
330
2C69
100
AcDbDictionary
280
     1
281
     1
  3
ACAD_XREC_ROUNDTRIP
360
2F99
  0
DICTIONARY
  5
2F8E
330
2C64
100
AcDbDictionary
280
     1
281
     1
  3
ACAD_XREC_ROUNDTRIP
360
2F8F
  0
DICTIONARY
  5
2F82
330
2C5E
100
AcDbDictionary
280
     1
281
     1
  3
ACAD_XREC_ROUNDTRIP
360
2F83
  0
DICTIONARY
  5
2F9A
330
2C6A
100
AcDbDictionary
280
     1
281
     1
  3
ACAD_XREC_ROUNDTRIP
360
2F9B
  0
XRECORD
  5
2F6E
102
{ACAD_REACTORS
330
2F74
102
}
330
2F74
100
AcDbXrecord
280
     1
  1
AcDb_Thumbnail_Schema
102
{ATTRRECORD
341
2F6F
  2
AcDbDs::TreatedAsObjectData
280
     1
291
     1
102
ATTRRECORD}
102
{ATTRRECORD
341
2F70
  2
AcDbDs::Legacy
280
     1
291
     1
102
ATTRRECORD}
  2
AcDbDs::ID
280
    10
 91
        8
102
{ATTRRECORD
341
2F71
  2
AcDs:Indexable
280
     1
291
     1
102
ATTRRECORD}
102
{ATTRRECORD
341
2F72
  2
AcDbDs::HandleAttribute
280
     7
282
     1
102
ATTRRECORD}
  2
Thumbnail_Data
280
    15
 91
        0
  0
XRECORD
  5
2F6F
102
{ACAD_REACTORS
330
2F74
102
}
330
2F74
100
AcDbXrecord
280
     1
  1
AcDbDs::TreatedAsObjectDataSchema
  2
AcDbDs::TreatedAsObjectData
280
     1
 91
        0
  0
XRECORD
  5
2F70
102
{ACAD_REACTORS
330
2F74
102
}
330
2F74
100
AcDbXrecord
280
     1
  1
AcDbDs::LegacySchema
  2
AcDbDs::Legacy
280
     1
 91
        0
  0
XRECORD
  5
2F71
102
{ACAD_REACTORS
330
2F74
102
}
330
2F74
100
AcDbXrecord
280
     1
  1
AcDbDs::IndexedPropertySchema
  2
AcDs:Indexable
280
     1
 91
        0
  0
XRECORD
  5
2F72
102
{ACAD_REACTORS
330
2F74
102
}
330
2F74
100
AcDbXrecord
280
     1
  1
AcDbDs::HandleAttributeSchema
  2
AcDbDs::HandleAttribute
280
     7
 91
        1
284
     1
  0
XRECORD
  5
2FA9
102
{ACAD_REACTORS
330
2FA8
102
}
330
2FA8
100
AcDbXrecord
280
     1
102
DISPLAYNAME
  1
Imperial24
102
FLAGS
 90
        0
  0
XRECORD
  5
2C4A
102
{ACAD_REACTORS
330
2C48
102
}
330
2C48
100
AcDbXrecord
280
     1
270
     1
271
     1
  0
XRECORD
  5
2C49
102
{ACAD_REACTORS
330
2C48
102
}
330
2C48
100
AcDbXrecord
280
     1
270
     1
271
     1
  0
XRECORD
  5
2C4D
102
{ACAD_REACTORS
330
2C48
102
}
330
2C48
100
AcDbXrecord
280
     1
270
     1
271
     1
  0
XRECORD
  5
2C4C
102
{ACAD_REACTORS
330
2C48
102
}
330
2C48
100
AcDbXrecord
280
     1
270
     1
271
     1
  0
XRECORD
  5
2C4E
102
{ACAD_REACTORS
330
2C48
102
}
330
2C48
100
AcDbXrecord
280
     1
270
     1
271
     1
  0
XRECORD
  5
2C4B
102
{ACAD_REACTORS
330
2C48
102
}
330
2C48
100
AcDbXrecord
280
     1
270
     1
271
     1
  0
XRECORD
  5
2C42
102
{ACAD_REACTORS
330
2C40
102
}
330
2C40
100
AcDbXrecord
280
     1
270
     1
271
     1
  0
XRECORD
  5
2C41
102
{ACAD_REACTORS
330
2C40
102
}
330
2C40
100
AcDbXrecord
280
     1
270
     1
271
     1
  0
XRECORD
  5
2C45
102
{ACAD_REACTORS
330
2C40
102
}
330
2C40
100
AcDbXrecord
280
     1
270
     1
271
     1
  0
XRECORD
  5
2C44
102
{ACAD_REACTORS
330
2C40
102
}
330
2C40
100
AcDbXrecord
280
     1
270
     1
271
     1
  0
XRECORD
  5
2C46
102
{ACAD_REACTORS
330
2C40
102
}
330
2C40
100
AcDbXrecord
280
     1
270
     1
271
     1
  0
XRECORD
  5
2C43
102
{ACAD_REACTORS
330
2C40
102
}
330
2C40
100
AcDbXrecord
280
     1
270
     1
271
     1
  0
XRECORD
  5
2C52
102
{ACAD_REACTORS
330
2C50
102
}
330
2C50
100
AcDbXrecord
280
     1
270
     1
271
     1
  0
XRECORD
  5
2C51
102
{ACAD_REACTORS
330
2C50
102
}
330
2C50
100
AcDbXrecord
280
     1
270
     1
271
     1
  0
XRECORD
  5
2C55
102
{ACAD_REACTORS
330
2C50
102
}
330
2C50
100
AcDbXrecord
280
     1
270
     1
271
     1
  0
XRECORD
  5
2C54
102
{ACAD_REACTORS
330
2C50
102
}
330
2C50
100
AcDbXrecord
280
     1
270
     1
271
     1
  0
XRECORD
  5
2C56
102
{ACAD_REACTORS
330
2C50
102
}
330
2C50
100
AcDbXrecord
280
     1
270
     1
271
     1
  0
XRECORD
  5
2C53
102
{ACAD_REACTORS
330
2C50
102
}
330
2C50
100
AcDbXrecord
280
     1
270
     1
271
     1
  0
XRECORD
  5
2FA7
102
{ACAD_REACTORS
330
2FA6
102
}
330
2FA6
100
AcDbXrecord
280
     1
102
DISPLAYNAME
  1
Imperial24
102
FLAGS
 90
        0
  0
CELLSTYLEMAP
  5
2F6C
102
{ACAD_REACTORS
330
2E5E
102
}
330
2E5E
100
AcDbCellStyleMap
 90
        3
300
CELLSTYLE
  1
TABLEFORMAT_BEGIN
 90
        5
170
     1
 91
        0
 92
    32768
 62
   257
 93
        1
300
CONTENTFORMAT
  1
CONTENTFORMAT_BEGIN
 90
        0
 91
        0
 92
      512
 93
        0
300

 40
0.0
140
1.0
 94
        5
 62
     0
340
2C83
144
0.25
309
CONTENTFORMAT_END
171
     1
301
MARGIN
  1
CELLMARGIN_BEGIN
 40
0.06
 40
0.06
 40
0.06
 40
0.06
 40
0.18
 40
0.18
309
CELLMARGIN_END
 94
        6
 95
        1
302
GRIDFORMAT
  1
GRIDFORMAT_BEGIN
 90
        0
 91
        1
 62
     0
 92
       -2
340
0
 93
        0
 40
0.045
309
GRIDFORMAT_END
 95
        2
302
GRIDFORMAT
  1
GRIDFORMAT_BEGIN
 90
        0
 91
        1
 62
     0
 92
       -2
340
0
 93
        0
 40
0.045
309
GRIDFORMAT_END
 95
        4
302
GRIDFORMAT
  1
GRIDFORMAT_BEGIN
 90
        0
 91
        1
 62
     0
 92
       -2
340
0
 93
        0
 40
0.045
309
GRIDFORMAT_END
 95
        8
302
GRIDFORMAT
  1
GRIDFORMAT_BEGIN
 90
        0
 91
        1
 62
     0
 92
       -2
340
0
 93
        0
 40
0.045
309
GRIDFORMAT_END
 95
       16
302
GRIDFORMAT
  1
GRIDFORMAT_BEGIN
 90
        0
 91
        1
 62
     0
 92
       -2
340
0
 93
        0
 40
0.045
309
GRIDFORMAT_END
 95
       32
302
GRIDFORMAT
  1
GRIDFORMAT_BEGIN
 90
        0
 91
        1
 62
     0
 92
       -2
340
0
 93
        0
 40
0.045
309
GRIDFORMAT_END
309
TABLEFORMAT_END
  1
CELLSTYLE_BEGIN
 90
        1
 91
        1
300
_TITLE
309
CELLSTYLE_END
300
CELLSTYLE
  1
TABLEFORMAT_BEGIN
 90
        5
170
     1
 91
        0
 92
        0
 62
   257
 93
        1
300
CONTENTFORMAT
  1
CONTENTFORMAT_BEGIN
 90
        0
 91
        0
 92
      512
 93
        0
300

 40
0.0
140
1.0
 94
        5
 62
     0
340
2C83
144
0.18
309
CONTENTFORMAT_END
171
     1
301
MARGIN
  1
CELLMARGIN_BEGIN
 40
0.06
 40
0.06
 40
0.06
 40
0.06
 40
0.18
 40
0.18
309
CELLMARGIN_END
 94
        6
 95
        1
302
GRIDFORMAT
  1
GRIDFORMAT_BEGIN
 90
        0
 91
        1
 62
     0
 92
       -2
340
0
 93
        0
 40
0.045
309
GRIDFORMAT_END
 95
        2
302
GRIDFORMAT
  1
GRIDFORMAT_BEGIN
 90
        0
 91
        1
 62
     0
 92
       -2
340
0
 93
        0
 40
0.045
309
GRIDFORMAT_END
 95
        4
302
GRIDFORMAT
  1
GRIDFORMAT_BEGIN
 90
        0
 91
        1
 62
     0
 92
       -2
340
0
 93
        0
 40
0.045
309
GRIDFORMAT_END
 95
        8
302
GRIDFORMAT
  1
GRIDFORMAT_BEGIN
 90
        0
 91
        1
 62
     0
 92
       -2
340
0
 93
        0
 40
0.045
309
GRIDFORMAT_END
 95
       16
302
GRIDFORMAT
  1
GRIDFORMAT_BEGIN
 90
        0
 91
        1
 62
     0
 92
       -2
340
0
 93
        0
 40
0.045
309
GRIDFORMAT_END
 95
       32
302
GRIDFORMAT
  1
GRIDFORMAT_BEGIN
 90
        0
 91
        1
 62
     0
 92
       -2
340
0
 93
        0
 40
0.045
309
GRIDFORMAT_END
309
TABLEFORMAT_END
  1
CELLSTYLE_BEGIN
 90
        2
 91
        1
300
_HEADER
309
CELLSTYLE_END
300
CELLSTYLE
  1
TABLEFORMAT_BEGIN
 90
        5
170
     1
 91
        0
 92
        0
 62
   257
 93
        1
300
CONTENTFORMAT
  1
CONTENTFORMAT_BEGIN
 90
        0
 91
        0
 92
      512
 93
        0
300

 40
0.0
140
1.0
 94
        2
 62
     0
340
2C83
144
0.18
309
CONTENTFORMAT_END
171
     1
301
MARGIN
  1
CELLMARGIN_BEGIN
 40
0.06
 40
0.06
 40
0.06
 40
0.06
 40
0.18
 40
0.18
309
CELLMARGIN_END
 94
        6
 95
        1
302
GRIDFORMAT
  1
GRIDFORMAT_BEGIN
 90
        0
 91
        1
 62
     0
 92
       -2
340
0
 93
        0
 40
0.045
309
GRIDFORMAT_END
 95
        2
302
GRIDFORMAT
  1
GRIDFORMAT_BEGIN
 90
        0
 91
        1
 62
     0
 92
       -2
340
0
 93
        0
 40
0.045
309
GRIDFORMAT_END
 95
        4
302
GRIDFORMAT
  1
GRIDFORMAT_BEGIN
 90
        0
 91
        1
 62
     0
 92
       -2
340
0
 93
        0
 40
0.045
309
GRIDFORMAT_END
 95
        8
302
GRIDFORMAT
  1
GRIDFORMAT_BEGIN
 90
        0
 91
        1
 62
     0
 92
       -2
340
0
 93
        0
 40
0.045
309
GRIDFORMAT_END
 95
       16
302
GRIDFORMAT
  1
GRIDFORMAT_BEGIN
 90
        0
 91
        1
 62
     0
 92
       -2
340
0
 93
        0
 40
0.045
309
GRIDFORMAT_END
 95
       32
302
GRIDFORMAT
  1
GRIDFORMAT_BEGIN
 90
        0
 91
        1
 62
     0
 92
       -2
340
0
 93
        0
 40
0.045
309
GRIDFORMAT_END
309
TABLEFORMAT_END
  1
CELLSTYLE_BEGIN
 90
        3
 91
        2
300
_DATA
309
CELLSTYLE_END
  0
XRECORD
  5
2F81
102
{ACAD_REACTORS
330
2F80
102
}
330
2F80
100
AcDbXrecord
280
     1
102
RTVSPost2010Prop28
280
     1
102
RTVSPost2010PropOp28
 70
     1
102
RTVSPost2010Prop29
280
     1
102
RTVSPost2010PropOp29
 70
     1
102
RTVSPost2010Prop30
280
     0
102
RTVSPost2010PropOp30
 70
     1
102
RTVSPost2010Prop31
280
     0
102
RTVSPost2010PropOp31
 70
     1
102
RTVSPost2010Prop32
280
     0
102
RTVSPost2010PropOp32
 70
     1
102
RTVSPost2010Prop33
280
     0
102
RTVSPost2010PropOp33
 70
     1
102
RTVSPost2010Prop34
280
     0
102
RTVSPost2010PropOp34
 70
     1
102
RTVSPost2010Prop35
280
     0
102
RTVSPost2010PropOp35
 70
     1
102
RTVSPost2010Prop36
280
     0
102
RTVSPost2010PropOp36
 70
     1
102
RTVSPost2010Prop37
 90
       50
102
RTVSPost2010PropOp37
 70
     1
102
RTVSPost2010Prop38
140
0.0
102
RTVSPost2010PropOp38
 70
     1
102
RTVSPost2010Prop39
140
1.0
102
RTVSPost2010PropOp39
 70
     1
102
RTVSPost2010Prop40
 90
        0
102
RTVSPost2010PropOp40
 70
     1
102
RTVSPost2010Prop41ColorIndex
 90
       18
102
RTVSPost2010Prop41ColorRGB
 90
        0
102
RTVSPost2010PropOp41
 70
     1
102
RTVSPost2010Prop42
 90
       50
102
RTVSPost2010PropOp42
 70
     1
102
RTVSPost2010Prop43
 90
        3
102
RTVSPost2010PropOp43
 70
     1
102
RTVSPost2010Prop44ColorIndex
 90
        5
102
RTVSPost2010Prop44ColorRGB
 90
      255
102
RTVSPost2010PropOp44
 70
     1
102
RTVSPost2010Prop45
280
     0
102
RTVSPost2010PropOp45
 70
     1
102
RTVSPost2010Prop46
 90
       50
102
RTVSPost2010PropOp46
 70
     1
102
RTVSPost2010Prop47
 90
       50
102
RTVSPost2010PropOp47
 70
     1
102
RTVSPost2010Prop48
 90
       50
102
RTVSPost2010PropOp48
 70
     1
102
RTVSPost2010Prop49
280
     0
102
RTVSPost2010PropOp49
 70
     1
102
RTVSPost2010Prop50
 90
       50
102
RTVSPost2010PropOp50
 70
     1
102
RTVSPost2010Prop51ColorIndex
 90
      256
102
RTVSPost2010Prop51ColorRGB
 90
-16777216
102
RTVSPost2010PropOp51
 70
     0
102
RTVSPost2010Prop52
140
1.0
102
RTVSPost2010PropOp52
 70
     0
102
RTVSPost2010Prop53
 90
        2
102
RTVSPost2010PropOp53
 70
     1
102
RTVSPost2010Prop54
  1
strokes_ogs.tif
102
RTVSPost2010PropOp54
 70
     1
102
RTVSPost2010Prop55
280
     0
102
RTVSPost2010PropOp55
 70
     1
102
RTVSPost2010Prop56
140
1.0
102
RTVSPost2010PropOp56
 70
     1
102
RTVSPost2010Prop57
140
1.0
102
RTVSPost2010PropOp57
 70
     1
  0
XRECORD
  5
2F7F
102
{ACAD_REACTORS
330
2F7E
102
}
330
2F7E
100
AcDbXrecord
280
     1
102
RTVSPost2010Prop28
280
     0
102
RTVSPost2010PropOp28
 70
     1
102
RTVSPost2010Prop29
280
     1
102
RTVSPost2010PropOp29
 70
     1
102
RTVSPost2010Prop30
280
     1
102
RTVSPost2010PropOp30
 70
     1
102
RTVSPost2010Prop31
280
     0
102
RTVSPost2010PropOp31
 70
     1
102
RTVSPost2010Prop32
280
     0
102
RTVSPost2010PropOp32
 70
     1
102
RTVSPost2010Prop33
280
     0
102
RTVSPost2010PropOp33
 70
     1
102
RTVSPost2010Prop34
280
     0
102
RTVSPost2010PropOp34
 70
     1
102
RTVSPost2010Prop35
280
     0
102
RTVSPost2010PropOp35
 70
     1
102
RTVSPost2010Prop36
280
     0
102
RTVSPost2010PropOp36
 70
     1
102
RTVSPost2010Prop37
 90
       50
102
RTVSPost2010PropOp37
 70
     1
102
RTVSPost2010Prop38
140
0.0
102
RTVSPost2010PropOp38
 70
     1
102
RTVSPost2010Prop39
140
1.0
102
RTVSPost2010PropOp39
 70
     1
102
RTVSPost2010Prop40
 90
        0
102
RTVSPost2010PropOp40
 70
     1
102
RTVSPost2010Prop41ColorIndex
 90
       18
102
RTVSPost2010Prop41ColorRGB
 90
        0
102
RTVSPost2010PropOp41
 70
     1
102
RTVSPost2010Prop42
 90
       50
102
RTVSPost2010PropOp42
 70
     1
102
RTVSPost2010Prop43
 90
        3
102
RTVSPost2010PropOp43
 70
     1
102
RTVSPost2010Prop44ColorIndex
 90
        5
102
RTVSPost2010Prop44ColorRGB
 90
      255
102
RTVSPost2010PropOp44
 70
     1
102
RTVSPost2010Prop45
280
     0
102
RTVSPost2010PropOp45
 70
     1
102
RTVSPost2010Prop46
 90
       50
102
RTVSPost2010PropOp46
 70
     1
102
RTVSPost2010Prop47
 90
       50
102
RTVSPost2010PropOp47
 70
     1
102
RTVSPost2010Prop48
 90
       50
102
RTVSPost2010PropOp48
 70
     1
102
RTVSPost2010Prop49
280
     0
102
RTVSPost2010PropOp49
 70
     1
102
RTVSPost2010Prop50
 90
       50
102
RTVSPost2010PropOp50
 70
     1
102
RTVSPost2010Prop51ColorIndex
 90
      256
102
RTVSPost2010Prop51ColorRGB
 90
-16777216
102
RTVSPost2010PropOp51
 70
     0
102
RTVSPost2010Prop52
140
1.0
102
RTVSPost2010PropOp52
 70
     0
102
RTVSPost2010Prop53
 90
        2
102
RTVSPost2010PropOp53
 70
     1
102
RTVSPost2010Prop54
  1
strokes_ogs.tif
102
RTVSPost2010PropOp54
 70
     1
102
RTVSPost2010Prop55
280
     0
102
RTVSPost2010PropOp55
 70
     1
102
RTVSPost2010Prop56
140
1.0
102
RTVSPost2010PropOp56
 70
     1
102
RTVSPost2010Prop57
140
1.0
102
RTVSPost2010PropOp57
 70
     1
  0
XRECORD
  5
2F8D
102
{ACAD_REACTORS
330
2F8C
102
}
330
2F8C
100
AcDbXrecord
280
     1
102
RTVSPost2010Prop28
280
     0
102
RTVSPost2010PropOp28
 70
     1
102
RTVSPost2010Prop29
280
     1
102
RTVSPost2010PropOp29
 70
     1
102
RTVSPost2010Prop30
280
     1
102
RTVSPost2010PropOp30
 70
     1
102
RTVSPost2010Prop31
280
     0
102
RTVSPost2010PropOp31
 70
     1
102
RTVSPost2010Prop32
280
     0
102
RTVSPost2010PropOp32
 70
     1
102
RTVSPost2010Prop33
280
     0
102
RTVSPost2010PropOp33
 70
     1
102
RTVSPost2010Prop34
280
     0
102
RTVSPost2010PropOp34
 70
     1
102
RTVSPost2010Prop35
280
     0
102
RTVSPost2010PropOp35
 70
     1
102
RTVSPost2010Prop36
280
     0
102
RTVSPost2010PropOp36
 70
     1
102
RTVSPost2010Prop37
 90
       50
102
RTVSPost2010PropOp37
 70
     1
102
RTVSPost2010Prop38
140
0.0
102
RTVSPost2010PropOp38
 70
     1
102
RTVSPost2010Prop39
140
1.0
102
RTVSPost2010PropOp39
 70
     1
102
RTVSPost2010Prop40
 90
        0
102
RTVSPost2010PropOp40
 70
     1
102
RTVSPost2010Prop41ColorIndex
 90
       18
102
RTVSPost2010Prop41ColorRGB
 90
        0
102
RTVSPost2010PropOp41
 70
     1
102
RTVSPost2010Prop42
 90
       50
102
RTVSPost2010PropOp42
 70
     1
102
RTVSPost2010Prop43
 90
        3
102
RTVSPost2010PropOp43
 70
     1
102
RTVSPost2010Prop44ColorIndex
 90
        5
102
RTVSPost2010Prop44ColorRGB
 90
      255
102
RTVSPost2010PropOp44
 70
     1
102
RTVSPost2010Prop45
280
     0
102
RTVSPost2010PropOp45
 70
     1
102
RTVSPost2010Prop46
 90
       50
102
RTVSPost2010PropOp46
 70
     1
102
RTVSPost2010Prop47
 90
       50
102
RTVSPost2010PropOp47
 70
     1
102
RTVSPost2010Prop48
 90
       50
102
RTVSPost2010PropOp48
 70
     1
102
RTVSPost2010Prop49
280
     0
102
RTVSPost2010PropOp49
 70
     1
102
RTVSPost2010Prop50
 90
       50
102
RTVSPost2010PropOp50
 70
     1
102
RTVSPost2010Prop51ColorIndex
 90
      256
102
RTVSPost2010Prop51ColorRGB
 90
-16777216
102
RTVSPost2010PropOp51
 70
     0
102
RTVSPost2010Prop52
140
1.0
102
RTVSPost2010PropOp52
 70
     0
102
RTVSPost2010Prop53
 90
        2
102
RTVSPost2010PropOp53
 70
     1
102
RTVSPost2010Prop54
  1
strokes_ogs.tif
102
RTVSPost2010PropOp54
 70
     1
102
RTVSPost2010Prop55
280
     0
102
RTVSPost2010PropOp55
 70
     1
102
RTVSPost2010Prop56
140
1.0
102
RTVSPost2010PropOp56
 70
     1
102
RTVSPost2010Prop57
140
1.0
102
RTVSPost2010PropOp57
 70
     1
  0
XRECORD
  5
2F95
102
{ACAD_REACTORS
330
2F94
102
}
330
2F94
100
AcDbXrecord
280
     1
102
RTVSPost2010Prop28
280
     0
102
RTVSPost2010PropOp28
 70
     1
102
RTVSPost2010Prop29
280
     1
102
RTVSPost2010PropOp29
 70
     1
102
RTVSPost2010Prop30
280
     1
102
RTVSPost2010PropOp30
 70
     1
102
RTVSPost2010Prop31
280
     0
102
RTVSPost2010PropOp31
 70
     1
102
RTVSPost2010Prop32
280
     0
102
RTVSPost2010PropOp32
 70
     1
102
RTVSPost2010Prop33
280
     0
102
RTVSPost2010PropOp33
 70
     1
102
RTVSPost2010Prop34
280
     0
102
RTVSPost2010PropOp34
 70
     1
102
RTVSPost2010Prop35
280
     0
102
RTVSPost2010PropOp35
 70
     1
102
RTVSPost2010Prop36
280
     0
102
RTVSPost2010PropOp36
 70
     1
102
RTVSPost2010Prop37
 90
       50
102
RTVSPost2010PropOp37
 70
     1
102
RTVSPost2010Prop38
140
0.0
102
RTVSPost2010PropOp38
 70
     1
102
RTVSPost2010Prop39
140
1.0
102
RTVSPost2010PropOp39
 70
     1
102
RTVSPost2010Prop40
 90
        0
102
RTVSPost2010PropOp40
 70
     1
102
RTVSPost2010Prop41ColorIndex
 90
       18
102
RTVSPost2010Prop41ColorRGB
 90
        0
102
RTVSPost2010PropOp41
 70
     1
102
RTVSPost2010Prop42
 90
       50
102
RTVSPost2010PropOp42
 70
     1
102
RTVSPost2010Prop43
 90
        3
102
RTVSPost2010PropOp43
 70
     1
102
RTVSPost2010Prop44ColorIndex
 90
        5
102
RTVSPost2010Prop44ColorRGB
 90
      255
102
RTVSPost2010PropOp44
 70
     1
102
RTVSPost2010Prop45
280
     0
102
RTVSPost2010PropOp45
 70
     1
102
RTVSPost2010Prop46
 90
       50
102
RTVSPost2010PropOp46
 70
     1
102
RTVSPost2010Prop47
 90
       50
102
RTVSPost2010PropOp47
 70
     1
102
RTVSPost2010Prop48
 90
       50
102
RTVSPost2010PropOp48
 70
     1
102
RTVSPost2010Prop49
280
     0
102
RTVSPost2010PropOp49
 70
     1
102
RTVSPost2010Prop50
 90
       50
102
RTVSPost2010PropOp50
 70
     1
102
RTVSPost2010Prop51ColorIndex
 90
      256
102
RTVSPost2010Prop51ColorRGB
 90
-16777216
102
RTVSPost2010PropOp51
 70
     0
102
RTVSPost2010Prop52
140
1.0
102
RTVSPost2010PropOp52
 70
     0
102
RTVSPost2010Prop53
 90
        2
102
RTVSPost2010PropOp53
 70
     1
102
RTVSPost2010Prop54
  1
strokes_ogs.tif
102
RTVSPost2010PropOp54
 70
     1
102
RTVSPost2010Prop55
280
     0
102
RTVSPost2010PropOp55
 70
     1
102
RTVSPost2010Prop56
140
1.0
102
RTVSPost2010PropOp56
 70
     1
102
RTVSPost2010Prop57
140
1.0
102
RTVSPost2010PropOp57
 70
     1
  0
XRECORD
  5
2F87
102
{ACAD_REACTORS
330
2F86
102
}
330
2F86
100
AcDbXrecord
280
     1
102
RTVSPost2010Prop28
280
     0
102
RTVSPost2010PropOp28
 70
     1
102
RTVSPost2010Prop29
280
     1
102
RTVSPost2010PropOp29
 70
     1
102
RTVSPost2010Prop30
280
     1
102
RTVSPost2010PropOp30
 70
     1
102
RTVSPost2010Prop31
280
     0
102
RTVSPost2010PropOp31
 70
     1
102
RTVSPost2010Prop32
280
     0
102
RTVSPost2010PropOp32
 70
     1
102
RTVSPost2010Prop33
280
     0
102
RTVSPost2010PropOp33
 70
     1
102
RTVSPost2010Prop34
280
     0
102
RTVSPost2010PropOp34
 70
     1
102
RTVSPost2010Prop35
280
     0
102
RTVSPost2010PropOp35
 70
     1
102
RTVSPost2010Prop36
280
     0
102
RTVSPost2010PropOp36
 70
     1
102
RTVSPost2010Prop37
 90
       50
102
RTVSPost2010PropOp37
 70
     1
102
RTVSPost2010Prop38
140
0.0
102
RTVSPost2010PropOp38
 70
     1
102
RTVSPost2010Prop39
140
1.0
102
RTVSPost2010PropOp39
 70
     1
102
RTVSPost2010Prop40
 90
        0
102
RTVSPost2010PropOp40
 70
     1
102
RTVSPost2010Prop41ColorIndex
 90
       18
102
RTVSPost2010Prop41ColorRGB
 90
        0
102
RTVSPost2010PropOp41
 70
     1
102
RTVSPost2010Prop42
 90
       50
102
RTVSPost2010PropOp42
 70
     1
102
RTVSPost2010Prop43
 90
        3
102
RTVSPost2010PropOp43
 70
     1
102
RTVSPost2010Prop44ColorIndex
 90
        5
102
RTVSPost2010Prop44ColorRGB
 90
      255
102
RTVSPost2010PropOp44
 70
     1
102
RTVSPost2010Prop45
280
     0
102
RTVSPost2010PropOp45
 70
     1
102
RTVSPost2010Prop46
 90
       50
102
RTVSPost2010PropOp46
 70
     1
102
RTVSPost2010Prop47
 90
       50
102
RTVSPost2010PropOp47
 70
     1
102
RTVSPost2010Prop48
 90
       50
102
RTVSPost2010PropOp48
 70
     1
102
RTVSPost2010Prop49
280
     0
102
RTVSPost2010PropOp49
 70
     1
102
RTVSPost2010Prop50
 90
       50
102
RTVSPost2010PropOp50
 70
     1
102
RTVSPost2010Prop51ColorIndex
 90
      256
102
RTVSPost2010Prop51ColorRGB
 90
-16777216
102
RTVSPost2010PropOp51
 70
     0
102
RTVSPost2010Prop52
140
1.0
102
RTVSPost2010PropOp52
 70
     0
102
RTVSPost2010Prop53
 90
        2
102
RTVSPost2010PropOp53
 70
     1
102
RTVSPost2010Prop54
  1
strokes_ogs.tif
102
RTVSPost2010PropOp54
 70
     1
102
RTVSPost2010Prop55
280
     0
102
RTVSPost2010PropOp55
 70
     1
102
RTVSPost2010Prop56
140
1.0
102
RTVSPost2010PropOp56
 70
     1
102
RTVSPost2010Prop57
140
1.0
102
RTVSPost2010PropOp57
 70
     1
  0
XRECORD
  5
2F8B
102
{ACAD_REACTORS
330
2F8A
102
}
330
2F8A
100
AcDbXrecord
280
     1
102
RTVSPost2010Prop28
280
     0
102
RTVSPost2010PropOp28
 70
     1
102
RTVSPost2010Prop29
280
     1
102
RTVSPost2010PropOp29
 70
     1
102
RTVSPost2010Prop30
280
     1
102
RTVSPost2010PropOp30
 70
     1
102
RTVSPost2010Prop31
280
     0
102
RTVSPost2010PropOp31
 70
     1
102
RTVSPost2010Prop32
280
     0
102
RTVSPost2010PropOp32
 70
     1
102
RTVSPost2010Prop33
280
     0
102
RTVSPost2010PropOp33
 70
     1
102
RTVSPost2010Prop34
280
     0
102
RTVSPost2010PropOp34
 70
     1
102
RTVSPost2010Prop35
280
     0
102
RTVSPost2010PropOp35
 70
     1
102
RTVSPost2010Prop36
280
     0
102
RTVSPost2010PropOp36
 70
     1
102
RTVSPost2010Prop37
 90
       50
102
RTVSPost2010PropOp37
 70
     1
102
RTVSPost2010Prop38
140
0.0
102
RTVSPost2010PropOp38
 70
     1
102
RTVSPost2010Prop39
140
1.0
102
RTVSPost2010PropOp39
 70
     1
102
RTVSPost2010Prop40
 90
        0
102
RTVSPost2010PropOp40
 70
     1
102
RTVSPost2010Prop41ColorIndex
 90
       18
102
RTVSPost2010Prop41ColorRGB
 90
        0
102
RTVSPost2010PropOp41
 70
     1
102
RTVSPost2010Prop42
 90
       50
102
RTVSPost2010PropOp42
 70
     1
102
RTVSPost2010Prop43
 90
        3
102
RTVSPost2010PropOp43
 70
     1
102
RTVSPost2010Prop44ColorIndex
 90
        5
102
RTVSPost2010Prop44ColorRGB
 90
      255
102
RTVSPost2010PropOp44
 70
     1
102
RTVSPost2010Prop45
280
     0
102
RTVSPost2010PropOp45
 70
     1
102
RTVSPost2010Prop46
 90
       50
102
RTVSPost2010PropOp46
 70
     1
102
RTVSPost2010Prop47
 90
       50
102
RTVSPost2010PropOp47
 70
     1
102
RTVSPost2010Prop48
 90
       50
102
RTVSPost2010PropOp48
 70
     1
102
RTVSPost2010Prop49
280
     0
102
RTVSPost2010PropOp49
 70
     1
102
RTVSPost2010Prop50
 90
       50
102
RTVSPost2010PropOp50
 70
     1
102
RTVSPost2010Prop51ColorIndex
 90
      256
102
RTVSPost2010Prop51ColorRGB
 90
-16777216
102
RTVSPost2010PropOp51
 70
     0
102
RTVSPost2010Prop52
140
1.0
102
RTVSPost2010PropOp52
 70
     0
102
RTVSPost2010Prop53
 90
        2
102
RTVSPost2010PropOp53
 70
     1
102
RTVSPost2010Prop54
  1
strokes_ogs.tif
102
RTVSPost2010PropOp54
 70
     1
102
RTVSPost2010Prop55
280
     0
102
RTVSPost2010PropOp55
 70
     1
102
RTVSPost2010Prop56
140
1.0
102
RTVSPost2010PropOp56
 70
     1
102
RTVSPost2010Prop57
140
1.0
102
RTVSPost2010PropOp57
 70
     1
  0
XRECORD
  5
2FA5
102
{ACAD_REACTORS
330
2FA4
102
}
330
2FA4
100
AcDbXrecord
280
     1
102
RTVSPost2010Prop28
280
     0
102
RTVSPost2010PropOp28
 70
     1
102
RTVSPost2010Prop29
280
     1
102
RTVSPost2010PropOp29
 70
     1
102
RTVSPost2010Prop30
280
     1
102
RTVSPost2010PropOp30
 70
     1
102
RTVSPost2010Prop31
280
     0
102
RTVSPost2010PropOp31
 70
     1
102
RTVSPost2010Prop32
280
     0
102
RTVSPost2010PropOp32
 70
     1
102
RTVSPost2010Prop33
280
     0
102
RTVSPost2010PropOp33
 70
     1
102
RTVSPost2010Prop34
280
     0
102
RTVSPost2010PropOp34
 70
     1
102
RTVSPost2010Prop35
280
     0
102
RTVSPost2010PropOp35
 70
     1
102
RTVSPost2010Prop36
280
     0
102
RTVSPost2010PropOp36
 70
     1
102
RTVSPost2010Prop37
 90
       50
102
RTVSPost2010PropOp37
 70
     0
102
RTVSPost2010Prop38
140
0.0
102
RTVSPost2010PropOp38
 70
     0
102
RTVSPost2010Prop39
140
1.0
102
RTVSPost2010PropOp39
 70
     0
102
RTVSPost2010Prop40
 90
        0
102
RTVSPost2010PropOp40
 70
     0
102
RTVSPost2010Prop41ColorIndex
 90
       18
102
RTVSPost2010Prop41ColorRGB
 90
        0
102
RTVSPost2010PropOp41
 70
     0
102
RTVSPost2010Prop42
 90
       50
102
RTVSPost2010PropOp42
 70
     0
102
RTVSPost2010Prop43
 90
        3
102
RTVSPost2010PropOp43
 70
     0
102
RTVSPost2010Prop44ColorIndex
 90
        5
102
RTVSPost2010Prop44ColorRGB
 90
      255
102
RTVSPost2010PropOp44
 70
     0
102
RTVSPost2010Prop45
280
     0
102
RTVSPost2010PropOp45
 70
     1
102
RTVSPost2010Prop46
 90
       50
102
RTVSPost2010PropOp46
 70
     0
102
RTVSPost2010Prop47
 90
       50
102
RTVSPost2010PropOp47
 70
     0
102
RTVSPost2010Prop48
 90
       50
102
RTVSPost2010PropOp48
 70
     0
102
RTVSPost2010Prop49
280
     0
102
RTVSPost2010PropOp49
 70
     1
102
RTVSPost2010Prop50
 90
       50
102
RTVSPost2010PropOp50
 70
     0
102
RTVSPost2010Prop51ColorIndex
 90
      256
102
RTVSPost2010Prop51ColorRGB
 90
-16777216
102
RTVSPost2010PropOp51
 70
     0
102
RTVSPost2010Prop52
140
1.0
102
RTVSPost2010PropOp52
 70
     0
102
RTVSPost2010Prop53
 90
        2
102
RTVSPost2010PropOp53
 70
     0
102
RTVSPost2010Prop54
  1
strokes_ogs.tif
102
RTVSPost2010PropOp54
 70
     0
102
RTVSPost2010Prop55
280
     0
102
RTVSPost2010PropOp55
 70
     1
102
RTVSPost2010Prop56
140
1.0
102
RTVSPost2010PropOp56
 70
     0
102
RTVSPost2010Prop57
140
1.0
102
RTVSPost2010PropOp57
 70
     0
  0
XRECORD
  5
2F93
102
{ACAD_REACTORS
330
2F92
102
}
330
2F92
100
AcDbXrecord
280
     1
102
RTVSPost2010Prop28
280
     0
102
RTVSPost2010PropOp28
 70
     1
102
RTVSPost2010Prop29
280
     1
102
RTVSPost2010PropOp29
 70
     1
102
RTVSPost2010Prop30
280
     1
102
RTVSPost2010PropOp30
 70
     1
102
RTVSPost2010Prop31
280
     0
102
RTVSPost2010PropOp31
 70
     1
102
RTVSPost2010Prop32
280
     0
102
RTVSPost2010PropOp32
 70
     1
102
RTVSPost2010Prop33
280
     0
102
RTVSPost2010PropOp33
 70
     1
102
RTVSPost2010Prop34
280
     0
102
RTVSPost2010PropOp34
 70
     1
102
RTVSPost2010Prop35
280
     0
102
RTVSPost2010PropOp35
 70
     1
102
RTVSPost2010Prop36
280
     0
102
RTVSPost2010PropOp36
 70
     1
102
RTVSPost2010Prop37
 90
       50
102
RTVSPost2010PropOp37
 70
     1
102
RTVSPost2010Prop38
140
0.0
102
RTVSPost2010PropOp38
 70
     1
102
RTVSPost2010Prop39
140
1.0
102
RTVSPost2010PropOp39
 70
     1
102
RTVSPost2010Prop40
 90
        0
102
RTVSPost2010PropOp40
 70
     1
102
RTVSPost2010Prop41ColorIndex
 90
       18
102
RTVSPost2010Prop41ColorRGB
 90
        0
102
RTVSPost2010PropOp41
 70
     1
102
RTVSPost2010Prop42
 90
       50
102
RTVSPost2010PropOp42
 70
     1
102
RTVSPost2010Prop43
 90
        3
102
RTVSPost2010PropOp43
 70
     1
102
RTVSPost2010Prop44ColorIndex
 90
        5
102
RTVSPost2010Prop44ColorRGB
 90
      255
102
RTVSPost2010PropOp44
 70
     1
102
RTVSPost2010Prop45
280
     0
102
RTVSPost2010PropOp45
 70
     1
102
RTVSPost2010Prop46
 90
       50
102
RTVSPost2010PropOp46
 70
     1
102
RTVSPost2010Prop47
 90
       50
102
RTVSPost2010PropOp47
 70
     1
102
RTVSPost2010Prop48
 90
       50
102
RTVSPost2010PropOp48
 70
     1
102
RTVSPost2010Prop49
280
     0
102
RTVSPost2010PropOp49
 70
     1
102
RTVSPost2010Prop50
 90
       50
102
RTVSPost2010PropOp50
 70
     1
102
RTVSPost2010Prop51ColorIndex
 90
      256
102
RTVSPost2010Prop51ColorRGB
 90
-16777216
102
RTVSPost2010PropOp51
 70
     0
102
RTVSPost2010Prop52
140
1.0
102
RTVSPost2010PropOp52
 70
     0
102
RTVSPost2010Prop53
 90
        2
102
RTVSPost2010PropOp53
 70
     1
102
RTVSPost2010Prop54
  1
strokes_ogs.tif
102
RTVSPost2010PropOp54
 70
     1
102
RTVSPost2010Prop55
280
     0
102
RTVSPost2010PropOp55
 70
     1
102
RTVSPost2010Prop56
140
1.0
102
RTVSPost2010PropOp56
 70
     1
102
RTVSPost2010Prop57
140
1.0
102
RTVSPost2010PropOp57
 70
     1
  0
XRECORD
  5
2F77
102
{ACAD_REACTORS
330
2F76
102
}
330
2F76
100
AcDbXrecord
280
     1
102
RTVSPost2010Prop28
280
     0
102
RTVSPost2010PropOp28
 70
     1
102
RTVSPost2010Prop29
280
     1
102
RTVSPost2010PropOp29
 70
     1
102
RTVSPost2010Prop30
280
     1
102
RTVSPost2010PropOp30
 70
     1
102
RTVSPost2010Prop31
280
     0
102
RTVSPost2010PropOp31
 70
     1
102
RTVSPost2010Prop32
280
     0
102
RTVSPost2010PropOp32
 70
     1
102
RTVSPost2010Prop33
280
     0
102
RTVSPost2010PropOp33
 70
     1
102
RTVSPost2010Prop34
280
     0
102
RTVSPost2010PropOp34
 70
     1
102
RTVSPost2010Prop35
280
     0
102
RTVSPost2010PropOp35
 70
     1
102
RTVSPost2010Prop36
280
     0
102
RTVSPost2010PropOp36
 70
     1
102
RTVSPost2010Prop37
 90
       50
102
RTVSPost2010PropOp37
 70
     1
102
RTVSPost2010Prop38
140
0.0
102
RTVSPost2010PropOp38
 70
     1
102
RTVSPost2010Prop39
140
1.0
102
RTVSPost2010PropOp39
 70
     1
102
RTVSPost2010Prop40
 90
        0
102
RTVSPost2010PropOp40
 70
     1
102
RTVSPost2010Prop41ColorIndex
 90
       18
102
RTVSPost2010Prop41ColorRGB
 90
        0
102
RTVSPost2010PropOp41
 70
     1
102
RTVSPost2010Prop42
 90
       50
102
RTVSPost2010PropOp42
 70
     1
102
RTVSPost2010Prop43
 90
        3
102
RTVSPost2010PropOp43
 70
     1
102
RTVSPost2010Prop44ColorIndex
 90
        5
102
RTVSPost2010Prop44ColorRGB
 90
      255
102
RTVSPost2010PropOp44
 70
     1
102
RTVSPost2010Prop45
280
     0
102
RTVSPost2010PropOp45
 70
     1
102
RTVSPost2010Prop46
 90
       50
102
RTVSPost2010PropOp46
 70
     1
102
RTVSPost2010Prop47
 90
       50
102
RTVSPost2010PropOp47
 70
     1
102
RTVSPost2010Prop48
 90
       50
102
RTVSPost2010PropOp48
 70
     1
102
RTVSPost2010Prop49
280
     0
102
RTVSPost2010PropOp49
 70
     1
102
RTVSPost2010Prop50
 90
       50
102
RTVSPost2010PropOp50
 70
     1
102
RTVSPost2010Prop51ColorIndex
 90
      256
102
RTVSPost2010Prop51ColorRGB
 90
-16777216
102
RTVSPost2010PropOp51
 70
     0
102
RTVSPost2010Prop52
140
1.0
102
RTVSPost2010PropOp52
 70
     0
102
RTVSPost2010Prop53
 90
        2
102
RTVSPost2010PropOp53
 70
     1
102
RTVSPost2010Prop54
  1
strokes_ogs.tif
102
RTVSPost2010PropOp54
 70
     1
102
RTVSPost2010Prop55
280
     0
102
RTVSPost2010PropOp55
 70
     1
102
RTVSPost2010Prop56
140
1.0
102
RTVSPost2010PropOp56
 70
     1
102
RTVSPost2010Prop57
140
1.0
102
RTVSPost2010PropOp57
 70
     1
  0
XRECORD
  5
2F79
102
{ACAD_REACTORS
330
2F78
102
}
330
2F78
100
AcDbXrecord
280
     1
102
RTVSPost2010Prop28
280
     0
102
RTVSPost2010PropOp28
 70
     1
102
RTVSPost2010Prop29
280
     1
102
RTVSPost2010PropOp29
 70
     1
102
RTVSPost2010Prop30
280
     1
102
RTVSPost2010PropOp30
 70
     1
102
RTVSPost2010Prop31
280
     0
102
RTVSPost2010PropOp31
 70
     1
102
RTVSPost2010Prop32
280
     0
102
RTVSPost2010PropOp32
 70
     1
102
RTVSPost2010Prop33
280
     0
102
RTVSPost2010PropOp33
 70
     1
102
RTVSPost2010Prop34
280
     0
102
RTVSPost2010PropOp34
 70
     1
102
RTVSPost2010Prop35
280
     0
102
RTVSPost2010PropOp35
 70
     1
102
RTVSPost2010Prop36
280
     0
102
RTVSPost2010PropOp36
 70
     1
102
RTVSPost2010Prop37
 90
       50
102
RTVSPost2010PropOp37
 70
     1
102
RTVSPost2010Prop38
140
0.0
102
RTVSPost2010PropOp38
 70
     1
102
RTVSPost2010Prop39
140
1.0
102
RTVSPost2010PropOp39
 70
     1
102
RTVSPost2010Prop40
 90
        0
102
RTVSPost2010PropOp40
 70
     1
102
RTVSPost2010Prop41ColorIndex
 90
       18
102
RTVSPost2010Prop41ColorRGB
 90
        0
102
RTVSPost2010PropOp41
 70
     1
102
RTVSPost2010Prop42
 90
       50
102
RTVSPost2010PropOp42
 70
     1
102
RTVSPost2010Prop43
 90
        3
102
RTVSPost2010PropOp43
 70
     1
102
RTVSPost2010Prop44ColorIndex
 90
        5
102
RTVSPost2010Prop44ColorRGB
 90
      255
102
RTVSPost2010PropOp44
 70
     1
102
RTVSPost2010Prop45
280
     0
102
RTVSPost2010PropOp45
 70
     1
102
RTVSPost2010Prop46
 90
       50
102
RTVSPost2010PropOp46
 70
     1
102
RTVSPost2010Prop47
 90
       50
102
RTVSPost2010PropOp47
 70
     1
102
RTVSPost2010Prop48
 90
       50
102
RTVSPost2010PropOp48
 70
     1
102
RTVSPost2010Prop49
280
     0
102
RTVSPost2010PropOp49
 70
     1
102
RTVSPost2010Prop50
 90
       50
102
RTVSPost2010PropOp50
 70
     1
102
RTVSPost2010Prop51ColorIndex
 90
      256
102
RTVSPost2010Prop51ColorRGB
 90
-16777216
102
RTVSPost2010PropOp51
 70
     0
102
RTVSPost2010Prop52
140
1.0
102
RTVSPost2010PropOp52
 70
     0
102
RTVSPost2010Prop53
 90
        2
102
RTVSPost2010PropOp53
 70
     1
102
RTVSPost2010Prop54
  1
strokes_ogs.tif
102
RTVSPost2010PropOp54
 70
     1
102
RTVSPost2010Prop55
280
     0
102
RTVSPost2010PropOp55
 70
     1
102
RTVSPost2010Prop56
140
1.0
102
RTVSPost2010PropOp56
 70
     1
102
RTVSPost2010Prop57
140
1.0
102
RTVSPost2010PropOp57
 70
     1
  0
XRECORD
  5
2F7B
102
{ACAD_REACTORS
330
2F7A
102
}
330
2F7A
100
AcDbXrecord
280
     1
102
RTVSPost2010Prop28
280
     0
102
RTVSPost2010PropOp28
 70
     1
102
RTVSPost2010Prop29
280
     1
102
RTVSPost2010PropOp29
 70
     1
102
RTVSPost2010Prop30
280
     1
102
RTVSPost2010PropOp30
 70
     1
102
RTVSPost2010Prop31
280
     0
102
RTVSPost2010PropOp31
 70
     1
102
RTVSPost2010Prop32
280
     0
102
RTVSPost2010PropOp32
 70
     1
102
RTVSPost2010Prop33
280
     0
102
RTVSPost2010PropOp33
 70
     1
102
RTVSPost2010Prop34
280
     0
102
RTVSPost2010PropOp34
 70
     1
102
RTVSPost2010Prop35
280
     0
102
RTVSPost2010PropOp35
 70
     1
102
RTVSPost2010Prop36
280
     0
102
RTVSPost2010PropOp36
 70
     1
102
RTVSPost2010Prop37
 90
       50
102
RTVSPost2010PropOp37
 70
     1
102
RTVSPost2010Prop38
140
0.0
102
RTVSPost2010PropOp38
 70
     1
102
RTVSPost2010Prop39
140
1.0
102
RTVSPost2010PropOp39
 70
     1
102
RTVSPost2010Prop40
 90
        0
102
RTVSPost2010PropOp40
 70
     1
102
RTVSPost2010Prop41ColorIndex
 90
       18
102
RTVSPost2010Prop41ColorRGB
 90
        0
102
RTVSPost2010PropOp41
 70
     1
102
RTVSPost2010Prop42
 90
       50
102
RTVSPost2010PropOp42
 70
     1
102
RTVSPost2010Prop43
 90
        3
102
RTVSPost2010PropOp43
 70
     1
102
RTVSPost2010Prop44ColorIndex
 90
        5
102
RTVSPost2010Prop44ColorRGB
 90
      255
102
RTVSPost2010PropOp44
 70
     1
102
RTVSPost2010Prop45
280
     0
102
RTVSPost2010PropOp45
 70
     1
102
RTVSPost2010Prop46
 90
       50
102
RTVSPost2010PropOp46
 70
     1
102
RTVSPost2010Prop47
 90
       50
102
RTVSPost2010PropOp47
 70
     1
102
RTVSPost2010Prop48
 90
       50
102
RTVSPost2010PropOp48
 70
     1
102
RTVSPost2010Prop49
280
     0
102
RTVSPost2010PropOp49
 70
     1
102
RTVSPost2010Prop50
 90
       50
102
RTVSPost2010PropOp50
 70
     1
102
RTVSPost2010Prop51ColorIndex
 90
      256
102
RTVSPost2010Prop51ColorRGB
 90
-16777216
102
RTVSPost2010PropOp51
 70
     0
102
RTVSPost2010Prop52
140
1.0
102
RTVSPost2010PropOp52
 70
     0
102
RTVSPost2010Prop53
 90
        2
102
RTVSPost2010PropOp53
 70
     1
102
RTVSPost2010Prop54
  1
strokes_ogs.tif
102
RTVSPost2010PropOp54
 70
     1
102
RTVSPost2010Prop55
280
     0
102
RTVSPost2010PropOp55
 70
     1
102
RTVSPost2010Prop56
140
1.0
102
RTVSPost2010PropOp56
 70
     1
102
RTVSPost2010Prop57
140
1.0
102
RTVSPost2010PropOp57
 70
     1
  0
XRECORD
  5
2F7D
102
{ACAD_REACTORS
330
2F7C
102
}
330
2F7C
100
AcDbXrecord
280
     1
102
RTVSPost2010Prop28
280
     0
102
RTVSPost2010PropOp28
 70
     1
102
RTVSPost2010Prop29
280
     1
102
RTVSPost2010PropOp29
 70
     1
102
RTVSPost2010Prop30
280
     1
102
RTVSPost2010PropOp30
 70
     1
102
RTVSPost2010Prop31
280
     0
102
RTVSPost2010PropOp31
 70
     1
102
RTVSPost2010Prop32
280
     0
102
RTVSPost2010PropOp32
 70
     1
102
RTVSPost2010Prop33
280
     0
102
RTVSPost2010PropOp33
 70
     1
102
RTVSPost2010Prop34
280
     0
102
RTVSPost2010PropOp34
 70
     1
102
RTVSPost2010Prop35
280
     0
102
RTVSPost2010PropOp35
 70
     1
102
RTVSPost2010Prop36
280
     0
102
RTVSPost2010PropOp36
 70
     1
102
RTVSPost2010Prop37
 90
       50
102
RTVSPost2010PropOp37
 70
     1
102
RTVSPost2010Prop38
140
0.0
102
RTVSPost2010PropOp38
 70
     1
102
RTVSPost2010Prop39
140
1.0
102
RTVSPost2010PropOp39
 70
     1
102
RTVSPost2010Prop40
 90
        0
102
RTVSPost2010PropOp40
 70
     1
102
RTVSPost2010Prop41ColorIndex
 90
       18
102
RTVSPost2010Prop41ColorRGB
 90
        0
102
RTVSPost2010PropOp41
 70
     1
102
RTVSPost2010Prop42
 90
       50
102
RTVSPost2010PropOp42
 70
     1
102
RTVSPost2010Prop43
 90
        3
102
RTVSPost2010PropOp43
 70
     1
102
RTVSPost2010Prop44ColorIndex
 90
        5
102
RTVSPost2010Prop44ColorRGB
 90
      255
102
RTVSPost2010PropOp44
 70
     1
102
RTVSPost2010Prop45
280
     0
102
RTVSPost2010PropOp45
 70
     1
102
RTVSPost2010Prop46
 90
       50
102
RTVSPost2010PropOp46
 70
     1
102
RTVSPost2010Prop47
 90
       50
102
RTVSPost2010PropOp47
 70
     1
102
RTVSPost2010Prop48
 90
       50
102
RTVSPost2010PropOp48
 70
     1
102
RTVSPost2010Prop49
280
     0
102
RTVSPost2010PropOp49
 70
     1
102
RTVSPost2010Prop50
 90
       50
102
RTVSPost2010PropOp50
 70
     1
102
RTVSPost2010Prop51ColorIndex
 90
      256
102
RTVSPost2010Prop51ColorRGB
 90
-16777216
102
RTVSPost2010PropOp51
 70
     0
102
RTVSPost2010Prop52
140
1.0
102
RTVSPost2010PropOp52
 70
     0
102
RTVSPost2010Prop53
 90
        2
102
RTVSPost2010PropOp53
 70
     1
102
RTVSPost2010Prop54
  1
strokes_ogs.tif
102
RTVSPost2010PropOp54
 70
     1
102
RTVSPost2010Prop55
280
     0
102
RTVSPost2010PropOp55
 70
     1
102
RTVSPost2010Prop56
140
1.0
102
RTVSPost2010PropOp56
 70
     1
102
RTVSPost2010Prop57
140
1.0
102
RTVSPost2010PropOp57
 70
     1
  0
XRECORD
  5
2F85
102
{ACAD_REACTORS
330
2F84
102
}
330
2F84
100
AcDbXrecord
280
     1
102
RTVSPost2010Prop28
280
     0
102
RTVSPost2010PropOp28
 70
     1
102
RTVSPost2010Prop29
280
     1
102
RTVSPost2010PropOp29
 70
     1
102
RTVSPost2010Prop30
280
     1
102
RTVSPost2010PropOp30
 70
     1
102
RTVSPost2010Prop31
280
     0
102
RTVSPost2010PropOp31
 70
     1
102
RTVSPost2010Prop32
280
     0
102
RTVSPost2010PropOp32
 70
     1
102
RTVSPost2010Prop33
280
     0
102
RTVSPost2010PropOp33
 70
     1
102
RTVSPost2010Prop34
280
     0
102
RTVSPost2010PropOp34
 70
     1
102
RTVSPost2010Prop35
280
     0
102
RTVSPost2010PropOp35
 70
     1
102
RTVSPost2010Prop36
280
     0
102
RTVSPost2010PropOp36
 70
     1
102
RTVSPost2010Prop37
 90
       50
102
RTVSPost2010PropOp37
 70
     1
102
RTVSPost2010Prop38
140
0.0
102
RTVSPost2010PropOp38
 70
     1
102
RTVSPost2010Prop39
140
1.0
102
RTVSPost2010PropOp39
 70
     1
102
RTVSPost2010Prop40
 90
        0
102
RTVSPost2010PropOp40
 70
     1
102
RTVSPost2010Prop41ColorIndex
 90
       18
102
RTVSPost2010Prop41ColorRGB
 90
        0
102
RTVSPost2010PropOp41
 70
     1
102
RTVSPost2010Prop42
 90
       50
102
RTVSPost2010PropOp42
 70
     1
102
RTVSPost2010Prop43
 90
        3
102
RTVSPost2010PropOp43
 70
     1
102
RTVSPost2010Prop44ColorIndex
 90
        5
102
RTVSPost2010Prop44ColorRGB
 90
      255
102
RTVSPost2010PropOp44
 70
     1
102
RTVSPost2010Prop45
280
     0
102
RTVSPost2010PropOp45
 70
     1
102
RTVSPost2010Prop46
 90
       50
102
RTVSPost2010PropOp46
 70
     1
102
RTVSPost2010Prop47
 90
       50
102
RTVSPost2010PropOp47
 70
     1
102
RTVSPost2010Prop48
 90
       50
102
RTVSPost2010PropOp48
 70
     1
102
RTVSPost2010Prop49
280
     0
102
RTVSPost2010PropOp49
 70
     1
102
RTVSPost2010Prop50
 90
       50
102
RTVSPost2010PropOp50
 70
     1
102
RTVSPost2010Prop51ColorIndex
 90
      256
102
RTVSPost2010Prop51ColorRGB
 90
-16777216
102
RTVSPost2010PropOp51
 70
     0
102
RTVSPost2010Prop52
140
1.0
102
RTVSPost2010PropOp52
 70
     0
102
RTVSPost2010Prop53
 90
        2
102
RTVSPost2010PropOp53
 70
     1
102
RTVSPost2010Prop54
  1
strokes_ogs.tif
102
RTVSPost2010PropOp54
 70
     1
102
RTVSPost2010Prop55
280
     0
102
RTVSPost2010PropOp55
 70
     1
102
RTVSPost2010Prop56
140
1.0
102
RTVSPost2010PropOp56
 70
     1
102
RTVSPost2010Prop57
140
1.0
102
RTVSPost2010PropOp57
 70
     1
  0
XRECORD
  5
2FA1
102
{ACAD_REACTORS
330
2FA0
102
}
330
2FA0
100
AcDbXrecord
280
     1
102
RTVSPost2010Prop28
280
     0
102
RTVSPost2010PropOp28
 70
     1
102
RTVSPost2010Prop29
280
     1
102
RTVSPost2010PropOp29
 70
     1
102
RTVSPost2010Prop30
280
     1
102
RTVSPost2010PropOp30
 70
     1
102
RTVSPost2010Prop31
280
     0
102
RTVSPost2010PropOp31
 70
     1
102
RTVSPost2010Prop32
280
     0
102
RTVSPost2010PropOp32
 70
     1
102
RTVSPost2010Prop33
280
     0
102
RTVSPost2010PropOp33
 70
     1
102
RTVSPost2010Prop34
280
     0
102
RTVSPost2010PropOp34
 70
     1
102
RTVSPost2010Prop35
280
     0
102
RTVSPost2010PropOp35
 70
     1
102
RTVSPost2010Prop36
280
     0
102
RTVSPost2010PropOp36
 70
     1
102
RTVSPost2010Prop37
 90
       50
102
RTVSPost2010PropOp37
 70
     0
102
RTVSPost2010Prop38
140
0.0
102
RTVSPost2010PropOp38
 70
     0
102
RTVSPost2010Prop39
140
1.0
102
RTVSPost2010PropOp39
 70
     0
102
RTVSPost2010Prop40
 90
        0
102
RTVSPost2010PropOp40
 70
     0
102
RTVSPost2010Prop41ColorIndex
 90
       18
102
RTVSPost2010Prop41ColorRGB
 90
        0
102
RTVSPost2010PropOp41
 70
     0
102
RTVSPost2010Prop42
 90
       50
102
RTVSPost2010PropOp42
 70
     0
102
RTVSPost2010Prop43
 90
        3
102
RTVSPost2010PropOp43
 70
     0
102
RTVSPost2010Prop44ColorIndex
 90
        5
102
RTVSPost2010Prop44ColorRGB
 90
      255
102
RTVSPost2010PropOp44
 70
     0
102
RTVSPost2010Prop45
280
     0
102
RTVSPost2010PropOp45
 70
     1
102
RTVSPost2010Prop46
 90
       50
102
RTVSPost2010PropOp46
 70
     0
102
RTVSPost2010Prop47
 90
       50
102
RTVSPost2010PropOp47
 70
     0
102
RTVSPost2010Prop48
 90
       50
102
RTVSPost2010PropOp48
 70
     0
102
RTVSPost2010Prop49
280
     0
102
RTVSPost2010PropOp49
 70
     1
102
RTVSPost2010Prop50
 90
       50
102
RTVSPost2010PropOp50
 70
     0
102
RTVSPost2010Prop51ColorIndex
 90
      256
102
RTVSPost2010Prop51ColorRGB
 90
-16777216
102
RTVSPost2010PropOp51
 70
     0
102
RTVSPost2010Prop52
140
1.0
102
RTVSPost2010PropOp52
 70
     0
102
RTVSPost2010Prop53
 90
        2
102
RTVSPost2010PropOp53
 70
     0
102
RTVSPost2010Prop54
  1
strokes_ogs.tif
102
RTVSPost2010PropOp54
 70
     0
102
RTVSPost2010Prop55
280
     0
102
RTVSPost2010PropOp55
 70
     1
102
RTVSPost2010Prop56
140
1.0
102
RTVSPost2010PropOp56
 70
     0
102
RTVSPost2010Prop57
140
1.0
102
RTVSPost2010PropOp57
 70
     0
  0
XRECORD
  5
2F91
102
{ACAD_REACTORS
330
2F90
102
}
330
2F90
100
AcDbXrecord
280
     1
102
RTVSPost2010Prop28
280
     0
102
RTVSPost2010PropOp28
 70
     1
102
RTVSPost2010Prop29
280
     1
102
RTVSPost2010PropOp29
 70
     1
102
RTVSPost2010Prop30
280
     1
102
RTVSPost2010PropOp30
 70
     1
102
RTVSPost2010Prop31
280
     0
102
RTVSPost2010PropOp31
 70
     1
102
RTVSPost2010Prop32
280
     0
102
RTVSPost2010PropOp32
 70
     1
102
RTVSPost2010Prop33
280
     0
102
RTVSPost2010PropOp33
 70
     1
102
RTVSPost2010Prop34
280
     0
102
RTVSPost2010PropOp34
 70
     1
102
RTVSPost2010Prop35
280
     0
102
RTVSPost2010PropOp35
 70
     1
102
RTVSPost2010Prop36
280
     0
102
RTVSPost2010PropOp36
 70
     1
102
RTVSPost2010Prop37
 90
       50
102
RTVSPost2010PropOp37
 70
     1
102
RTVSPost2010Prop38
140
0.0
102
RTVSPost2010PropOp38
 70
     1
102
RTVSPost2010Prop39
140
1.0
102
RTVSPost2010PropOp39
 70
     1
102
RTVSPost2010Prop40
 90
        0
102
RTVSPost2010PropOp40
 70
     1
102
RTVSPost2010Prop41ColorIndex
 90
       18
102
RTVSPost2010Prop41ColorRGB
 90
        0
102
RTVSPost2010PropOp41
 70
     1
102
RTVSPost2010Prop42
 90
       50
102
RTVSPost2010PropOp42
 70
     1
102
RTVSPost2010Prop43
 90
        3
102
RTVSPost2010PropOp43
 70
     1
102
RTVSPost2010Prop44ColorIndex
 90
        5
102
RTVSPost2010Prop44ColorRGB
 90
      255
102
RTVSPost2010PropOp44
 70
     1
102
RTVSPost2010Prop45
280
     0
102
RTVSPost2010PropOp45
 70
     1
102
RTVSPost2010Prop46
 90
       50
102
RTVSPost2010PropOp46
 70
     1
102
RTVSPost2010Prop47
 90
       50
102
RTVSPost2010PropOp47
 70
     1
102
RTVSPost2010Prop48
 90
       50
102
RTVSPost2010PropOp48
 70
     1
102
RTVSPost2010Prop49
280
     0
102
RTVSPost2010PropOp49
 70
     1
102
RTVSPost2010Prop50
 90
       50
102
RTVSPost2010PropOp50
 70
     1
102
RTVSPost2010Prop51ColorIndex
 90
      256
102
RTVSPost2010Prop51ColorRGB
 90
-16777216
102
RTVSPost2010PropOp51
 70
     0
102
RTVSPost2010Prop52
140
1.0
102
RTVSPost2010PropOp52
 70
     0
102
RTVSPost2010Prop53
 90
        2
102
RTVSPost2010PropOp53
 70
     1
102
RTVSPost2010Prop54
  1
strokes_ogs.tif
102
RTVSPost2010PropOp54
 70
     1
102
RTVSPost2010Prop55
280
     0
102
RTVSPost2010PropOp55
 70
     1
102
RTVSPost2010Prop56
140
1.0
102
RTVSPost2010PropOp56
 70
     1
102
RTVSPost2010Prop57
140
1.0
102
RTVSPost2010PropOp57
 70
     1
  0
XRECORD
  5
2FA3
102
{ACAD_REACTORS
330
2FA2
102
}
330
2FA2
100
AcDbXrecord
280
     1
102
RTVSPost2010Prop28
280
     0
102
RTVSPost2010PropOp28
 70
     1
102
RTVSPost2010Prop29
280
     1
102
RTVSPost2010PropOp29
 70
     1
102
RTVSPost2010Prop30
280
     1
102
RTVSPost2010PropOp30
 70
     1
102
RTVSPost2010Prop31
280
     0
102
RTVSPost2010PropOp31
 70
     1
102
RTVSPost2010Prop32
280
     0
102
RTVSPost2010PropOp32
 70
     1
102
RTVSPost2010Prop33
280
     0
102
RTVSPost2010PropOp33
 70
     1
102
RTVSPost2010Prop34
280
     0
102
RTVSPost2010PropOp34
 70
     1
102
RTVSPost2010Prop35
280
     0
102
RTVSPost2010PropOp35
 70
     1
102
RTVSPost2010Prop36
280
     0
102
RTVSPost2010PropOp36
 70
     1
102
RTVSPost2010Prop37
 90
       50
102
RTVSPost2010PropOp37
 70
     0
102
RTVSPost2010Prop38
140
0.0
102
RTVSPost2010PropOp38
 70
     0
102
RTVSPost2010Prop39
140
1.0
102
RTVSPost2010PropOp39
 70
     0
102
RTVSPost2010Prop40
 90
        0
102
RTVSPost2010PropOp40
 70
     0
102
RTVSPost2010Prop41ColorIndex
 90
       18
102
RTVSPost2010Prop41ColorRGB
 90
        0
102
RTVSPost2010PropOp41
 70
     0
102
RTVSPost2010Prop42
 90
       50
102
RTVSPost2010PropOp42
 70
     0
102
RTVSPost2010Prop43
 90
        3
102
RTVSPost2010PropOp43
 70
     0
102
RTVSPost2010Prop44ColorIndex
 90
        5
102
RTVSPost2010Prop44ColorRGB
 90
      255
102
RTVSPost2010PropOp44
 70
     0
102
RTVSPost2010Prop45
280
     0
102
RTVSPost2010PropOp45
 70
     1
102
RTVSPost2010Prop46
 90
       50
102
RTVSPost2010PropOp46
 70
     0
102
RTVSPost2010Prop47
 90
       50
102
RTVSPost2010PropOp47
 70
     0
102
RTVSPost2010Prop48
 90
       50
102
RTVSPost2010PropOp48
 70
     0
102
RTVSPost2010Prop49
280
     0
102
RTVSPost2010PropOp49
 70
     1
102
RTVSPost2010Prop50
 90
       50
102
RTVSPost2010PropOp50
 70
     0
102
RTVSPost2010Prop51ColorIndex
 90
      256
102
RTVSPost2010Prop51ColorRGB
 90
-16777216
102
RTVSPost2010PropOp51
 70
     0
102
RTVSPost2010Prop52
140
1.0
102
RTVSPost2010PropOp52
 70
     0
102
RTVSPost2010Prop53
 90
        2
102
RTVSPost2010PropOp53
 70
     0
102
RTVSPost2010Prop54
  1
strokes_ogs.tif
102
RTVSPost2010PropOp54
 70
     0
102
RTVSPost2010Prop55
280
     0
102
RTVSPost2010PropOp55
 70
     1
102
RTVSPost2010Prop56
140
1.0
102
RTVSPost2010PropOp56
 70
     0
102
RTVSPost2010Prop57
140
1.0
102
RTVSPost2010PropOp57
 70
     0
  0
XRECORD
  5
2F89
102
{ACAD_REACTORS
330
2F88
102
}
330
2F88
100
AcDbXrecord
280
     1
102
RTVSPost2010Prop28
280
     0
102
RTVSPost2010PropOp28
 70
     1
102
RTVSPost2010Prop29
280
     1
102
RTVSPost2010PropOp29
 70
     1
102
RTVSPost2010Prop30
280
     1
102
RTVSPost2010PropOp30
 70
     1
102
RTVSPost2010Prop31
280
     0
102
RTVSPost2010PropOp31
 70
     1
102
RTVSPost2010Prop32
280
     0
102
RTVSPost2010PropOp32
 70
     1
102
RTVSPost2010Prop33
280
     0
102
RTVSPost2010PropOp33
 70
     1
102
RTVSPost2010Prop34
280
     0
102
RTVSPost2010PropOp34
 70
     1
102
RTVSPost2010Prop35
280
     0
102
RTVSPost2010PropOp35
 70
     1
102
RTVSPost2010Prop36
280
     0
102
RTVSPost2010PropOp36
 70
     1
102
RTVSPost2010Prop37
 90
       50
102
RTVSPost2010PropOp37
 70
     1
102
RTVSPost2010Prop38
140
0.0
102
RTVSPost2010PropOp38
 70
     1
102
RTVSPost2010Prop39
140
1.0
102
RTVSPost2010PropOp39
 70
     1
102
RTVSPost2010Prop40
 90
        0
102
RTVSPost2010PropOp40
 70
     1
102
RTVSPost2010Prop41ColorIndex
 90
       18
102
RTVSPost2010Prop41ColorRGB
 90
        0
102
RTVSPost2010PropOp41
 70
     1
102
RTVSPost2010Prop42
 90
       50
102
RTVSPost2010PropOp42
 70
     1
102
RTVSPost2010Prop43
 90
        3
102
RTVSPost2010PropOp43
 70
     1
102
RTVSPost2010Prop44ColorIndex
 90
        5
102
RTVSPost2010Prop44ColorRGB
 90
      255
102
RTVSPost2010PropOp44
 70
     1
102
RTVSPost2010Prop45
280
     0
102
RTVSPost2010PropOp45
 70
     1
102
RTVSPost2010Prop46
 90
       50
102
RTVSPost2010PropOp46
 70
     1
102
RTVSPost2010Prop47
 90
       50
102
RTVSPost2010PropOp47
 70
     1
102
RTVSPost2010Prop48
 90
       50
102
RTVSPost2010PropOp48
 70
     1
102
RTVSPost2010Prop49
280
     0
102
RTVSPost2010PropOp49
 70
     1
102
RTVSPost2010Prop50
 90
       50
102
RTVSPost2010PropOp50
 70
     1
102
RTVSPost2010Prop51ColorIndex
 90
      256
102
RTVSPost2010Prop51ColorRGB
 90
-16777216
102
RTVSPost2010PropOp51
 70
     0
102
RTVSPost2010Prop52
140
1.0
102
RTVSPost2010PropOp52
 70
     0
102
RTVSPost2010Prop53
 90
        2
102
RTVSPost2010PropOp53
 70
     1
102
RTVSPost2010Prop54
  1
strokes_ogs.tif
102
RTVSPost2010PropOp54
 70
     1
102
RTVSPost2010Prop55
280
     0
102
RTVSPost2010PropOp55
 70
     1
102
RTVSPost2010Prop56
140
1.0
102
RTVSPost2010PropOp56
 70
     1
102
RTVSPost2010Prop57
140
1.0
102
RTVSPost2010PropOp57
 70
     1
  0
XRECORD
  5
2F9F
102
{ACAD_REACTORS
330
2F9E
102
}
330
2F9E
100
AcDbXrecord
280
     1
102
RTVSPost2010Prop28
280
     0
102
RTVSPost2010PropOp28
 70
     1
102
RTVSPost2010Prop29
280
     1
102
RTVSPost2010PropOp29
 70
     1
102
RTVSPost2010Prop30
280
     1
102
RTVSPost2010PropOp30
 70
     1
102
RTVSPost2010Prop31
280
     0
102
RTVSPost2010PropOp31
 70
     1
102
RTVSPost2010Prop32
280
     0
102
RTVSPost2010PropOp32
 70
     1
102
RTVSPost2010Prop33
280
     0
102
RTVSPost2010PropOp33
 70
     1
102
RTVSPost2010Prop34
280
     0
102
RTVSPost2010PropOp34
 70
     1
102
RTVSPost2010Prop35
280
     0
102
RTVSPost2010PropOp35
 70
     1
102
RTVSPost2010Prop36
280
     0
102
RTVSPost2010PropOp36
 70
     1
102
RTVSPost2010Prop37
 90
       50
102
RTVSPost2010PropOp37
 70
     1
102
RTVSPost2010Prop38
140
0.0
102
RTVSPost2010PropOp38
 70
     1
102
RTVSPost2010Prop39
140
1.0
102
RTVSPost2010PropOp39
 70
     1
102
RTVSPost2010Prop40
 90
        0
102
RTVSPost2010PropOp40
 70
     1
102
RTVSPost2010Prop41ColorIndex
 90
       18
102
RTVSPost2010Prop41ColorRGB
 90
        0
102
RTVSPost2010PropOp41
 70
     1
102
RTVSPost2010Prop42
 90
       50
102
RTVSPost2010PropOp42
 70
     1
102
RTVSPost2010Prop43
 90
        3
102
RTVSPost2010PropOp43
 70
     1
102
RTVSPost2010Prop44ColorIndex
 90
        5
102
RTVSPost2010Prop44ColorRGB
 90
      255
102
RTVSPost2010PropOp44
 70
     1
102
RTVSPost2010Prop45
280
     0
102
RTVSPost2010PropOp45
 70
     1
102
RTVSPost2010Prop46
 90
       50
102
RTVSPost2010PropOp46
 70
     1
102
RTVSPost2010Prop47
 90
       50
102
RTVSPost2010PropOp47
 70
     1
102
RTVSPost2010Prop48
 90
       50
102
RTVSPost2010PropOp48
 70
     1
102
RTVSPost2010Prop49
280
     0
102
RTVSPost2010PropOp49
 70
     1
102
RTVSPost2010Prop50
 90
       50
102
RTVSPost2010PropOp50
 70
     1
102
RTVSPost2010Prop51ColorIndex
 90
      256
102
RTVSPost2010Prop51ColorRGB
 90
-16777216
102
RTVSPost2010PropOp51
 70
     0
102
RTVSPost2010Prop52
140
1.0
102
RTVSPost2010PropOp52
 70
     0
102
RTVSPost2010Prop53
 90
        2
102
RTVSPost2010PropOp53
 70
     1
102
RTVSPost2010Prop54
  1
strokes_ogs.tif
102
RTVSPost2010PropOp54
 70
     1
102
RTVSPost2010Prop55
280
     0
102
RTVSPost2010PropOp55
 70
     1
102
RTVSPost2010Prop56
140
1.0
102
RTVSPost2010PropOp56
 70
     1
102
RTVSPost2010Prop57
140
1.0
102
RTVSPost2010PropOp57
 70
     1
  0
XRECORD
  5
2F9D
102
{ACAD_REACTORS
330
2F9C
102
}
330
2F9C
100
AcDbXrecord
280
     1
102
RTVSPost2010Prop28
280
     0
102
RTVSPost2010PropOp28
 70
     1
102
RTVSPost2010Prop29
280
     1
102
RTVSPost2010PropOp29
 70
     1
102
RTVSPost2010Prop30
280
     1
102
RTVSPost2010PropOp30
 70
     1
102
RTVSPost2010Prop31
280
     0
102
RTVSPost2010PropOp31
 70
     1
102
RTVSPost2010Prop32
280
     0
102
RTVSPost2010PropOp32
 70
     1
102
RTVSPost2010Prop33
280
     0
102
RTVSPost2010PropOp33
 70
     1
102
RTVSPost2010Prop34
280
     0
102
RTVSPost2010PropOp34
 70
     1
102
RTVSPost2010Prop35
280
     0
102
RTVSPost2010PropOp35
 70
     1
102
RTVSPost2010Prop36
280
     0
102
RTVSPost2010PropOp36
 70
     1
102
RTVSPost2010Prop37
 90
       50
102
RTVSPost2010PropOp37
 70
     1
102
RTVSPost2010Prop38
140
0.0
102
RTVSPost2010PropOp38
 70
     1
102
RTVSPost2010Prop39
140
1.0
102
RTVSPost2010PropOp39
 70
     1
102
RTVSPost2010Prop40
 90
        0
102
RTVSPost2010PropOp40
 70
     1
102
RTVSPost2010Prop41ColorIndex
 90
       18
102
RTVSPost2010Prop41ColorRGB
 90
        0
102
RTVSPost2010PropOp41
 70
     1
102
RTVSPost2010Prop42
 90
       50
102
RTVSPost2010PropOp42
 70
     1
102
RTVSPost2010Prop43
 90
        3
102
RTVSPost2010PropOp43
 70
     1
102
RTVSPost2010Prop44ColorIndex
 90
        5
102
RTVSPost2010Prop44ColorRGB
 90
      255
102
RTVSPost2010PropOp44
 70
     1
102
RTVSPost2010Prop45
280
     0
102
RTVSPost2010PropOp45
 70
     1
102
RTVSPost2010Prop46
 90
       50
102
RTVSPost2010PropOp46
 70
     1
102
RTVSPost2010Prop47
 90
       50
102
RTVSPost2010PropOp47
 70
     1
102
RTVSPost2010Prop48
 90
       50
102
RTVSPost2010PropOp48
 70
     1
102
RTVSPost2010Prop49
280
     0
102
RTVSPost2010PropOp49
 70
     1
102
RTVSPost2010Prop50
 90
       50
102
RTVSPost2010PropOp50
 70
     1
102
RTVSPost2010Prop51ColorIndex
 90
      256
102
RTVSPost2010Prop51ColorRGB
 90
-16777216
102
RTVSPost2010PropOp51
 70
     0
102
RTVSPost2010Prop52
140
1.0
102
RTVSPost2010PropOp52
 70
     0
102
RTVSPost2010Prop53
 90
        2
102
RTVSPost2010PropOp53
 70
     1
102
RTVSPost2010Prop54
  1
strokes_ogs.tif
102
RTVSPost2010PropOp54
 70
     1
102
RTVSPost2010Prop55
280
     0
102
RTVSPost2010PropOp55
 70
     1
102
RTVSPost2010Prop56
140
1.0
102
RTVSPost2010PropOp56
 70
     1
102
RTVSPost2010Prop57
140
1.0
102
RTVSPost2010PropOp57
 70
     1
  0
XRECORD
  5
2F97
102
{ACAD_REACTORS
330
2F96
102
}
330
2F96
100
AcDbXrecord
280
     1
102
RTVSPost2010Prop28
280
     0
102
RTVSPost2010PropOp28
 70
     1
102
RTVSPost2010Prop29
280
     1
102
RTVSPost2010PropOp29
 70
     1
102
RTVSPost2010Prop30
280
     1
102
RTVSPost2010PropOp30
 70
     1
102
RTVSPost2010Prop31
280
     0
102
RTVSPost2010PropOp31
 70
     1
102
RTVSPost2010Prop32
280
     0
102
RTVSPost2010PropOp32
 70
     1
102
RTVSPost2010Prop33
280
     0
102
RTVSPost2010PropOp33
 70
     1
102
RTVSPost2010Prop34
280
     0
102
RTVSPost2010PropOp34
 70
     1
102
RTVSPost2010Prop35
280
     0
102
RTVSPost2010PropOp35
 70
     1
102
RTVSPost2010Prop36
280
     0
102
RTVSPost2010PropOp36
 70
     1
102
RTVSPost2010Prop37
 90
       50
102
RTVSPost2010PropOp37
 70
     1
102
RTVSPost2010Prop38
140
0.0
102
RTVSPost2010PropOp38
 70
     1
102
RTVSPost2010Prop39
140
1.0
102
RTVSPost2010PropOp39
 70
     1
102
RTVSPost2010Prop40
 90
        0
102
RTVSPost2010PropOp40
 70
     1
102
RTVSPost2010Prop41ColorIndex
 90
       18
102
RTVSPost2010Prop41ColorRGB
 90
        0
102
RTVSPost2010PropOp41
 70
     1
102
RTVSPost2010Prop42
 90
       50
102
RTVSPost2010PropOp42
 70
     1
102
RTVSPost2010Prop43
 90
        3
102
RTVSPost2010PropOp43
 70
     1
102
RTVSPost2010Prop44ColorIndex
 90
        5
102
RTVSPost2010Prop44ColorRGB
 90
      255
102
RTVSPost2010PropOp44
 70
     1
102
RTVSPost2010Prop45
280
     0
102
RTVSPost2010PropOp45
 70
     1
102
RTVSPost2010Prop46
 90
       50
102
RTVSPost2010PropOp46
 70
     1
102
RTVSPost2010Prop47
 90
       50
102
RTVSPost2010PropOp47
 70
     1
102
RTVSPost2010Prop48
 90
       50
102
RTVSPost2010PropOp48
 70
     1
102
RTVSPost2010Prop49
280
     0
102
RTVSPost2010PropOp49
 70
     1
102
RTVSPost2010Prop50
 90
       50
102
RTVSPost2010PropOp50
 70
     1
102
RTVSPost2010Prop51ColorIndex
 90
      256
102
RTVSPost2010Prop51ColorRGB
 90
-16777216
102
RTVSPost2010PropOp51
 70
     0
102
RTVSPost2010Prop52
140
1.0
102
RTVSPost2010PropOp52
 70
     0
102
RTVSPost2010Prop53
 90
        2
102
RTVSPost2010PropOp53
 70
     1
102
RTVSPost2010Prop54
  1
strokes_ogs.tif
102
RTVSPost2010PropOp54
 70
     1
102
RTVSPost2010Prop55
280
     0
102
RTVSPost2010PropOp55
 70
     1
102
RTVSPost2010Prop56
140
1.0
102
RTVSPost2010PropOp56
 70
     1
102
RTVSPost2010Prop57
140
1.0
102
RTVSPost2010PropOp57
 70
     1
  0
XRECORD
  5
2F99
102
{ACAD_REACTORS
330
2F98
102
}
330
2F98
100
AcDbXrecord
280
     1
102
RTVSPost2010Prop28
280
     0
102
RTVSPost2010PropOp28
 70
     1
102
RTVSPost2010Prop29
280
     1
102
RTVSPost2010PropOp29
 70
     1
102
RTVSPost2010Prop30
280
     1
102
RTVSPost2010PropOp30
 70
     1
102
RTVSPost2010Prop31
280
     0
102
RTVSPost2010PropOp31
 70
     1
102
RTVSPost2010Prop32
280
     0
102
RTVSPost2010PropOp32
 70
     1
102
RTVSPost2010Prop33
280
     0
102
RTVSPost2010PropOp33
 70
     1
102
RTVSPost2010Prop34
280
     0
102
RTVSPost2010PropOp34
 70
     1
102
RTVSPost2010Prop35
280
     0
102
RTVSPost2010PropOp35
 70
     1
102
RTVSPost2010Prop36
280
     0
102
RTVSPost2010PropOp36
 70
     1
102
RTVSPost2010Prop37
 90
       50
102
RTVSPost2010PropOp37
 70
     1
102
RTVSPost2010Prop38
140
0.0
102
RTVSPost2010PropOp38
 70
     1
102
RTVSPost2010Prop39
140
1.0
102
RTVSPost2010PropOp39
 70
     1
102
RTVSPost2010Prop40
 90
        0
102
RTVSPost2010PropOp40
 70
     1
102
RTVSPost2010Prop41ColorIndex
 90
       18
102
RTVSPost2010Prop41ColorRGB
 90
        0
102
RTVSPost2010PropOp41
 70
     1
102
RTVSPost2010Prop42
 90
       50
102
RTVSPost2010PropOp42
 70
     1
102
RTVSPost2010Prop43
 90
        3
102
RTVSPost2010PropOp43
 70
     1
102
RTVSPost2010Prop44ColorIndex
 90
        5
102
RTVSPost2010Prop44ColorRGB
 90
      255
102
RTVSPost2010PropOp44
 70
     1
102
RTVSPost2010Prop45
280
     0
102
RTVSPost2010PropOp45
 70
     1
102
RTVSPost2010Prop46
 90
       50
102
RTVSPost2010PropOp46
 70
     1
102
RTVSPost2010Prop47
 90
       50
102
RTVSPost2010PropOp47
 70
     1
102
RTVSPost2010Prop48
 90
       50
102
RTVSPost2010PropOp48
 70
     1
102
RTVSPost2010Prop49
280
     0
102
RTVSPost2010PropOp49
 70
     1
102
RTVSPost2010Prop50
 90
       50
102
RTVSPost2010PropOp50
 70
     1
102
RTVSPost2010Prop51ColorIndex
 90
      256
102
RTVSPost2010Prop51ColorRGB
 90
-16777216
102
RTVSPost2010PropOp51
 70
     0
102
RTVSPost2010Prop52
140
1.0
102
RTVSPost2010PropOp52
 70
     0
102
RTVSPost2010Prop53
 90
        2
102
RTVSPost2010PropOp53
 70
     1
102
RTVSPost2010Prop54
  1
strokes_ogs.tif
102
RTVSPost2010PropOp54
 70
     1
102
RTVSPost2010Prop55
280
     0
102
RTVSPost2010PropOp55
 70
     1
102
RTVSPost2010Prop56
140
1.0
102
RTVSPost2010PropOp56
 70
     1
102
RTVSPost2010Prop57
140
1.0
102
RTVSPost2010PropOp57
 70
     1
  0
XRECORD
  5
2F8F
102
{ACAD_REACTORS
330
2F8E
102
}
330
2F8E
100
AcDbXrecord
280
     1
102
RTVSPost2010Prop28
280
     0
102
RTVSPost2010PropOp28
 70
     1
102
RTVSPost2010Prop29
280
     1
102
RTVSPost2010PropOp29
 70
     1
102
RTVSPost2010Prop30
280
     1
102
RTVSPost2010PropOp30
 70
     1
102
RTVSPost2010Prop31
280
     0
102
RTVSPost2010PropOp31
 70
     1
102
RTVSPost2010Prop32
280
     0
102
RTVSPost2010PropOp32
 70
     1
102
RTVSPost2010Prop33
280
     0
102
RTVSPost2010PropOp33
 70
     1
102
RTVSPost2010Prop34
280
     0
102
RTVSPost2010PropOp34
 70
     1
102
RTVSPost2010Prop35
280
     0
102
RTVSPost2010PropOp35
 70
     1
102
RTVSPost2010Prop36
280
     0
102
RTVSPost2010PropOp36
 70
     1
102
RTVSPost2010Prop37
 90
       50
102
RTVSPost2010PropOp37
 70
     1
102
RTVSPost2010Prop38
140
0.0
102
RTVSPost2010PropOp38
 70
     1
102
RTVSPost2010Prop39
140
1.0
102
RTVSPost2010PropOp39
 70
     1
102
RTVSPost2010Prop40
 90
        0
102
RTVSPost2010PropOp40
 70
     1
102
RTVSPost2010Prop41ColorIndex
 90
       18
102
RTVSPost2010Prop41ColorRGB
 90
        0
102
RTVSPost2010PropOp41
 70
     1
102
RTVSPost2010Prop42
 90
       50
102
RTVSPost2010PropOp42
 70
     1
102
RTVSPost2010Prop43
 90
        3
102
RTVSPost2010PropOp43
 70
     1
102
RTVSPost2010Prop44ColorIndex
 90
        5
102
RTVSPost2010Prop44ColorRGB
 90
      255
102
RTVSPost2010PropOp44
 70
     1
102
RTVSPost2010Prop45
280
     0
102
RTVSPost2010PropOp45
 70
     1
102
RTVSPost2010Prop46
 90
       50
102
RTVSPost2010PropOp46
 70
     1
102
RTVSPost2010Prop47
 90
       50
102
RTVSPost2010PropOp47
 70
     1
102
RTVSPost2010Prop48
 90
       50
102
RTVSPost2010PropOp48
 70
     1
102
RTVSPost2010Prop49
280
     0
102
RTVSPost2010PropOp49
 70
     1
102
RTVSPost2010Prop50
 90
       50
102
RTVSPost2010PropOp50
 70
     1
102
RTVSPost2010Prop51ColorIndex
 90
      256
102
RTVSPost2010Prop51ColorRGB
 90
-16777216
102
RTVSPost2010PropOp51
 70
     0
102
RTVSPost2010Prop52
140
1.0
102
RTVSPost2010PropOp52
 70
     0
102
RTVSPost2010Prop53
 90
        2
102
RTVSPost2010PropOp53
 70
     1
102
RTVSPost2010Prop54
  1
strokes_ogs.tif
102
RTVSPost2010PropOp54
 70
     1
102
RTVSPost2010Prop55
280
     0
102
RTVSPost2010PropOp55
 70
     1
102
RTVSPost2010Prop56
140
1.0
102
RTVSPost2010PropOp56
 70
     1
102
RTVSPost2010Prop57
140
1.0
102
RTVSPost2010PropOp57
 70
     1
  0
XRECORD
  5
2F83
102
{ACAD_REACTORS
330
2F82
102
}
330
2F82
100
AcDbXrecord
280
     1
102
RTVSPost2010Prop28
280
     0
102
RTVSPost2010PropOp28
 70
     1
102
RTVSPost2010Prop29
280
     1
102
RTVSPost2010PropOp29
 70
     1
102
RTVSPost2010Prop30
280
     1
102
RTVSPost2010PropOp30
 70
     1
102
RTVSPost2010Prop31
280
     0
102
RTVSPost2010PropOp31
 70
     1
102
RTVSPost2010Prop32
280
     0
102
RTVSPost2010PropOp32
 70
     1
102
RTVSPost2010Prop33
280
     0
102
RTVSPost2010PropOp33
 70
     1
102
RTVSPost2010Prop34
280
     0
102
RTVSPost2010PropOp34
 70
     1
102
RTVSPost2010Prop35
280
     0
102
RTVSPost2010PropOp35
 70
     1
102
RTVSPost2010Prop36
280
     0
102
RTVSPost2010PropOp36
 70
     1
102
RTVSPost2010Prop37
 90
       50
102
RTVSPost2010PropOp37
 70
     1
102
RTVSPost2010Prop38
140
0.0
102
RTVSPost2010PropOp38
 70
     1
102
RTVSPost2010Prop39
140
1.0
102
RTVSPost2010PropOp39
 70
     1
102
RTVSPost2010Prop40
 90
        0
102
RTVSPost2010PropOp40
 70
     1
102
RTVSPost2010Prop41ColorIndex
 90
       18
102
RTVSPost2010Prop41ColorRGB
 90
        0
102
RTVSPost2010PropOp41
 70
     1
102
RTVSPost2010Prop42
 90
       50
102
RTVSPost2010PropOp42
 70
     1
102
RTVSPost2010Prop43
 90
        3
102
RTVSPost2010PropOp43
 70
     1
102
RTVSPost2010Prop44ColorIndex
 90
        5
102
RTVSPost2010Prop44ColorRGB
 90
      255
102
RTVSPost2010PropOp44
 70
     1
102
RTVSPost2010Prop45
280
     0
102
RTVSPost2010PropOp45
 70
     1
102
RTVSPost2010Prop46
 90
       50
102
RTVSPost2010PropOp46
 70
     1
102
RTVSPost2010Prop47
 90
       50
102
RTVSPost2010PropOp47
 70
     1
102
RTVSPost2010Prop48
 90
       50
102
RTVSPost2010PropOp48
 70
     1
102
RTVSPost2010Prop49
280
     0
102
RTVSPost2010PropOp49
 70
     1
102
RTVSPost2010Prop50
 90
       50
102
RTVSPost2010PropOp50
 70
     1
102
RTVSPost2010Prop51ColorIndex
 90
      256
102
RTVSPost2010Prop51ColorRGB
 90
-16777216
102
RTVSPost2010PropOp51
 70
     0
102
RTVSPost2010Prop52
140
1.0
102
RTVSPost2010PropOp52
 70
     0
102
RTVSPost2010Prop53
 90
        2
102
RTVSPost2010PropOp53
 70
     1
102
RTVSPost2010Prop54
  1
strokes_ogs.tif
102
RTVSPost2010PropOp54
 70
     1
102
RTVSPost2010Prop55
280
     0
102
RTVSPost2010PropOp55
 70
     1
102
RTVSPost2010Prop56
140
1.0
102
RTVSPost2010PropOp56
 70
     1
102
RTVSPost2010Prop57
140
1.0
102
RTVSPost2010PropOp57
 70
     1
  0
XRECORD
  5
2F9B
102
{ACAD_REACTORS
330
2F9A
102
}
330
2F9A
100
AcDbXrecord
280
     1
102
RTVSPost2010Prop28
280
     0
102
RTVSPost2010PropOp28
 70
     1
102
RTVSPost2010Prop29
280
     1
102
RTVSPost2010PropOp29
 70
     1
102
RTVSPost2010Prop30
280
     1
102
RTVSPost2010PropOp30
 70
     1
102
RTVSPost2010Prop31
280
     0
102
RTVSPost2010PropOp31
 70
     1
102
RTVSPost2010Prop32
280
     0
102
RTVSPost2010PropOp32
 70
     1
102
RTVSPost2010Prop33
280
     0
102
RTVSPost2010PropOp33
 70
     1
102
RTVSPost2010Prop34
280
     0
102
RTVSPost2010PropOp34
 70
     1
102
RTVSPost2010Prop35
280
     0
102
RTVSPost2010PropOp35
 70
     1
102
RTVSPost2010Prop36
280
     0
102
RTVSPost2010PropOp36
 70
     1
102
RTVSPost2010Prop37
 90
       50
102
RTVSPost2010PropOp37
 70
     1
102
RTVSPost2010Prop38
140
0.0
102
RTVSPost2010PropOp38
 70
     1
102
RTVSPost2010Prop39
140
1.0
102
RTVSPost2010PropOp39
 70
     1
102
RTVSPost2010Prop40
 90
        0
102
RTVSPost2010PropOp40
 70
     1
102
RTVSPost2010Prop41ColorIndex
 90
       18
102
RTVSPost2010Prop41ColorRGB
 90
        0
102
RTVSPost2010PropOp41
 70
     1
102
RTVSPost2010Prop42
 90
       50
102
RTVSPost2010PropOp42
 70
     1
102
RTVSPost2010Prop43
 90
        3
102
RTVSPost2010PropOp43
 70
     1
102
RTVSPost2010Prop44ColorIndex
 90
        5
102
RTVSPost2010Prop44ColorRGB
 90
      255
102
RTVSPost2010PropOp44
 70
     1
102
RTVSPost2010Prop45
280
     0
102
RTVSPost2010PropOp45
 70
     1
102
RTVSPost2010Prop46
 90
       50
102
RTVSPost2010PropOp46
 70
     1
102
RTVSPost2010Prop47
 90
       50
102
RTVSPost2010PropOp47
 70
     1
102
RTVSPost2010Prop48
 90
       50
102
RTVSPost2010PropOp48
 70
     1
102
RTVSPost2010Prop49
280
     0
102
RTVSPost2010PropOp49
 70
     1
102
RTVSPost2010Prop50
 90
       50
102
RTVSPost2010PropOp50
 70
     1
102
RTVSPost2010Prop51ColorIndex
 90
      256
102
RTVSPost2010Prop51ColorRGB
 90
-16777216
102
RTVSPost2010PropOp51
 70
     0
102
RTVSPost2010Prop52
140
1.0
102
RTVSPost2010PropOp52
 70
     0
102
RTVSPost2010Prop53
 90
        2
102
RTVSPost2010PropOp53
 70
     1
102
RTVSPost2010Prop54
  1
strokes_ogs.tif
102
RTVSPost2010PropOp54
 70
     1
102
RTVSPost2010Prop55
280
     0
102
RTVSPost2010PropOp55
 70
     1
102
RTVSPost2010Prop56
140
1.0
102
RTVSPost2010PropOp56
 70
     1
102
RTVSPost2010Prop57
140
1.0
102
RTVSPost2010PropOp57
 70
     1
  0
ENDSEC
  0
EOF
