  0
SECTION
  2
HEADER
  9
$ACADVER
  1
AC1024
  9
$ACADMAINTVER
 70
   226
  9
$DWGCODEPAGE
  3
ANSI_932
  9
$LASTSAVEDBY
  1
y-sakai
  9
$INSBASE
 10
0.0
 20
0.0
 30
0.0
  9
$EXTMIN
 10
176.2062870864824
 20
268.3007321478072
 30
-0.0015258207003583
  9
$EXTMAX
 10
1225.13073275754
 20
1090.526064250505
 30
0.0000000349246037
  9
$LIMMIN
 10
0.0
 20
0.0
  9
$LIMMAX
 10
1422.5
 20
925.0
  9
$ORTHOMODE
 70
     0
  9
$REGENMODE
 70
     1
  9
$FILLMODE
 70
     1
  9
$QTEXTMODE
 70
     0
  9
$MIRRTEXT
 70
     1
  9
$LTSCALE
 40
5.0
  9
$ATTMODE
 70
     1
  9
$TEXTSIZE
 40
2.5
  9
$TRACEWID
 40
1.0
  9
$TEXTSTYLE
  7
STANDARD
  9
$CLAYER
  8
AM_0
  9
$CELTYPE
  6
ByLayer
  9
$CECOLOR
 62
   256
  9
$CELTSCALE
 40
1.0
  9
$DISPSILH
 70
     0
  9
$DIMSCALE
 40
1.0
  9
$DIMASZ
 40
2.5
  9
$DIMEXO
 40
1.0
  9
$DIMDLI
 40
8.0
  9
$DIMRND
 40
0.0
  9
$DIMDLE
 40
0.0
  9
$DIMEXE
 40
0.6
  9
$DIMTP
 40
0.1
  9
$DIMTM
 40
0.1
  9
$DIMTXT
 40
2.5
  9
$DIMCEN
 40
0.0
  9
$DIMTSZ
 40
0.0
  9
$DIMTOL
 70
     0
  9
$DIMLIM
 70
     0
  9
$DIMTIH
 70
     0
  9
$DIMTOH
 70
     0
  9
$DIMSE1
 70
     0
  9
$DIMSE2
 70
     0
  9
$DIMTAD
 70
     1
  9
$DIMZIN
 70
     8
  9
$DIMBLK
  1

  9
$DIMASO
 70
     1
  9
$DIMSHO
 70
     1
  9
$DIMPOST
  1

  9
$DIMAPOST
  1
"
  9
$DIMALT
 70
     0
  9
$DIMALTD
 70
     2
  9
$DIMALTF
 40
0.0393701
  9
$DIMLFAC
 40
1.0
  9
$DIMTOFL
 70
     1
  9
$DIMTVP
 40
0.0
  9
$DIMTIX
 70
     0
  9
$DIMSOXD
 70
     0
  9
$DIMSAH
 70
     0
  9
$DIMBLK1
  1

  9
$DIMBLK2
  1

  9
$DIMSTYLE
  2
AM_ISO
  9
$DIMCLRD
 70
   256
  9
$DIMCLRE
 70
   256
  9
$DIMCLRT
 70
     4
  9
$DIMTFAC
 40
0.71
  9
$DIMGAP
 40
0.8
  9
$DIMJUST
 70
     0
  9
$DIMSD1
 70
     0
  9
$DIMSD2
 70
     0
  9
$DIMTOLJ
 70
     1
  9
$DIMTZIN
 70
     0
  9
$DIMALTZ
 70
     0
  9
$DIMALTTZ
 70
     0
  9
$DIMUPT
 70
     0
  9
$DIMDEC
 70
     4
  9
$DIMTDEC
 70
     4
  9
$DIMALTU
 70
     2
  9
$DIMALTTD
 70
     2
  9
$DIMTXSTY
  7
STANDARD
  9
$DIMAUNIT
 70
     0
  9
$DIMADEC
 70
     0
  9
$DIMALTRND
 40
0.0
  9
$DIMAZIN
 70
     0
  9
$DIMDSEP
 70
    46
  9
$DIMATFIT
 70
     3
  9
$DIMFRAC
 70
     0
  9
$DIMLDRBLK
  1

  9
$DIMLUNIT
 70
     2
  9
$DIMLWD
 70
    -2
  9
$DIMLWE
 70
    -2
  9
$DIMTMOVE
 70
     0
  9
$DIMFXL
 40
1.0
  9
$DIMFXLON
 70
     0
  9
$DIMJOGANG
 40
0.7853981633974483
  9
$DIMTFILL
 70
     0
  9
$DIMTFILLCLR
 70
     0
  9
$DIMARCSYM
 70
     0
  9
$DIMLTYPE
  6

  9
$DIMLTEX1
  6

  9
$DIMLTEX2
  6

  9
$DIMTXTDIRECTION
 70
     0
  9
$LUNITS
 70
     2
  9
$LUPREC
 70
     2
  9
$SKETCHINC
 40
1.0
  9
$FILLETRAD
 40
25.0
  9
$AUNITS
 70
     0
  9
$AUPREC
 70
     0
  9
$MENU
  1
.
  9
$ELEVATION
 40
0.0
  9
$PELEVATION
 40
0.0
  9
$THICKNESS
 40
0.0
  9
$LIMCHECK
 70
     0
  9
$CHAMFERA
 40
10.0
  9
$CHAMFERB
 40
5.0
  9
$CHAMFERC
 40
0.0
  9
$CHAMFERD
 40
0.0
  9
$SKPOLY
 70
     0
  9
$TDCREATE
 40
2452066.594953704
  9
$TDUCREATE
 40
2452066.219953703
  9
$TDUPDATE
 40
2460362.585856482
  9
$TDUUPDATE
 40
2460362.210856481
  9
$TDINDWG
 40
0.1270881597
  9
$TDUSRTIMER
 40
0.1270877894
  9
$USRTIMER
 70
     1
  9
$ANGBASE
 50
0.0
  9
$ANGDIR
 70
     0
  9
$PDMODE
 70
     0
  9
$PDSIZE
 40
0.0
  9
$PLINEWID
 40
0.0
  9
$SPLFRAME
 70
     0
  9
$SPLINETYPE
 70
     6
  9
$SPLINESEGS
 70
     8
  9
$HANDSEED
  5
313B
  9
$SURFTAB1
 70
     6
  9
$SURFTAB2
 70
     6
  9
$SURFTYPE
 70
     6
  9
$SURFU
 70
     6
  9
$SURFV
 70
     6
  9
$UCSBASE
  2

  9
$UCSNAME
  2

  9
$UCSORG
 10
0.0
 20
0.0
 30
0.0
  9
$UCSXDIR
 10
1.0
 20
0.0
 30
0.0
  9
$UCSYDIR
 10
0.0
 20
1.0
 30
0.0
  9
$UCSORTHOREF
  2

  9
$UCSORTHOVIEW
 70
     0
  9
$UCSORGTOP
 10
0.0
 20
0.0
 30
0.0
  9
$UCSORGBOTTOM
 10
0.0
 20
0.0
 30
0.0
  9
$UCSORGLEFT
 10
0.0
 20
0.0
 30
0.0
  9
$UCSORGRIGHT
 10
0.0
 20
0.0
 30
0.0
  9
$UCSORGFRONT
 10
0.0
 20
0.0
 30
0.0
  9
$UCSORGBACK
 10
0.0
 20
0.0
 30
0.0
  9
$PUCSBASE
  2

  9
$PUCSNAME
  2

  9
$PUCSORG
 10
0.0
 20
0.0
 30
0.0
  9
$PUCSXDIR
 10
1.0
 20
0.0
 30
0.0
  9
$PUCSYDIR
 10
0.0
 20
1.0
 30
0.0
  9
$PUCSORTHOREF
  2

  9
$PUCSORTHOVIEW
 70
     0
  9
$PUCSORGTOP
 10
0.0
 20
0.0
 30
0.0
  9
$PUCSORGBOTTOM
 10
0.0
 20
0.0
 30
0.0
  9
$PUCSORGLEFT
 10
0.0
 20
0.0
 30
0.0
  9
$PUCSORGRIGHT
 10
0.0
 20
0.0
 30
0.0
  9
$PUCSORGFRONT
 10
0.0
 20
0.0
 30
0.0
  9
$PUCSORGBACK
 10
0.0
 20
0.0
 30
0.0
  9
$USERI1
 70
     0
  9
$USERI2
 70
     0
  9
$USERI3
 70
     0
  9
$USERI4
 70
     0
  9
$USERI5
 70
     0
  9
$USERR1
 40
0.0
  9
$USERR2
 40
0.0
  9
$USERR3
 40
0.0
  9
$USERR4
 40
0.0
  9
$USERR5
 40
0.0
  9
$WORLDVIEW
 70
     1
  9
$SHADEDGE
 70
     3
  9
$SHADEDIF
 70
    70
  9
$TILEMODE
 70
     1
  9
$MAXACTVP
 70
    64
  9
$PINSBASE
 10
0.0
 20
0.0
 30
0.0
  9
$PLIMCHECK
 70
     0
  9
$PEXTMIN
 10
1.000000000000000E+20
 20
1.000000000000000E+20
 30
1.000000000000000E+20
  9
$PEXTMAX
 10
-1.000000000000000E+20
 20
-1.000000000000000E+20
 30
-1.000000000000000E+20
  9
$PLIMMIN
 10
0.0
 20
0.0
  9
$PLIMMAX
 10
420.0
 20
297.0
  9
$UNITMODE
 70
     0
  9
$VISRETAIN
 70
     1
  9
$PLINEGEN
 70
     0
  9
$PSLTSCALE
 70
     1
  9
$TREEDEPTH
 70
  3020
  9
$CMLSTYLE
  2
Standard
  9
$CMLJUST
 70
     0
  9
$CMLSCALE
 40
1.0
  9
$PROXYGRAPHICS
 70
     1
  9
$MEASUREMENT
 70
     0
  9
$CELWEIGHT
370
    -1
  9
$ENDCAPS
280
     0
  9
$JOINSTYLE
280
     0
  9
$LWDISPLAY
290
     0
  9
$INSUNITS
 70
     0
  9
$HYPERLINKBASE
  1

  9
$STYLESHEET
  1

  9
$XEDIT
290
     1
  9
$CEPSNTYPE
380
     0
  9
$PSTYLEMODE
290
     1
  9
$FINGERPRINTGUID
  2
{202A07E0-9FAD-B64F-B36E-05D34CEA0055}
  9
$VERSIONGUID
  2
{39CA7453-44EE-4D41-9AE4-52BE1919C687}
  9
$EXTNAMES
290
     1
  9
$PSVPSCALE
 40
0.0
  9
$OLESTARTUP
290
     0
  9
$SORTENTS
280
   127
  9
$INDEXCTL
280
     0
  9
$HIDETEXT
280
     0
  9
$XCLIPFRAME
280
     2
  9
$HALOGAP
280
     0
  9
$OBSCOLOR
 70
   257
  9
$OBSLTYPE
280
     0
  9
$INTERSECTIONDISPLAY
280
     0
  9
$INTERSECTIONCOLOR
 70
   257
  9
$DIMASSOC
280
     1
  9
$PROJECTNAME
  1

  9
$CAMERADISPLAY
290
     0
  9
$LENSLENGTH
 40
50.0
  9
$CAMERAHEIGHT
 40
0.0
  9
$STEPSPERSEC
 40
2.0
  9
$STEPSIZE
 40
6.0
  9
$3DDWFPREC
 40
2.0
  9
$PSOLWIDTH
 40
0.25
  9
$PSOLHEIGHT
 40
4.0
  9
$LOFTANG1
 40
1.570796326794896
  9
$LOFTANG2
 40
1.570796326794896
  9
$LOFTMAG1
 40
0.0
  9
$LOFTMAG2
 40
0.0
  9
$LOFTPARAM
 70
     7
  9
$LOFTNORMALS
280
     1
  9
$LATITUDE
 40
37.795
  9
$LONGITUDE
 40
-122.394
  9
$NORTHDIRECTION
 40
0.0
  9
$TIMEZONE
 70
 -8000
  9
$LIGHTGLYPHDISPLAY
280
     1
  9
$TILEMODELIGHTSYNCH
280
     1
  9
$CMATERIAL
347
2DD0
  9
$SOLIDHIST
280
     0
  9
$SHOWHIST
280
     1
  9
$DWFFRAME
280
     2
  9
$DGNFRAME
280
     0
  9
$REALWORLDSCALE
290
     1
  9
$INTERFERECOLOR
 62
     1
  9
$INTERFEREOBJVS
345
2DF2
  9
$INTERFEREVPVS
346
2DEF
  9
$CSHADOW
280
     0
  9
$SHADOWPLANELOCATION
 40
0.0
  0
ENDSEC
  0
SECTION
  2
CLASSES
  0
CLASS
  1
ACDBDICTIONARYWDFLT
  2
AcDbDictionaryWithDefault
  3
ObjectDBX Classes
 90
        0
 91
        1
280
     0
281
     0
  0
CLASS
  1
MATERIAL
  2
AcDbMaterial
  3
ObjectDBX Classes
 90
     1153
 91
        3
280
     0
281
     0
  0
CLASS
  1
VISUALSTYLE
  2
AcDbVisualStyle
  3
ObjectDBX Classes
 90
     4095
 91
       24
280
     0
281
     0
  0
CLASS
  1
SCALE
  2
AcDbScale
  3
ObjectDBX Classes
 90
     1153
 91
       17
280
     0
281
     0
  0
CLASS
  1
TABLESTYLE
  2
AcDbTableStyle
  3
ObjectDBX Classes
 90
     4095
 91
        1
280
     0
281
     0
  0
CLASS
  1
MLEADERSTYLE
  2
AcDbMLeaderStyle
  3
ACDB_MLEADERSTYLE_CLASS
 90
     4095
 91
        1
280
     0
281
     0
  0
CLASS
  1
ACDBSECTIONVIEWSTYLE
  2
AcDbSectionViewStyle
  3
ObjectDBX Classes
 90
     1025
 91
        2
280
     0
281
     0
  0
CLASS
  1
ACDBDETAILVIEWSTYLE
  2
AcDbDetailViewStyle
  3
ObjectDBX Classes
 90
     1025
 91
        2
280
     0
281
     0
  0
CLASS
  1
AMGSETTINGSOBJ
  2
AmgSettingsObj
  3
"AcadM|Product Description: AutoCAD Mechanical|Company: Autodesk, Inc."
 90
     1024
 91
        2
280
     0
281
     0
  0
CLASS
  1
ACME_DOCUMENT
  2
AcMeDbDoc
  3
AcMeServices
 90
     1024
 91
        1
280
     0
281
     0
  0
CLASS
  1
ACMESCOPE
  2
AcMeScope
  3
AcMeServices
 90
     1024
 91
        1
280
     0
281
     0
  0
CLASS
  1
ACMECOMMANDHISTORY
  2
AcMeCommandHistory
  3
AcMeServices
 90
     1024
 91
        1
280
     0
281
     0
  0
CLASS
  1
ACIMSYSVARMAN
  2
AcImSysVarManager
  3
AcMeServices
 90
     1024
 91
        3
280
     0
281
     0
  0
CLASS
  1
ACIMINTSYSVAR
  2
AcImIntSysVar
  3
AcMeServices
 90
     1024
 91
        3
280
     0
281
     0
  0
CLASS
  1
ACMESTATEMGR
  2
AcMeStateMgr
  3
AcMeServices
 90
     1024
 91
        1
280
     0
281
     0
  0
CLASS
  1
ACDBENTITYCACHE
  2
AcMeEntityCache
  3
AcMeServices
 90
     1024
 91
        1
280
     0
281
     0
  0
CLASS
  1
ACGREFMASTER
  2
AcGrefMaster
  3
AcAttribServices
 90
     1024
 91
        1
280
     0
281
     0
  0
CLASS
  1
ACME_DATABASE
  2
AcMeDbDatabase
  3
AcMeServices
 90
     1024
 91
        1
280
     0
281
     0
  0
CLASS
  1
ACRFINSADJUSTERMGR
  2
AcRfInsAdjusterMgr
  3
AcMeServices
 90
     1024
 91
        1
280
     0
281
     0
  0
CLASS
  1
ACGREFACADMASTER
  2
AcGrefacadMaster
  3
AcGrefServices
 90
     1024
 91
        1
280
     0
281
     0
  0
CLASS
  1
AMIMASTER
  2
AmiMaster
  3
AmiServices
 90
     1024
 91
        1
280
     0
281
     0
  0
CLASS
  1
AMDTMENUSTATEMGR
  2
AmdtMenuStateMgr
  3
McadcomServices
 90
     1024
 91
        1
280
     0
281
     0
  0
CLASS
  1
AMDTMCOMMENUSTATE
  2
AmdtMcomMenuState
  3
McadcomServices
 90
     1024
 91
        1
280
     0
281
     0
  0
CLASS
  1
MAPIAMMOUDLE
  2
MApiAmModule
  3
MApiAmServices
 90
     1024
 91
        1
280
     0
281
     0
  0
CLASS
  1
ACIMSTRSYSVAR
  2
AcImStrSysVar
  3
AcMeServices
 90
     1024
 91
        5
280
     0
281
     0
  0
CLASS
  1
AMDTAMMENUSTATE
  2
AmdtAmMenuState
  3
DesignerAssemblies_arx
 90
     1024
 91
        1
280
     0
281
     0
  0
CLASS
  1
ACAMPROJECT
  2
AcAmProject
  3
DesignerAssemblies
 90
     1024
 91
        1
280
     0
281
     0
  0
CLASS
  1
ACAMGRCOMPDEF
  2
AcAmGrCompDef
  3
DesignerAssemblies
 90
     1024
 91
        1
280
     0
281
     0
  0
CLASS
  1
ACAMCOMPDEF
  2
AcAmCompDef
  3
DesignerAssemblies
 90
     1024
 91
        1
280
     0
281
     0
  0
CLASS
  1
ACAMCOMPDEFMGR
  2
AcAmCompDefMgr
  3
DesignerAssemblies
 90
     1024
 91
        1
280
     0
281
     0
  0
CLASS
  1
AMCONTEXTMGR
  2
AcAmContextMgr
  3
DesignerAssemblies
 90
     1024
 91
        1
280
     0
281
     0
  0
CLASS
  1
ACAMCONTEXTMODELER
  2
AcAmContextModeler
  3
DesignerAssemblies
 90
     1024
 91
        1
280
     0
281
     0
  0
CLASS
  1
ACMDATADICTIONARY
  2
AcmDataDictionary
  3
"AcmSymBB|Product Description: AutoCAD Mechanical|Company: Autodesk, Inc."
 90
     1024
 91
        1
280
     0
281
     0
  0
CLASS
  1
ACAMGRCOMPDEFSET
  2
AcAmGrCompDefSet
  3
DesignerAssemblies
 90
     1024
 91
        1
280
     0
281
     0
  0
CLASS
  1
AMDTBROWSERDBTAB
  2
AmdtBrowserDbTab
  3
McadcomServices
 90
     1024
 91
        1
280
     0
281
     0
  0
CLASS
  1
CBROWSERAPPOBJECT
  2
CBrowserAppObject
  3
McadcomServices
 90
     1024
 91
        2
280
     0
281
     0
  0
CLASS
  1
DM_PLACEHOLDER
  2
AcDmSelsetPlaceholder
  3
McadcomServices
 90
     1024
 91
        1
280
     0
281
     0
  0
CLASS
  1
EXACXREFPANELOBJECT
  2
ExAcXREFPanelObject
  3
EXAC_ESW
 90
     1025
 91
        1
280
     0
281
     0
  0
CLASS
  1
NPOCOLLECTION
  2
AcDbImpNonPersistentObjectsCollection
  3
ObjectDBX Classes
 90
     1153
 91
        1
280
     0
281
     0
  0
CLASS
  1
ACMSTANDARDANSI
  2
AcmStandardANSI
  3
"Amdt_StdImp|Product Description: AutoCAD Mechanical|Company: Autodesk, Inc."
 90
     1024
 91
        1
280
     0
281
     0
  0
CLASS
  1
ACMSURFSTANDARDANSI
  2
AcmSurfTextStdANSI
  3
"Amdt_StdImp|Product Description: AutoCAD Mechanical|Company: Autodesk, Inc."
 90
     1024
 91
        1
280
     0
281
     0
  0
CLASS
  1
ACMFCFSTANDARDANSI
  2
AcmFCFStdANSI
  3
"Amdt_StdImp|Product Description: AutoCAD Mechanical|Company: Autodesk, Inc."
 90
     1024
 91
        1
280
     0
281
     0
  0
CLASS
  1
ACMWELDSTANDARDANSI
  2
AcmWeldingStdANSI
  3
"Amdt_StdImp|Product Description: AutoCAD Mechanical|Company: Autodesk, Inc."
 90
     1024
 91
        1
280
     0
281
     0
  0
CLASS
  1
ACMIDSTANDARDANSI
  2
AcmIdStdANSI
  3
"Amdt_StdImp|Product Description: AutoCAD Mechanical|Company: Autodesk, Inc."
 90
     1024
 91
        1
280
     0
281
     0
  0
CLASS
  1
ACMDATUMSTANDARDANSI
  2
AcmDatumStdANSI
  3
"Amdt_StdImp|Product Description: AutoCAD Mechanical|Company: Autodesk, Inc."
 90
     1024
 91
        1
280
     0
281
     0
  0
CLASS
  1
ACMBOMSTANDARDANSI
  2
AcmBOMStdANSI
  3
"Amdt_StdImp|Product Description: AutoCAD Mechanical|Company: Autodesk, Inc."
 90
     1024
 91
        1
280
     0
281
     0
  0
CLASS
  1
ACMDETAILSTANDARDANSI
  2
AmdtDetailSymStdANSI
  3
"Amdt_StdImp|Product Description: AutoCAD Mechanical|Company: Autodesk, Inc."
 90
     1024
 91
        1
280
     0
281
     0
  0
CLASS
  1
ACMSECTIONSTANDARDANSI
  2
AmdtSectionSymStdANSI
  3
"Amdt_StdImp|Product Description: AutoCAD Mechanical|Company: Autodesk, Inc."
 90
     1024
 91
        1
280
     0
281
     0
  0
CLASS
  1
ACMCENTERLINESTANDARDANSI
  2
AmdtCenterLineStdANSI
  3
"Amdt_StdImp|Product Description: AutoCAD Mechanical|Company: Autodesk, Inc."
 90
     1024
 91
        1
280
     0
281
     0
  0
CLASS
  1
ACMTHREADLINESTANDARDANSI
  2
AmdtThreadLineStdANSI
  3
"Amdt_StdImp|Product Description: AutoCAD Mechanical|Company: Autodesk, Inc."
 90
     1024
 91
        1
280
     0
281
     0
  0
CLASS
  1
ACMNOTESTANDARDANSI
  2
AmdtNoteStdANSI
  3
"Amdt_StdImp|Product Description: AutoCAD Mechanical|Company: Autodesk, Inc."
 90
     1024
 91
        1
280
     0
281
     0
  0
CLASS
  1
ACMTAPERSTANDARDANSI
  2
AcmTaperStdANSI
  3
"Amdt_StdImp|Product Description: AutoCAD Mechanical|Company: Autodesk, Inc."
 90
     1024
 91
        1
280
     0
281
     0
  0
CLASS
  1
ACMANOOTATIONVIEWSTANDARDANSI
  2
AmdtAnViewStdANSI
  3
"Amdt_StdImp|Product Description: AutoCAD Mechanical|Company: Autodesk, Inc."
 90
     1024
 91
        1
280
     0
281
     0
  0
CLASS
  1
ACAMGLAYSTD
  2
AcAmgLayStd
  3
"AmgLay|Product Description: AutoCAD Mechanical|Company: Autodesk, Inc."
 90
     1024
 91
        1
280
     0
281
     0
  0
CLASS
  1
ACAMGDIMSTD
  2
AcAmgDimStd
  3
"AmgDim|Product Description: AutoCAD Mechanical|Company: Autodesk, Inc."
 90
     1024
 91
        1
280
     0
281
     0
  0
CLASS
  1
ACAMGHOLECHARTSTDANSI
  2
AcAmgHoleChartStdANSI
  3
"AmgDim" "Product Description: AutoCAD Mechanical|Company: Autodesk, Inc."
 90
     1024
 91
        1
280
     0
281
     0
  0
CLASS
  1
AMGOBJPROPCFG
  2
AmgObjPropCfg
  3
"AmgLay|Product Description: AutoCAD Mechanical|Company: Autodesk, Inc."
 90
     1024
 91
        1
280
     0
281
     0
  0
CLASS
  1
ACAMGTITLESTD
  2
AcAmgTitleStd
  3
"AmgTitle|Product Description: AutoCAD Mechanical|Company: Autodesk, Inc."
 90
     1024
 91
        1
280
     0
281
     0
  0
CLASS
  1
ACMSECTIONSTANDARDCUSTOM
  2
AmdtSectionSymStdCustom
  3
"Amdt_StdImp|Product Description: AutoCAD Mechanical|Company: Autodesk, Inc."
 90
     1024
 91
        1
280
     0
281
     0
  0
CLASS
  1
ACMDETAILTANDARDCUSTOM
  2
AmdtDetailSymStdCustom
  3
"Amdt_StdImp|Product Description: AutoCAD Mechanical|Company: Autodesk, Inc."
 90
     1024
 91
        1
280
     0
281
     0
  0
CLASS
  1
FIELD
  2
AcDbField
  3
ObjectDBX Classes
 90
     1152
 91
        8
280
     0
281
     0
  0
CLASS
  1
FIELDLIST
  2
AcDbFieldList
  3
ObjectDBX Classes
 90
     1152
 91
        1
280
     0
281
     0
  0
CLASS
  1
AMDTNOTETEMPLATEDB
  2
AmdtNoteTemplateDB
  3
"AcmSymBB" "Product Description: AutoCAD Mechanical|Company: Autodesk, Inc."
 90
     1024
 91
        7
280
     0
281
     0
  0
CLASS
  1
ACAMGFILTERDAT
  2
AcAmgFilterDat
  3
"AcadM|Product Description: AutoCAD Mechanical|Company: Autodesk, Inc."
 90
     1024
 91
        0
280
     0
281
     0
  0
CLASS
  1
SORTENTSTABLE
  2
AcDbSortentsTable
  3
ObjectDBX Classes
 90
        0
 91
        0
280
     0
281
     0
  0
CLASS
  1
DICTIONARYVAR
  2
AcDbDictionaryVar
  3
ObjectDBX Classes
 90
        0
 91
        9
280
     0
281
     0
  0
CLASS
  1
CELLSTYLEMAP
  2
AcDbCellStyleMap
  3
ObjectDBX Classes
 90
     1152
 91
        3
280
     0
281
     0
  0
ENDSEC
  0
SECTION
  2
TABLES
  0
TABLE
  2
VPORT
  5
2DC7
330
0
100
AcDbSymbolTable
 70
     1
  0
VPORT
  5
2E33
330
2DC7
100
AcDbSymbolTableRecord
100
AcDbViewportTableRecord
  2
*ACTIVE
 70
     0
 10
0.0
 20
0.0
 11
1.0
 21
1.0
 12
700.6685099220115
 22
679.413398199156
 13
0.0
 23
0.0
 14
12.5
 24
12.5
 15
50.0
 25
50.0
 16
0.0
 26
0.0
 36
1.0
 17
0.0
 27
0.0
 37
0.0
 40
829.0772098702204
 41
2.197496522948539
 42
50.0
 43
0.0
 44
0.0
 50
0.0
 51
0.0
 71
     0
 72
   100
 73
     1
 74
     3
 75
     0
 76
     0
 77
     0
 78
     0
281
     0
 65
     0
110
0.0
120
0.0
130
0.0
111
1.0
121
0.0
131
0.0
112
0.0
122
1.0
132
0.0
 79
     0
146
0.0
348
2DEE
 60
     3
 61
     5
292
     1
282
     0
141
0.0
142
0.0
 63
   250
421
  3355443
1001
ACAD_NAV_VCDISPLAY
1070
     3
  0
ENDTAB
  0
TABLE
  2
LTYPE
  5
2DC4
330
0
100
AcDbSymbolTable
 70
    19
  0
LTYPE
  5
2E19
330
2DC4
100
AcDbSymbolTableRecord
100
AcDbLinetypeTableRecord
  2
ByBlock
 70
     0
  3

 72
    65
 73
     0
 40
0.0
  0
LTYPE
  5
2E1A
330
2DC4
100
AcDbSymbolTableRecord
100
AcDbLinetypeTableRecord
  2
ByLayer
 70
     0
  3

 72
    65
 73
     0
 40
0.0
  0
LTYPE
  5
2E1B
330
2DC4
100
AcDbSymbolTableRecord
100
AcDbLinetypeTableRecord
  2
CONTINUOUS
 70
     0
  3
Solid line
 72
    65
 73
     0
 40
0.0
  0
LTYPE
  5
2E37
330
2DC4
100
AcDbSymbolTableRecord
100
AcDbLinetypeTableRecord
  2
AMCONSTR
 70
     0
  3
_______________________
 72
    65
 73
     2
 40
9999.0
 49
9999.0
 74
     0
 49
0.0
 74
     0
  0
LTYPE
  5
2E3F
330
2DC4
100
AcDbSymbolTableRecord
100
AcDbLinetypeTableRecord
  2
PHANTOM2
 70
     0
  3
Phantom (.5x) ___ _ _ ___ _ _ ___ _ _ ___ _ _
 72
    65
 73
     6
 40
31.75
 49
15.875
 74
     0
 49
-3.174999999999998
 74
     0
 49
3.174999999999998
 74
     0
 49
-3.174999999999998
 74
     0
 49
3.174999999999998
 74
     0
 49
-3.174999999999998
 74
     0
  0
LTYPE
  5
2E42
330
2DC4
100
AcDbSymbolTableRecord
100
AcDbLinetypeTableRecord
  2
GEN7
 70
     0
  3
____ . ____ . ____ . ____ . ____ . ____ . ____
 72
    65
 73
     4
 40
14.25
 49
9.75
 74
     0
 49
-1.5
 74
     0
 49
1.5
 74
     0
 49
-1.5
 74
     0
  0
LTYPE
  5
2E43
330
2DC4
100
AcDbSymbolTableRecord
100
AcDbLinetypeTableRecord
  2
GEN3B
 70
     0
  3
 - - - - -
 72
    65
 73
     2
 40
1.0
 49
0.5
 74
     0
 49
-0.5
 74
     0
  0
LTYPE
  5
2E44
330
2DC4
100
AcDbSymbolTableRecord
100
AcDbLinetypeTableRecord
  2
GEN7A
 70
     0
  3
__ . __ . __
 72
    65
 73
     4
 40
7.375
 49
4.75
 74
     0
 49
-0.875
 74
     0
 49
0.875
 74
     0
 49
-0.875
 74
     0
  0
LTYPE
  5
2E4B
330
2DC4
100
AcDbSymbolTableRecord
100
AcDbLinetypeTableRecord
  2
ACANSTGB
 70
     0
  3
__ . . __ . .
 72
    65
 73
     6
 40
0.35433070866
 49
0.15748031496
 74
     0
 49
-0.03937007874
 74
     0
 49
0.03937007874
 74
     0
 49
-0.03937007874
 74
     0
 49
0.03937007874
 74
     0
 49
-0.03937007874
 74
     0
  0
LTYPE
  5
2E4C
330
2DC4
100
AcDbSymbolTableRecord
100
AcDbLinetypeTableRecord
  2
ACANSTGL
 70
     0
  3
_ _ _ _ _
 72
    65
 73
     2
 40
0.11811023622
 49
0.07874015748
 74
     0
 49
-0.03937007874
 74
     0
  0
LTYPE
  5
303D
330
2DC4
100
AcDbSymbolTableRecord
100
AcDbLinetypeTableRecord
  2
HIDDEN
 70
     0
  3
Hidden __ __ __ __ __ __ __ __ __ __ __ __ __ _
 72
    65
 73
     2
 40
0.375
 49
0.25
 74
     0
 49
-0.125
 74
     0
  0
LTYPE
  5
303E
330
2DC4
100
AcDbSymbolTableRecord
100
AcDbLinetypeTableRecord
  2
CENTER
 70
     0
  3
Center ____ _ ____ _ ____ _ ____ _ ____ _ ____
 72
    65
 73
     4
 40
2.0
 49
1.25
 74
     0
 49
-0.25
 74
     0
 49
0.25
 74
     0
 49
-0.25
 74
     0
  0
LTYPE
  5
3074
330
2DC4
100
AcDbSymbolTableRecord
100
AcDbLinetypeTableRecord
  2
CENTER2
 70
     0
  3
Center (.5x) ___ _ ___ _ ___ _ ___ _ ___ _ ___
 72
    65
 73
     4
 40
1.125
 49
0.75
 74
     0
 49
-0.125
 74
     0
 49
0.125
 74
     0
 49
-0.125
 74
     0
  0
LTYPE
  5
3075
330
2DC4
100
AcDbSymbolTableRecord
100
AcDbLinetypeTableRecord
  2
HIDDEN2
 70
     0
  3
Hidden (.5x) _ _ _ _ _ _ _ _ _ _ _ _ _ _ _ _ _
 72
    65
 73
     2
 40
0.1875
 49
0.125
 74
     0
 49
-0.0625
 74
     0
  0
LTYPE
  5
3078
330
2DC4
100
AcDbSymbolTableRecord
100
AcDbLinetypeTableRecord
  2
Amzigzag2
 70
     0
  3
/\/-/\/-/\/-/\/-/\/-/\/
 72
    65
 73
     2
 40
0.4401
 49
0.0001
 74
     4
 75
   136
340
3077
 46
0.0016
 50
0.0
 44
0.0
 45
0.0
 49
-0.4400000000000001
 74
     0
  0
ENDTAB
  0
TABLE
  2
LAYER
  5
2DC1
102
{ACAD_XDICTIONARY
360
2FDF
102
}
330
0
100
AcDbSymbolTable
 70
     7
  0
LAYER
  5
2E13
102
{ACAD_XDICTIONARY
360
2FD0
102
}
330
2DC1
100
AcDbSymbolTableRecord
100
AcDbLayerTableRecord
  2
0
 70
     0
 62
     7
  6
CONTINUOUS
370
    -3
390
2DCE
347
2DE0
  0
LAYER
  5
2E32
102
{ACAD_XDICTIONARY
360
2FD2
102
}
330
2DC1
100
AcDbSymbolTableRecord
100
AcDbLayerTableRecord
  2
AM_0
 70
     0
 62
     7
  6
CONTINUOUS
370
    -3
390
2DCE
347
2DE0
  0
LAYER
  5
2E4D
102
{ACAD_XDICTIONARY
360
2FD4
102
}
330
2DC1
100
AcDbSymbolTableRecord
100
AcDbLayerTableRecord
  2
AM_5
 70
     0
 62
     2
  6
CONTINUOUS
370
    -3
390
2DCE
347
2DE0
  0
LAYER
  5
2E4E
330
2DC1
100
AcDbSymbolTableRecord
100
AcDbLayerTableRecord
  2
DEFPOINTS
 70
     0
 62
     7
  6
CONTINUOUS
290
     0
370
    -3
390
2DCE
347
2DE0
  0
LAYER
  5
2E4F
102
{ACAD_XDICTIONARY
360
2FD6
102
}
330
2DC1
100
AcDbSymbolTableRecord
100
AcDbLayerTableRecord
  2
ｶｸﾚｾﾝ2
 70
     0
 62
     3
  6
GEN3B
370
    -3
390
2DCE
347
2DE0
  0
LAYER
  5
2E50
102
{ACAD_XDICTIONARY
360
2FD8
102
}
330
2DC1
100
AcDbSymbolTableRecord
100
AcDbLayerTableRecord
  2
ﾁｭｳｼﾝｾﾝ
 70
     0
 62
     1
  6
GEN7
370
    -3
390
2DCE
347
2DE0
  0
LAYER
  5
2E51
102
{ACAD_XDICTIONARY
360
2FDA
102
}
330
2DC1
100
AcDbSymbolTableRecord
100
AcDbLayerTableRecord
  2
ﾁｭｳｼﾝｾﾝ1
 70
     0
 62
     1
  6
GEN7A
370
    -3
390
2DCE
347
2DE0
  0
ENDTAB
  0
TABLE
  2
STYLE
  5
2DC2
330
0
100
AcDbSymbolTable
 70
     4
  0
STYLE
  5
2E14
330
2DC2
100
AcDbSymbolTableRecord
100
AcDbTextStyleTableRecord
  2
STANDARD
 70
     0
 40
0.0
 41
0.8299999999999998
 50
0.0
 71
     0
 42
2.5
  3
txt.shx
  4
bigfont.shx
  0
STYLE
  5
2E56
330
2DC2
100
AcDbSymbolTableRecord
100
AcDbTextStyleTableRecord
  2
ACANSGDT
 70
     0
 40
0.0
 41
1.0
 50
0.0
 71
     0
 42
2.5
  3
amgdt.shx
  4

  0
STYLE
  5
3077
330
2DC2
100
AcDbSymbolTableRecord
100
AcDbTextStyleTableRecord
  2

 70
     1
 40
0.0
 41
1.0
 50
0.0
 71
     0
 42
2.5
  3
genltshp.shx
  4

  0
ENDTAB
  0
TABLE
  2
VIEW
  5
2DC5
330
0
100
AcDbSymbolTable
 70
     7
  0
VIEW
  5
2E59
330
2DC5
100
AcDbSymbolTableRecord
100
AcDbViewTableRecord
  2
AM_VIEW1
 70
     0
 40
462.5
 10
416.0796500920808
 20
693.75
 41
832.1593001841621
 11
0.0
 21
0.0
 31
1.0
 12
0.0
 22
0.0
 32
0.0
 42
50.0
 43
0.0
 44
0.0
 50
0.0
 71
     0
281
     0
 72
     0
 73
     0
348
2DEE
  0
VIEW
  5
2E5A
330
2DC5
100
AcDbSymbolTableRecord
100
AcDbViewTableRecord
  2
AM_VIEW2
 70
     0
 40
462.5
 10
1006.420349907918
 20
693.75
 41
832.1593001841621
 11
0.0
 21
0.0
 31
1.0
 12
0.0
 22
0.0
 32
0.0
 42
50.0
 43
0.0
 44
0.0
 50
0.0
 71
     0
281
     0
 72
     0
 73
     0
348
2DEE
  0
VIEW
  5
2E5B
330
2DC5
100
AcDbSymbolTableRecord
100
AcDbViewTableRecord
  2
AM_VIEW3
 70
     0
 40
462.5
 10
416.0796500920808
 20
231.25
 41
832.1593001841621
 11
0.0
 21
0.0
 31
1.0
 12
0.0
 22
0.0
 32
0.0
 42
50.0
 43
0.0
 44
0.0
 50
0.0
 71
     0
281
     0
 72
     0
 73
     0
348
2DEE
  0
VIEW
  5
2E5C
330
2DC5
100
AcDbSymbolTableRecord
100
AcDbViewTableRecord
  2
AM_VIEW4
 70
     0
 40
462.5
 10
1006.420349907918
 20
231.25
 41
832.1593001841621
 11
0.0
 21
0.0
 31
1.0
 12
0.0
 22
0.0
 32
0.0
 42
50.0
 43
0.0
 44
0.0
 50
0.0
 71
     0
281
     0
 72
     0
 73
     0
348
2DEE
  0
VIEW
  5
2E5D
330
2DC5
100
AcDbSymbolTableRecord
100
AcDbViewTableRecord
  2
AM_VIEW5
 70
     0
 40
462.5
 10
711.2499999999997
 20
462.5
 41
832.1593001841616
 11
0.0
 21
0.0
 31
1.0
 12
0.0
 22
0.0
 32
0.0
 42
50.0
 43
0.0
 44
0.0
 50
0.0
 71
     0
281
     0
 72
     0
 73
     0
348
2DEE
  0
VIEW
  5
2E5E
330
2DC5
100
AcDbSymbolTableRecord
100
AcDbViewTableRecord
  2
AM_VIEW6
 70
     0
 40
924.99075
 10
711.2499999999997
 20
462.5
 41
1664.30195718232
 11
0.0
 21
0.0
 31
1.0
 12
0.0
 22
0.0
 32
0.0
 42
50.0
 43
0.0
 44
0.0
 50
0.0
 71
     0
281
     0
 72
     0
 73
     0
348
2DEE
  0
ENDTAB
  0
TABLE
  2
UCS
  5
2DC6
330
0
100
AcDbSymbolTable
 70
     0
  0
ENDTAB
  0
TABLE
  2
APPID
  5
2DC8
330
0
100
AcDbSymbolTable
 70
    95
  0
APPID
  5
2E15
330
2DC8
100
AcDbSymbolTableRecord
100
AcDbRegAppTableRecord
  2
ACAD
 70
     0
  0
APPID
  5
2E1C
330
2DC8
100
AcDbSymbolTableRecord
100
AcDbRegAppTableRecord
  2
ACADANNOTATIVE
 70
     0
  0
APPID
  5
2E5F
330
2DC8
100
AcDbSymbolTableRecord
100
AcDbRegAppTableRecord
  2
MCAD_NO_VIS
 70
     0
  0
APPID
  5
2E60
330
2DC8
100
AcDbSymbolTableRecord
100
AcDbRegAppTableRecord
  2
ACAD_TEMP_GRAPHIC
 70
     0
  0
APPID
  5
2E61
330
2DC8
100
AcDbSymbolTableRecord
100
AcDbRegAppTableRecord
  2
ACATTRIBSERVICES
 70
     0
  0
APPID
  5
2E62
330
2DC8
100
AcDbSymbolTableRecord
100
AcDbRegAppTableRecord
  2
GENIUS_GENREC_14
 70
     0
  0
APPID
  5
2E63
330
2DC8
100
AcDbSymbolTableRecord
100
AcDbRegAppTableRecord
  2
GENIUS_GENOBJ-N-REC_13
 70
     0
  0
APPID
  5
2E64
330
2DC8
100
AcDbSymbolTableRecord
100
AcDbRegAppTableRecord
  2
GENIUS_GENODEF_13
 70
     0
  0
APPID
  5
2E65
330
2DC8
100
AcDbSymbolTableRecord
100
AcDbRegAppTableRecord
  2
GENIUS_GENOLIS_13
 70
     0
  0
APPID
  5
2E66
330
2DC8
100
AcDbSymbolTableRecord
100
AcDbRegAppTableRecord
  2
GENIUS_GENOBJ-N-TIT_13
 70
     0
  0
APPID
  5
2E67
330
2DC8
100
AcDbSymbolTableRecord
100
AcDbRegAppTableRecord
  2
GENIUS_GENOENT_13
 70
     0
  0
APPID
  5
2E68
330
2DC8
100
AcDbSymbolTableRecord
100
AcDbRegAppTableRecord
  2
GENIUS_GENTITLE_13
 70
     0
  0
APPID
  5
2E69
330
2DC8
100
AcDbSymbolTableRecord
100
AcDbRegAppTableRecord
  2
GENIUS_GENOREF_13
 70
     0
  0
APPID
  5
2E6A
330
2DC8
100
AcDbSymbolTableRecord
100
AcDbRegAppTableRecord
  2
GENIUS_GENSCREG_15
 70
     0
  0
APPID
  5
2E6B
330
2DC8
100
AcDbSymbolTableRecord
100
AcDbRegAppTableRecord
  2
GENIUS_GENOBJ-N-SDF_13
 70
     0
  0
APPID
  5
2E6C
330
2DC8
100
AcDbSymbolTableRecord
100
AcDbRegAppTableRecord
  2
GENIUS_GENFIL_13
 70
     0
  0
APPID
  5
2E6D
330
2DC8
100
AcDbSymbolTableRecord
100
AcDbRegAppTableRecord
  2
GENIUS_GENOBJ-N-CHA_13
 70
     0
  0
APPID
  5
2E6E
330
2DC8
100
AcDbSymbolTableRecord
100
AcDbRegAppTableRecord
  2
GENIUS_GENDTOL_13
 70
     0
  0
APPID
  5
2E6F
330
2DC8
100
AcDbSymbolTableRecord
100
AcDbRegAppTableRecord
  2
GENIUS_GENOBJ-N-FIL_13
 70
     0
  0
APPID
  5
2E70
330
2DC8
100
AcDbSymbolTableRecord
100
AcDbRegAppTableRecord
  2
AD_DRAW
 70
     0
  0
APPID
  5
2E71
330
2DC8
100
AcDbSymbolTableRecord
100
AcDbRegAppTableRecord
  2
DESIGNERASSEMBLIES
 70
     0
  0
APPID
  5
2E72
330
2DC8
100
AcDbSymbolTableRecord
100
AcDbRegAppTableRecord
  2
ASURF_PCURVE_APPNAME
 70
     0
  0
APPID
  5
2E73
330
2DC8
100
AcDbSymbolTableRecord
100
AcDbRegAppTableRecord
  2
GENIUS_GE3SECT_13
 70
     0
  0
APPID
  5
2E74
330
2DC8
100
AcDbSymbolTableRecord
100
AcDbRegAppTableRecord
  2
GENIUS_GENCFG_13
 70
     0
  0
APPID
  5
2E75
330
2DC8
100
AcDbSymbolTableRecord
100
AcDbRegAppTableRecord
  2
GENIUS_GE3CFG0_13
 70
     0
  0
APPID
  5
2E76
330
2DC8
100
AcDbSymbolTableRecord
100
AcDbRegAppTableRecord
  2
GENIUS_GENCFG0_13
 70
     0
  0
APPID
  5
2E77
330
2DC8
100
AcDbSymbolTableRecord
100
AcDbRegAppTableRecord
  2
GENIUS_GENCFG1_13
 70
     0
  0
APPID
  5
2E78
330
2DC8
100
AcDbSymbolTableRecord
100
AcDbRegAppTableRecord
  2
GENIUS_GENCFG2_13
 70
     0
  0
APPID
  5
2E79
330
2DC8
100
AcDbSymbolTableRecord
100
AcDbRegAppTableRecord
  2
GENIUS_GENCFG3_13
 70
     0
  0
APPID
  5
2E7A
330
2DC8
100
AcDbSymbolTableRecord
100
AcDbRegAppTableRecord
  2
GENIUS_GENCFG4_13
 70
     0
  0
APPID
  5
2E7B
330
2DC8
100
AcDbSymbolTableRecord
100
AcDbRegAppTableRecord
  2
GENIUS_GEVCFG0_13
 70
     0
  0
APPID
  5
2E7C
330
2DC8
100
AcDbSymbolTableRecord
100
AcDbRegAppTableRecord
  2
GENIUS_GENHINW_13
 70
     0
  0
APPID
  5
2E7D
330
2DC8
100
AcDbSymbolTableRecord
100
AcDbRegAppTableRecord
  2
GENIUS_FIRSTVISTXT_14
 70
     0
  0
APPID
  5
2E7E
330
2DC8
100
AcDbSymbolTableRecord
100
AcDbRegAppTableRecord
  2
GENIUS_GENOBJ-N-LEADER_13
 70
     0
  0
APPID
  5
2E7F
330
2DC8
100
AcDbSymbolTableRecord
100
AcDbRegAppTableRecord
  2
GEV_VCCNULL_SWITCH_OFF
 70
     0
  0
APPID
  5
2E80
330
2DC8
100
AcDbSymbolTableRecord
100
AcDbRegAppTableRecord
  2
GENIUS_GEFCFG0_13
 70
     0
  0
APPID
  5
2E81
330
2DC8
100
AcDbSymbolTableRecord
100
AcDbRegAppTableRecord
  2
GENIUS_GENZVEED_13
 70
     0
  0
APPID
  5
2E82
330
2DC8
100
AcDbSymbolTableRecord
100
AcDbRegAppTableRecord
  2
GENIUS_GENSCREG_13
 70
     0
  0
APPID
  5
2E83
330
2DC8
100
AcDbSymbolTableRecord
100
AcDbRegAppTableRecord
  2
GENIUS_DUMCFG0_13
 70
     0
  0
APPID
  5
2E84
330
2DC8
100
AcDbSymbolTableRecord
100
AcDbRegAppTableRecord
  2
GEVID936201362
 70
     0
  0
APPID
  5
2E85
330
2DC8
100
AcDbSymbolTableRecord
100
AcDbRegAppTableRecord
  2
GEVDC
 70
     0
  0
APPID
  5
2E86
330
2DC8
100
AcDbSymbolTableRecord
100
AcDbRegAppTableRecord
  2
GEVCON
 70
     0
  0
APPID
  5
2E87
330
2DC8
100
AcDbSymbolTableRecord
100
AcDbRegAppTableRecord
  2
VCC
 70
     0
  0
APPID
  5
2E88
330
2DC8
100
AcDbSymbolTableRecord
100
AcDbRegAppTableRecord
  2
GEVPT
 70
     0
  0
APPID
  5
2E89
330
2DC8
100
AcDbSymbolTableRecord
100
AcDbRegAppTableRecord
  2
GEVIT
 70
     0
  0
APPID
  5
2E8A
330
2DC8
100
AcDbSymbolTableRecord
100
AcDbRegAppTableRecord
  2
GENBH
 70
     0
  0
APPID
  5
2E8B
330
2DC8
100
AcDbSymbolTableRecord
100
AcDbRegAppTableRecord
  2
GEVMK
 70
     0
  0
APPID
  5
2E8C
330
2DC8
100
AcDbSymbolTableRecord
100
AcDbRegAppTableRecord
  2
GENIUS_GENBH_13
 70
     0
  0
APPID
  5
2E8D
330
2DC8
100
AcDbSymbolTableRecord
100
AcDbRegAppTableRecord
  2
GENIUS_GENOBJ-NBEHI-BHF_13
 70
     0
  0
APPID
  5
2E8E
330
2DC8
100
AcDbSymbolTableRecord
100
AcDbRegAppTableRecord
  2
GENIUS_GENOBJ-NBEHI-BHB_13
 70
     0
  0
APPID
  5
2E8F
330
2DC8
100
AcDbSymbolTableRecord
100
AcDbRegAppTableRecord
  2
GENIUS_GENOBJ-F-DESC_13
 70
     0
  0
APPID
  5
2E90
330
2DC8
100
AcDbSymbolTableRecord
100
AcDbRegAppTableRecord
  2
GENIUS_GEFDESC_14
 70
     0
  0
APPID
  5
2E91
330
2DC8
100
AcDbSymbolTableRecord
100
AcDbRegAppTableRecord
  2
GENIUS_GENOBJ-F-PART_13
 70
     0
  0
APPID
  5
2E92
330
2DC8
100
AcDbSymbolTableRecord
100
AcDbRegAppTableRecord
  2
GENIUS_GEFSTDP_13
 70
     0
  0
APPID
  5
2E93
330
2DC8
100
AcDbSymbolTableRecord
100
AcDbRegAppTableRecord
  2
GENIUS_GEFPARTINS_13
 70
     0
  0
APPID
  5
2E94
330
2DC8
100
AcDbSymbolTableRecord
100
AcDbRegAppTableRecord
  2
GENIUS_GENTRA_14
 70
     0
  0
APPID
  5
2E95
330
2DC8
100
AcDbSymbolTableRecord
100
AcDbRegAppTableRecord
  2
GENIUS_GENINF13_13
 70
     0
  0
APPID
  5
2E96
330
2DC8
100
AcDbSymbolTableRecord
100
AcDbRegAppTableRecord
  2
GENIUS_GENOBJ-N-INFOPT_13
 70
     0
  0
APPID
  5
2E97
330
2DC8
100
AcDbSymbolTableRecord
100
AcDbRegAppTableRecord
  2
GENIUS_GENOBJ-N-RSSYM_13
 70
     0
  0
APPID
  5
2E98
330
2DC8
100
AcDbSymbolTableRecord
100
AcDbRegAppTableRecord
  2
GENIUS_GENSYMENT_13
 70
     0
  0
APPID
  5
2E99
330
2DC8
100
AcDbSymbolTableRecord
100
AcDbRegAppTableRecord
  2
GENIUS_GENSCSYM_13
 70
     0
  0
APPID
  5
2E9A
330
2DC8
100
AcDbSymbolTableRecord
100
AcDbRegAppTableRecord
  2
GENIUS_GEFINFNAM_13
 70
     0
  0
APPID
  5
2E9B
330
2DC8
100
AcDbSymbolTableRecord
100
AcDbRegAppTableRecord
  2
GENIUS_GENOBJ-N-CEN_13
 70
     0
  0
APPID
  5
2E9C
330
2DC8
100
AcDbSymbolTableRecord
100
AcDbRegAppTableRecord
  2
GENIUS_GENOBJ-N-CRS_13
 70
     0
  0
APPID
  5
2E9D
330
2DC8
100
AcDbSymbolTableRecord
100
AcDbRegAppTableRecord
  2
GENIUS_GENOBJ-N-CRC_13
 70
     0
  0
APPID
  5
2E9E
330
2DC8
100
AcDbSymbolTableRecord
100
AcDbRegAppTableRecord
  2
GENIUS_GENCRC_14
 70
     0
  0
APPID
  5
2E9F
330
2DC8
100
AcDbSymbolTableRecord
100
AcDbRegAppTableRecord
  2
GEVID942827039
 70
     0
  0
APPID
  5
2EA0
330
2DC8
100
AcDbSymbolTableRecord
100
AcDbRegAppTableRecord
  2
GEVID942827040
 70
     0
  0
APPID
  5
2EA1
330
2DC8
100
AcDbSymbolTableRecord
100
AcDbRegAppTableRecord
  2
GEVID942827041
 70
     0
  0
APPID
  5
2EA2
330
2DC8
100
AcDbSymbolTableRecord
100
AcDbRegAppTableRecord
  2
GENIUS_GENOBJ-F-SCPASSM_13
 70
     0
  0
APPID
  5
2EA3
330
2DC8
100
AcDbSymbolTableRecord
100
AcDbRegAppTableRecord
  2
GENIUS_GENDIMSH_14
 70
     0
  0
APPID
  5
2EA4
330
2DC8
100
AcDbSymbolTableRecord
100
AcDbRegAppTableRecord
  2
GEVID942827042
 70
     0
  0
APPID
  5
2EA5
330
2DC8
100
AcDbSymbolTableRecord
100
AcDbRegAppTableRecord
  2
GEVID946020473
 70
     0
  0
APPID
  5
2EA6
330
2DC8
100
AcDbSymbolTableRecord
100
AcDbRegAppTableRecord
  2
GEVID946020474
 70
     0
  0
APPID
  5
2EA7
330
2DC8
100
AcDbSymbolTableRecord
100
AcDbRegAppTableRecord
  2
GEVID946020475
 70
     0
  0
APPID
  5
2EA8
330
2DC8
100
AcDbSymbolTableRecord
100
AcDbRegAppTableRecord
  2
GENIUS_GENOBJ-N-HTC_13
 70
     0
  0
APPID
  5
2EA9
330
2DC8
100
AcDbSymbolTableRecord
100
AcDbRegAppTableRecord
  2
GENIUS_GENHATCH_13
 70
     0
  0
APPID
  5
2EAA
330
2DC8
100
AcDbSymbolTableRecord
100
AcDbRegAppTableRecord
  2
GEVID948854295
 70
     0
  0
APPID
  5
2EAB
330
2DC8
100
AcDbSymbolTableRecord
100
AcDbRegAppTableRecord
  2
GEVID939402019
 70
     0
  0
APPID
  5
2EAC
330
2DC8
100
AcDbSymbolTableRecord
100
AcDbRegAppTableRecord
  2
GEVID952919491
 70
     0
  0
APPID
  5
2EAD
330
2DC8
100
AcDbSymbolTableRecord
100
AcDbRegAppTableRecord
  2
GEVID952919492
 70
     0
  0
APPID
  5
2EAE
330
2DC8
100
AcDbSymbolTableRecord
100
AcDbRegAppTableRecord
  2
GENIUS_GEFWELD_13
 70
     0
  0
APPID
  5
2EAF
330
2DC8
100
AcDbSymbolTableRecord
100
AcDbRegAppTableRecord
  2
GENIUS_GENOBJ-F-WELS_13
 70
     0
  0
APPID
  5
2EB0
330
2DC8
100
AcDbSymbolTableRecord
100
AcDbRegAppTableRecord
  2
GEVID952919493
 70
     0
  0
APPID
  5
2EB1
330
2DC8
100
AcDbSymbolTableRecord
100
AcDbRegAppTableRecord
  2
GENIUS_GENOBJ-N-RSBK_13
 70
     0
  0
APPID
  5
2EB2
330
2DC8
100
AcDbSymbolTableRecord
100
AcDbRegAppTableRecord
  2
GENIUS_GENOBJ-N-LIB_13
 70
     0
  0
APPID
  5
2EB3
330
2DC8
100
AcDbSymbolTableRecord
100
AcDbRegAppTableRecord
  2
GENIUS_GENSCALE_13
 70
     0
  0
APPID
  5
2EB4
330
2DC8
100
AcDbSymbolTableRecord
100
AcDbRegAppTableRecord
  2
GEVID986376691
 70
     0
  0
APPID
  5
2EB5
330
2DC8
100
AcDbSymbolTableRecord
100
AcDbRegAppTableRecord
  2
DCO15
 70
     0
  0
APPID
  5
2EB6
330
2DC8
100
AcDbSymbolTableRecord
100
AcDbRegAppTableRecord
  2
ACAD_DSTYLE_DIMBREAK
 70
     0
  0
APPID
  5
2EB7
330
2DC8
100
AcDbSymbolTableRecord
100
AcDbRegAppTableRecord
  2
ACAD_DSTYLE_DIMJAG
 70
     0
  0
APPID
  5
2EB8
330
2DC8
100
AcDbSymbolTableRecord
100
AcDbRegAppTableRecord
  2
ACAD_NAV_VCDISPLAY
 70
     0
  0
APPID
  5
2EB9
330
2DC8
100
AcDbSymbolTableRecord
100
AcDbRegAppTableRecord
  2
ACADANNOPO
 70
     0
  0
APPID
  5
2EBA
330
2DC8
100
AcDbSymbolTableRecord
100
AcDbRegAppTableRecord
  2
ACAD_EXEMPT_FROM_CAD_STANDARDS
 70
     0
  0
APPID
  5
2EBB
330
2DC8
100
AcDbSymbolTableRecord
100
AcDbRegAppTableRecord
  2
ACAD_MLEADERVER
 70
     0
  0
ENDTAB
  0
TABLE
  2
DIMSTYLE
  5
2DC9
330
0
100
AcDbSymbolTable
 70
     8
100
AcDbDimStyleTable
 71
     1
340
2EBC
  0
DIMSTYLE
105
2E16
330
2DC9
100
AcDbSymbolTableRecord
100
AcDbDimStyleTableRecord
  2
STANDARD
 70
     0
271
     2
272
     2
279
     2
284
     8
285
     8
286
     8
340
2E14
  0
DIMSTYLE
105
2EBC
330
2DC9
100
AcDbSymbolTableRecord
100
AcDbDimStyleTableRecord
  2
AM_ISO
 70
     0
  4
"
 41
2.5
 42
1.0
 43
8.0
 44
0.6
 47
0.1
 48
0.1
 73
     0
 74
     0
 77
     1
 78
     8
140
2.5
141
0.0
143
0.0393701
146
0.71
147
0.8
172
     1
176
   256
177
   256
178
     4
271
     2
272
     2
279
     2
284
     8
285
     8
286
     8
340
2E14
  0
DIMSTYLE
105
2ECA
102
{ACAD_REACTORS
330
3062
102
}
330
2DC9
100
AcDbSymbolTableRecord
100
AcDbDimStyleTableRecord
  2
AM_ANSI
 70
     0
  4
mm
 41
0.1
 42
0.05
 43
0.5
 44
0.1
 47
0.1
 48
0.1
 78
     7
140
0.12
141
0.0
146
0.71
147
0.06
176
   256
177
   256
178
     2
271
     2
272
     2
279
     2
284
     8
285
     8
286
     8
340
2E14
  0
DIMSTYLE
105
2ECB
330
2DC9
100
AcDbSymbolTableRecord
100
AcDbDimStyleTableRecord
  2
AM_ANSI$3
 70
     0
  4
mm
 41
0.1
 42
0.05
 43
0.5
 44
0.1
 47
0.1
 48
0.1
 78
     7
140
0.12
141
0.0
146
0.71
147
0.06
176
   256
177
   256
178
     2
271
     2
272
     2
279
     2
284
     8
285
     8
286
     8
340
2E14
  0
DIMSTYLE
105
2ECC
330
2DC9
100
AcDbSymbolTableRecord
100
AcDbDimStyleTableRecord
  2
AM_ANSI$4
 70
     0
  4
mm
 41
0.1
 42
0.05
 43
0.5
 44
0.1
 47
0.1
 48
0.1
 78
     7
140
0.12
141
0.0
146
0.71
147
0.06
176
   256
177
   256
178
     2
271
     2
272
     2
279
     2
284
     8
285
     8
286
     8
340
2E14
  0
DIMSTYLE
105
2ECD
330
2DC9
100
AcDbSymbolTableRecord
100
AcDbDimStyleTableRecord
  2
AM_ANSI$7
 70
     0
  4
mm
 41
0.1
 42
0.05
 43
0.5
 44
0.1
 47
0.1
 48
0.1
 78
     7
140
0.24
141
0.0
146
0.71
147
0.06
176
   256
177
   256
178
     2
271
     2
272
     2
279
     2
284
     8
285
     8
286
     8
340
2E14
  0
DIMSTYLE
105
2ECE
330
2DC9
100
AcDbSymbolTableRecord
100
AcDbDimStyleTableRecord
  2
AM_ANSI$SF
 70
     0
  4
mm
 41
0.1
 42
0.05
 43
0.5
 44
0.1
 47
0.1
 48
0.1
 75
     1
 76
     1
 78
     7
140
0.12
141
0.0
146
0.71
147
0.06
176
   256
177
   256
178
     2
271
     2
272
     2
279
     2
284
     8
285
     8
286
     8
340
2E14
  0
DIMSTYLE
105
2ECF
330
2DC9
100
AcDbSymbolTableRecord
100
AcDbDimStyleTableRecord
  2
AM_ANSI$SH
 70
     0
  4
mm
 41
0.1
 42
0.05
 43
0.5
 44
0.1
 47
0.1
 48
0.1
 75
     1
 76
     1
 78
     7
140
0.12
141
0.0
146
0.71
147
0.06
173
     1
176
   256
177
   256
178
     2
271
     2
272
     2
279
     2
284
     8
285
     8
286
     8
340
2E14
  0
ENDTAB
  0
TABLE
  2
BLOCK_RECORD
  5
2DC0
330
0
100
AcDbSymbolTable
 70
     2
  0
BLOCK_RECORD
  5
2E2E
330
2DC0
100
AcDbSymbolTableRecord
100
AcDbBlockTableRecord
  2
*Model_Space
340
2E31
 70
     0
280
     1
281
     0
  0
BLOCK_RECORD
  5
2E2A
330
2DC0
100
AcDbSymbolTableRecord
100
AcDbBlockTableRecord
  2
*Paper_Space
340
2E2D
 70
     0
280
     1
281
     0
  0
BLOCK_RECORD
  5
2EE1
330
2DC0
100
AcDbSymbolTableRecord
100
AcDbBlockTableRecord
  2
_ACMFILLEDHALF
340
0
 70
     0
280
     1
281
     0
  0
ENDTAB
  0
ENDSEC
  0
SECTION
  2
BLOCKS
  0
BLOCK
  5
2E2F
330
2E2E
100
AcDbEntity
  8
0
100
AcDbBlockBegin
  2
*Model_Space
 70
     0
 10
0.0
 20
0.0
 30
0.0
  3
*Model_Space
  1

  0
ENDBLK
  5
2E30
330
2E2E
100
AcDbEntity
  8
0
100
AcDbBlockEnd
  0
BLOCK
  5
2E2B
330
2E2A
100
AcDbEntity
 67
     1
  8
0
100
AcDbBlockBegin
  2
*Paper_Space
 70
     0
 10
0.0
 20
0.0
 30
0.0
  3
*Paper_Space
  1

  0
ENDBLK
  5
2E2C
330
2E2A
100
AcDbEntity
 67
     1
  8
0
100
AcDbBlockEnd
  0
BLOCK
  5
2EE2
330
2EE1
100
AcDbEntity
  8
0
100
AcDbBlockBegin
  2
_ACMFILLEDHALF
 70
     0
 10
0.0
 20
0.0
 30
0.0
  3
_ACMFILLEDHALF
  1

  0
TRACE
  5
2D28
330
2EE1
100
AcDbEntity
  8
AM_0
 62
     0
100
AcDbTrace
 10
-0.8
 20
0.0
 30
0.0
 11
-1.0
 21
0.166666666
 31
0.0
 12
0.0
 22
0.0
 32
0.0
 13
0.0
 23
0.0
 33
0.0
  0
LINE
  5
2D29
330
2EE1
100
AcDbEntity
  8
AM_0
 62
     0
100
AcDbLine
 10
-1.0
 20
0.0
 30
0.0
 11
-0.8
 21
0.0
 31
0.0
  0
ENDBLK
  5
2D27
330
2EE1
100
AcDbEntity
  8
0
100
AcDbBlockEnd
  0
ENDSEC
  0
SECTION
  2
ENTITIES
  0
LINE
  5
299B
330
2E2E
100
AcDbEntity
  8
AM_0
100
AcDbLine
 10
652.5559926495901
 20
501.8652111965447
 30
0.0
 11
734.5559926495901
 21
501.8652111965447
 31
0.0
  0
LINE
  5
299C
330
2E2E
100
AcDbEntity
  8
AM_0
100
AcDbLine
 10
652.5559926495901
 20
446.8652111965448
 30
0.0
 11
734.5559926495901
 21
446.8652111965448
 31
0.0
  0
LINE
  5
299D
330
2E2E
100
AcDbEntity
  8
AM_0
100
AcDbLine
 10
672.5559926495901
 20
505.8651961965447
 30
0.0
 11
734.5559926495901
 21
505.8651961965447
 31
0.0
  0
LINE
  5
299E
330
2E2E
100
AcDbEntity
  8
ﾁｭｳｼﾝｾﾝ
100
AcDbLine
 10
377.2423426495902
 20
474.365211196545
 30
0.0
 11
741.4848426495901
 21
474.365211196545
 31
0.0
  0
LINE
  5
299F
330
2E2E
100
AcDbEntity
  8
AM_0
100
AcDbLine
 10
347.4914926495902
 20
462.3006011965449
 30
0.0
 11
404.0915926495904
 21
518.9006461965449
 31
0.0
  0
LINE
  5
29A0
330
2E2E
100
AcDbEntity
  8
AM_0
100
AcDbLine
 10
405.5560426495902
 20
331.8652061965448
 30
0.0
 11
405.5560426495902
 21
525.8651961965448
 31
0.0
  0
LINE
  5
29A1
330
2E2E
100
AcDbEntity
  8
AM_0
100
AcDbLine
 10
443.5559926495902
 20
542.3491961965448
 30
0.0
 11
443.5559926495902
 21
316.9227011965448
 31
0.0
  0
LINE
  5
29A2
330
2E2E
100
AcDbEntity
  8
AM_0
100
AcDbLine
 10
469.5559926495904
 20
593.3862461965449
 30
0.0
 11
469.5559926495904
 21
304.5041861965448
 31
0.0
  0
LINE
  5
29A3
330
2E2E
100
AcDbEntity
  8
AM_0
100
AcDbLine
 10
499.5559926495904
 20
596.3651961965447
 30
0.0
 11
499.5559926495904
 21
363.7591311965449
 31
0.0
  0
LINE
  5
29A4
330
2E2E
100
AcDbEntity
  8
AM_0
100
AcDbLine
 10
581.5559926495901
 20
511.3228461965449
 30
0.0
 11
581.5559926495901
 21
314.3652061965448
 31
0.0
  0
LINE
  5
29A5
330
2E2E
100
AcDbEntity
  8
AM_0
100
AcDbLine
 10
614.5559926495904
 20
578.6923961965449
 30
0.0
 11
614.5559926495904
 21
330.6722161965448
 31
0.0
  0
LINE
  5
29A6
330
2E2E
100
AcDbEntity
  8
AM_0
100
AcDbLine
 10
504.5559926495903
 20
466.471196196545
 30
0.0
 11
504.5559926495903
 21
376.6041911965448
 31
0.0
  0
LINE
  5
29A7
330
2E2E
100
AcDbEntity
  8
AM_0
100
AcDbLine
 10
646.5559926495902
 20
532.4338461965449
 30
0.0
 11
646.5559926495902
 21
416.2966061965446
 31
0.0
  0
LINE
  5
29A8
330
2E2E
100
AcDbEntity
  8
AM_0
100
AcDbLine
 10
641.5559926495903
 20
554.783496196545
 30
0.0
 11
641.5559926495903
 21
308.0254561965448
 31
0.0
  0
LINE
  5
29A9
330
2E2E
100
AcDbEntity
  8
AM_0
100
AcDbLine
 10
420.5560426495901
 20
526.8652461965448
 30
0.0
 11
420.5560426495901
 21
331.8652061965448
 31
0.0
  0
LINE
  5
29AA
330
2E2E
100
AcDbEntity
  8
AM_0
100
AcDbLine
 10
652.5559926495901
 20
504.365211196545
 30
0.0
 11
652.5559926495901
 21
444.3652111965447
 31
0.0
  0
LINE
  5
29AB
330
2E2E
100
AcDbEntity
  8
ﾁｭｳｼﾝｾﾝ
100
AcDbLine
 10
176.2584668849122
 20
386.8652061965449
 30
0.0
 11
404.3201426495905
 21
386.8652061965449
 31
0.0
  0
LINE
  5
29AC
330
2E2E
100
AcDbEntity
  8
AM_0
100
AcDbLine
 10
317.5374736495909
 20
457.3462201965448
 30
0.0
 11
265.1192866495907
 21
430.6378191965448
 31
0.0
  0
LINE
  5
29AD
330
2E2E
100
AcDbEntity
  8
AM_0
100
AcDbLine
 10
265.1192866495907
 20
343.092593196545
 30
0.0
 11
317.5374736495909
 21
316.3841931965452
 31
0.0
  0
LINE
  5
29AE
330
2E2E
100
AcDbEntity
  8
AM_0
100
AcDbLine
 10
217.5560426495908
 20
371.8652061965449
 30
0.0
 11
217.5560426495908
 21
401.8652061965449
 31
0.0
  0
LINE
  5
29AF
330
2E2E
100
AcDbEntity
  8
AM_0
100
AcDbLine
 10
181.5560426495908
 20
374.8652061965448
 30
0.0
 11
181.5560426495908
 21
398.8652061965449
 31
0.0
  0
LINE
  5
29B0
330
2E2E
100
AcDbEntity
  8
AM_0
100
AcDbLine
 10
263.0622356495907
 20
347.141170196545
 30
0.0
 11
263.0622356495907
 21
426.5892421965451
 31
0.0
  0
LINE
  5
29B1
330
2E2E
100
AcDbEntity
  8
AM_0
100
AcDbLine
 10
230.4862846495907
 20
347.7097851965448
 30
0.0
 11
230.4862846495907
 21
426.0206271965448
 31
0.0
  0
LINE
  5
29B2
330
2E2E
100
AcDbEntity
  8
AM_0
100
AcDbLine
 10
219.5560426495908
 20
359.3652061965449
 30
0.0
 11
219.5560426495908
 21
414.3652061965449
 31
0.0
  0
LINE
  5
29B3
330
2E2E
100
AcDbEntity
  8
AM_0
100
AcDbLine
 10
221.5560426495908
 20
352.174607196545
 30
0.0
 11
221.5560426495908
 21
421.5558051965449
 31
0.0
  0
LINE
  5
29B4
330
2E2E
100
AcDbEntity
  8
AM_0
100
AcDbLine
 10
181.5560426495908
 20
374.8652061965448
 30
0.0
 11
217.5560426495908
 21
374.8652061965448
 31
0.0
  0
LINE
  5
29B5
330
2E2E
100
AcDbEntity
  8
AM_0
100
AcDbLine
 10
231.5205976495907
 20
344.691274196545
 30
0.0
 11
260.7539056495907
 21
344.181005196545
 31
0.0
  0
LINE
  5
29B6
330
2E2E
100
AcDbEntity
  8
AM_0
100
AcDbLine
 10
223.5560426495907
 20
348.7105061965451
 30
0.0
 11
229.5904076495906
 21
345.2265631965449
 31
0.0
  0
ARC
  5
29B7
330
2E2E
100
AcDbEntity
  8
AM_0
100
AcDbCircle
 10
225.5560426495907
 20
352.174607196545
 30
0.0
 40
4.0
100
AcDbArc
 50
180.0
 51
239.9999999999999
  0
ARC
  5
29B8
330
2E2E
100
AcDbEntity
  8
AM_0
100
AcDbCircle
 10
231.5904076495908
 20
348.690665196545
 30
0.0
 40
4.0
100
AcDbArc
 50
239.9999999999999
 51
268.9999999999981
  0
ARC
  5
29B9
330
2E2E
100
AcDbEntity
  8
AM_0
100
AcDbCircle
 10
260.5793816495907
 20
334.1825281965449
 30
0.0
 40
10.0
100
AcDbArc
 50
62.99999999999818
 51
88.99999999999822
  0
LINE
  5
29BA
330
2E2E
100
AcDbEntity
  8
AM_0
100
AcDbLine
 10
217.5560426495908
 20
371.8652061965449
 30
0.0
 11
219.5560426495908
 21
371.8652061965449
 31
0.0
  0
LINE
  5
29BB
330
2E2E
100
AcDbEntity
  8
AM_0
100
AcDbLine
 10
219.5560426495908
 20
359.3652061965449
 30
0.0
 11
221.5560426495908
 21
357.3652061965449
 31
0.0
  0
LINE
  5
29BC
330
2E2E
100
AcDbEntity
  8
AM_0
100
AcDbLine
 10
181.5560426495908
 20
398.8652061965449
 30
0.0
 11
217.5560426495908
 21
398.8652061965449
 31
0.0
  0
LINE
  5
29BE
330
2E2E
100
AcDbEntity
  8
AM_0
100
AcDbLine
 10
181.5560426495908
 20
398.8652061965449
 30
0.0
 11
181.5560426495908
 21
401.8652061965448
 31
0.0
  0
LINE
  5
29BF
330
2E2E
100
AcDbEntity
  8
AM_0
100
AcDbLine
 10
209.5560426495908
 20
398.8652061965449
 30
0.0
 11
209.5560426495908
 21
401.8652061965448
 31
0.0
  0
LINE
  5
29C0
330
2E2E
100
AcDbEntity
  8
AM_0
100
AcDbLine
 10
229.5904076495906
 20
428.5038491965448
 30
0.0
 11
223.5560426495907
 21
425.0199071965448
 31
0.0
  0
LINE
  5
29C1
330
2E2E
100
AcDbEntity
  8
AM_0
100
AcDbLine
 10
217.5560426495908
 20
401.8652061965449
 30
0.0
 11
219.5560426495908
 21
401.8652061965449
 31
0.0
  0
LINE
  5
29C2
330
2E2E
100
AcDbEntity
  8
AM_0
100
AcDbLine
 10
221.5560426495908
 20
416.3652061965448
 30
0.0
 11
219.5560426495908
 21
414.3652061965449
 31
0.0
  0
ARC
  5
29C3
330
2E2E
100
AcDbEntity
  8
AM_0
100
AcDbCircle
 10
225.5560426495907
 20
421.5558051965449
 30
0.0
 40
4.0
100
AcDbArc
 50
119.9999999999999
 51
180.0
  0
LINE
  5
29C4
330
2E2E
100
AcDbEntity
  8
AM_0
100
AcDbLine
 10
260.7539056495907
 20
429.5494071965448
 30
0.0
 11
231.5205976495907
 21
429.039138196545
 31
0.0
  0
ARC
  5
29C5
330
2E2E
100
AcDbEntity
  8
AM_0
100
AcDbCircle
 10
231.5904076495908
 20
425.0397471965447
 30
0.0
 40
4.0
100
AcDbArc
 50
91.00000000000177
 51
119.9999999999999
  0
ARC
  5
29C6
330
2E2E
100
AcDbEntity
  8
AM_0
100
AcDbCircle
 10
260.5793816495907
 20
439.547884196545
 30
0.0
 40
10.0
100
AcDbArc
 50
271.0000000000017
 51
297.0000000000016
  0
LINE
  5
29C7
330
2E2E
100
AcDbEntity
  8
AM_0
100
AcDbLine
 10
472.9079926495903
 20
307.2330961965448
 30
0.0
 11
503.6012426495902
 21
372.3400011965448
 31
0.0
  0
LINE
  5
29C8
330
2E2E
100
AcDbEntity
  8
AM_0
100
AcDbLine
 10
416.55599264959
 20
274.3652061965449
 30
0.0
 11
646.5559926495902
 21
274.3652061965449
 31
0.0
  0
LINE
  5
29C9
330
2E2E
100
AcDbEntity
  8
AM_0
100
AcDbLine
 10
342.5560426495902
 20
379.9133661965448
 30
0.0
 11
342.5560426495902
 21
314.7955061965448
 31
0.0
  0
LINE
  5
29CA
330
2E2E
100
AcDbEntity
  8
AM_0
100
AcDbLine
 10
330.5560426495901
 20
460.3652111965447
 30
0.0
 11
330.5560426495901
 21
313.3652061965448
 31
0.0
  0
LINE
  5
29CB
330
2E2E
100
AcDbEntity
  8
AM_0
100
AcDbLine
 10
343.7534426495902
 20
316.6551261965449
 30
0.0
 11
350.9367926495903
 21
336.3913011965448
 31
0.0
  0
LINE
  5
29CC
330
2E2E
100
AcDbEntity
  8
AM_0
100
AcDbLine
 10
320.5560426495908
 20
313.3652061965449
 30
0.0
 11
330.5560426495908
 21
313.3652061965449
 31
0.0
  0
ARC
  5
29CD
330
2E2E
100
AcDbEntity
  8
AM_0
100
AcDbCircle
 10
320.5560426495908
 20
315.3652061965449
 30
0.0
 40
2.0
100
AcDbArc
 50
190.9969430000039
 51
270.0
  0
ARC
  5
29CE
330
2E2E
100
AcDbEntity
  8
AM_0
100
AcDbCircle
 10
316.6294926495907
 20
314.6021801965452
 30
0.0
 40
2.0
100
AcDbArc
 50
10.99694300000411
 51
62.99999999999818
  0
LINE
  5
29CF
330
2E2E
100
AcDbEntity
  8
AM_0
100
AcDbLine
 10
330.5560426495901
 20
313.3652061965448
 30
0.0
 11
339.0549426495903
 21
313.3652061965448
 31
0.0
  0
ARC
  5
29D0
330
2E2E
100
AcDbEntity
  8
AM_0
100
AcDbCircle
 10
339.0549426495903
 20
318.3652061965448
 30
0.0
 40
5.0
100
AcDbArc
 50
270.0
 51
340.0
  0
LINE
  5
29D1
330
2E2E
100
AcDbEntity
  8
AM_0
100
AcDbLine
 10
421.5559926495902
 20
304.3652061965449
 30
0.0
 11
468.3853926495902
 21
304.3652061965449
 31
0.0
  0
LINE
  5
29D2
330
2E2E
100
AcDbEntity
  8
AM_0
100
AcDbLine
 10
416.55599264959
 20
299.3652061965449
 30
0.0
 11
416.55599264959
 21
274.3652061965449
 31
0.0
  0
ARC
  5
29D3
330
2E2E
100
AcDbEntity
  8
AM_0
100
AcDbCircle
 10
421.5559926495902
 20
299.3652061965449
 30
0.0
 40
5.0
100
AcDbArc
 50
90.00000300000001
 51
180.00001
  0
LINE
  5
29D4
330
2E2E
100
AcDbEntity
  8
ｶｸﾚｾﾝ2
100
AcDbLine
 10
456.0559926495902
 20
304.3652061965449
 30
0.0
 11
456.0559926495902
 21
274.3652061965449
 31
0.0
  0
LINE
  5
29D5
330
2E2E
100
AcDbEntity
  8
ｶｸﾚｾﾝ2
100
AcDbLine
 10
437.0559926495904
 20
304.3652061965449
 30
0.0
 11
437.0559926495904
 21
274.3652061965449
 31
0.0
  0
LINE
  5
29D6
330
2E2E
100
AcDbEntity
  8
ﾁｭｳｼﾝｾﾝ1
100
AcDbLine
 10
446.55599264959
 20
308.2730761965449
 30
0.0
 11
446.5559926495902
 21
271.3652061965448
 31
0.0
  0
LINE
  5
29D7
330
2E2E
100
AcDbEntity
  8
AM_0
100
AcDbLine
 10
457.4109926495903
 20
304.3651761965449
 30
0.0
 11
445.6297926495904
 21
312.8684411965449
 31
0.0
  0
ARC
  5
29D8
330
2E2E
100
AcDbEntity
  8
AM_0
100
AcDbCircle
 10
448.5559926495902
 20
316.9227011965448
 30
0.0
 40
5.0
100
AcDbArc
 50
179.9999899999999
 51
234.17957
  0
ARC
  5
29D9
330
2E2E
100
AcDbEntity
  8
AM_0
100
AcDbCircle
 10
468.3853926495902
 20
309.3652061965449
 30
0.0
 40
5.0
100
AcDbArc
 50
270.0
 51
334.75947
  0
LINE
  5
29DA
330
2E2E
100
AcDbEntity
  8
AM_0
100
AcDbLine
 10
345.5560426495902
 20
382.9133361965448
 30
0.0
 11
402.5559926495902
 21
382.9133361965448
 31
0.0
  0
LINE
  5
29DB
330
2E2E
100
AcDbEntity
  8
AM_0
100
AcDbLine
 10
353.7558926495902
 20
338.3652061965448
 30
0.0
 11
402.5559926495902
 21
338.3652061965448
 31
0.0
  0
LINE
  5
29DC
330
2E2E
100
AcDbEntity
  8
AM_0
100
AcDbLine
 10
318.5560426495908
 20
318.1098591965451
 30
0.0
 11
318.5560426495908
 21
455.6205541965447
 31
0.0
  0
LINE
  5
29DD
330
2E2E
100
AcDbEntity
  8
AM_0
100
AcDbLine
 10
346.0987926495902
 20
460.9079661965449
 30
0.0
 11
346.0987926495902
 21
386.8652061965449
 31
0.0
  0
LINE
  5
29DE
330
2E2E
100
AcDbEntity
  8
AM_0
100
AcDbLine
 10
320.5560426495908
 20
347.3905311965451
 30
0.0
 11
328.5560426495908
 21
347.3905311965451
 31
0.0
  0
LINE
  5
29DF
330
2E2E
100
AcDbEntity
  8
AM_0
100
AcDbLine
 10
320.5560426495908
 20
323.3559811965449
 30
0.0
 11
326.5560426495908
 21
323.3559811965449
 31
0.0
  0
ARC
  5
29E0
330
2E2E
100
AcDbEntity
  8
AM_0
100
AcDbCircle
 10
320.5560426495908
 20
325.3559811965449
 30
0.0
 40
2.0
100
AcDbArc
 50
180.0
 51
270.0
  0
LINE
  5
29E1
330
2E2E
100
AcDbEntity
  8
AM_0
100
AcDbLine
 10
351.6552926495903
 20
379.9133661965448
 30
0.0
 11
351.6552926495903
 21
338.3652061965448
 31
0.0
  0
LINE
  5
29E2
330
2E2E
100
AcDbEntity
  8
AM_0
100
AcDbLine
 10
328.5560426495908
 20
325.3559811965449
 30
0.0
 11
328.5560426495908
 21
345.3905311965451
 31
0.0
  0
LINE
  5
29E3
330
2E2E
100
AcDbEntity
  8
AM_0
100
AcDbLine
 10
330.5560426495901
 20
325.2852511965449
 30
0.0
 11
342.5560426495902
 21
325.2852511965449
 31
0.0
  0
ARC
  5
29E4
330
2E2E
100
AcDbEntity
  8
AM_0
100
AcDbCircle
 10
326.5560426495908
 20
325.3559811965449
 30
0.0
 40
2.0
100
AcDbArc
 50
270.0
 51
0.0
  0
LINE
  5
29E5
330
2E2E
100
AcDbEntity
  8
AM_0
100
AcDbLine
 10
330.5560426495901
 20
347.3905361965448
 30
0.0
 11
342.5560426495902
 21
347.3905361965448
 31
0.0
  0
ARC
  5
29E6
330
2E2E
100
AcDbEntity
  8
AM_0
100
AcDbCircle
 10
330.5560426495908
 20
345.3905311965451
 30
0.0
 40
2.0
100
AcDbArc
 50
119.9999999999999
 51
180.0
  0
ARC
  5
29E7
330
2E2E
100
AcDbEntity
  8
AM_0
100
AcDbCircle
 10
353.7558926495902
 20
335.3652061965448
 30
0.0
 40
3.00000005
100
AcDbArc
 50
90.00000300000001
 51
160.0
  0
LINE
  5
29E8
330
2E2E
100
AcDbEntity
  8
AM_0
100
AcDbLine
 10
320.5560426495908
 20
460.3652061965449
 30
0.0
 11
330.5560426495908
 21
460.3652061965449
 31
0.0
  0
LINE
  5
29E9
330
2E2E
100
AcDbEntity
  8
AM_0
100
AcDbLine
 10
320.5560426495908
 20
450.374431196545
 30
0.0
 11
326.5560426495908
 21
450.374431196545
 31
0.0
  0
LINE
  5
29EA
330
2E2E
100
AcDbEntity
  8
AM_0
100
AcDbLine
 10
320.5560426495908
 20
426.3398821965449
 30
0.0
 11
328.5560426495908
 21
426.3398821965449
 31
0.0
  0
ARC
  5
29EB
330
2E2E
100
AcDbEntity
  8
AM_0
100
AcDbCircle
 10
320.5560426495908
 20
448.374431196545
 30
0.0
 40
2.0
100
AcDbArc
 50
90.0
 51
180.0
  0
ARC
  5
29EC
330
2E2E
100
AcDbEntity
  8
AM_0
100
AcDbCircle
 10
320.5560426495908
 20
458.3652061965448
 30
0.0
 40
2.0
100
AcDbArc
 50
90.0
 51
169.0030569999958
  0
ARC
  5
29ED
330
2E2E
100
AcDbEntity
  8
AM_0
100
AcDbCircle
 10
316.6294926495907
 20
459.1282331965451
 30
0.0
 40
2.0
100
AcDbArc
 50
297.0000000000016
 51
349.0030569999958
  0
LINE
  5
29EE
330
2E2E
100
AcDbEntity
  8
AM_0
100
AcDbLine
 10
330.5560426495901
 20
426.3399111965449
 30
0.0
 11
345.5560426495902
 21
426.3399111965449
 31
0.0
  0
LINE
  5
29EF
330
2E2E
100
AcDbEntity
  8
AM_0
100
AcDbLine
 10
328.5560426495908
 20
448.374431196545
 30
0.0
 11
328.5560426495908
 21
428.3398821965447
 31
0.0
  0
ARC
  5
29F0
330
2E2E
100
AcDbEntity
  8
AM_0
100
AcDbCircle
 10
330.5560426495908
 20
428.3398821965447
 30
0.0
 40
2.0
100
AcDbArc
 50
180.0
 51
239.9999999999999
  0
LINE
  5
29F1
330
2E2E
100
AcDbEntity
  8
AM_0
100
AcDbLine
 10
330.5560426495901
 20
448.4452561965449
 30
0.0
 11
346.0987926495902
 21
448.4452561965449
 31
0.0
  0
LINE
  5
29F2
330
2E2E
100
AcDbEntity
  8
AM_0
100
AcDbLine
 10
330.5560426495901
 20
460.3652411965447
 30
0.0
 11
344.13039264959
 21
460.8392711965448
 31
0.0
  0
ARC
  5
29F3
330
2E2E
100
AcDbEntity
  8
AM_0
100
AcDbCircle
 10
326.5560426495908
 20
448.374431196545
 30
0.0
 40
2.0
100
AcDbArc
 50
0.0
 51
90.0
  0
ARC
  5
29F4
330
2E2E
100
AcDbEntity
  8
AM_0
100
AcDbCircle
 10
343.9559426495904
 20
465.8362161965448
 30
0.0
 40
5.0
100
AcDbArc
 50
272.0
 51
315.0
  0
LINE
  5
29F5
330
2E2E
100
AcDbEntity
  8
AM_0
100
AcDbLine
 10
422.5559926495902
 20
346.1700161965448
 30
0.0
 11
443.5559926495902
 21
346.1700161965448
 31
0.0
  0
LINE
  5
29F6
330
2E2E
100
AcDbEntity
  8
AM_0
100
AcDbLine
 10
422.5559926495902
 20
356.3590111965448
 30
0.0
 11
443.5559926495902
 21
356.3590111965448
 31
0.0
  0
LINE
  5
29F7
330
2E2E
100
AcDbEntity
  8
AM_0
100
AcDbLine
 10
422.5559926495902
 20
372.5893911965448
 30
0.0
 11
443.5559926495902
 21
372.5893911965448
 31
0.0
  0
LINE
  5
29F8
330
2E2E
100
AcDbEntity
  8
AM_0
100
AcDbLine
 10
420.5559426495902
 20
331.8652061965448
 30
0.0
 11
438.7304426495902
 21
331.2305311965448
 31
0.0
  0
LINE
  5
29F9
330
2E2E
100
AcDbEntity
  8
AM_0
100
AcDbLine
 10
422.5559926495902
 20
372.5893911965448
 30
0.0
 11
422.5559926495902
 21
346.1700161965448
 31
0.0
  0
ARC
  5
29FA
330
2E2E
100
AcDbEntity
  8
AM_0
100
AcDbCircle
 10
407.5559926495903
 20
331.8652061965448
 30
0.0
 40
2.00000005
100
AcDbArc
 50
179.9999899999999
 51
270.0
  0
ARC
  5
29FB
330
2E2E
100
AcDbEntity
  8
AM_0
100
AcDbCircle
 10
402.5559926495902
 20
335.3652061965448
 30
0.0
 40
3.00000005
100
AcDbArc
 50
0.0
 51
90.00000300000001
  0
LINE
  5
29FC
330
2E2E
100
AcDbEntity
  8
AM_0
100
AcDbLine
 10
405.5560426495902
 20
346.1700161965448
 30
0.0
 11
420.5560426495901
 21
346.1700161965448
 31
0.0
  0
LINE
  5
29FD
330
2E2E
100
AcDbEntity
  8
AM_0
100
AcDbLine
 10
418.5560426495902
 20
329.8651761965448
 30
0.0
 11
420.5559926495903
 21
331.8651761965448
 31
0.0
  0
LINE
  5
29FE
330
2E2E
100
AcDbEntity
  8
AM_0
100
AcDbLine
 10
407.5559926495903
 20
329.8652061965448
 30
0.0
 11
418.5559926495902
 21
329.8652061965448
 31
0.0
  0
LINE
  5
29FF
330
2E2E
100
AcDbEntity
  8
AM_0
100
AcDbLine
 10
405.5560426495902
 20
356.3590111965448
 30
0.0
 11
420.5560426495901
 21
356.3590111965448
 31
0.0
  0
LINE
  5
2A00
330
2E2E
100
AcDbEntity
  8
AM_0
100
AcDbLine
 10
405.5560426495902
 20
372.5893911965448
 30
0.0
 11
420.5560426495901
 21
372.5893911965448
 31
0.0
  0
ARC
  5
2A01
330
2E2E
100
AcDbEntity
  8
AM_0
100
AcDbCircle
 10
438.55599264959
 20
326.2335861965449
 30
0.0
 40
5.0
100
AcDbArc
 50
0.0
 51
88.0
  0
LINE
  5
2A02
330
2E2E
100
AcDbEntity
  8
AM_0
100
AcDbLine
 10
591.5559926495901
 20
304.3652061965449
 30
0.0
 11
641.5559926495903
 21
304.3652061965449
 31
0.0
  0
ARC
  5
2A03
330
2E2E
100
AcDbEntity
  8
AM_0
100
AcDbCircle
 10
591.5559926495901
 20
314.3652061965448
 30
0.0
 40
10.0
100
AcDbArc
 50
179.9999899999999
 51
270.0
  0
LINE
  5
2A04
330
2E2E
100
AcDbEntity
  8
ｶｸﾚｾﾝ2
100
AcDbLine
 10
626.0559926495901
 20
304.3652061965449
 30
0.0
 11
626.0559926495901
 21
274.3652061965449
 31
0.0
  0
LINE
  5
2A05
330
2E2E
100
AcDbEntity
  8
ｶｸﾚｾﾝ2
100
AcDbLine
 10
607.0559926495904
 20
304.3652061965449
 30
0.0
 11
607.0559926495904
 21
274.3652061965449
 31
0.0
  0
LINE
  5
2A06
330
2E2E
100
AcDbEntity
  8
AM_0
100
AcDbLine
 10
646.5559926495902
 20
299.3652061965449
 30
0.0
 11
646.5559926495902
 21
274.3652061965449
 31
0.0
  0
LINE
  5
2A07
330
2E2E
100
AcDbEntity
  8
ﾁｭｳｼﾝｾﾝ1
100
AcDbLine
 10
616.5559926495903
 20
308.2730761965449
 30
0.0
 11
616.5559926495903
 21
271.3652061965448
 31
0.0
  0
ARC
  5
2A08
330
2E2E
100
AcDbEntity
  8
AM_0
100
AcDbCircle
 10
641.5559926495903
 20
299.3652061965449
 30
0.0
 40
5.0
100
AcDbArc
 50
0.0
 51
90.00000300000001
  0
ARC
  5
2A09
330
2E2E
100
AcDbEntity
  8
AM_0
100
AcDbCircle
 10
646.5559926495902
 20
308.0254561965448
 30
0.0
 40
5.0
100
AcDbArc
 50
179.9999899999999
 51
240.00001
  0
LINE
  5
2A0A
330
2E2E
100
AcDbEntity
  8
AM_0
100
AcDbLine
 10
581.5559926495901
 20
320.6722161965448
 30
0.0
 11
604.5559926495903
 21
320.6722161965448
 31
0.0
  0
ARC
  5
2A0B
330
2E2E
100
AcDbEntity
  8
AM_0
100
AcDbCircle
 10
494.5559926495904
 20
376.6041911965448
 30
0.0
 40
10.0
100
AcDbArc
 50
334.75947
 51
0.0
  0
ARC
  5
2A0C
330
2E2E
100
AcDbEntity
  8
AM_0
100
AcDbCircle
 10
604.5559926495903
 20
330.6722161965448
 30
0.0
 40
10.0
100
AcDbArc
 50
270.0
 51
0.0
  0
ARC
  5
2A0D
330
2E2E
100
AcDbEntity
  8
AM_0
100
AcDbCircle
 10
643.5559926495901
 20
412.2592511965448
 30
0.0
 40
2.00000005
100
AcDbArc
 50
91.99999799999996
 51
180.00001
  0
ARC
  5
2A0E
330
2E2E
100
AcDbEntity
  8
AM_0
100
AcDbCircle
 10
644.5559926495904
 20
416.2966061965446
 30
0.0
 40
2.00000005
100
AcDbArc
 50
272.0
 51
0.0
  0
LINE
  5
2A0F
330
2E2E
100
AcDbEntity
  8
AM_0
100
AcDbLine
 10
643.4862426495904
 20
414.2580311965446
 30
0.0
 11
644.6258426495902
 21
414.2978261965447
 31
0.0
  0
LINE
  5
2A10
330
2E2E
100
AcDbEntity
  8
AM_0
100
AcDbLine
 10
646.5559926495902
 20
444.3652111965447
 30
0.0
 11
652.5559926495901
 21
444.3652111965447
 31
0.0
  0
CIRCLE
  5
2A11
330
2E2E
100
AcDbEntity
  8
AM_0
100
AcDbCircle
 10
481.55599264959
 20
622.3651961965447
 30
0.0
 40
15.0
  0
ARC
  5
2A12
330
2E2E
100
AcDbEntity
  8
AM_0
100
AcDbCircle
 10
481.55599264959
 20
622.3651961965447
 30
0.0
 40
25.0000005
100
AcDbArc
 50
306.46672
 51
233.53329
  0
LINE
  5
2A13
330
2E2E
100
AcDbEntity
  8
AM_0
100
AcDbLine
 10
471.4862426495902
 20
595.384996196545
 30
0.0
 11
499.5560426495903
 21
596.365246196545
 31
0.0
  0
LINE
  5
2A14
330
2E2E
100
AcDbEntity
  8
AM_0
100
AcDbLine
 10
468.5559926495902
 20
596.3651961965447
 30
0.0
 11
499.5559926495904
 21
596.3651961965447
 31
0.0
  0
LINE
  5
2A15
330
2E2E
100
AcDbEntity
  8
AM_0
100
AcDbLine
 10
471.7619426495903
 20
605.3651961965447
 30
0.0
 11
491.3499926495902
 21
605.3651961965447
 31
0.0
  0
LINE
  5
2A16
330
2E2E
100
AcDbEntity
  8
AM_0
100
AcDbLine
 10
481.55599264959
 20
607.3651961965447
 30
0.0
 11
491.0341426495903
 21
605.486146196545
 31
0.0
  0
LINE
  5
2A17
330
2E2E
100
AcDbEntity
  8
AM_0
100
AcDbLine
 10
472.0778926495903
 20
605.486296196545
 30
0.0
 11
481.5559426495902
 21
607.365246196545
 31
0.0
  0
LINE
  5
2A18
330
2E2E
100
AcDbEntity
  8
AM_0
100
AcDbLine
 10
422.5559926495902
 20
486.1409961965447
 30
0.0
 11
443.5559926495902
 21
486.1409961965447
 31
0.0
  0
LINE
  5
2A19
330
2E2E
100
AcDbEntity
  8
AM_0
100
AcDbLine
 10
422.5559926495902
 20
502.3714061965447
 30
0.0
 11
443.5559926495902
 21
502.3714061965447
 31
0.0
  0
LINE
  5
2A1A
330
2E2E
100
AcDbEntity
  8
AM_0
100
AcDbLine
 10
422.5559926495902
 20
512.5603461965448
 30
0.0
 11
443.5559926495902
 21
512.5603461965448
 31
0.0
  0
LINE
  5
2A1B
330
2E2E
100
AcDbEntity
  8
AM_0
100
AcDbLine
 10
420.5560426495901
 20
526.8652461965448
 30
0.0
 11
438.7305426495903
 21
527.4998961965449
 31
0.0
  0
LINE
  5
2A1C
330
2E2E
100
AcDbEntity
  8
AM_0
100
AcDbLine
 10
422.5559926495902
 20
512.5603461965448
 30
0.0
 11
422.5559926495902
 21
486.1409961965447
 31
0.0
  0
LINE
  5
2A1D
330
2E2E
100
AcDbEntity
  8
AM_0
100
AcDbLine
 10
405.5560426495902
 20
486.1409961965447
 30
0.0
 11
420.5560426495901
 21
486.1409961965447
 31
0.0
  0
ARC
  5
2A1E
330
2E2E
100
AcDbEntity
  8
AM_0
100
AcDbCircle
 10
408.5559926495903
 20
525.8651961965448
 30
0.0
 40
3.00000005
100
AcDbArc
 50
90.00000300000001
 51
180.00001
  0
ARC
  5
2A1F
330
2E2E
100
AcDbEntity
  8
AM_0
100
AcDbCircle
 10
400.5560426495902
 20
522.4362961965448
 30
0.0
 40
5.0
100
AcDbArc
 50
315.0
 51
0.0
  0
LINE
  5
2A20
330
2E2E
100
AcDbEntity
  8
AM_0
100
AcDbLine
 10
405.5560426495902
 20
502.3714061965447
 30
0.0
 11
420.5560426495901
 21
502.3714061965447
 31
0.0
  0
LINE
  5
2A21
330
2E2E
100
AcDbEntity
  8
AM_0
100
AcDbLine
 10
405.5560426495902
 20
512.5603461965448
 30
0.0
 11
420.5560426495901
 21
512.5603461965448
 31
0.0
  0
LINE
  5
2A22
330
2E2E
100
AcDbEntity
  8
AM_0
100
AcDbLine
 10
418.5560426495902
 20
528.8651961965448
 30
0.0
 11
420.5559926495903
 21
526.8651961965448
 31
0.0
  0
LINE
  5
2A23
330
2E2E
100
AcDbEntity
  8
AM_0
100
AcDbLine
 10
408.5559926495903
 20
528.8651961965448
 30
0.0
 11
418.5559926495902
 21
528.8651961965448
 31
0.0
  0
ARC
  5
2A24
330
2E2E
100
AcDbEntity
  8
AM_0
100
AcDbCircle
 10
438.55599264959
 20
532.4968461965449
 30
0.0
 40
5.0
100
AcDbArc
 50
272.0
 51
0.0
  0
ARC
  5
2A25
330
2E2E
100
AcDbEntity
  8
AM_0
100
AcDbCircle
 10
464.5559926495904
 20
573.3812461965449
 30
0.0
 40
5.0
100
AcDbArc
 50
316.08092
 51
0.0
  0
LINE
  5
2A26
330
2E2E
100
AcDbEntity
  8
AM_0
100
AcDbLine
 10
466.55599264959
 20
594.365246196545
 30
0.0
 11
466.55599264959
 21
570.2657961965447
 31
0.0
  0
LINE
  5
2A27
330
2E2E
100
AcDbEntity
  8
AM_0
100
AcDbLine
 10
444.9543926495903
 20
545.8173961965449
 30
0.0
 11
465.1575426495901
 21
566.7975961965447
 31
0.0
  0
ARC
  5
2A28
330
2E2E
100
AcDbEntity
  8
AM_0
100
AcDbCircle
 10
448.5559926495902
 20
542.3491961965448
 30
0.0
 40
5.0
100
AcDbArc
 50
136.08092
 51
180.00001
  0
ARC
  5
2A29
330
2E2E
100
AcDbEntity
  8
AM_0
100
AcDbCircle
 10
461.55599264959
 20
570.2657961965447
 30
0.0
 40
5.0
100
AcDbArc
 50
316.08092
 51
0.0
  0
LINE
  5
2A2A
330
2E2E
100
AcDbEntity
  8
AM_0
100
AcDbLine
 10
465.1575426495901
 20
566.7975961965447
 30
0.0
 11
468.1575426495903
 21
569.913046196545
 31
0.0
  0
ARC
  5
2A2B
330
2E2E
100
AcDbEntity
  8
AM_0
100
AcDbCircle
 10
468.5559926495902
 20
594.365246196545
 30
0.0
 40
2.00000005
100
AcDbArc
 50
90.00000300000001
 51
180.00001
  0
ARC
  5
2A2C
330
2E2E
100
AcDbEntity
  8
AM_0
100
AcDbCircle
 10
471.5559926495902
 20
593.3862461965449
 30
0.0
 40
2.00000005
100
AcDbArc
 50
91.99999799999996
 51
180.00001
  0
ARC
  5
2A2D
330
2E2E
100
AcDbEntity
  8
AM_0
100
AcDbCircle
 10
472.2724426495902
 20
604.505296196545
 30
0.0
 40
1.0
100
AcDbArc
 50
101.21329
 51
164.99999
  0
ARC
  5
2A2E
330
2E2E
100
AcDbEntity
  8
AM_0
100
AcDbCircle
 10
463.1309426495902
 20
597.4348961965447
 30
0.0
 40
6.0
100
AcDbArc
 50
349.72995
 51
53.53329100000001
  0
LINE
  5
2A2F
330
2E2E
100
AcDbEntity
  8
AM_0
100
AcDbLine
 10
469.0560426495903
 20
596.3651961965447
 30
0.0
 11
471.3065426495901
 21
604.7640961965448
 31
0.0
  0
LINE
  5
2A30
330
2E2E
100
AcDbEntity
  8
AM_0
100
AcDbLine
 10
596.5559926495902
 20
526.3228461965447
 30
0.0
 11
614.5559926495904
 21
526.3228461965447
 31
0.0
  0
LINE
  5
2A31
330
2E2E
100
AcDbEntity
  8
AM_0
100
AcDbLine
 10
527.5842426495903
 20
591.386496196545
 30
0.0
 11
604.9049926495902
 21
588.686346196545
 31
0.0
  0
LINE
  5
2A32
330
2E2E
100
AcDbEntity
  8
AM_0
100
AcDbLine
 10
524.5559926495904
 20
590.6637461965447
 30
0.0
 11
524.5559926495904
 21
466.471196196545
 31
0.0
  0
LINE
  5
2A33
330
2E2E
100
AcDbEntity
  8
AM_0
100
AcDbLine
 10
504.5559926495903
 20
466.471196196545
 30
0.0
 11
524.5559926495904
 21
466.471196196545
 31
0.0
  0
ARC
  5
2A34
330
2E2E
100
AcDbEntity
  8
AM_0
100
AcDbCircle
 10
596.5559926495902
 20
511.3228461965449
 30
0.0
 40
15.0
100
AcDbArc
 50
90.00000300000001
 51
180.00001
  0
LINE
  5
2A35
330
2E2E
100
AcDbEntity
  8
AM_0
100
AcDbLine
 10
499.5559426495902
 20
596.3651961965447
 30
0.0
 11
519.7304426495902
 21
595.6606961965449
 31
0.0
  0
ARC
  5
2A36
330
2E2E
100
AcDbEntity
  8
AM_0
100
AcDbCircle
 10
490.8396426495904
 20
604.505296196545
 30
0.0
 40
1.0
100
AcDbArc
 50
15.0
 51
78.78671
  0
ARC
  5
2A37
330
2E2E
100
AcDbEntity
  8
AM_0
100
AcDbCircle
 10
499.9809926495902
 20
597.4348961965447
 30
0.0
 40
6.0
100
AcDbArc
 50
126.4666999999999
 51
190.27006
  0
LINE
  5
2A38
330
2E2E
100
AcDbEntity
  8
AM_0
100
AcDbLine
 10
494.05599264959
 20
596.3651961965447
 30
0.0
 11
491.8054926495902
 21
604.7641461965447
 31
0.0
  0
ARC
  5
2A39
330
2E2E
100
AcDbEntity
  8
AM_0
100
AcDbCircle
 10
519.5559926495904
 20
590.6637461965447
 30
0.0
 40
5.0
100
AcDbArc
 50
34.88735
 51
88.0
  0
ARC
  5
2A3A
330
2E2E
100
AcDbEntity
  8
AM_0
100
AcDbCircle
 10
527.7587926495903
 20
596.3834461965449
 30
0.0
 40
5.0
100
AcDbArc
 50
214.8873399999999
 51
268.0
  0
ARC
  5
2A3B
330
2E2E
100
AcDbEntity
  8
AM_0
100
AcDbCircle
 10
644.5559926495904
 20
532.4338461965449
 30
0.0
 40
2.00000005
100
AcDbArc
 50
0.0
 51
88.0
  0
ARC
  5
2A3C
330
2E2E
100
AcDbEntity
  8
AM_0
100
AcDbCircle
 10
643.5559926495901
 20
536.4711961965448
 30
0.0
 40
2.00000005
100
AcDbArc
 50
179.9999899999999
 51
268.0000099999999
  0
LINE
  5
2A3D
330
2E2E
100
AcDbEntity
  8
AM_0
100
AcDbLine
 10
646.5559926495902
 20
504.365211196545
 30
0.0
 11
652.5559926495901
 21
504.365211196545
 31
0.0
  0
LINE
  5
2A3E
330
2E2E
100
AcDbEntity
  8
AM_0
100
AcDbLine
 10
643.4861926495904
 20
534.4723961965447
 30
0.0
 11
644.6257426495901
 21
534.4326461965448
 31
0.0
  0
LINE
  5
2A3F
330
2E2E
100
AcDbEntity
  8
AM_0
100
AcDbLine
 10
672.5559926495901
 20
505.8651961965447
 30
0.0
 11
672.5559926495901
 21
501.8652111965447
 31
0.0
  0
LINE
  5
2A40
330
2E2E
100
AcDbEntity
  8
AM_0
100
AcDbLine
 10
623.6844926495901
 20
560.9287961965446
 30
0.0
 11
636.9917926495904
 21
559.7645461965448
 31
0.0
  0
ARC
  5
2A41
330
2E2E
100
AcDbEntity
  8
AM_0
100
AcDbCircle
 10
624.5559926495904
 20
570.8906961965449
 30
0.0
 40
10.0
100
AcDbArc
 50
179.9999899999999
 51
265.0
  0
ARC
  5
2A42
330
2E2E
100
AcDbEntity
  8
AM_0
100
AcDbCircle
 10
636.5559926495901
 20
554.783496196545
 30
0.0
 40
5.0
100
AcDbArc
 50
0.0
 51
84.99999699999998
  0
ARC
  5
2A43
330
2E2E
100
AcDbEntity
  8
AM_0
100
AcDbCircle
 10
604.5559926495903
 20
578.6923961965449
 30
0.0
 40
10.0
100
AcDbArc
 50
0.0
 51
88.0
  0
ARC
  5
2A44
330
2E2E
100
AcDbEntity
  8
AM_0
100
AcDbCircle
 10
1030.65576264959
 20
474.365211196545
 30
0.0
 40
60.0
100
AcDbArc
 50
270.0
 51
90.00000300000001
  0
ARC
  5
2A45
330
2E2E
100
AcDbEntity
  8
AM_0
100
AcDbCircle
 10
1030.65576264959
 20
459.3652111965448
 30
0.0
 40
100.0
100
AcDbArc
 50
0.0
 51
90.00000300000001
  0
ARC
  5
2A46
330
2E2E
100
AcDbEntity
  8
AM_0
100
AcDbCircle
 10
1030.65576264959
 20
474.365211196545
 30
0.0
 40
60.0
100
AcDbArc
 50
90.00000300000001
 51
270.0
  0
ARC
  5
2A47
330
2E2E
100
AcDbEntity
  8
AM_0
100
AcDbCircle
 10
1030.65576264959
 20
459.3652111965448
 30
0.0
 40
100.0
100
AcDbArc
 50
90.00000300000001
 51
180.00001
  0
ARC
  5
2A48
330
2E2E
100
AcDbEntity
  8
AM_0
100
AcDbCircle
 10
1030.65576264959
 20
474.365211196545
 30
0.0
 40
27.5000005
100
AcDbArc
 50
106.91239
 51
73.087597
  0
LINE
  5
2A49
330
2E2E
100
AcDbEntity
  8
AM_0
100
AcDbLine
 10
1195.655752649589
 20
304.3651761965449
 30
0.0
 11
1157.45839264959
 21
500.8735111965449
 31
0.0
  0
LINE
  5
2A4A
330
2E2E
100
AcDbEntity
  8
AM_0
100
AcDbLine
 10
1147.655732649589
 20
381.3291061965449
 30
0.0
 11
1147.655732649589
 21
525.2989961965447
 31
0.0
  0
LINE
  5
2A4B
330
2E2E
100
AcDbEntity
  8
AM_0
100
AcDbLine
 10
865.6557426495902
 20
304.3652361965448
 30
0.0
 11
903.8530876495903
 21
500.873481196545
 31
0.0
  0
LINE
  5
2A4C
330
2E2E
100
AcDbEntity
  8
AM_0
100
AcDbLine
 10
913.6557326495902
 20
381.3291061965449
 30
0.0
 11
913.6557326495902
 21
525.2989961965447
 31
0.0
  0
LINE
  5
2A4D
330
2E2E
100
AcDbEntity
  8
ﾁｭｳｼﾝｾﾝ
100
AcDbLine
 10
1030.65576264959
 20
268.3652061965448
 30
0.0
 11
1030.65576264959
 21
650.3644961965449
 31
0.0
  0
LINE
  5
2A4E
330
2E2E
100
AcDbEntity
  8
AM_0
100
AcDbLine
 10
734.5559926495901
 20
505.8651961965447
 30
0.0
 11
734.5559926495901
 21
446.8652111965448
 31
0.0
  0
LINE
  5
2A4F
330
2E2E
100
AcDbEntity
  8
AM_0
100
AcDbLine
 10
1125.655732649589
 20
274.3652061965449
 30
0.0
 11
1195.65573764959
 21
274.3652061965449
 31
0.0
  0
LINE
  5
2A50
330
2E2E
100
AcDbEntity
  8
AM_0
100
AcDbLine
 10
1130.65573264959
 20
304.3652061965449
 30
0.0
 11
1190.65573764959
 21
304.3652061965449
 31
0.0
  0
ARC
  5
2A51
330
2E2E
100
AcDbEntity
  8
AM_0
100
AcDbCircle
 10
930.6557626495903
 20
299.3652061965449
 30
0.0
 40
5.0
100
AcDbArc
 50
0.0
 51
90.00000300000001
  0
LINE
  5
2A52
330
2E2E
100
AcDbEntity
  8
AM_0
100
AcDbLine
 10
935.6557626495902
 20
274.3652061965449
 30
0.0
 11
865.6557426495902
 21
274.3652061965449
 31
0.0
  0
LINE
  5
2A53
330
2E2E
100
AcDbEntity
  8
AM_0
100
AcDbLine
 10
930.6557626495903
 20
316.3651761965449
 30
0.0
 11
930.6557626495903
 21
459.3652111965448
 31
0.0
  0
LINE
  5
2A54
330
2E2E
100
AcDbEntity
  8
AM_0
100
AcDbLine
 10
930.6557626495903
 20
304.3652061965449
 30
0.0
 11
870.6557426495903
 21
304.3652061965449
 31
0.0
  0
LINE
  5
2A55
330
2E2E
100
AcDbEntity
  8
AM_0
100
AcDbLine
 10
865.6557426495902
 20
304.3652061965449
 30
0.0
 11
865.6557426495902
 21
274.3652061965449
 31
0.0
  0
ARC
  5
2A56
330
2E2E
100
AcDbEntity
  8
AM_0
100
AcDbCircle
 10
870.6557426495903
 20
299.3652061965449
 30
0.0
 40
5.0
100
AcDbArc
 50
90.00000300000001
 51
180.00001
  0
LINE
  5
2A57
330
2E2E
100
AcDbEntity
  8
ｶｸﾚｾﾝ2
100
AcDbLine
 10
907.6557326495903
 20
304.3652061965449
 30
0.0
 11
907.6557326495903
 21
274.3652061965449
 31
0.0
  0
LINE
  5
2A58
330
2E2E
100
AcDbEntity
  8
ｶｸﾚｾﾝ2
100
AcDbLine
 10
888.6557326495902
 20
304.3652061965449
 30
0.0
 11
888.6557326495902
 21
274.3652061965449
 31
0.0
  0
LINE
  5
2A59
330
2E2E
100
AcDbEntity
  8
ﾁｭｳｼﾝｾﾝ1
100
AcDbLine
 10
898.1557626495902
 20
309.0264611965448
 30
0.0
 11
898.1557626495902
 21
271.3652061965448
 31
0.0
  0
ARC
  5
2A5A
330
2E2E
100
AcDbEntity
  8
AM_0
100
AcDbCircle
 10
918.6557326495901
 20
316.3651761965449
 30
0.0
 40
12.0
100
AcDbArc
 50
270.0
 51
0.0
  0
ARC
  5
2A5B
330
2E2E
100
AcDbEntity
  8
AM_0
100
AcDbCircle
 10
1030.65576264959
 20
381.3651761965449
 30
0.0
 40
117.0
100
AcDbArc
 50
179.9999899999999
 51
211.2732999999999
  0
LINE
  5
2A5C
330
2E2E
100
AcDbEntity
  8
AM_0
100
AcDbLine
 10
1130.65573264959
 20
316.3651761965449
 30
0.0
 11
1130.65573264959
 21
459.3652111965448
 31
0.0
  0
LINE
  5
2A5D
330
2E2E
100
AcDbEntity
  8
AM_0
100
AcDbLine
 10
1030.65576264959
 20
290.3652061965448
 30
0.0
 11
1089.66507264959
 21
290.3652061965448
 31
0.0
  0
LINE
  5
2A5E
330
2E2E
100
AcDbEntity
  8
AM_0
100
AcDbLine
 10
1030.65576264959
 20
281.3651761965449
 30
0.0
 11
1120.655732649589
 21
281.3651761965449
 31
0.0
  0
LINE
  5
2A5F
330
2E2E
100
AcDbEntity
  8
AM_0
100
AcDbLine
 10
1030.65576264959
 20
290.3652061965448
 30
0.0
 11
971.6464226495903
 21
290.3652061965448
 31
0.0
  0
LINE
  5
2A60
330
2E2E
100
AcDbEntity
  8
AM_0
100
AcDbLine
 10
1030.65576264959
 20
281.3651761965449
 30
0.0
 11
940.6557626495903
 21
281.3651761965449
 31
0.0
  0
ARC
  5
2A61
330
2E2E
100
AcDbEntity
  8
AM_0
100
AcDbCircle
 10
945.6557626495904
 20
280.2230561965448
 30
0.0
 40
10.0
100
AcDbArc
 50
135.0
 51
180.00001
  0
ARC
  5
2A62
330
2E2E
100
AcDbEntity
  8
AM_0
100
AcDbCircle
 10
940.6557626495903
 20
276.3651761965448
 30
0.0
 40
5.0
100
AcDbArc
 50
90.00000300000001
 51
180.00001
  0
LINE
  5
2A63
330
2E2E
100
AcDbEntity
  8
AM_0
100
AcDbLine
 10
935.6557626495902
 20
299.3652061965449
 30
0.0
 11
935.6557626495902
 21
274.3652061965449
 31
0.0
  0
LINE
  5
2A64
330
2E2E
100
AcDbEntity
  8
AM_0
100
AcDbLine
 10
965.9106476495903
 20
292.1737111965449
 30
0.0
 11
959.5819726495902
 21
296.6050761965449
 31
0.0
  0
ARC
  5
2A65
330
2E2E
100
AcDbEntity
  8
AM_0
100
AcDbCircle
 10
953.8462226495903
 20
288.4135161965449
 30
0.0
 40
10.0
100
AcDbArc
 50
54.999999
 51
135.0
  0
LINE
  5
2A66
330
2E2E
100
AcDbEntity
  8
AM_0
100
AcDbLine
 10
938.5846876495902
 20
287.2941311965448
 30
0.0
 11
946.7751476495903
 21
295.4846211965449
 31
0.0
  0
ARC
  5
2A67
330
2E2E
100
AcDbEntity
  8
AM_0
100
AcDbCircle
 10
971.6464226495903
 20
300.3652061965448
 30
0.0
 40
10.0
100
AcDbArc
 50
235.0
 51
270.0
  0
LINE
  5
2A68
330
2E2E
100
AcDbEntity
  8
AM_0
100
AcDbLine
 10
1095.40082264959
 20
292.1736761965448
 30
0.0
 11
1101.72949764959
 21
296.6050761965449
 31
0.0
  0
ARC
  5
2A69
330
2E2E
100
AcDbEntity
  8
AM_0
100
AcDbCircle
 10
1089.66507264959
 20
300.3652061965448
 30
0.0
 40
10.0
100
AcDbArc
 50
270.0
 51
305.0
  0
LINE
  5
2A6A
330
2E2E
100
AcDbEntity
  8
ｶｸﾚｾﾝ2
100
AcDbLine
 10
1153.65575264959
 20
304.3652061965449
 30
0.0
 11
1153.65575264959
 21
274.3652061965449
 31
0.0
  0
ARC
  5
2A6B
330
2E2E
100
AcDbEntity
  8
AM_0
100
AcDbCircle
 10
1115.655732649589
 20
280.2230561965448
 30
0.0
 40
10.0
100
AcDbArc
 50
0.0
 51
45.00000099999999
  0
ARC
  5
2A6C
330
2E2E
100
AcDbEntity
  8
AM_0
100
AcDbCircle
 10
1120.655732649589
 20
276.3651761965448
 30
0.0
 40
5.0
100
AcDbArc
 50
0.0
 51
90.00000300000001
  0
LINE
  5
2A6D
330
2E2E
100
AcDbEntity
  8
AM_0
100
AcDbLine
 10
1125.655732649589
 20
299.3652061965449
 30
0.0
 11
1125.655732649589
 21
274.3652061965449
 31
0.0
  0
ARC
  5
2A6E
330
2E2E
100
AcDbEntity
  8
AM_0
100
AcDbCircle
 10
1130.65573264959
 20
299.3652061965449
 30
0.0
 40
5.0
100
AcDbArc
 50
90.00000300000001
 51
180.00001
  0
ARC
  5
2A6F
330
2E2E
100
AcDbEntity
  8
AM_0
100
AcDbCircle
 10
1107.46524264959
 20
288.4135161965449
 30
0.0
 40
10.0
100
AcDbArc
 50
45.00000099999999
 51
125.0
  0
LINE
  5
2A70
330
2E2E
100
AcDbEntity
  8
AM_0
100
AcDbLine
 10
1122.726807649589
 20
287.2941311965448
 30
0.0
 11
1114.53631764959
 21
295.4846211965449
 31
0.0
  0
ARC
  5
2A71
330
2E2E
100
AcDbEntity
  8
AM_0
100
AcDbCircle
 10
1142.65573264959
 20
316.3651761965449
 30
0.0
 40
12.0
100
AcDbArc
 50
180.00001
 51
270.0
  0
ARC
  5
2A72
330
2E2E
100
AcDbEntity
  8
AM_0
100
AcDbCircle
 10
1030.65576264959
 20
381.3651761965449
 30
0.0
 40
117.0
100
AcDbArc
 50
328.7266999999999
 51
0.0
  0
LINE
  5
2A73
330
2E2E
100
AcDbEntity
  8
ｶｸﾚｾﾝ2
100
AcDbLine
 10
1172.65573764959
 20
304.3652061965449
 30
0.0
 11
1172.65573764959
 21
274.3652061965449
 31
0.0
  0
LINE
  5
2A74
330
2E2E
100
AcDbEntity
  8
ﾁｭｳｼﾝｾﾝ1
100
AcDbLine
 10
1163.15573764959
 20
309.0264611965448
 30
0.0
 11
1163.15573764959
 21
271.3652061965448
 31
0.0
  0
LINE
  5
2A75
330
2E2E
100
AcDbEntity
  8
AM_0
100
AcDbLine
 10
1195.65573764959
 20
304.3652061965449
 30
0.0
 11
1195.65573764959
 21
274.3652061965449
 31
0.0
  0
ARC
  5
2A76
330
2E2E
100
AcDbEntity
  8
AM_0
100
AcDbCircle
 10
1190.65573764959
 20
299.3652061965449
 30
0.0
 40
5.0
100
AcDbArc
 50
0.0
 51
90.00000300000001
  0
ARC
  5
2A77
330
2E2E
100
AcDbEntity
  8
AM_0
100
AcDbCircle
 10
1063.65573264959
 20
482.8316111965448
 30
0.0
 40
100.0
100
AcDbArc
 50
0.0
 51
45.40204299999999
  0
ARC
  5
2A78
330
2E2E
100
AcDbEntity
  8
AM_0
100
AcDbCircle
 10
1066.16705764959
 20
483.1283011965449
 30
0.0
 40
93.0
100
AcDbArc
 50
11.0
 51
43.554364
  0
LINE
  5
2A79
330
2E2E
100
AcDbEntity
  8
ﾁｭｳｼﾝｾﾝ
100
AcDbLine
 10
1162.61108764959
 20
474.365211196545
 30
0.0
 11
892.2061176495903
 21
474.365211196545
 31
0.0
  0
ARC
  5
2A7A
330
2E2E
100
AcDbEntity
  8
AM_0
100
AcDbCircle
 10
1030.65576264959
 20
449.365211196545
 30
0.0
 40
142.0
100
AcDbArc
 50
90.00000300000001
 51
136.4456399999999
  0
ARC
  5
2A7B
330
2E2E
100
AcDbEntity
  8
AM_0
100
AcDbCircle
 10
1030.65576264959
 20
449.365211196545
 30
0.0
 40
147.0
100
AcDbArc
 50
90.00000300000001
 51
134.5979599999998
  0
ARC
  5
2A7C
330
2E2E
100
AcDbEntity
  8
AM_0
100
AcDbCircle
 10
997.6557326495903
 20
482.8316111965448
 30
0.0
 40
100.0
100
AcDbArc
 50
134.5979599999998
 51
180.00001
  0
ARC
  5
2A7D
330
2E2E
100
AcDbEntity
  8
AM_0
100
AcDbCircle
 10
995.1444426495902
 20
483.1283011965449
 30
0.0
 40
93.0
100
AcDbArc
 50
136.4456399999999
 51
169.0
  0
LINE
  5
2A7E
330
2E2E
100
AcDbEntity
  8
AM_0
100
AcDbLine
 10
897.6557326495903
 20
482.8316111965448
 30
0.0
 11
897.6557326495903
 21
468.9909111965447
 31
0.0
  0
ARC
  5
2A7F
330
2E2E
100
AcDbEntity
  8
AM_0
100
AcDbCircle
 10
923.6557326495903
 20
525.2989961965447
 30
0.0
 40
10.0
100
AcDbArc
 50
149.4639199999998
 51
180.00001
  0
LINE
  5
2A80
330
2E2E
100
AcDbEntity
  8
AM_0
100
AcDbLine
 10
1025.65576264959
 20
642.3651961965447
 30
0.0
 11
1025.65576264959
 21
600.3651961965447
 31
0.0
  0
LINE
  5
2A81
330
2E2E
100
AcDbEntity
  8
AM_0
100
AcDbLine
 10
1035.65576264959
 20
642.3651961965447
 30
0.0
 11
1035.65576264959
 21
600.3651961965447
 31
0.0
  0
ARC
  5
2A82
330
2E2E
100
AcDbEntity
  8
AM_0
100
AcDbCircle
 10
1030.65576264959
 20
449.365211196545
 30
0.0
 40
142.0
100
AcDbArc
 50
43.554364
 51
90.00000300000001
  0
ARC
  5
2A83
330
2E2E
100
AcDbEntity
  8
AM_0
100
AcDbCircle
 10
1030.65576264959
 20
449.365211196545
 30
0.0
 40
147.0
100
AcDbArc
 50
45.40204299999999
 51
90.00000300000001
  0
LINE
  5
2A84
330
2E2E
100
AcDbEntity
  8
AM_0
100
AcDbLine
 10
1038.655732649589
 20
495.8652111965448
 30
0.0
 11
1038.655732649589
 21
505.8651961965447
 31
0.0
  0
LINE
  5
2A85
330
2E2E
100
AcDbEntity
  8
AM_0
100
AcDbLine
 10
1022.655732649589
 20
495.8652111965448
 30
0.0
 11
1022.655732649589
 21
505.8651961965447
 31
0.0
  0
CIRCLE
  5
2A86
330
2E2E
100
AcDbEntity
  8
AM_0
100
AcDbCircle
 10
1030.65576264959
 20
474.365211196545
 30
0.0
 40
4.500000049999997
  0
CIRCLE
  5
2A87
330
2E2E
100
AcDbEntity
  8
AM_5
100
AcDbCircle
 10
1030.65576264959
 20
474.365211196545
 30
0.0
 40
6.0
  0
LINE
  5
2A88
330
2E2E
100
AcDbEntity
  8
AM_0
100
AcDbLine
 10
1022.655732649589
 20
495.8652111965448
 30
0.0
 11
1038.655732649589
 21
495.8652111965448
 31
0.0
  0
LINE
  5
2A89
330
2E2E
100
AcDbEntity
  8
AM_0
100
AcDbLine
 10
1022.655732649589
 20
505.8651961965447
 30
0.0
 11
1038.655732649589
 21
505.8651961965447
 31
0.0
  0
ARC
  5
2A8A
330
2E2E
100
AcDbEntity
  8
AM_0
100
AcDbCircle
 10
1021.372162649589
 20
604.505296196545
 30
0.0
 40
1.0
100
AcDbArc
 50
101.21329
 51
164.99999
  0
ARC
  5
2A8B
330
2E2E
100
AcDbEntity
  8
AM_0
100
AcDbCircle
 10
1023.65573264959
 20
600.3651961965447
 30
0.0
 40
2.00000005
100
AcDbArc
 50
270.0
 51
0.0
  0
LINE
  5
2A8C
330
2E2E
100
AcDbEntity
  8
AM_0
100
AcDbLine
 10
1018.00970764959
 20
595.8202461965449
 30
0.0
 11
1020.406192649589
 21
604.7640961965448
 31
0.0
  0
LINE
  5
2A8D
330
2E2E
100
AcDbEntity
  8
AM_0
100
AcDbLine
 10
1021.17767764959
 20
605.486296196545
 30
0.0
 11
1025.65573264959
 21
606.374046196545
 31
0.0
  0
ARC
  5
2A8E
330
2E2E
100
AcDbEntity
  8
AM_0
100
AcDbCircle
 10
1039.93930264959
 20
604.505296196545
 30
0.0
 40
1.0
100
AcDbArc
 50
15.0
 51
78.78671
  0
ARC
  5
2A8F
330
2E2E
100
AcDbEntity
  8
AM_0
100
AcDbCircle
 10
1037.655732649589
 20
600.3651961965447
 30
0.0
 40
2.00000005
100
AcDbArc
 50
179.9999899999999
 51
270.0
  0
LINE
  5
2A90
330
2E2E
100
AcDbEntity
  8
AM_0
100
AcDbLine
 10
1043.301757649589
 20
595.8202461965449
 30
0.0
 11
1040.90524264959
 21
604.7641461965447
 31
0.0
  0
LINE
  5
2A91
330
2E2E
100
AcDbEntity
  8
AM_0
100
AcDbLine
 10
1035.655732649589
 20
606.3738961965447
 30
0.0
 11
1040.13379264959
 21
605.486146196545
 31
0.0
  0
ARC
  5
2A92
330
2E2E
100
AcDbEntity
  8
AM_0
100
AcDbCircle
 10
1137.655732649589
 20
525.2989961965447
 30
0.0
 40
10.0
100
AcDbArc
 50
0.0
 51
30.53608499999999
  0
ARC
  5
2A93
330
2E2E
100
AcDbEntity
  8
AM_0
100
AcDbCircle
 10
1030.65576264959
 20
642.3651961965447
 30
0.0
 40
5.0
100
AcDbArc
 50
359.9999899999998
 51
179.9999899999999
  0
LINE
  5
2A94
330
2E2E
100
AcDbEntity
  8
AM_0
100
AcDbLine
 10
1163.655752649589
 20
482.8316111965448
 30
0.0
 11
1163.655752649589
 21
468.9909111965447
 31
0.0
  0
ARC
  5
2A95
330
2E2E
100
AcDbEntity
  8
AM_0
100
AcDbCircle
 10
209.5560526495903
 20
925.5260548637691
 30
0.0
 40
4.000000000000055
100
AcDbArc
 50
270.0
 51
90.0
  0
LINE
  5
2A96
330
2E2E
100
AcDbEntity
  8
AM_0
100
AcDbLine
 10
181.5560526495902
 20
937.5260548637687
 30
0.0
 11
217.5560526495903
 21
937.5260548637687
 31
0.0
  0
LINE
  5
2A97
330
2E2E
100
AcDbEntity
  8
AM_0
100
AcDbLine
 10
181.5560526495902
 20
913.5260548637686
 30
0.0
 11
217.5560526495903
 21
913.5260548637686
 31
0.0
  0
LINE
  5
2A98
330
2E2E
100
AcDbEntity
  8
AM_0
100
AcDbLine
 10
181.5560526495902
 20
913.5260548637686
 30
0.0
 11
181.5560526495902
 21
937.5260548637687
 31
0.0
  0
LINE
  5
2A99
330
2E2E
100
AcDbEntity
  8
AM_0
100
AcDbLine
 10
181.5560526495902
 20
921.5260548637687
 30
0.0
 11
209.5560526495903
 21
921.5260548637687
 31
0.0
  0
LINE
  5
2A9A
330
2E2E
100
AcDbEntity
  8
AM_0
100
AcDbLine
 10
181.5560526495902
 20
929.5260548637687
 30
0.0
 11
209.5560526495903
 21
929.5260548637687
 31
0.0
  0
LINE
  5
2A9B
330
2E2E
100
AcDbEntity
  8
AM_0
100
AcDbLine
 10
209.5560526495903
 20
921.5260548637687
 30
0.0
 11
209.5560526495903
 21
929.5260548637687
 31
0.0
  0
LINE
  5
2A9C
330
2E2E
100
AcDbEntity
  8
AM_0
100
AcDbLine
 10
328.5560526495903
 20
864.0168298637686
 30
0.0
 11
328.5560526495903
 21
884.0513798637685
 31
0.0
  0
LINE
  5
2A9D
330
2E2E
100
AcDbEntity
  8
AM_0
100
AcDbLine
 10
265.1192966495901
 20
881.7534418637682
 30
0.0
 11
317.5374836495902
 21
855.0450418637687
 31
0.0
  0
LINE
  5
2A9E
330
2E2E
100
AcDbEntity
  8
AM_0
100
AcDbLine
 10
318.5560526495903
 20
856.7707078637686
 30
0.0
 11
318.5560526495903
 21
994.2814028637688
 31
0.0
  0
ARC
  5
2A9F
330
2E2E
100
AcDbEntity
  8
AM_0
100
AcDbCircle
 10
326.5560526495903
 20
864.0168298637686
 30
0.0
 40
2.0
100
AcDbArc
 50
270.0
 51
0.0
  0
LINE
  5
2AA0
330
2E2E
100
AcDbEntity
  8
AM_0
100
AcDbLine
 10
320.5560526495903
 20
852.0260548637686
 30
0.0
 11
330.5560526495903
 21
852.0260548637686
 31
0.0
  0
ARC
  5
2AA1
330
2E2E
100
AcDbEntity
  8
AM_0
100
AcDbCircle
 10
320.5560526495903
 20
854.0260548637686
 30
0.0
 40
2.0
100
AcDbArc
 50
190.9969430000004
 51
270.0
  0
ARC
  5
2AA2
330
2E2E
100
AcDbEntity
  8
AM_0
100
AcDbCircle
 10
316.6295026495903
 20
853.2630288637683
 30
0.0
 40
2.0
100
AcDbArc
 50
10.99694300000052
 51
62.99999999999824
  0
ARC
  5
2AA3
330
2E2E
100
AcDbEntity
  8
AM_0
100
AcDbCircle
 10
320.5560526495903
 20
864.0168298637686
 30
0.0
 40
2.0
100
AcDbArc
 50
180.0
 51
270.0
  0
LINE
  5
2AA4
330
2E2E
100
AcDbEntity
  8
AM_0
100
AcDbLine
 10
320.5560526495903
 20
862.0168298637686
 30
0.0
 11
326.5560526495903
 21
862.0168298637686
 31
0.0
  0
LINE
  5
2AA5
330
2E2E
100
AcDbEntity
  8
AM_0
100
AcDbLine
 10
221.5560526495902
 20
955.0260548637693
 30
0.0
 11
219.5560526495902
 21
953.0260548637688
 31
0.0
  0
LINE
  5
2AA6
330
2E2E
100
AcDbEntity
  8
AM_0
100
AcDbLine
 10
263.0622456495903
 20
885.8020188637688
 30
0.0
 11
263.0622456495903
 21
965.2500908637687
 31
0.0
  0
LINE
  5
2AA7
330
2E2E
100
AcDbEntity
  8
AM_0
100
AcDbLine
 10
230.4862946495902
 20
886.370633863769
 30
0.0
 11
230.4862946495902
 21
964.6814758637688
 31
0.0
  0
LINE
  5
2AA8
330
2E2E
100
AcDbEntity
  8
AM_0
100
AcDbLine
 10
221.5560526495902
 20
890.8354558637686
 30
0.0
 11
221.5560526495902
 21
960.2166538637687
 31
0.0
  0
LINE
  5
2AA9
330
2E2E
100
AcDbEntity
  8
AM_0
100
AcDbLine
 10
219.5560526495902
 20
898.0260548637691
 30
0.0
 11
219.5560526495902
 21
953.0260548637688
 31
0.0
  0
LINE
  5
2AAA
330
2E2E
100
AcDbEntity
  8
AM_0
100
AcDbLine
 10
231.5206076495902
 20
883.3521228637691
 30
0.0
 11
260.7539156495903
 21
882.8418538637688
 31
0.0
  0
ARC
  5
2AAB
330
2E2E
100
AcDbEntity
  8
AM_0
100
AcDbCircle
 10
225.5560526495902
 20
890.8354558637686
 30
0.0
 40
4.0
100
AcDbArc
 50
180.0
 51
239.9999999999995
  0
LINE
  5
2AAC
330
2E2E
100
AcDbEntity
  8
AM_0
100
AcDbLine
 10
223.5560526495902
 20
887.3713548637686
 30
0.0
 11
229.5904176495902
 21
883.8874118637686
 31
0.0
  0
ARC
  5
2AAD
330
2E2E
100
AcDbEntity
  8
AM_0
100
AcDbCircle
 10
231.5904176495902
 20
887.3515138637683
 30
0.0
 40
4.0
100
AcDbArc
 50
239.9999999999995
 51
269.0000000000015
  0
LINE
  5
2AAE
330
2E2E
100
AcDbEntity
  8
AM_0
100
AcDbLine
 10
219.5560526495902
 20
898.0260548637691
 30
0.0
 11
221.5560526495902
 21
896.0260548637691
 31
0.0
  0
ARC
  5
2AAF
330
2E2E
100
AcDbEntity
  8
AM_0
100
AcDbCircle
 10
260.5793916495903
 20
872.8433768637684
 30
0.0
 40
10.0
100
AcDbArc
 50
62.99999999999824
 51
89.00000000000151
  0
LINE
  5
2AB0
330
2E2E
100
AcDbEntity
  8
AM_0
100
AcDbLine
 10
217.5560526495903
 20
910.5260548637692
 30
0.0
 11
217.5560526495903
 21
940.5260548637688
 31
0.0
  0
LINE
  5
2AB1
330
2E2E
100
AcDbEntity
  8
AM_0
100
AcDbLine
 10
217.5560526495903
 20
910.5260548637692
 30
0.0
 11
219.5560526495902
 21
910.5260548637692
 31
0.0
  0
LINE
  5
2AB2
330
2E2E
100
AcDbEntity
  8
AM_0
100
AcDbLine
 10
217.5560526495903
 20
940.5260548637688
 30
0.0
 11
219.5560526495902
 21
940.5260548637688
 31
0.0
  0
LINE
  5
2AB3
330
2E2E
100
AcDbEntity
  8
AM_0
100
AcDbLine
 10
320.5560526495903
 20
886.0513798637686
 30
0.0
 11
328.5560526495903
 21
886.0513798637686
 31
0.0
  0
ARC
  5
2AB4
330
2E2E
100
AcDbEntity
  8
AM_0
100
AcDbCircle
 10
330.5560526495903
 20
884.0513798637685
 30
0.0
 40
2.0
100
AcDbArc
 50
120.0000000000005
 51
180.0
  0
LINE
  5
2AB5
330
2E2E
100
AcDbEntity
  8
AM_0
100
AcDbLine
 10
317.5374836495902
 20
996.0070688637687
 30
0.0
 11
265.1192966495901
 21
969.2986678637687
 31
0.0
  0
LINE
  5
2AB6
330
2E2E
100
AcDbEntity
  8
AM_0
100
AcDbLine
 10
260.7539156495903
 20
968.2102558637684
 30
0.0
 11
231.5206076495902
 21
967.6999868637688
 31
0.0
  0
LINE
  5
2AB7
330
2E2E
100
AcDbEntity
  8
AM_0
100
AcDbLine
 10
229.5904176495902
 20
967.164697863769
 30
0.0
 11
223.5560526495902
 21
963.6807558637688
 31
0.0
  0
ARC
  5
2AB8
330
2E2E
100
AcDbEntity
  8
AM_0
100
AcDbCircle
 10
225.5560526495902
 20
960.2166538637687
 30
0.0
 40
4.0
100
AcDbArc
 50
120.0000000000005
 51
180.0
  0
ARC
  5
2AB9
330
2E2E
100
AcDbEntity
  8
AM_0
100
AcDbCircle
 10
231.5904176495902
 20
963.7005958637686
 30
0.0
 40
4.0
100
AcDbArc
 50
90.9999999999985
 51
120.0000000000005
  0
ARC
  5
2ABA
330
2E2E
100
AcDbEntity
  8
AM_0
100
AcDbCircle
 10
260.5793916495903
 20
978.2087328637688
 30
0.0
 40
10.0
100
AcDbArc
 50
270.9999999999984
 51
296.999999999998
  0
ARC
  5
2ABB
330
2E2E
100
AcDbEntity
  8
AM_0
100
AcDbCircle
 10
316.6295026495903
 20
997.7890818637687
 30
0.0
 40
2.0
100
AcDbArc
 50
296.999999999998
 51
349.0030569999992
  0
LINE
  5
2ABC
330
2E2E
100
AcDbEntity
  8
AM_0
100
AcDbLine
 10
328.5560526495903
 20
987.0352798637693
 30
0.0
 11
328.5560526495903
 21
967.0007308637687
 31
0.0
  0
LINE
  5
2ABD
330
2E2E
100
AcDbEntity
  8
AM_0
100
AcDbLine
 10
320.5560526495903
 20
965.000730863769
 30
0.0
 11
328.5560526495903
 21
965.000730863769
 31
0.0
  0
ARC
  5
2ABE
330
2E2E
100
AcDbEntity
  8
AM_0
100
AcDbCircle
 10
330.5560526495903
 20
967.0007308637687
 30
0.0
 40
2.0
100
AcDbArc
 50
180.0
 51
239.9999999999995
  0
ARC
  5
2ABF
330
2E2E
100
AcDbEntity
  8
AM_0
100
AcDbCircle
 10
326.5560526495903
 20
987.0352798637693
 30
0.0
 40
2.0
100
AcDbArc
 50
0.0
 51
90.0
  0
ARC
  5
2AC0
330
2E2E
100
AcDbEntity
  8
AM_0
100
AcDbCircle
 10
320.5560526495903
 20
987.0352798637693
 30
0.0
 40
2.0
100
AcDbArc
 50
90.0
 51
180.0
  0
LINE
  5
2AC1
330
2E2E
100
AcDbEntity
  8
AM_0
100
AcDbLine
 10
320.5560526495903
 20
989.0352798637692
 30
0.0
 11
326.5560526495903
 21
989.0352798637692
 31
0.0
  0
LINE
  5
2AC2
330
2E2E
100
AcDbEntity
  8
AM_0
100
AcDbLine
 10
320.5560526495903
 20
999.026054863769
 30
0.0
 11
330.5560526495903
 21
999.026054863769
 31
0.0
  0
ARC
  5
2AC3
330
2E2E
100
AcDbEntity
  8
AM_0
100
AcDbCircle
 10
320.5560526495903
 20
997.0260548637693
 30
0.0
 40
2.0
100
AcDbArc
 50
90.0
 51
169.0030569999995
  0
LINE
  5
2AC5
330
2E2E
100
AcDbEntity
  8
AM_0
100
AcDbLine
 10
672.5560526495902
 20
933.5260553637688
 30
0.0
 11
734.5559926495901
 21
933.5260553637688
 31
0.0
  0
LINE
  5
2AC6
330
2E2E
100
AcDbEntity
  8
AM_0
100
AcDbLine
 10
672.5560526495902
 20
917.5259953637688
 30
0.0
 11
734.5559926495901
 21
917.5259953637688
 31
0.0
  0
LINE
  5
2AC7
330
2E2E
100
AcDbEntity
  8
AM_0
100
AcDbLine
 10
652.5559926495904
 20
953.0260553637688
 30
0.0
 11
734.5559926495901
 21
953.0260553637688
 31
0.0
  0
LINE
  5
2AC8
330
2E2E
100
AcDbEntity
  8
AM_0
100
AcDbLine
 10
652.5559926495904
 20
898.0260553637688
 30
0.0
 11
734.5559926495901
 21
898.0260553637688
 31
0.0
  0
LINE
  5
2AC9
330
2E2E
100
AcDbEntity
  8
ﾁｭｳｼﾝｾﾝ
100
AcDbLine
 10
176.2584668849122
 20
925.5260553637688
 30
0.0
 11
745.1732426495903
 21
925.5260553637688
 31
0.0
  0
POLYLINE
  5
2ACA
330
2E2E
100
AcDbEntity
  8
AM_0
100
AcDb2dPolyline
 66
     1
 10
0.0
 20
0.0
 30
0.0
  0
VERTEX
  5
2ACB
330
2ACA
100
AcDbEntity
  8
AM_0
100
AcDbVertex
100
AcDb2dVertex
 10
389.6186726495902
 20
849.9634953637688
 30
0.0
 42
-0.10362759
  0
VERTEX
  5
2ACC
330
2ACA
100
AcDbEntity
  8
AM_0
100
AcDbVertex
100
AcDb2dVertex
 10
350.2103126495903
 20
896.1891853637688
 30
0.0
 42
-0.26090923
  0
VERTEX
  5
2ACD
330
2ACA
100
AcDbEntity
  8
AM_0
100
AcDbVertex
100
AcDb2dVertex
 10
350.2103126495903
 20
954.8629353637688
 30
0.0
 42
-0.10362793
  0
VERTEX
  5
2ACE
330
2ACA
100
AcDbEntity
  8
AM_0
100
AcDbVertex
100
AcDb2dVertex
 10
389.6186126495903
 20
1001.088555363768
 30
0.0
  0
SEQEND
  5
2ACF
330
2ACA
100
AcDbEntity
  8
AM_0
  0
LINE
  5
2AD0
330
2E2E
100
AcDbEntity
  8
AM_0
100
AcDbLine
 10
387.5560526495902
 20
907.5260553637688
 30
0.0
 11
387.5560526495902
 21
943.5260553637688
 31
0.0
  0
LINE
  5
2AD1
330
2E2E
100
AcDbEntity
  8
AM_0
100
AcDbLine
 10
355.5560526495903
 20
912.5260553637687
 30
0.0
 11
355.5560526495903
 21
938.5260553637689
 31
0.0
  0
LINE
  5
2AD2
330
2E2E
100
AcDbEntity
  8
AM_0
100
AcDbLine
 10
342.5560526495903
 20
852.0260553637688
 30
0.0
 11
342.5560526495903
 21
999.0260553637687
 31
0.0
  0
LINE
  5
2AD3
330
2E2E
100
AcDbEntity
  8
AM_0
100
AcDbLine
 10
330.5560526495903
 20
852.0260553637688
 30
0.0
 11
330.5560526495903
 21
999.0260553637687
 31
0.0
  0
LINE
  5
2AD4
330
2E2E
100
AcDbEntity
  8
AM_0
100
AcDbLine
 10
405.5560526495902
 20
828.5260553637684
 30
0.0
 11
405.5560526495902
 21
1022.526055363768
 31
0.0
  0
LINE
  5
2AD5
330
2E2E
100
AcDbEntity
  8
AM_0
100
AcDbLine
 10
420.5561126495902
 20
1023.026055363768
 30
0.0
 11
420.5561126495902
 21
828.0260553637688
 31
0.0
  0
LINE
  5
2AD6
330
2E2E
100
AcDbEntity
  8
AM_0
100
AcDbLine
 10
469.5559926495904
 20
798.4021553637687
 30
0.0
 11
469.5559926495904
 21
914.9904653637687
 31
0.0
  0
LINE
  5
2AD7
330
2E2E
100
AcDbEntity
  8
AM_0
100
AcDbLine
 10
499.5560526495903
 20
920.5260553637687
 30
0.0
 11
499.5560526495903
 21
792.5260553637688
 31
0.0
  0
LINE
  5
2AD8
330
2E2E
100
AcDbEntity
  8
AM_0
100
AcDbLine
 10
443.5559926495904
 20
819.0703653637688
 30
0.0
 11
443.5559926495904
 21
1031.981745363767
 31
0.0
  0
LINE
  5
2AD9
330
2E2E
100
AcDbEntity
  8
AM_0
100
AcDbLine
 10
524.5559926495904
 20
793.3990353637688
 30
0.0
 11
524.5559926495904
 21
1057.653005363768
 31
0.0
  0
LINE
  5
2ADA
330
2E2E
100
AcDbEntity
  8
AM_0
100
AcDbLine
 10
614.5560526495902
 20
817.4039253637685
 30
0.0
 11
614.5560526495902
 21
1033.648125363768
 31
0.0
  0
LINE
  5
2ADB
330
2E2E
100
AcDbEntity
  8
AM_0
100
AcDbLine
 10
641.5560526495902
 20
1022.897025363768
 30
0.0
 11
641.5560526495902
 21
828.1550853637686
 31
0.0
  0
LINE
  5
2ADC
330
2E2E
100
AcDbEntity
  8
AM_0
100
AcDbLine
 10
646.5560526495902
 20
983.5946553637688
 30
0.0
 11
646.5560526495902
 21
867.4574453637687
 31
0.0
  0
LINE
  5
2ADD
330
2E2E
100
AcDbEntity
  8
AM_0
100
AcDbLine
 10
652.5559926495904
 20
955.5260553637689
 30
0.0
 11
652.5559926495904
 21
895.5260553637684
 31
0.0
  0
LINE
  5
2ADE
330
2E2E
100
AcDbEntity
  8
AM_0
100
AcDbLine
 10
499.5560526495903
 20
792.5260553637688
 30
0.0
 11
474.3815526495904
 21
793.4052053637688
 31
0.0
  0
LINE
  5
2ADF
330
2E2E
100
AcDbEntity
  8
AM_0
100
AcDbLine
 10
475.5560526495902
 20
773.6993353637688
 30
0.0
 11
502.5561126495903
 21
783.2457153637688
 31
0.0
  0
LINE
  5
2AE0
330
2E2E
100
AcDbEntity
  8
AM_0
100
AcDbLine
 10
472.0923026495903
 20
761.8680353637686
 30
0.0
 11
502.5560526495903
 21
772.6390853637687
 31
0.0
  0
LINE
  5
2AE1
330
2E2E
100
AcDbEntity
  8
AM_0
100
AcDbLine
 10
504.5560526495902
 20
760.5260553637688
 30
0.0
 11
421.3815526495904
 21
763.4305953637688
 31
0.0
  0
ARC
  5
2AE2
330
2E2E
100
AcDbEntity
  8
AM_0
100
AcDbCircle
 10
421.5560526495902
 20
768.4275453637683
 30
0.0
 40
5.0
100
AcDbArc
 50
180.0000100000009
 51
268.0000000000026
  0
ARC
  5
2AE3
330
2E2E
100
AcDbEntity
  8
AM_0
100
AcDbCircle
 10
407.5560526495904
 20
828.5260553637684
 30
0.0
 40
2.0
100
AcDbArc
 50
179.9999899999988
 51
270.0
  0
LINE
  5
2AE4
330
2E2E
100
AcDbEntity
  8
AM_0
100
AcDbLine
 10
405.5560526495902
 20
869.2502353637687
 30
0.0
 11
420.5560526495903
 21
869.2502353637687
 31
0.0
  0
LINE
  5
2AE5
330
2E2E
100
AcDbEntity
  8
AM_0
100
AcDbLine
 10
405.5560526495902
 20
853.0198253637687
 30
0.0
 11
420.5560526495903
 21
853.0198253637687
 31
0.0
  0
LINE
  5
2AE6
330
2E2E
100
AcDbEntity
  8
AM_0
100
AcDbLine
 10
405.5560526495902
 20
842.8308653637683
 30
0.0
 11
420.5560526495903
 21
842.8308653637683
 31
0.0
  0
LINE
  5
2AE7
330
2E2E
100
AcDbEntity
  8
AM_0
100
AcDbLine
 10
389.6186126495903
 20
849.9635553637688
 30
0.0
 11
404.0915726495903
 21
835.4905253637681
 31
0.0
  0
ARC
  5
2AE8
330
2E2E
100
AcDbEntity
  8
AM_0
100
AcDbCircle
 10
400.5560526495902
 20
831.9550053637687
 30
0.0
 40
5.0
100
AcDbArc
 50
0.0
 51
45.0000010000038
  0
LINE
  5
2AE9
330
2E2E
100
AcDbEntity
  8
AM_0
100
AcDbLine
 10
387.6502926495903
 20
850.0322153637688
 30
0.0
 11
330.5560526495903
 21
852.0259953637687
 31
0.0
  0
LINE
  5
2AEA
330
2E2E
100
AcDbEntity
  8
AM_0
100
AcDbLine
 10
360.5560526495902
 20
907.5260553637688
 30
0.0
 11
382.5560526495903
 21
907.5260553637688
 31
0.0
  0
LINE
  5
2AEB
330
2E2E
100
AcDbEntity
  8
AM_0
100
AcDbLine
 10
330.5560526495903
 20
863.9460953637684
 30
0.0
 11
342.5560526495903
 21
863.9460953637684
 31
0.0
  0
LINE
  5
2AEC
330
2E2E
100
AcDbEntity
  8
AM_0
100
AcDbLine
 10
330.5560526495903
 20
886.0513253637684
 30
0.0
 11
342.5560526495903
 21
886.0513253637684
 31
0.0
  0
ARC
  5
2AED
330
2E2E
100
AcDbEntity
  8
AM_0
100
AcDbCircle
 10
360.5560526495902
 20
912.5260553637687
 30
0.0
 40
5.0
100
AcDbArc
 50
180.0000100000009
 51
270.0
  0
ARC
  5
2AEE
330
2E2E
100
AcDbEntity
  8
AM_0
100
AcDbCircle
 10
387.4757926495904
 20
845.0353253637686
 30
0.0
 40
5.0
100
AcDbArc
 50
44.99999800000161
 51
88.00000000000279
  0
ARC
  5
2AEF
330
2E2E
100
AcDbEntity
  8
AM_0
100
AcDbCircle
 10
382.5560526495903
 20
902.5260553637687
 30
0.0
 40
5.0
100
AcDbArc
 50
0.0
 51
90.00000299999769
  0
CIRCLE
  5
2AF0
330
2E2E
100
AcDbEntity
  8
AM_0
100
AcDbCircle
 10
446.5560526495902
 20
793.0260553637688
 30
0.0
 40
9.5
  0
LINE
  5
2AF1
330
2E2E
100
AcDbEntity
  8
AM_0
100
AcDbLine
 10
464.7304926495904
 20
813.5024953637685
 30
0.0
 11
448.3814926495901
 21
814.0734153637685
 31
0.0
  0
LINE
  5
2AF2
330
2E2E
100
AcDbEntity
  8
AM_0
100
AcDbLine
 10
416.5560526495903
 20
768.4275453637683
 30
0.0
 11
416.5560526495903
 21
810.8137753637688
 31
0.0
  0
LINE
  5
2AF3
330
2E2E
100
AcDbEntity
  8
AM_0
100
AcDbLine
 10
420.5560526495903
 20
828.0259953637687
 30
0.0
 11
438.7305526495904
 21
827.3913453637684
 31
0.0
  0
LINE
  5
2AF4
330
2E2E
100
AcDbEntity
  8
AM_0
100
AcDbLine
 10
420.6877626495902
 20
815.7377853637688
 30
0.0
 11
443.5559926495904
 21
819.7700753637683
 31
0.0
  0
ARC
  5
2AF5
330
2E2E
100
AcDbEntity
  8
AM_0
100
AcDbCircle
 10
421.5560526495902
 20
810.8137753637688
 30
0.0
 40
5.0
100
AcDbArc
 50
99.99999999999859
 51
180.0000100000009
  0
LINE
  5
2AF6
330
2E2E
100
AcDbEntity
  8
AM_0
100
AcDbLine
 10
407.5560526495904
 20
826.5260553637688
 30
0.0
 11
418.5559926495902
 21
826.5260553637688
 31
0.0
  0
LINE
  5
2AF7
330
2E2E
100
AcDbEntity
  8
AM_0
100
AcDbLine
 10
418.5560526495903
 20
826.5260553637688
 30
0.0
 11
420.5560526495903
 21
828.5260553637684
 31
0.0
  0
ARC
  5
2AF8
330
2E2E
100
AcDbEntity
  8
AM_0
100
AcDbCircle
 10
448.5559926495904
 20
819.0703653637688
 30
0.0
 40
5.0
100
AcDbArc
 50
180.0000100000009
 51
268.0000000000026
  0
ARC
  5
2AF9
330
2E2E
100
AcDbEntity
  8
AM_0
100
AcDbCircle
 10
438.5560526495902
 20
822.3943953637686
 30
0.0
 40
5.0
100
AcDbArc
 50
0.0
 51
88.00000000000279
  0
ARC
  5
2AFA
330
2E2E
100
AcDbEntity
  8
AM_0
100
AcDbCircle
 10
474.5560526495903
 20
776.5277653637686
 30
0.0
 40
3.0
100
AcDbArc
 50
180.0000100000009
 51
289.4720299999971
  0
ARC
  5
2AFB
330
2E2E
100
AcDbEntity
  8
AM_0
100
AcDbCircle
 10
474.5559926495904
 20
798.4021553637687
 30
0.0
 40
5.0
100
AcDbArc
 50
180.0000100000009
 51
268.0000000000026
  0
ARC
  5
2AFC
330
2E2E
100
AcDbEntity
  8
AM_0
100
AcDbCircle
 10
464.5559926495904
 20
808.5055453637686
 30
0.0
 40
5.0
100
AcDbArc
 50
0.0
 51
88.00000000000279
  0
LINE
  5
2AFD
330
2E2E
100
AcDbEntity
  8
AM_0
100
AcDbLine
 10
422.5559926495902
 20
842.3308653637688
 30
0.0
 11
443.5559926495904
 21
842.3308653637688
 31
0.0
  0
LINE
  5
2AFE
330
2E2E
100
AcDbEntity
  8
AM_0
100
AcDbLine
 10
422.5559926495902
 20
868.7502353637686
 30
0.0
 11
443.5559926495904
 21
868.7502353637686
 31
0.0
  0
LINE
  5
2AFF
330
2E2E
100
AcDbEntity
  8
AM_0
100
AcDbLine
 10
422.5559926495902
 20
852.5198253637686
 30
0.0
 11
443.5559926495904
 21
852.5198253637686
 31
0.0
  0
LINE
  5
2B00
330
2E2E
100
AcDbEntity
  8
AM_0
100
AcDbLine
 10
422.5559926495902
 20
868.7502353637686
 30
0.0
 11
422.5559926495902
 21
842.3308653637688
 31
0.0
  0
ARC
  5
2B01
330
2E2E
100
AcDbEntity
  8
AM_0
100
AcDbCircle
 10
586.5560526495904
 20
768.3925653637686
 30
0.0
 40
5.0
100
AcDbArc
 50
180.0000100000009
 51
271.9999900000014
  0
ARC
  5
2B02
330
2E2E
100
AcDbEntity
  8
AM_0
100
AcDbCircle
 10
641.5560526495902
 20
770.3132253637686
 30
0.0
 40
5.0
100
AcDbArc
 50
271.9999999999971
 51
0.0
  0
LINE
  5
2B03
330
2E2E
100
AcDbEntity
  8
AM_0
100
AcDbLine
 10
504.5559926495903
 20
760.5259953637686
 30
0.0
 11
641.7305526495901
 21
765.3162753637683
 31
0.0
  0
ARC
  5
2B04
330
2E2E
100
AcDbEntity
  8
AM_0
100
AcDbCircle
 10
593.5560526495902
 20
796.9377953637683
 30
0.0
 40
12.0
100
AcDbArc
 50
91.99999800000055
 51
180.0000100000009
  0
LINE
  5
2B05
330
2E2E
100
AcDbEntity
  8
AM_0
100
AcDbLine
 10
528.7007626495904
 20
797.5438153637687
 30
0.0
 11
578.3960126495903
 21
799.2791653637688
 31
0.0
  0
LINE
  5
2B06
330
2E2E
100
AcDbEntity
  8
AM_0
100
AcDbLine
 10
499.5559926495904
 20
792.5260553637688
 30
0.0
 11
524.5559926495904
 21
793.3990353637688
 31
0.0
  0
ARC
  5
2B07
330
2E2E
100
AcDbEntity
  8
AM_0
100
AcDbCircle
 10
501.5560526495902
 20
786.0741453637686
 30
0.0
 40
3.0
100
AcDbArc
 50
289.4720200000018
 51
0.0
  0
LINE
  5
2B08
330
2E2E
100
AcDbEntity
  8
AM_0
100
AcDbLine
 10
504.5560526495902
 20
775.4674553637686
 30
0.0
 11
504.5560526495902
 21
792.7006153637686
 31
0.0
  0
ARC
  5
2B09
330
2E2E
100
AcDbEntity
  8
AM_0
100
AcDbCircle
 10
501.5560526495902
 20
775.4674553637686
 30
0.0
 40
3.0
100
AcDbArc
 50
289.4720200000018
 51
0.0
  0
LINE
  5
2B0A
330
2E2E
100
AcDbEntity
  8
AM_0
100
AcDbLine
 10
524.5560526495903
 20
793.3990353637688
 30
0.0
 11
528.7007626495904
 21
797.5438153637687
 31
0.0
  0
ARC
  5
2B0B
330
2E2E
100
AcDbEntity
  8
AM_0
100
AcDbCircle
 10
578.2214526495905
 20
804.2761753637686
 30
0.0
 40
5.0
100
AcDbArc
 50
271.9999999999971
 51
334.4264800000029
  0
LINE
  5
2B0C
330
2E2E
100
AcDbEntity
  8
AM_0
100
AcDbLine
 10
581.5560526495902
 20
768.3925653637686
 30
0.0
 11
581.5560526495902
 21
796.9377953637683
 31
0.0
  0
ARC
  5
2B0D
330
2E2E
100
AcDbEntity
  8
AM_0
100
AcDbCircle
 10
633.5560526495902
 20
834.1943853637683
 30
0.0
 40
8.0
100
AcDbArc
 50
271.9999999999971
 51
0.0
  0
CIRCLE
  5
2B0E
330
2E2E
100
AcDbEntity
  8
AM_0
100
AcDbCircle
 10
616.5560526495902
 20
793.0260553637688
 30
0.0
 40
9.5
  0
LINE
  5
2B0F
330
2E2E
100
AcDbEntity
  8
ﾁｭｳｼﾝｾﾝ1
100
AcDbLine
 10
616.5560526495902
 20
773.5260553637686
 30
0.0
 11
616.5560526495902
 21
812.5260553637684
 31
0.0
  0
LINE
  5
2B10
330
2E2E
100
AcDbEntity
  8
ﾁｭｳｼﾝｾﾝ1
100
AcDbLine
 10
597.0560526495902
 20
793.0260553637688
 30
0.0
 11
636.0560526495902
 21
793.0260553637688
 31
0.0
  0
ARC
  5
2B11
330
2E2E
100
AcDbEntity
  8
AM_0
100
AcDbCircle
 10
606.5560526495902
 20
817.4039253637685
 30
0.0
 40
8.0
100
AcDbArc
 50
271.9999999999971
 51
0.0
  0
LINE
  5
2B12
330
2E2E
100
AcDbEntity
  8
AM_0
100
AcDbLine
 10
593.1372226495901
 20
808.9304753637687
 30
0.0
 11
606.8352226495902
 21
809.4088053637687
 31
0.0
  0
ARC
  5
2B13
330
2E2E
100
AcDbEntity
  8
AM_0
100
AcDbCircle
 10
622.5560526495902
 20
817.8005253637687
 30
0.0
 40
8.0
100
AcDbArc
 50
91.99999800000055
 51
180.0000100000009
  0
LINE
  5
2B14
330
2E2E
100
AcDbEntity
  8
AM_0
100
AcDbLine
 10
622.2768726495902
 20
825.7956453637687
 30
0.0
 11
633.8352226495904
 21
826.1992653637687
 31
0.0
  0
LINE
  5
2B15
330
2E2E
100
AcDbEntity
  8
AM_0
100
AcDbLine
 10
646.5560526495902
 20
770.3132253637686
 30
0.0
 11
646.5560526495902
 21
820.7388253637683
 31
0.0
  0
ARC
  5
2B16
330
2E2E
100
AcDbEntity
  8
AM_0
100
AcDbCircle
 10
641.5560526495902
 20
820.7388253637683
 30
0.0
 40
5.0
100
AcDbArc
 50
0.0
 51
67.97568899999639
  0
ARC
  5
2B17
330
2E2E
100
AcDbEntity
  8
AM_0
100
AcDbCircle
 10
644.5560526495902
 20
828.1550853637686
 30
0.0
 40
3.0
100
AcDbArc
 50
180.0000100000009
 51
247.9756900000006
  0
ARC
  5
2B18
330
2E2E
100
AcDbEntity
  8
AM_0
100
AcDbCircle
 10
644.5560526495902
 20
867.4574453637687
 30
0.0
 40
2.0
100
AcDbArc
 50
271.9999999999971
 51
0.0
  0
ARC
  5
2B19
330
2E2E
100
AcDbEntity
  8
AM_0
100
AcDbCircle
 10
643.5560526495902
 20
863.4200953637686
 30
0.0
 40
2.0
100
AcDbArc
 50
91.99999800000055
 51
180.0000100000009
  0
LINE
  5
2B1A
330
2E2E
100
AcDbEntity
  8
AM_0
100
AcDbLine
 10
643.4862226495901
 20
865.4188753637686
 30
0.0
 11
644.6258726495901
 21
865.4586653637682
 31
0.0
  0
LINE
  5
2B1B
330
2E2E
100
AcDbEntity
  8
AM_0
100
AcDbLine
 10
646.5560526495902
 20
895.5260553637684
 30
0.0
 11
652.5559926495904
 21
895.5260553637684
 31
0.0
  0
ARC
  5
2B1C
330
2E2E
100
AcDbEntity
  8
AM_0
100
AcDbCircle
 10
501.5560526495902
 20
925.5260553637688
 30
0.0
 40
5.0
100
AcDbArc
 50
270.0
 51
90.00000299999769
  0
LINE
  5
2B1D
330
2E2E
100
AcDbEntity
  8
AM_0
100
AcDbLine
 10
461.5560526495904
 20
930.5260553637689
 30
0.0
 11
501.5560526495902
 21
930.5260553637689
 31
0.0
  0
LINE
  5
2B1E
330
2E2E
100
AcDbEntity
  8
AM_0
100
AcDbLine
 10
461.5560526495904
 20
920.5260553637687
 30
0.0
 11
501.5560526495902
 21
920.5260553637687
 31
0.0
  0
LINE
  5
2B1F
330
2E2E
100
AcDbEntity
  8
AM_0
100
AcDbLine
 10
499.5559926495904
 20
1058.526055363768
 30
0.0
 11
474.3814926495903
 21
1057.646905363767
 31
0.0
  0
LINE
  5
2B20
330
2E2E
100
AcDbEntity
  8
AM_0
100
AcDbLine
 10
472.0923026495903
 20
1089.184075363768
 30
0.0
 11
502.5560526495903
 21
1078.413015363768
 31
0.0
  0
LINE
  5
2B21
330
2E2E
100
AcDbEntity
  8
AM_0
100
AcDbLine
 10
475.5560526495902
 20
1077.352715363768
 30
0.0
 11
502.5561126495903
 21
1067.806325363768
 31
0.0
  0
LINE
  5
2B22
330
2E2E
100
AcDbEntity
  8
AM_0
100
AcDbLine
 10
504.5560526495902
 20
1090.526055363769
 30
0.0
 11
421.3814926495903
 21
1087.621515363767
 31
0.0
  0
CIRCLE
  5
2B23
330
2E2E
100
AcDbEntity
  8
AM_0
100
AcDbCircle
 10
446.5560526495902
 20
1058.026055363767
 30
0.0
 40
9.5
  0
LINE
  5
2B24
330
2E2E
100
AcDbEntity
  8
AM_0
100
AcDbLine
 10
416.5560526495903
 20
1082.624565363768
 30
0.0
 11
416.5560526495903
 21
1040.238335363768
 31
0.0
  0
ARC
  5
2B25
330
2E2E
100
AcDbEntity
  8
AM_0
100
AcDbCircle
 10
408.5559926495903
 20
1022.526055363768
 30
0.0
 40
3.0
100
AcDbArc
 50
90.00000299999769
 51
180.0000100000009
  0
LINE
  5
2B26
330
2E2E
100
AcDbEntity
  8
AM_0
100
AcDbLine
 10
405.5560526495902
 20
1009.221185363768
 30
0.0
 11
420.5560526495903
 21
1009.221185363768
 31
0.0
  0
LINE
  5
2B27
330
2E2E
100
AcDbEntity
  8
AM_0
100
AcDbLine
 10
405.5560526495902
 20
999.0322153637688
 30
0.0
 11
420.5560526495903
 21
999.0322153637688
 31
0.0
  0
LINE
  5
2B28
330
2E2E
100
AcDbEntity
  8
AM_0
100
AcDbLine
 10
405.5560526495902
 20
982.8018053637688
 30
0.0
 11
420.5560526495903
 21
982.8018053637688
 31
0.0
  0
LINE
  5
2B29
330
2E2E
100
AcDbEntity
  8
AM_0
100
AcDbLine
 10
360.5560526495902
 20
943.5260553637688
 30
0.0
 11
382.5560526495903
 21
943.5260553637688
 31
0.0
  0
ARC
  5
2B2A
330
2E2E
100
AcDbEntity
  8
AM_0
100
AcDbCircle
 10
360.5560526495902
 20
938.5260553637689
 30
0.0
 40
5.0
100
AcDbArc
 50
90.00000299999769
 51
180.0000100000009
  0
LINE
  5
2B2B
330
2E2E
100
AcDbEntity
  8
AM_0
100
AcDbLine
 10
330.5560526495903
 20
965.0007253637687
 30
0.0
 11
342.5560526495903
 21
965.0007253637687
 31
0.0
  0
ARC
  5
2B2C
330
2E2E
100
AcDbEntity
  8
AM_0
100
AcDbCircle
 10
382.5560526495903
 20
948.5260553637688
 30
0.0
 40
5.0
100
AcDbArc
 50
270.0
 51
0.0
  0
LINE
  5
2B2D
330
2E2E
100
AcDbEntity
  8
AM_0
100
AcDbLine
 10
387.6502926495903
 20
1001.019825363768
 30
0.0
 11
330.5560526495903
 21
999.0260553637687
 31
0.0
  0
LINE
  5
2B2E
330
2E2E
100
AcDbEntity
  8
AM_0
100
AcDbLine
 10
330.5560526495903
 20
987.1060653637687
 30
0.0
 11
342.5560526495903
 21
987.1060653637687
 31
0.0
  0
LINE
  5
2B2F
330
2E2E
100
AcDbEntity
  8
AM_0
100
AcDbLine
 10
389.6185526495902
 20
1001.088555363768
 30
0.0
 11
404.0915726495903
 21
1015.561575363768
 31
0.0
  0
ARC
  5
2B30
330
2E2E
100
AcDbEntity
  8
AM_0
100
AcDbCircle
 10
387.4757926495904
 20
1006.016775363768
 30
0.0
 40
5.0
100
AcDbArc
 50
271.9999999999971
 51
315.0
  0
ARC
  5
2B31
330
2E2E
100
AcDbEntity
  8
AM_0
100
AcDbCircle
 10
400.5560526495902
 20
1019.097095363767
 30
0.0
 40
5.0
100
AcDbArc
 50
315.0
 51
0.0
  0
LINE
  5
2B32
330
2E2E
100
AcDbEntity
  8
AM_0
100
AcDbLine
 10
422.5559926495902
 20
1008.721185363768
 30
0.0
 11
422.5559926495902
 21
982.3018053637687
 31
0.0
  0
LINE
  5
2B33
330
2E2E
100
AcDbEntity
  8
AM_0
100
AcDbLine
 10
469.5559926495904
 20
936.0615753637686
 30
0.0
 11
469.5559926495904
 21
1052.649955363768
 31
0.0
  0
LINE
  5
2B34
330
2E2E
100
AcDbEntity
  8
AM_0
100
AcDbLine
 10
422.5559926495902
 20
982.3018053637687
 30
0.0
 11
443.5559926495904
 21
982.3018053637687
 31
0.0
  0
ARC
  5
2B35
330
2E2E
100
AcDbEntity
  8
AM_0
100
AcDbCircle
 10
481.5560526495903
 20
925.5260553637688
 30
0.0
 40
12.5
100
AcDbArc
 50
203.5781799999973
 51
336.4218300000007
  0
ARC
  5
2B36
330
2E2E
100
AcDbEntity
  8
AM_0
100
AcDbCircle
 10
481.5560526495903
 20
925.5260553637688
 30
0.0
 40
12.5
100
AcDbArc
 50
23.57817999999753
 51
156.4218200000024
  0
ARC
  5
2B37
330
2E2E
100
AcDbEntity
  8
AM_0
100
AcDbCircle
 10
481.5560526495903
 20
925.5260553637688
 30
0.0
 40
15.0
100
AcDbArc
 50
148.2119800000004
 51
160.528769999999
  0
ARC
  5
2B38
330
2E2E
100
AcDbEntity
  8
AM_0
100
AcDbCircle
 10
461.5560526495904
 20
925.5260553637688
 30
0.0
 40
5.0
100
AcDbArc
 50
90.00000299999769
 51
270.0
  0
ARC
  5
2B39
330
2E2E
100
AcDbEntity
  8
AM_0
100
AcDbCircle
 10
464.5559926495904
 20
914.9904653637687
 30
0.0
 40
5.0
100
AcDbArc
 50
0.0
 51
31.78801800000311
  0
ARC
  5
2B3A
330
2E2E
100
AcDbEntity
  8
AM_0
100
AcDbCircle
 10
481.5560526495903
 20
925.5260553637688
 30
0.0
 40
15.0
100
AcDbArc
 50
199.4712300000005
 51
211.7880199999992
  0
ARC
  5
2B3B
330
2E2E
100
AcDbEntity
  8
AM_0
100
AcDbCircle
 10
464.5559926495904
 20
936.0615753637686
 30
0.0
 40
5.0
100
AcDbArc
 50
328.2119800000008
 51
0.0
  0
LINE
  5
2B3C
330
2E2E
100
AcDbEntity
  8
AM_0
100
AcDbLine
 10
464.7304926495904
 20
1037.549555363769
 30
0.0
 11
448.3814926495901
 21
1036.978625363768
 31
0.0
  0
ARC
  5
2B3D
330
2E2E
100
AcDbEntity
  8
AM_0
100
AcDbCircle
 10
438.5560526495902
 20
1028.657645363768
 30
0.0
 40
5.0
100
AcDbArc
 50
271.9999999999971
 51
0.0
  0
LINE
  5
2B3E
330
2E2E
100
AcDbEntity
  8
AM_0
100
AcDbLine
 10
418.5560526495903
 20
1025.526055363767
 30
0.0
 11
420.5560526495903
 21
1023.526055363767
 31
0.0
  0
LINE
  5
2B3F
330
2E2E
100
AcDbEntity
  8
AM_0
100
AcDbLine
 10
420.5561126495902
 20
1023.026055363768
 30
0.0
 11
438.7306126495904
 21
1023.660695363768
 31
0.0
  0
LINE
  5
2B40
330
2E2E
100
AcDbEntity
  8
AM_0
100
AcDbLine
 10
422.5559926495902
 20
998.5322153637687
 30
0.0
 11
443.5559926495904
 21
998.5322153637687
 31
0.0
  0
LINE
  5
2B41
330
2E2E
100
AcDbEntity
  8
AM_0
100
AcDbLine
 10
422.5559926495902
 20
1008.721185363768
 30
0.0
 11
443.5559926495904
 21
1008.721185363768
 31
0.0
  0
LINE
  5
2B42
330
2E2E
100
AcDbEntity
  8
AM_0
100
AcDbLine
 10
420.6878226495903
 20
1035.314255363768
 30
0.0
 11
443.5559926495904
 21
1031.281975363768
 31
0.0
  0
ARC
  5
2B43
330
2E2E
100
AcDbEntity
  8
AM_0
100
AcDbCircle
 10
421.5560526495902
 20
1040.238335363768
 30
0.0
 40
5.0
100
AcDbArc
 50
180.0000100000009
 51
259.9999899999987
  0
LINE
  5
2B44
330
2E2E
100
AcDbEntity
  8
AM_0
100
AcDbLine
 10
408.5559926495903
 20
1025.525995363768
 30
0.0
 11
418.5559926495902
 21
1025.525995363768
 31
0.0
  0
ARC
  5
2B45
330
2E2E
100
AcDbEntity
  8
AM_0
100
AcDbCircle
 10
448.5559926495904
 20
1031.981745363767
 30
0.0
 40
5.0
100
AcDbArc
 50
91.99999800000055
 51
180.0000100000009
  0
ARC
  5
2B46
330
2E2E
100
AcDbEntity
  8
AM_0
100
AcDbCircle
 10
464.5559926495904
 20
1042.546555363768
 30
0.0
 40
5.0
100
AcDbArc
 50
271.9999999999971
 51
0.0
  0
ARC
  5
2B47
330
2E2E
100
AcDbEntity
  8
AM_0
100
AcDbCircle
 10
474.5559926495904
 20
1052.649955363768
 30
0.0
 40
5.0
100
AcDbArc
 50
91.99999800000055
 51
180.0000100000009
  0
ARC
  5
2B48
330
2E2E
100
AcDbEntity
  8
AM_0
100
AcDbCircle
 10
421.5560526495902
 20
1082.624565363768
 30
0.0
 40
5.0
100
AcDbArc
 50
91.99999800000055
 51
180.0000100000009
  0
ARC
  5
2B49
330
2E2E
100
AcDbEntity
  8
AM_0
100
AcDbCircle
 10
474.5560526495903
 20
1074.524285363768
 30
0.0
 40
3.0
100
AcDbArc
 50
70.52797299999963
 51
180.0000100000009
  0
CIRCLE
  5
2B4A
330
2E2E
100
AcDbEntity
  8
AM_0
100
AcDbCircle
 10
616.5560526495902
 20
1058.026055363767
 30
0.0
 40
9.5
  0
LINE
  5
2B4B
330
2E2E
100
AcDbEntity
  8
AM_0
100
AcDbLine
 10
646.5560526495902
 20
1080.738825363768
 30
0.0
 11
646.5560526495902
 21
1030.313225363767
 31
0.0
  0
LINE
  5
2B4C
330
2E2E
100
AcDbEntity
  8
AM_0
100
AcDbLine
 10
504.5560526495902
 20
1075.584585363767
 30
0.0
 11
504.5560526495902
 21
1058.351435363767
 31
0.0
  0
LINE
  5
2B4D
330
2E2E
100
AcDbEntity
  8
AM_0
100
AcDbLine
 10
581.5560526495902
 20
1082.659475363768
 30
0.0
 11
581.5560526495902
 21
1054.114305363768
 31
0.0
  0
ARC
  5
2B4E
330
2E2E
100
AcDbEntity
  8
AM_0
100
AcDbCircle
 10
593.5560526495902
 20
1054.114305363768
 30
0.0
 40
12.0
100
AcDbArc
 50
180.0000100000009
 51
268.0000000000026
  0
LINE
  5
2B4F
330
2E2E
100
AcDbEntity
  8
AM_0
100
AcDbLine
 10
499.5560526495903
 20
1058.526055363768
 30
0.0
 11
499.5560526495903
 21
930.5260553637689
 31
0.0
  0
LINE
  5
2B50
330
2E2E
100
AcDbEntity
  8
AM_0
100
AcDbLine
 10
528.7007626495904
 20
1053.508225363767
 30
0.0
 11
578.3960126495903
 21
1051.772875363768
 31
0.0
  0
LINE
  5
2B51
330
2E2E
100
AcDbEntity
  8
AM_0
100
AcDbLine
 10
499.5560526495903
 20
1058.525995363768
 30
0.0
 11
524.5560526495903
 21
1057.653005363768
 31
0.0
  0
LINE
  5
2B52
330
2E2E
100
AcDbEntity
  8
AM_0
100
AcDbLine
 10
524.5560526495903
 20
1057.653005363768
 30
0.0
 11
528.7007626495904
 21
1053.508295363767
 31
0.0
  0
ARC
  5
2B53
330
2E2E
100
AcDbEntity
  8
AM_0
100
AcDbCircle
 10
578.2214526495905
 20
1046.775925363768
 30
0.0
 40
5.0
100
AcDbArc
 50
25.5735169999985
 51
88.00000000000279
  0
ARC
  5
2B54
330
2E2E
100
AcDbEntity
  8
AM_0
100
AcDbCircle
 10
643.5560526495902
 20
987.6320053637687
 30
0.0
 40
2.0
100
AcDbArc
 50
180.0000100000009
 51
268.0000000000026
  0
ARC
  5
2B55
330
2E2E
100
AcDbEntity
  8
AM_0
100
AcDbCircle
 10
672.5560526495902
 20
925.5259953637688
 30
0.0
 40
8.000011399999998
100
AcDbArc
 50
90.00000299999769
 51
270.0
  0
LINE
  5
2B56
330
2E2E
100
AcDbEntity
  8
AM_0
100
AcDbLine
 10
672.5559926495904
 20
933.5260553637688
 30
0.0
 11
672.5559926495904
 21
917.5259953637688
 31
0.0
  0
LINE
  5
2B57
330
2E2E
100
AcDbEntity
  8
AM_0
100
AcDbLine
 10
646.5560526495902
 20
955.5260553637689
 30
0.0
 11
652.5559926495904
 21
955.5260553637689
 31
0.0
  0
ARC
  5
2B58
330
2E2E
100
AcDbEntity
  8
AM_0
100
AcDbCircle
 10
644.5560526495902
 20
983.5946553637688
 30
0.0
 40
2.0
100
AcDbArc
 50
0.0
 51
88.00000000000279
  0
LINE
  5
2B59
330
2E2E
100
AcDbEntity
  8
AM_0
100
AcDbLine
 10
643.4862226495901
 20
985.6332253637679
 30
0.0
 11
644.6258726495901
 21
985.5934353637687
 31
0.0
  0
ARC
  5
2B5A
330
2E2E
100
AcDbEntity
  8
AM_0
100
AcDbCircle
 10
633.5560526495902
 20
1016.857655363768
 30
0.0
 40
8.0
100
AcDbArc
 50
0.0
 51
88.00000000000279
  0
ARC
  5
2B5B
330
2E2E
100
AcDbEntity
  8
AM_0
100
AcDbCircle
 10
622.5560526495902
 20
1033.251515363768
 30
0.0
 40
8.0
100
AcDbArc
 50
180.0000100000009
 51
268.0000000000026
  0
ARC
  5
2B5C
330
2E2E
100
AcDbEntity
  8
AM_0
100
AcDbCircle
 10
606.5560526495902
 20
1033.648125363768
 30
0.0
 40
8.0
100
AcDbArc
 50
0.0
 51
88.00000000000279
  0
LINE
  5
2B5D
330
2E2E
100
AcDbEntity
  8
AM_0
100
AcDbLine
 10
593.1372226495901
 20
1042.121575363768
 30
0.0
 11
606.8352826495902
 21
1041.643235363768
 31
0.0
  0
LINE
  5
2B5E
330
2E2E
100
AcDbEntity
  8
AM_0
100
AcDbLine
 10
622.2768726495902
 20
1025.256395363767
 30
0.0
 11
633.8352226495904
 21
1024.852775363767
 31
0.0
  0
ARC
  5
2B5F
330
2E2E
100
AcDbEntity
  8
AM_0
100
AcDbCircle
 10
644.5560526495902
 20
1022.897025363768
 30
0.0
 40
3.0
100
AcDbArc
 50
112.0243099999992
 51
180.0000100000009
  0
ARC
  5
2B60
330
2E2E
100
AcDbEntity
  8
AM_0
100
AcDbCircle
 10
641.5560526495902
 20
1030.313225363767
 30
0.0
 40
5.0
100
AcDbArc
 50
292.0243099999992
 51
0.0
  0
LINE
  5
2B61
330
2E2E
100
AcDbEntity
  8
AM_0
100
AcDbLine
 10
504.5560526495902
 20
1090.526055363769
 30
0.0
 11
641.7305526495901
 21
1085.735765363768
 31
0.0
  0
ARC
  5
2B62
330
2E2E
100
AcDbEntity
  8
AM_0
100
AcDbCircle
 10
501.5560526495902
 20
1075.584585363767
 30
0.0
 40
3.0
100
AcDbArc
 50
0.0
 51
70.52797299999963
  0
ARC
  5
2B63
330
2E2E
100
AcDbEntity
  8
AM_0
100
AcDbCircle
 10
501.5560526495902
 20
1064.977895363768
 30
0.0
 40
3.0
100
AcDbArc
 50
0.0
 51
70.52797299999963
  0
ARC
  5
2B64
330
2E2E
100
AcDbEntity
  8
AM_0
100
AcDbCircle
 10
586.5560526495904
 20
1082.659475363768
 30
0.0
 40
5.0
100
AcDbArc
 50
88.00000000000279
 51
180.0000100000009
  0
ARC
  5
2B65
330
2E2E
100
AcDbEntity
  8
AM_0
100
AcDbCircle
 10
641.5560526495902
 20
1080.738825363768
 30
0.0
 40
5.0
100
AcDbArc
 50
0.0
 51
88.00000000000279
  0
LINE
  5
2B66
330
2E2E
100
AcDbEntity
  8
AM_0
100
AcDbLine
 10
734.5559926495901
 20
953.0260553637688
 30
0.0
 11
734.5559926495901
 21
898.0260553637688
 31
0.0
  0
LINE
  5
2B67
330
2E2E
100
AcDbEntity
  8
ﾁｭｳｼﾝｾﾝ1
100
AcDbLine
 10
597.0560526495902
 20
1058.026055363767
 30
0.0
 11
636.0560526495902
 21
1058.026055363767
 31
0.0
  0
LINE
  5
2B68
330
2E2E
100
AcDbEntity
  8
ﾁｭｳｼﾝｾﾝ1
100
AcDbLine
 10
616.5560526495902
 20
1038.526055363767
 30
0.0
 11
616.5560526495902
 21
1077.526055363767
 31
0.0
  0
LINE
  5
2B69
330
2E2E
100
AcDbEntity
  8
ﾁｭｳｼﾝｾﾝ1
100
AcDbLine
 10
427.0560526495903
 20
1058.026055363767
 30
0.0
 11
466.0560526495904
 21
1058.026055363767
 31
0.0
  0
LINE
  5
2B6A
330
2E2E
100
AcDbEntity
  8
ﾁｭｳｼﾝｾﾝ1
100
AcDbLine
 10
446.5560526495902
 20
1038.526055363767
 30
0.0
 11
446.5560526495902
 21
1077.526055363767
 31
0.0
  0
LINE
  5
2B6B
330
2E2E
100
AcDbEntity
  8
ﾁｭｳｼﾝｾﾝ1
100
AcDbLine
 10
427.0560526495903
 20
793.0260553637688
 30
0.0
 11
466.0560526495904
 21
793.0260553637688
 31
0.0
  0
LINE
  5
2B6C
330
2E2E
100
AcDbEntity
  8
ﾁｭｳｼﾝｾﾝ1
100
AcDbLine
 10
446.5560526495902
 20
773.5260553637686
 30
0.0
 11
446.5560526495902
 21
812.5260553637684
 31
0.0
  0
TEXT
  5
2D4F
330
2E2E
100
AcDbEntity
  8
AM_0
100
AcDbText
 10
861.7048940539536
 20
949.564164706704
 30
0.0
 40
20.0
  1
VX15-240G~VX15-300G
100
AcDbText
  0
LINE
  5
2F4E
330
2E2E
100
AcDbEntity
  8
AM_0
100
AcDbLine
 10
181.5560426495908
 20
401.8652061965448
 30
0.0
 11
209.5560426495908
 21
401.8652061965448
 31
0.0
  0
ENDSEC
  0
SECTION
  2
OBJECTS
  0
DICTIONARY
  5
2DCB
330
0
100
AcDbDictionary
281
     1
  3
ACAD_CIP_PREVIOUS_PRODUCT_INFO
350
2EE4
  3
ACAD_COLOR
350
2E21
  3
ACAD_DETAILVIEWSTYLE
350
2E28
  3
ACAD_FIELDLIST
350
2F2E
  3
ACAD_GROUP
350
2DCC
  3
ACAD_LAYOUT
350
2E20
  3
ACAD_MATERIAL
350
2DCF
  3
ACAD_MLEADERSTYLE
350
2E24
  3
ACAD_MLINESTYLE
350
2E1D
  3
ACAD_PLOTSETTINGS
350
2E1F
  3
ACAD_PLOTSTYLENAME
350
2DCD
  3
ACAD_SCALELIST
350
2E01
  3
ACAD_SECTIONVIEWSTYLE
350
2E26
  3
ACAD_TABLESTYLE
350
2E22
  3
ACAD_VISUALSTYLE
350
2DE8
  3
ACDB_RECOMPOSE_DATA
350
30FE
  3
AcDbVariableDictionary
350
2FE5
  3
AcDsDecomposeData
350
3104
  3
AcmDictionary
350
2F0A
  3
AMG
350
2EE5
  3
AMGSNAPSETTINGS
350
2F3F
  0
DICTIONARY
  5
2FDF
330
2DC1
100
AcDbDictionary
280
     1
281
     1
  3
ACAD_LAYERSTATES
360
2FE0
  0
DICTIONARY
  5
2FD0
330
2E13
100
AcDbDictionary
280
     1
281
     1
  3
ADSK_XREC_LAYER_RECONCILED
360
2FD1
  0
DICTIONARY
  5
2FD2
330
2E32
100
AcDbDictionary
280
     1
281
     1
  3
ADSK_XREC_LAYER_RECONCILED
360
2FD3
  0
DICTIONARY
  5
2FD4
330
2E4D
100
AcDbDictionary
280
     1
281
     1
  3
ADSK_XREC_LAYER_RECONCILED
360
2FD5
  0
DICTIONARY
  5
2FD6
330
2E4F
100
AcDbDictionary
280
     1
281
     1
  3
ADSK_XREC_LAYER_RECONCILED
360
2FD7
  0
DICTIONARY
  5
2FD8
330
2E50
100
AcDbDictionary
280
     1
281
     1
  3
ADSK_XREC_LAYER_RECONCILED
360
2FD9
  0
DICTIONARY
  5
2FDA
330
2E51
100
AcDbDictionary
280
     1
281
     1
  3
ADSK_XREC_LAYER_RECONCILED
360
2FDB
  0
XRECORD
  5
2EE4
102
{ACAD_REACTORS
330
2DCB
102
}
330
2DCB
100
AcDbXrecord
280
     1
300
AMECH_PP
300
2019
300

  0
DICTIONARY
  5
2E21
102
{ACAD_REACTORS
330
2DCB
102
}
330
2DCB
100
AcDbDictionary
281
     1
  0
DICTIONARY
  5
2E28
102
{ACAD_REACTORS
330
2DCB
102
}
330
2DCB
100
AcDbDictionary
281
     1
  3
Imperial24
350
2E29
  0
FIELDLIST
  5
2F2E
102
{ACAD_REACTORS
330
2DCB
102
}
330
2DCB
100
AcDbIdSet
 90
        8
330
3080
330
3081
330
3082
330
3083
330
3087
330
3088
330
3089
330
308A
100
AcDbFieldList
  0
DICTIONARY
  5
2DCC
102
{ACAD_REACTORS
330
2DCB
102
}
330
2DCB
100
AcDbDictionary
281
     1
  0
DICTIONARY
  5
2E20
102
{ACAD_REACTORS
330
2DCB
102
}
330
2DCB
100
AcDbDictionary
281
     1
  3
Model
350
2E31
  3
レイアウト1
350
2E2D
  0
DICTIONARY
  5
2DCF
102
{ACAD_REACTORS
330
2DCB
102
}
330
2DCB
100
AcDbDictionary
281
     1
  3
ByBlock
350
2DD8
  3
ByLayer
350
2DD0
  3
Global
350
2DE0
  0
DICTIONARY
  5
2E24
102
{ACAD_REACTORS
330
2DCB
102
}
330
2DCB
100
AcDbDictionary
281
     1
  3
Standard
350
2E25
  0
DICTIONARY
  5
2E1D
102
{ACAD_REACTORS
330
2DCB
102
}
330
2DCB
100
AcDbDictionary
281
     1
  3
Standard
350
2E1E
  0
DICTIONARY
  5
2E1F
102
{ACAD_REACTORS
330
2DCB
102
}
330
2DCB
100
AcDbDictionary
281
     1
  0
ACDBDICTIONARYWDFLT
  5
2DCD
102
{ACAD_REACTORS
330
2DCB
102
}
330
2DCB
100
AcDbDictionary
281
     1
  3
Normal
350
2DCE
100
AcDbDictionaryWithDefault
340
2DCE
  0
DICTIONARY
  5
2E01
102
{ACAD_REACTORS
330
2DCB
102
}
330
2DCB
100
AcDbDictionary
281
     1
  3
A0
350
2E02
  3
A1
350
2E03
  3
A2
350
2E04
  3
A3
350
2E05
  3
A4
350
2E06
  3
A5
350
2E07
  3
A6
350
2E08
  3
A7
350
2E09
  3
A8
350
2E0A
  3
A9
350
2E0B
  3
B0
350
2E0C
  3
B1
350
2E0D
  3
B2
350
2E0E
  3
B3
350
2E0F
  3
B4
350
2E10
  3
B5
350
2E11
  3
B6
350
2E12
  0
DICTIONARY
  5
2E26
102
{ACAD_REACTORS
330
2DCB
102
}
330
2DCB
100
AcDbDictionary
281
     1
  3
Imperial24
350
2E27
  0
DICTIONARY
  5
2E22
102
{ACAD_REACTORS
330
2DCB
102
}
330
2DCB
100
AcDbDictionary
281
     1
  3
Standard
350
2E23
  0
DICTIONARY
  5
2DE8
102
{ACAD_REACTORS
330
2DCB
102
}
330
2DCB
100
AcDbDictionary
281
     1
  3
2dWireframe
350
2DEE
  3
Basic
350
2DED
  3
Brighten
350
2DF4
  3
ColorChange
350
2DF8
  3
Conceptual
350
2DF1
  3
Dim
350
2DF3
  3
EdgeColorOff
350
2E00
  3
Facepattern
350
2DF7
  3
Flat
350
2DE9
  3
FlatWithEdges
350
2DEA
  3
Gouraud
350
2DEB
  3
GouraudWithEdges
350
2DEC
  3
Hidden
350
2DF0
  3
JitterOff
350
2DFE
  3
Linepattern
350
2DF6
  3
OverhangOff
350
2DFF
  3
Realistic
350
2DF2
  3
Shaded
350
2DFD
  3
Shaded with edges
350
2DFC
  3
Shades of Gray
350
2DF9
  3
Sketchy
350
2DFA
  3
Thicken
350
2DF5
  3
Wireframe
350
2DEF
  3
X-Ray
350
2DFB
  0
XRECORD
  5
30FE
102
{ACAD_REACTORS
330
2DCB
102
}
330
2DCB
100
AcDbXrecord
280
     1
 90
        1
330
2E23
  0
DICTIONARY
  5
2FE5
102
{ACAD_REACTORS
330
2DCB
102
}
330
2DCB
100
AcDbDictionary
281
     1
  3
CANNOSCALE
350
2FEB
  3
CMLEADERSTYLE
350
2FE7
  3
CTABLESTYLE
350
2FE6
  3
CVIEWDETAILSTYLE
350
2FE8
  3
CVIEWSECTIONSTYLE
350
2FE9
  3
LAYEREVAL
350
2FED
  3
LAYERNOTIFY
350
2FEE
  3
LIGHTINGUNITS
350
2FEC
  3
MSLTSCALE
350
2FEA
  0
DICTIONARY
  5
3104
102
{ACAD_REACTORS
330
2DCB
102
}
330
2DCB
100
AcDbDictionary
281
     1
  3
AcDsRecords
350
3106
  3
AcDsSchemas
350
3105
1001
ACAD
1070
     2
  0
DICTIONARY
  5
2F0A
102
{ACAD_REACTORS
330
2DCB
102
}
330
2DCB
100
AcDbDictionary
281
     1
  3
AcmStdDictionary
350
2F13
  0
DICTIONARY
  5
2EE5
102
{ACAD_REACTORS
330
2DCB
102
}
330
2DCB
100
AcDbDictionary
281
     1
  0
DICTIONARY
  5
2F3F
102
{ACAD_REACTORS
330
2DCB
102
}
330
2DCB
100
AcDbDictionary
281
     1
  0
DICTIONARY
  5
2FE0
102
{ACAD_REACTORS
330
2FDF
102
}
330
2FDF
100
AcDbDictionary
281
     1
  0
XRECORD
  5
2FD1
102
{ACAD_REACTORS
330
2FD0
102
}
330
2FD0
100
AcDbXrecord
280
     1
290
     1
  0
XRECORD
  5
2FD3
102
{ACAD_REACTORS
330
2FD2
102
}
330
2FD2
100
AcDbXrecord
280
     1
290
     1
  0
XRECORD
  5
2FD5
102
{ACAD_REACTORS
330
2FD4
102
}
330
2FD4
100
AcDbXrecord
280
     1
290
     1
  0
XRECORD
  5
2FD7
102
{ACAD_REACTORS
330
2FD6
102
}
330
2FD6
100
AcDbXrecord
280
     1
290
     1
  0
XRECORD
  5
2FD9
102
{ACAD_REACTORS
330
2FD8
102
}
330
2FD8
100
AcDbXrecord
280
     1
290
     1
  0
XRECORD
  5
2FDB
102
{ACAD_REACTORS
330
2FDA
102
}
330
2FDA
100
AcDbXrecord
280
     1
290
     1
  0
ACDBDETAILVIEWSTYLE
  5
2E29
102
{ACAD_XDICTIONARY
360
3139
102
}
102
{ACAD_REACTORS
330
2E28
330
307B
102
}
330
2E28
100
AcDbModelDocViewStyle
 70
     0
  3
Imperial24
290
     0
100
AcDbDetailViewStyle
 70
     0
 71
     0
 90
        3
 71
     1
340
2E14
 62
   256
 40
0.24
340
0
 62
   256
 40
0.24
300

 40
0.36
280
     3
 71
     2
340
2E1B
 90
       25
 62
   256
 71
     3
340
2E14
 62
   256
 40
0.24
 90
        1
 40
0.75
 90
        1
300
%<\AcVar ViewType \f "%tc1">% %<\AcVar ViewDetailId>%\PSCALE %<\AcVar ViewScale \f "%sn">%
 71
     4
340
2E1B
 90
       25
 62
   256
340
2E1B
 90
       25
 62
   256
280
     0
  0
LAYOUT
  5
2E31
102
{ACAD_REACTORS
330
2E20
102
}
330
2E20
100
AcDbPlotSettings
  1

  2
JUST PDF 3
  4

  6

 40
0.0
 41
0.0
 42
0.0
 43
0.0
 44
0.0
 45
0.0
 46
0.0
 47
0.0
 48
0.0
 49
0.0
140
0.0
141
0.0
142
1.0
143
1.0
 70
  1712
 72
     0
 73
     0
 74
     0
  7

 75
     0
147
1.0
 76
     0
 77
     2
 78
   300
148
0.0
149
0.0
100
AcDbLayout
  1
Model
 70
     1
 71
     0
 10
0.0
 20
0.0
 11
12.0
 21
9.0
 12
0.0
 22
0.0
 32
0.0
 14
0.0
 24
0.0
 34
0.0
 15
0.0
 25
0.0
 35
0.0
146
0.0
 13
0.0
 23
0.0
 33
0.0
 16
1.0
 26
0.0
 36
0.0
 17
0.0
 27
1.0
 37
0.0
 76
     0
330
2E2E
331
2E33
  0
LAYOUT
  5
2E2D
102
{ACAD_REACTORS
330
2E20
102
}
330
2E20
100
AcDbPlotSettings
  1

  2
JUST PDF 3
  4

  6

 40
0.0
 41
0.0
 42
0.0
 43
0.0
 44
0.0
 45
0.0
 46
0.0
 47
0.0
 48
0.0
 49
0.0
140
0.0
141
0.0
142
1.0
143
1.0
 70
   688
 72
     0
 73
     0
 74
     5
  7

 75
    16
147
1.0
 76
     0
 77
     2
 78
   300
148
0.0
149
0.0
100
AcDbLayout
  1
レイアウト1
 70
     1
 71
     1
 10
0.0
 20
0.0
 11
420.0
 21
297.0
 12
0.0
 22
0.0
 32
0.0
 14
1.000000000000000E+20
 24
1.000000000000000E+20
 34
1.000000000000000E+20
 15
-1.000000000000000E+20
 25
-1.000000000000000E+20
 35
-1.000000000000000E+20
146
0.0
 13
0.0
 23
0.0
 33
0.0
 16
1.0
 26
0.0
 36
0.0
 17
0.0
 27
1.0
 37
0.0
 76
     0
330
2E2A
  0
MATERIAL
  5
2DD8
102
{ACAD_XDICTIONARY
360
2DD9
102
}
102
{ACAD_REACTORS
330
2DCF
102
}
330
2DCF
100
AcDbMaterial
  1
ByBlock
 72
     0
 43
0.0208333333333333
 43
0.0
 43
0.0
 43
0.0
 43
0.0
 43
0.0208333333333333
 43
0.0
 43
0.0
 43
0.0
 43
0.0
 43
1.0
 43
0.0
 43
0.0
 43
0.0
 43
0.0
 43
1.0
 77
     0
 47
0.0208333333333333
 47
0.0
 47
0.0
 47
0.0
 47
0.0
 47
0.0208333333333333
 47
0.0
 47
0.0
 47
0.0
 47
0.0
 47
1.0
 47
0.0
 47
0.0
 47
0.0
 47
0.0
 47
1.0
171
     0
 49
0.0208333333333333
 49
0.0
 49
0.0
 49
0.0
 49
0.0
 49
0.0208333333333333
 49
0.0
 49
0.0
 49
0.0
 49
0.0
 49
1.0
 49
0.0
 49
0.0
 49
0.0
 49
0.0
 49
1.0
175
     0
142
0.0208333333333333
142
0.0
142
0.0
142
0.0
142
0.0
142
0.0208333333333333
142
0.0
142
0.0
142
0.0
142
0.0
142
1.0
142
0.0
142
0.0
142
0.0
142
0.0
142
1.0
179
     0
144
0.0208333333333333
144
0.0
144
0.0
144
0.0
144
0.0
144
0.0208333333333333
144
0.0
144
0.0
144
0.0
144
0.0
144
1.0
144
0.0
144
0.0
144
0.0
144
0.0
144
1.0
147
0.0208333333333333
147
0.0
147
0.0
147
0.0
147
0.0
147
0.0208333333333333
147
0.0
147
0.0
147
0.0
147
0.0
147
1.0
147
0.0
147
0.0
147
0.0
147
0.0
147
1.0
  0
MATERIAL
  5
2DD0
102
{ACAD_XDICTIONARY
360
2DD1
102
}
102
{ACAD_REACTORS
330
2DCF
102
}
330
2DCF
100
AcDbMaterial
  1
ByLayer
 72
     0
 43
0.0208333333333333
 43
0.0
 43
0.0
 43
0.0
 43
0.0
 43
0.0208333333333333
 43
0.0
 43
0.0
 43
0.0
 43
0.0
 43
1.0
 43
0.0
 43
0.0
 43
0.0
 43
0.0
 43
1.0
 77
     0
 47
0.0208333333333333
 47
0.0
 47
0.0
 47
0.0
 47
0.0
 47
0.0208333333333333
 47
0.0
 47
0.0
 47
0.0
 47
0.0
 47
1.0
 47
0.0
 47
0.0
 47
0.0
 47
0.0
 47
1.0
171
     0
 49
0.0208333333333333
 49
0.0
 49
0.0
 49
0.0
 49
0.0
 49
0.0208333333333333
 49
0.0
 49
0.0
 49
0.0
 49
0.0
 49
1.0
 49
0.0
 49
0.0
 49
0.0
 49
0.0
 49
1.0
175
     0
142
0.0208333333333333
142
0.0
142
0.0
142
0.0
142
0.0
142
0.0208333333333333
142
0.0
142
0.0
142
0.0
142
0.0
142
1.0
142
0.0
142
0.0
142
0.0
142
0.0
142
1.0
179
     0
144
0.0208333333333333
144
0.0
144
0.0
144
0.0
144
0.0
144
0.0208333333333333
144
0.0
144
0.0
144
0.0
144
0.0
144
1.0
144
0.0
144
0.0
144
0.0
144
0.0
144
1.0
147
0.0208333333333333
147
0.0
147
0.0
147
0.0
147
0.0
147
0.0208333333333333
147
0.0
147
0.0
147
0.0
147
0.0
147
1.0
147
0.0
147
0.0
147
0.0
147
0.0
147
1.0
  0
MATERIAL
  5
2DE0
102
{ACAD_XDICTIONARY
360
2DE1
102
}
102
{ACAD_REACTORS
330
2DCF
102
}
330
2DCF
100
AcDbMaterial
  1
Global
 72
     0
 43
0.0208333333333333
 43
0.0
 43
0.0
 43
0.0
 43
0.0
 43
0.0208333333333333
 43
0.0
 43
0.0
 43
0.0
 43
0.0
 43
1.0
 43
0.0
 43
0.0
 43
0.0
 43
0.0
 43
1.0
 77
     0
 47
0.0208333333333333
 47
0.0
 47
0.0
 47
0.0
 47
0.0
 47
0.0208333333333333
 47
0.0
 47
0.0
 47
0.0
 47
0.0
 47
1.0
 47
0.0
 47
0.0
 47
0.0
 47
0.0
 47
1.0
171
     0
 49
0.0208333333333333
 49
0.0
 49
0.0
 49
0.0
 49
0.0
 49
0.0208333333333333
 49
0.0
 49
0.0
 49
0.0
 49
0.0
 49
1.0
 49
0.0
 49
0.0
 49
0.0
 49
0.0
 49
1.0
175
     0
142
0.0208333333333333
142
0.0
142
0.0
142
0.0
142
0.0
142
0.0208333333333333
142
0.0
142
0.0
142
0.0
142
0.0
142
1.0
142
0.0
142
0.0
142
0.0
142
0.0
142
1.0
179
     0
144
0.0208333333333333
144
0.0
144
0.0
144
0.0
144
0.0
144
0.0208333333333333
144
0.0
144
0.0
144
0.0
144
0.0
144
1.0
144
0.0
144
0.0
144
0.0
144
0.0
144
1.0
147
0.0208333333333333
147
0.0
147
0.0
147
0.0
147
0.0
147
0.0208333333333333
147
0.0
147
0.0
147
0.0
147
0.0
147
1.0
147
0.0
147
0.0
147
0.0
147
0.0
147
1.0
  0
MLEADERSTYLE
  5
2E25
102
{ACAD_REACTORS
330
2E24
102
}
330
2E24
100
AcDbMLeaderStyle
179
     2
170
     2
171
     1
172
     0
 90
        2
 40
0.0
 41
0.0
173
     1
 91
-1056964608
340
2E19
 92
       -2
290
     1
 42
0.09
291
     1
 43
0.36
  3
Standard
 44
0.18
300

342
2E14
174
     1
178
     6
175
     1
176
     0
 93
-1056964608
 45
0.18
292
     0
297
     0
 46
0.18
 94
-1056964608
 47
1.0
 49
1.0
140
1.0
293
     1
141
0.0
294
     1
177
     0
142
1.0
295
     0
296
     0
143
0.125
271
     0
272
     9
273
     9
  0
MLINESTYLE
  5
2E1E
102
{ACAD_REACTORS
330
2E1D
102
}
330
2E1D
100
AcDbMlineStyle
  2
STANDARD
 70
     0
  3

 62
   256
 51
90.0
 52
90.0
 71
     2
 49
0.5
 62
   256
  6
BYLAYER
 49
-0.5
 62
   256
  6
BYLAYER
  0
ACDBPLACEHOLDER
  5
2DCE
102
{ACAD_REACTORS
330
2DCD
102
}
330
2DCD
  0
SCALE
  5
2E02
102
{ACAD_REACTORS
330
2E01
102
}
330
2E01
100
AcDbScale
 70
     0
300
1:1
140
1.0
141
1.0
290
     1
  0
SCALE
  5
2E03
102
{ACAD_REACTORS
330
2E01
102
}
330
2E01
100
AcDbScale
 70
     0
300
1/128" = 1'-0"
140
0.0078125
141
12.0
290
     0
  0
SCALE
  5
2E04
102
{ACAD_REACTORS
330
2E01
102
}
330
2E01
100
AcDbScale
 70
     0
300
1/64" = 1'-0"
140
0.015625
141
12.0
290
     0
  0
SCALE
  5
2E05
102
{ACAD_REACTORS
330
2E01
102
}
330
2E01
100
AcDbScale
 70
     0
300
1/32" = 1'-0"
140
0.03125
141
12.0
290
     0
  0
SCALE
  5
2E06
102
{ACAD_REACTORS
330
2E01
102
}
330
2E01
100
AcDbScale
 70
     0
300
1/16" = 1'-0"
140
0.0625
141
12.0
290
     0
  0
SCALE
  5
2E07
102
{ACAD_REACTORS
330
2E01
102
}
330
2E01
100
AcDbScale
 70
     0
300
3/32" = 1'-0"
140
0.09375
141
12.0
290
     0
  0
SCALE
  5
2E08
102
{ACAD_REACTORS
330
2E01
102
}
330
2E01
100
AcDbScale
 70
     0
300
1/8" = 1'-0"
140
0.125
141
12.0
290
     0
  0
SCALE
  5
2E09
102
{ACAD_REACTORS
330
2E01
102
}
330
2E01
100
AcDbScale
 70
     0
300
3/16" = 1'-0"
140
0.1875
141
12.0
290
     0
  0
SCALE
  5
2E0A
102
{ACAD_REACTORS
330
2E01
102
}
330
2E01
100
AcDbScale
 70
     0
300
1/4" = 1'-0"
140
0.25
141
12.0
290
     0
  0
SCALE
  5
2E0B
102
{ACAD_REACTORS
330
2E01
102
}
330
2E01
100
AcDbScale
 70
     0
300
3/8" = 1'-0"
140
0.375
141
12.0
290
     0
  0
SCALE
  5
2E0C
102
{ACAD_REACTORS
330
2E01
102
}
330
2E01
100
AcDbScale
 70
     0
300
1/2" = 1'-0"
140
0.5
141
12.0
290
     0
  0
SCALE
  5
2E0D
102
{ACAD_REACTORS
330
2E01
102
}
330
2E01
100
AcDbScale
 70
     0
300
3/4" = 1'-0"
140
0.75
141
12.0
290
     0
  0
SCALE
  5
2E0E
102
{ACAD_REACTORS
330
2E01
102
}
330
2E01
100
AcDbScale
 70
     0
300
1" = 1'-0"
140
1.0
141
12.0
290
     0
  0
SCALE
  5
2E0F
102
{ACAD_REACTORS
330
2E01
102
}
330
2E01
100
AcDbScale
 70
     0
300
1-1/2" = 1'-0"
140
1.5
141
12.0
290
     0
  0
SCALE
  5
2E10
102
{ACAD_REACTORS
330
2E01
102
}
330
2E01
100
AcDbScale
 70
     0
300
3" = 1'-0"
140
3.0
141
12.0
290
     0
  0
SCALE
  5
2E11
102
{ACAD_REACTORS
330
2E01
102
}
330
2E01
100
AcDbScale
 70
     0
300
6" = 1'-0"
140
6.0
141
12.0
290
     0
  0
SCALE
  5
2E12
102
{ACAD_REACTORS
330
2E01
102
}
330
2E01
100
AcDbScale
 70
     0
300
1'-0" = 1'-0"
140
12.0
141
12.0
290
     0
  0
ACDBSECTIONVIEWSTYLE
  5
2E27
102
{ACAD_XDICTIONARY
360
3137
102
}
102
{ACAD_REACTORS
330
2E26
330
307A
102
}
330
2E26
100
AcDbModelDocViewStyle
 70
     0
  3
Imperial24
290
     0
100
AcDbSectionViewStyle
 70
     0
 71
     0
 90
       78
 71
     1
340
2E14
 62
   256
 40
0.24
340
0
340
0
 62
   256
 40
0.24
300
I, O, Q, S, X, Z
 40
0.48
 90
        3
 40
0.18
 90
        1
 71
     2
340
2E1B
 90
       25
 62
   256
340
2E1B
 90
       50
 62
   256
 40
0.24
 40
0.0
 40
0.24
 71
     3
340
2E14
 62
   256
 40
0.24
 90
        1
 40
0.75
 90
        1
300
%<\AcVar ViewType \f "%tc1">% %<\AcVar ViewSectionStartId>%-%<\AcVar ViewSectionEndId>%\PSCALE %<\AcVar ViewScale \f "%sn">%
 71
     4
 62
   256
 62
   257
300
ANSI31
 40
1.0
 90
        0
290
     0
290
     0
 90
        6
 40
0.0
 40
1.570796326794896
 40
0.2617993877991494
 40
1.308996938995747
 40
-0.2617993877991494
 40
1.832595714594045
  0
TABLESTYLE
  5
2E23
102
{ACAD_XDICTIONARY
360
2FEF
102
}
102
{ACAD_REACTORS
330
2E22
102
}
330
2E22
100
AcDbTableStyle
280
     0
  3
Standard
 70
     0
 71
     0
 40
0.06
 41
0.06
280
     0
281
     0
  7
STANDARD
140
0.18
170
     2
 62
     0
 63
     7
283
     0
 90
      512
 91
        0
  1

274
    -2
284
     1
 64
     0
275
    -2
285
     1
 65
     0
276
    -2
286
     1
 66
     0
277
    -2
287
     1
 67
     0
278
    -2
288
     1
 68
     0
279
    -2
289
     1
 69
     0
  7
STANDARD
140
0.25
170
     5
 62
     0
 63
     7
283
     0
 90
      512
 91
        0
  1

274
    -2
284
     1
 64
     0
275
    -2
285
     1
 65
     0
276
    -2
286
     1
 66
     0
277
    -2
287
     1
 67
     0
278
    -2
288
     1
 68
     0
279
    -2
289
     1
 69
     0
  7
STANDARD
140
0.18
170
     5
 62
     0
 63
     7
283
     0
 90
      512
 91
        0
  1

274
    -2
284
     1
 64
     0
275
    -2
285
     1
 65
     0
276
    -2
286
     1
 66
     0
277
    -2
287
     1
 67
     0
278
    -2
288
     1
 68
     0
279
    -2
289
     1
 69
     0
  0
VISUALSTYLE
  5
2DEE
102
{ACAD_XDICTIONARY
360
3111
102
}
102
{ACAD_REACTORS
330
2DE8
102
}
330
2DE8
100
AcDbVisualStyle
  2
2dWireframe
 70
     4
177
     2
291
     0
 71
     0
176
     1
 72
     2
176
     1
 73
     0
176
     1
 90
        0
176
     1
 40
0.6
176
     1
 41
30.0
176
     1
 63
     7
421
 16777215
176
     1
 74
     1
176
     1
 91
        4
176
     1
 64
     7
176
     1
 65
   257
176
     1
 75
     1
176
     1
175
     1
176
     1
 42
1.0
176
     1
 92
        0
176
     1
 66
   257
176
     1
 43
1.0
176
     1
 76
     1
176
     1
 77
     6
176
     1
 78
     2
176
     1
 67
     7
176
     1
 79
     5
176
     1
170
     0
176
     1
171
     0
176
     1
290
     0
176
     1
 93
        1
176
     1
 44
0.0
176
     1
173
     0
176
     1
1001
ACAD
1000
AcDbSavedByObjectVersion
1070
     0
  0
VISUALSTYLE
  5
2DED
102
{ACAD_XDICTIONARY
360
310F
102
}
102
{ACAD_REACTORS
330
2DE8
102
}
330
2DE8
100
AcDbVisualStyle
  2
Basic
 70
     7
177
     2
291
     1
 71
     1
176
     1
 72
     0
176
     1
 73
     1
176
     1
 90
        0
176
     1
 40
0.6
176
     1
 41
30.0
176
     1
 63
     7
421
 16777215
176
     1
 74
     0
176
     1
 91
        4
176
     1
 64
     7
176
     1
 65
   257
176
     1
 75
     1
176
     1
175
     1
176
     1
 42
1.0
176
     1
 92
        8
176
     1
 66
     7
176
     1
 43
1.0
176
     1
 76
     1
176
     1
 77
     6
176
     1
 78
     2
176
     1
 67
     7
176
     1
 79
     5
176
     1
170
     0
176
     1
171
     0
176
     1
290
     0
176
     1
 93
        1
176
     1
 44
0.0
176
     1
173
     0
176
     1
1001
ACAD
1000
AcDbSavedByObjectVersion
1070
     0
  0
VISUALSTYLE
  5
2DF4
102
{ACAD_XDICTIONARY
360
311D
102
}
102
{ACAD_REACTORS
330
2DE8
102
}
330
2DE8
100
AcDbVisualStyle
  2
Brighten
 70
    12
177
     2
291
     1
 71
     2
176
     1
 72
     2
176
     1
 73
     0
176
     1
 90
        0
176
     1
 40
0.6
176
     1
 41
30.0
176
     1
 63
     7
421
 16777215
176
     1
 74
     1
176
     1
 91
        4
176
     1
 64
     7
176
     1
 65
   257
176
     1
 75
     1
176
     1
175
     1
176
     1
 42
1.0
176
     1
 92
        8
176
     1
 66
     7
176
     1
 43
1.0
176
     1
 76
     1
176
     1
 77
     6
176
     1
 78
     2
176
     1
 67
     7
176
     1
 79
     5
176
     1
170
     0
176
     1
171
     0
176
     1
290
     0
176
     1
 93
        1
176
     1
 44
50.0
176
     1
173
     0
176
     1
1001
ACAD
1000
AcDbSavedByObjectVersion
1070
     0
  0
VISUALSTYLE
  5
2DF8
102
{ACAD_XDICTIONARY
360
3125
102
}
102
{ACAD_REACTORS
330
2DE8
102
}
330
2DE8
100
AcDbVisualStyle
  2
ColorChange
 70
    16
177
     2
291
     1
 71
     2
176
     1
 72
     2
176
     1
 73
     3
176
     1
 90
        0
176
     1
 40
0.6
176
     1
 41
30.0
176
     1
 63
     8
421
  8421504
176
     1
 74
     1
176
     1
 91
        4
176
     1
 64
     7
176
     1
 65
   257
176
     1
 75
     1
176
     1
175
     1
176
     1
 42
1.0
176
     1
 92
        8
176
     1
 66
     8
424
  8421504
176
     1
 43
1.0
176
     1
 76
     1
176
     1
 77
     6
176
     1
 78
     2
176
     1
 67
     7
176
     1
 79
     5
176
     1
170
     0
176
     1
171
     0
176
     1
290
     0
176
     1
 93
        1
176
     1
 44
0.0
176
     1
173
     0
176
     1
1001
ACAD
1000
AcDbSavedByObjectVersion
1070
     0
  0
VISUALSTYLE
  5
2DF1
102
{ACAD_XDICTIONARY
360
3117
102
}
102
{ACAD_REACTORS
330
2DE8
102
}
330
2DE8
100
AcDbVisualStyle
  2
Conceptual
 70
     9
177
     2
291
     0
 71
     3
176
     1
 72
     2
176
     1
 73
     0
176
     1
 90
        0
176
     1
 40
0.6
176
     1
 41
30.0
176
     1
 63
     7
421
 16777215
176
     1
 74
     2
176
     1
 91
        2
176
     1
 64
     7
176
     1
 65
   257
176
     1
 75
     1
176
     1
175
     1
176
     1
 42
179.0
176
     1
 92
        8
176
     1
 66
     7
176
     1
 43
1.0
176
     1
 76
     1
176
     1
 77
     6
176
     1
 78
     2
176
     1
 67
     7
176
     1
 79
     3
176
     1
170
     0
176
     1
171
     0
176
     1
290
     0
176
     1
 93
        1
176
     1
 44
0.0
176
     1
173
     0
176
     1
1001
ACAD
1000
AcDbSavedByObjectVersion
1070
     0
  0
VISUALSTYLE
  5
2DF3
102
{ACAD_XDICTIONARY
360
311B
102
}
102
{ACAD_REACTORS
330
2DE8
102
}
330
2DE8
100
AcDbVisualStyle
  2
Dim
 70
    11
177
     2
291
     1
 71
     2
176
     1
 72
     2
176
     1
 73
     0
176
     1
 90
        0
176
     1
 40
0.6
176
     1
 41
30.0
176
     1
 63
     7
421
 16777215
176
     1
 74
     1
176
     1
 91
        4
176
     1
 64
     7
176
     1
 65
   257
176
     1
 75
     1
176
     1
175
     1
176
     1
 42
1.0
176
     1
 92
        8
176
     1
 66
     7
176
     1
 43
1.0
176
     1
 76
     1
176
     1
 77
     6
176
     1
 78
     2
176
     1
 67
     7
176
     1
 79
     5
176
     1
170
     0
176
     1
171
     0
176
     1
290
     0
176
     1
 93
        1
176
     1
 44
-50.0
176
     1
173
     0
176
     1
1001
ACAD
1000
AcDbSavedByObjectVersion
1070
     0
  0
VISUALSTYLE
  5
2E00
102
{ACAD_XDICTIONARY
360
3135
102
}
102
{ACAD_REACTORS
330
2DE8
102
}
330
2DE8
100
AcDbVisualStyle
  2
EdgeColorOff
 70
    22
177
     2
291
     1
 71
     2
176
     0
 72
     2
176
     0
 73
     0
176
     0
 90
        0
176
     0
 40
0.6
176
     0
 41
30.0
176
     0
 63
     7
421
 16777215
176
     0
 74
     1
176
     0
 91
        4
176
     0
 64
     7
176
     0
 65
   257
176
     0
 75
     1
176
     0
175
     1
176
     0
 42
1.0
176
     0
 92
        8
176
     2
 66
     7
176
     0
 43
1.0
176
     0
 76
     1
176
     0
 77
     6
176
     0
 78
     2
176
     0
 67
     7
176
     0
 79
     5
176
     0
170
     0
176
     0
171
     0
176
     0
290
     0
176
     0
 93
        1
176
     0
 44
0.0
176
     0
173
     0
176
     0
1001
ACAD
1000
AcDbSavedByObjectVersion
1070
     0
  0
VISUALSTYLE
  5
2DF7
102
{ACAD_XDICTIONARY
360
3123
102
}
102
{ACAD_REACTORS
330
2DE8
102
}
330
2DE8
100
AcDbVisualStyle
  2
Facepattern
 70
    15
177
     2
291
     1
 71
     2
176
     1
 72
     2
176
     1
 73
     0
176
     1
 90
        0
176
     1
 40
0.6
176
     1
 41
30.0
176
     1
 63
     7
421
 16777215
176
     1
 74
     1
176
     1
 91
        4
176
     1
 64
     7
176
     1
 65
   257
176
     1
 75
     1
176
     1
175
     1
176
     1
 42
1.0
176
     1
 92
        8
176
     1
 66
     7
176
     1
 43
1.0
176
     1
 76
     1
176
     1
 77
     6
176
     1
 78
     2
176
     1
 67
     7
176
     1
 79
     5
176
     1
170
     0
176
     1
171
     0
176
     1
290
     0
176
     1
 93
        1
176
     1
 44
0.0
176
     1
173
     0
176
     1
1001
ACAD
1000
AcDbSavedByObjectVersion
1070
     0
  0
VISUALSTYLE
  5
2DE9
102
{ACAD_XDICTIONARY
360
3107
102
}
102
{ACAD_REACTORS
330
2DE8
102
}
330
2DE8
100
AcDbVisualStyle
  2
Flat
 70
     0
177
     2
291
     1
 71
     2
176
     1
 72
     1
176
     1
 73
     1
176
     1
 90
        2
176
     1
 40
0.6
176
     1
 41
30.0
176
     1
 63
     7
421
 16777215
176
     1
 74
     0
176
     1
 91
        0
176
     1
 64
     7
176
     1
 65
   257
176
     1
 75
     1
176
     1
175
     1
176
     1
 42
1.0
176
     1
 92
        8
176
     1
 66
     7
176
     1
 43
1.0
176
     1
 76
     1
176
     1
 77
     6
176
     1
 78
     2
176
     1
 67
     7
176
     1
 79
     5
176
     1
170
     0
176
     1
171
     0
176
     1
290
     0
176
     1
 93
       13
176
     1
 44
0.0
176
     1
173
     0
176
     1
1001
ACAD
1000
AcDbSavedByObjectVersion
1070
     0
  0
VISUALSTYLE
  5
2DEA
102
{ACAD_XDICTIONARY
360
3109
102
}
102
{ACAD_REACTORS
330
2DE8
102
}
330
2DE8
100
AcDbVisualStyle
  2
FlatWithEdges
 70
     1
177
     2
291
     1
 71
     2
176
     1
 72
     1
176
     1
 73
     1
176
     1
 90
        2
176
     1
 40
0.6
176
     1
 41
30.0
176
     1
 63
     7
421
 16777215
176
     1
 74
     1
176
     1
 91
        0
176
     1
 64
     7
176
     1
 65
   257
176
     1
 75
     1
176
     1
175
     1
176
     1
 42
1.0
176
     1
 92
        0
176
     1
 66
   257
176
     1
 43
1.0
176
     1
 76
     1
176
     1
 77
     6
176
     1
 78
     2
176
     1
 67
     7
176
     1
 79
     5
176
     1
170
     0
176
     1
171
     0
176
     1
290
     0
176
     1
 93
       13
176
     1
 44
0.0
176
     1
173
     0
176
     1
1001
ACAD
1000
AcDbSavedByObjectVersion
1070
     0
  0
VISUALSTYLE
  5
2DEB
102
{ACAD_XDICTIONARY
360
310B
102
}
102
{ACAD_REACTORS
330
2DE8
102
}
330
2DE8
100
AcDbVisualStyle
  2
Gouraud
 70
     2
177
     2
291
     1
 71
     2
176
     1
 72
     2
176
     1
 73
     1
176
     1
 90
        2
176
     1
 40
0.6
176
     1
 41
30.0
176
     1
 63
     7
421
 16777215
176
     1
 74
     0
176
     1
 91
        0
176
     1
 64
     7
176
     1
 65
   257
176
     1
 75
     1
176
     1
175
     1
176
     1
 42
1.0
176
     1
 92
        0
176
     1
 66
     7
176
     1
 43
1.0
176
     1
 76
     1
176
     1
 77
     6
176
     1
 78
     2
176
     1
 67
     7
176
     1
 79
     5
176
     1
170
     0
176
     1
171
     0
176
     1
290
     0
176
     1
 93
       13
176
     1
 44
0.0
176
     1
173
     0
176
     1
1001
ACAD
1000
AcDbSavedByObjectVersion
1070
     0
  0
VISUALSTYLE
  5
2DEC
102
{ACAD_XDICTIONARY
360
310D
102
}
102
{ACAD_REACTORS
330
2DE8
102
}
330
2DE8
100
AcDbVisualStyle
  2
GouraudWithEdges
 70
     3
177
     2
291
     1
 71
     2
176
     1
 72
     2
176
     1
 73
     1
176
     1
 90
        2
176
     1
 40
0.6
176
     1
 41
30.0
176
     1
 63
     7
421
 16777215
176
     1
 74
     1
176
     1
 91
        0
176
     1
 64
     7
176
     1
 65
   257
176
     1
 75
     1
176
     1
175
     1
176
     1
 42
1.0
176
     1
 92
        0
176
     1
 66
   257
176
     1
 43
1.0
176
     1
 76
     1
176
     1
 77
     6
176
     1
 78
     2
176
     1
 67
     7
176
     1
 79
     5
176
     1
170
     0
176
     1
171
     0
176
     1
290
     0
176
     1
 93
       13
176
     1
 44
0.0
176
     1
173
     0
176
     1
1001
ACAD
1000
AcDbSavedByObjectVersion
1070
     0
  0
VISUALSTYLE
  5
2DF0
102
{ACAD_XDICTIONARY
360
3115
102
}
102
{ACAD_REACTORS
330
2DE8
102
}
330
2DE8
100
AcDbVisualStyle
  2
Hidden
 70
     6
177
     2
291
     0
 71
     1
176
     1
 72
     2
176
     1
 73
     2
176
     1
 90
        0
176
     1
 40
0.6
176
     1
 41
30.0
176
     1
 63
     7
421
 16777215
176
     1
 74
     2
176
     1
 91
        2
176
     1
 64
     7
176
     1
 65
   257
176
     1
 75
     2
176
     1
175
     1
176
     1
 42
40.0
176
     1
 92
        0
176
     1
 66
   257
176
     1
 43
1.0
176
     1
 76
     1
176
     1
 77
     6
176
     1
 78
     2
176
     1
 67
     7
176
     1
 79
     3
176
     1
170
     0
176
     1
171
     0
176
     1
290
     0
176
     1
 93
        1
176
     1
 44
0.0
176
     1
173
     0
176
     1
1001
ACAD
1000
AcDbSavedByObjectVersion
1070
     0
  0
VISUALSTYLE
  5
2DFE
102
{ACAD_XDICTIONARY
360
3131
102
}
102
{ACAD_REACTORS
330
2DE8
102
}
330
2DE8
100
AcDbVisualStyle
  2
JitterOff
 70
    20
177
     2
291
     1
 71
     2
176
     0
 72
     2
176
     0
 73
     0
176
     0
 90
        0
176
     0
 40
0.6
176
     0
 41
30.0
176
     0
 63
     7
421
 16777215
176
     0
 74
     1
176
     0
 91
        4
176
     0
 64
     7
176
     0
 65
   257
176
     0
 75
     1
176
     0
175
     1
176
     0
 42
1.0
176
     0
 92
       10
176
     2
 66
     7
176
     0
 43
1.0
176
     0
 76
     1
176
     0
 77
     6
176
     0
 78
     2
176
     0
 67
     7
176
     0
 79
     5
176
     0
170
     0
176
     0
171
     0
176
     0
290
     0
176
     0
 93
        1
176
     0
 44
0.0
176
     0
173
     0
176
     0
1001
ACAD
1000
AcDbSavedByObjectVersion
1070
     0
  0
VISUALSTYLE
  5
2DF6
102
{ACAD_XDICTIONARY
360
3121
102
}
102
{ACAD_REACTORS
330
2DE8
102
}
330
2DE8
100
AcDbVisualStyle
  2
Linepattern
 70
    14
177
     2
291
     1
 71
     2
176
     1
 72
     2
176
     1
 73
     0
176
     1
 90
        0
176
     1
 40
0.6
176
     1
 41
30.0
176
     1
 63
     7
421
 16777215
176
     1
 74
     1
176
     1
 91
        4
176
     1
 64
     7
176
     1
 65
   257
176
     1
 75
     7
176
     1
175
     7
176
     1
 42
1.0
176
     1
 92
        8
176
     1
 66
     7
176
     1
 43
1.0
176
     1
 76
     1
176
     1
 77
     6
176
     1
 78
     2
176
     1
 67
     7
176
     1
 79
     5
176
     1
170
     0
176
     1
171
     0
176
     1
290
     0
176
     1
 93
        1
176
     1
 44
0.0
176
     1
173
     0
176
     1
1001
ACAD
1000
AcDbSavedByObjectVersion
1070
     0
  0
VISUALSTYLE
  5
2DFF
102
{ACAD_XDICTIONARY
360
3133
102
}
102
{ACAD_REACTORS
330
2DE8
102
}
330
2DE8
100
AcDbVisualStyle
  2
OverhangOff
 70
    21
177
     2
291
     1
 71
     2
176
     0
 72
     2
176
     0
 73
     0
176
     0
 90
        0
176
     0
 40
0.6
176
     0
 41
30.0
176
     0
 63
     7
421
 16777215
176
     0
 74
     1
176
     0
 91
        4
176
     0
 64
     7
176
     0
 65
   257
176
     0
 75
     1
176
     0
175
     1
176
     0
 42
1.0
176
     0
 92
        9
176
     2
 66
     7
176
     0
 43
1.0
176
     0
 76
     1
176
     0
 77
     6
176
     0
 78
     2
176
     0
 67
     7
176
     0
 79
     5
176
     0
170
     0
176
     0
171
     0
176
     0
290
     0
176
     0
 93
        1
176
     0
 44
0.0
176
     0
173
     0
176
     0
1001
ACAD
1000
AcDbSavedByObjectVersion
1070
     0
  0
VISUALSTYLE
  5
2DF2
102
{ACAD_XDICTIONARY
360
3119
102
}
102
{ACAD_REACTORS
330
2DE8
102
}
330
2DE8
100
AcDbVisualStyle
  2
Realistic
 70
     8
177
     2
291
     0
 71
     2
176
     1
 72
     3
176
     1
 73
     0
176
     1
 90
        2
176
     1
 40
0.6
176
     1
 41
30.0
176
     1
 63
     7
421
 16777215
176
     1
 74
     0
176
     1
 91
        0
176
     1
 64
     7
176
     1
 65
   257
176
     1
 75
     1
176
     1
175
     1
176
     1
 42
1.0
176
     1
 92
        8
176
     1
 66
   257
176
     1
 43
1.0
176
     1
 76
     1
176
     1
 77
     6
176
     1
 78
     2
176
     1
 67
     7
176
     1
 79
     3
176
     1
170
     0
176
     1
171
     0
176
     1
290
     0
176
     1
 93
       13
176
     1
 44
0.0
176
     1
173
     0
176
     1
1001
ACAD
1000
AcDbSavedByObjectVersion
1070
     0
  0
VISUALSTYLE
  5
2DFD
102
{ACAD_XDICTIONARY
360
312F
102
}
102
{ACAD_REACTORS
330
2DE8
102
}
330
2DE8
100
AcDbVisualStyle
  2
Shaded
 70
    27
177
     2
291
     0
 71
     2
176
     1
 72
     2
176
     1
 73
     1
176
     1
 90
        2
176
     1
 40
0.6
176
     1
 41
30.0
176
     1
 63
     7
421
 16777215
176
     1
 74
     0
176
     1
 91
        4
176
     1
 64
     7
176
     1
 65
   257
176
     1
 75
     1
176
     1
175
     1
176
     1
 42
1.0
176
     1
 92
        8
176
     1
 66
   257
176
     1
 43
1.0
176
     1
 76
     1
176
     1
 77
     6
176
     1
 78
     2
176
     1
 67
     8
425
  7895160
176
     1
 79
     3
176
     1
170
     0
176
     1
171
     0
176
     1
290
     0
176
     1
 93
        5
176
     1
 44
0.0
176
     1
173
     0
176
     1
1001
ACAD
1000
AcDbSavedByObjectVersion
1070
     0
  0
VISUALSTYLE
  5
2DFC
102
{ACAD_XDICTIONARY
360
312D
102
}
102
{ACAD_REACTORS
330
2DE8
102
}
330
2DE8
100
AcDbVisualStyle
  2
Shaded with edges
 70
    26
177
     2
291
     0
 71
     2
176
     1
 72
     2
176
     1
 73
     1
176
     1
 90
        2
176
     1
 40
0.6
176
     1
 41
30.0
176
     1
 63
     7
421
 16777215
176
     1
 74
     1
176
     1
 91
        2
176
     1
 64
     7
176
     1
 65
   257
176
     1
 75
     2
176
     1
175
     1
176
     1
 42
1.0
176
     1
 92
        8
176
     1
 66
   257
176
     1
 43
1.0
176
     1
 76
     1
176
     1
 77
     6
176
     1
 78
     2
176
     1
 67
     7
176
     1
 79
     3
176
     1
170
     0
176
     1
171
     0
176
     1
290
     0
176
     1
 93
        5
176
     1
 44
0.0
176
     1
173
     0
176
     1
1001
ACAD
1000
AcDbSavedByObjectVersion
1070
     0
  0
VISUALSTYLE
  5
2DF9
102
{ACAD_XDICTIONARY
360
3127
102
}
102
{ACAD_REACTORS
330
2DE8
102
}
330
2DE8
100
AcDbVisualStyle
  2
Shades of Gray
 70
    23
177
     2
291
     0
 71
     2
176
     1
 72
     2
176
     1
 73
     3
176
     1
 90
        0
176
     1
 40
0.6
176
     1
 41
30.0
176
     1
 63
     7
421
 16777215
176
     1
 74
     2
176
     1
 91
        2
176
     1
 64
     7
176
     1
 65
     7
176
     1
 75
     1
176
     1
175
     1
176
     1
 42
40.0
176
     1
 92
        8
176
     1
 66
     7
176
     1
 43
1.0
176
     1
 76
     1
176
     1
 77
     6
176
     1
 78
     2
176
     1
 67
     7
176
     1
 79
     3
176
     1
170
     0
176
     1
171
     0
176
     1
290
     0
176
     1
 93
        1
176
     1
 44
0.0
176
     1
173
     0
176
     1
1001
ACAD
1000
AcDbSavedByObjectVersion
1070
     0
  0
VISUALSTYLE
  5
2DFA
102
{ACAD_XDICTIONARY
360
3129
102
}
102
{ACAD_REACTORS
330
2DE8
102
}
330
2DE8
100
AcDbVisualStyle
  2
Sketchy
 70
    24
177
     2
291
     0
 71
     1
176
     1
 72
     2
176
     1
 73
     2
176
     1
 90
        0
176
     1
 40
0.6
176
     1
 41
30.0
176
     1
 63
     7
421
 16777215
176
     1
 74
     2
176
     1
 91
        2
176
     1
 64
     7
176
     1
 65
     7
176
     1
 75
     1
176
     1
175
     1
176
     1
 42
40.0
176
     1
 92
       11
176
     1
 66
     7
176
     1
 43
1.0
176
     1
 76
     1
176
     1
 77
     6
176
     1
 78
     2
176
     1
 67
     7
176
     1
 79
     6
176
     1
170
     0
176
     1
171
     0
176
     1
290
     0
176
     1
 93
        1
176
     1
 44
0.0
176
     1
173
     0
176
     1
1001
ACAD
1000
AcDbSavedByObjectVersion
1070
     0
  0
VISUALSTYLE
  5
2DF5
102
{ACAD_XDICTIONARY
360
311F
102
}
102
{ACAD_REACTORS
330
2DE8
102
}
330
2DE8
100
AcDbVisualStyle
  2
Thicken
 70
    13
177
     2
291
     1
 71
     2
176
     1
 72
     2
176
     1
 73
     0
176
     1
 90
        0
176
     1
 40
0.6
176
     1
 41
30.0
176
     1
 63
     7
421
 16777215
176
     1
 74
     1
176
     1
 91
        4
176
     1
 64
     7
176
     1
 65
   257
176
     1
 75
     1
176
     1
175
     1
176
     1
 42
1.0
176
     1
 92
       12
176
     1
 66
     7
176
     1
 43
1.0
176
     1
 76
     1
176
     1
 77
     6
176
     1
 78
     2
176
     1
 67
     7
176
     1
 79
     5
176
     1
170
     0
176
     1
171
     0
176
     1
290
     0
176
     1
 93
        1
176
     1
 44
0.0
176
     1
173
     0
176
     1
1001
ACAD
1000
AcDbSavedByObjectVersion
1070
     0
  0
VISUALSTYLE
  5
2DEF
102
{ACAD_XDICTIONARY
360
3113
102
}
102
{ACAD_REACTORS
330
2DE8
102
}
330
2DE8
100
AcDbVisualStyle
  2
Wireframe
 70
     5
177
     2
291
     0
 71
     0
176
     1
 72
     2
176
     1
 73
     0
176
     1
 90
        0
176
     1
 40
0.6
176
     1
 41
30.0
176
     1
 63
     7
421
 16777215
176
     1
 74
     1
176
     1
 91
        4
176
     1
 64
     7
176
     1
 65
   257
176
     1
 75
     1
176
     1
175
     1
176
     1
 42
1.0
176
     1
 92
        0
176
     1
 66
   257
176
     1
 43
1.0
176
     1
 76
     1
176
     1
 77
     6
176
     1
 78
     2
176
     1
 67
     7
176
     1
 79
     3
176
     1
170
     0
176
     1
171
     0
176
     1
290
     0
176
     1
 93
        1
176
     1
 44
0.0
176
     1
173
     0
176
     1
1001
ACAD
1000
AcDbSavedByObjectVersion
1070
     0
  0
VISUALSTYLE
  5
2DFB
102
{ACAD_XDICTIONARY
360
312B
102
}
102
{ACAD_REACTORS
330
2DE8
102
}
330
2DE8
100
AcDbVisualStyle
  2
X-Ray
 70
    25
177
     2
291
     0
 71
     2
176
     1
 72
     2
176
     1
 73
     1
176
     1
 90
        1
176
     1
 40
0.5
176
     1
 41
30.0
176
     1
 63
     7
421
 16777215
176
     1
 74
     1
176
     1
 91
        0
176
     1
 64
     7
176
     1
 65
   257
176
     1
 75
     1
176
     1
175
     1
176
     1
 42
1.0
176
     1
 92
        8
176
     1
 66
     7
176
     1
 43
1.0
176
     1
 76
     1
176
     1
 77
     6
176
     1
 78
     2
176
     1
 67
     7
176
     1
 79
     3
176
     1
170
     0
176
     1
171
     0
176
     1
290
     0
176
     1
 93
       13
176
     1
 44
0.0
176
     1
173
     0
176
     1
1001
ACAD
1000
AcDbSavedByObjectVersion
1070
     0
  0
DICTIONARYVAR
  5
2FEB
102
{ACAD_REACTORS
330
2FE5
102
}
330
2FE5
100
DictionaryVariables
280
     0
  1
1:1
  0
DICTIONARYVAR
  5
2FE7
102
{ACAD_REACTORS
330
2FE5
102
}
330
2FE5
100
DictionaryVariables
280
     0
  1
STANDARD
  0
DICTIONARYVAR
  5
2FE6
102
{ACAD_REACTORS
330
2FE5
102
}
330
2FE5
100
DictionaryVariables
280
     0
  1
STANDARD
  0
DICTIONARYVAR
  5
2FE8
102
{ACAD_REACTORS
330
2FE5
102
}
330
2FE5
100
DictionaryVariables
280
     0
  1
Imperial24
  0
DICTIONARYVAR
  5
2FE9
102
{ACAD_REACTORS
330
2FE5
102
}
330
2FE5
100
DictionaryVariables
280
     0
  1
Imperial24
  0
DICTIONARYVAR
  5
2FED
102
{ACAD_REACTORS
330
2FE5
102
}
330
2FE5
100
DictionaryVariables
280
     0
  1
1
  0
DICTIONARYVAR
  5
2FEE
102
{ACAD_REACTORS
330
2FE5
102
}
330
2FE5
100
DictionaryVariables
280
     0
  1
15
  0
DICTIONARYVAR
  5
2FEC
102
{ACAD_REACTORS
330
2FE5
102
}
330
2FE5
100
DictionaryVariables
280
     0
  1
0
  0
DICTIONARYVAR
  5
2FEA
102
{ACAD_REACTORS
330
2FE5
102
}
330
2FE5
100
DictionaryVariables
280
     0
  1
0
  0
DICTIONARY
  5
3106
102
{ACAD_REACTORS
330
3104
102
}
330
3104
100
AcDbDictionary
281
     1
  0
DICTIONARY
  5
3105
102
{ACAD_REACTORS
330
3104
102
}
330
3104
100
AcDbDictionary
281
     1
  3
1762277907184
350
30FF
  3
1762277907200
350
3100
  3
1762277907216
350
3101
  3
1762277907232
350
3102
  3
1762277907248
350
3103
  0
DICTIONARY
  5
2F13
102
{ACAD_REACTORS
330
2F0A
102
}
330
2F0A
100
AcDbDictionary
281
     1
  0
DICTIONARY
  5
3139
330
2E29
100
AcDbDictionary
280
     1
281
     1
  3
ACAD_XREC_ROUNDTRIP
360
313A
  0
DICTIONARY
  5
2DD9
330
2DD8
100
AcDbDictionary
280
     1
281
     1
  3
BUMPTILE
360
2DDB
  3
DIFFUSETILE
360
2DDA
  3
OPACITYTILE
360
2DDE
  3
REFLECTIONTILE
360
2DDD
  3
REFRACTIONTILE
360
2DDF
  3
SPECULARTILE
360
2DDC
  0
DICTIONARY
  5
2DD1
330
2DD0
100
AcDbDictionary
280
     1
281
     1
  3
BUMPTILE
360
2DD3
  3
DIFFUSETILE
360
2DD2
  3
OPACITYTILE
360
2DD6
  3
REFLECTIONTILE
360
2DD5
  3
REFRACTIONTILE
360
2DD7
  3
SPECULARTILE
360
2DD4
  0
DICTIONARY
  5
2DE1
330
2DE0
100
AcDbDictionary
280
     1
281
     1
  3
BUMPTILE
360
2DE3
  3
DIFFUSETILE
360
2DE2
  3
OPACITYTILE
360
2DE6
  3
REFLECTIONTILE
360
2DE5
  3
REFRACTIONTILE
360
2DE7
  3
SPECULARTILE
360
2DE4
  0
DICTIONARY
  5
3137
330
2E27
100
AcDbDictionary
280
     1
281
     1
  3
ACAD_XREC_ROUNDTRIP
360
3138
  0
DICTIONARY
  5
2FEF
330
2E23
100
AcDbDictionary
280
     1
281
     1
  3
ACAD_ROUNDTRIP_2008_TABLESTYLE_CELLSTYLEMAP
360
30FD
  0
DICTIONARY
  5
3111
330
2DEE
100
AcDbDictionary
280
     1
281
     1
  3
ACAD_XREC_ROUNDTRIP
360
3112
  0
DICTIONARY
  5
310F
330
2DED
100
AcDbDictionary
280
     1
281
     1
  3
ACAD_XREC_ROUNDTRIP
360
3110
  0
DICTIONARY
  5
311D
330
2DF4
100
AcDbDictionary
280
     1
281
     1
  3
ACAD_XREC_ROUNDTRIP
360
311E
  0
DICTIONARY
  5
3125
330
2DF8
100
AcDbDictionary
280
     1
281
     1
  3
ACAD_XREC_ROUNDTRIP
360
3126
  0
DICTIONARY
  5
3117
330
2DF1
100
AcDbDictionary
280
     1
281
     1
  3
ACAD_XREC_ROUNDTRIP
360
3118
  0
DICTIONARY
  5
311B
330
2DF3
100
AcDbDictionary
280
     1
281
     1
  3
ACAD_XREC_ROUNDTRIP
360
311C
  0
DICTIONARY
  5
3135
330
2E00
100
AcDbDictionary
280
     1
281
     1
  3
ACAD_XREC_ROUNDTRIP
360
3136
  0
DICTIONARY
  5
3123
330
2DF7
100
AcDbDictionary
280
     1
281
     1
  3
ACAD_XREC_ROUNDTRIP
360
3124
  0
DICTIONARY
  5
3107
330
2DE9
100
AcDbDictionary
280
     1
281
     1
  3
ACAD_XREC_ROUNDTRIP
360
3108
  0
DICTIONARY
  5
3109
330
2DEA
100
AcDbDictionary
280
     1
281
     1
  3
ACAD_XREC_ROUNDTRIP
360
310A
  0
DICTIONARY
  5
310B
330
2DEB
100
AcDbDictionary
280
     1
281
     1
  3
ACAD_XREC_ROUNDTRIP
360
310C
  0
DICTIONARY
  5
310D
330
2DEC
100
AcDbDictionary
280
     1
281
     1
  3
ACAD_XREC_ROUNDTRIP
360
310E
  0
DICTIONARY
  5
3115
330
2DF0
100
AcDbDictionary
280
     1
281
     1
  3
ACAD_XREC_ROUNDTRIP
360
3116
  0
DICTIONARY
  5
3131
330
2DFE
100
AcDbDictionary
280
     1
281
     1
  3
ACAD_XREC_ROUNDTRIP
360
3132
  0
DICTIONARY
  5
3121
330
2DF6
100
AcDbDictionary
280
     1
281
     1
  3
ACAD_XREC_ROUNDTRIP
360
3122
  0
DICTIONARY
  5
3133
330
2DFF
100
AcDbDictionary
280
     1
281
     1
  3
ACAD_XREC_ROUNDTRIP
360
3134
  0
DICTIONARY
  5
3119
330
2DF2
100
AcDbDictionary
280
     1
281
     1
  3
ACAD_XREC_ROUNDTRIP
360
311A
  0
DICTIONARY
  5
312F
330
2DFD
100
AcDbDictionary
280
     1
281
     1
  3
ACAD_XREC_ROUNDTRIP
360
3130
  0
DICTIONARY
  5
312D
330
2DFC
100
AcDbDictionary
280
     1
281
     1
  3
ACAD_XREC_ROUNDTRIP
360
312E
  0
DICTIONARY
  5
3127
330
2DF9
100
AcDbDictionary
280
     1
281
     1
  3
ACAD_XREC_ROUNDTRIP
360
3128
  0
DICTIONARY
  5
3129
330
2DFA
100
AcDbDictionary
280
     1
281
     1
  3
ACAD_XREC_ROUNDTRIP
360
312A
  0
DICTIONARY
  5
311F
330
2DF5
100
AcDbDictionary
280
     1
281
     1
  3
ACAD_XREC_ROUNDTRIP
360
3120
  0
DICTIONARY
  5
3113
330
2DEF
100
AcDbDictionary
280
     1
281
     1
  3
ACAD_XREC_ROUNDTRIP
360
3114
  0
DICTIONARY
  5
312B
330
2DFB
100
AcDbDictionary
280
     1
281
     1
  3
ACAD_XREC_ROUNDTRIP
360
312C
  0
XRECORD
  5
30FF
102
{ACAD_REACTORS
330
3105
102
}
330
3105
100
AcDbXrecord
280
     1
  1
AcDb_Thumbnail_Schema
102
{ATTRRECORD
341
3100
  2
AcDbDs::TreatedAsObjectData
280
     1
291
     1
102
ATTRRECORD}
102
{ATTRRECORD
341
3101
  2
AcDbDs::Legacy
280
     1
291
     1
102
ATTRRECORD}
  2
AcDbDs::ID
280
    10
 91
        8
102
{ATTRRECORD
341
3102
  2
AcDs:Indexable
280
     1
291
     1
102
ATTRRECORD}
102
{ATTRRECORD
341
3103
  2
AcDbDs::HandleAttribute
280
     7
282
     1
102
ATTRRECORD}
  2
Thumbnail_Data
280
    15
 91
        0
  0
XRECORD
  5
3100
102
{ACAD_REACTORS
330
3105
102
}
330
3105
100
AcDbXrecord
280
     1
  1
AcDbDs::TreatedAsObjectDataSchema
  2
AcDbDs::TreatedAsObjectData
280
     1
 91
        0
  0
XRECORD
  5
3101
102
{ACAD_REACTORS
330
3105
102
}
330
3105
100
AcDbXrecord
280
     1
  1
AcDbDs::LegacySchema
  2
AcDbDs::Legacy
280
     1
 91
        0
  0
XRECORD
  5
3102
102
{ACAD_REACTORS
330
3105
102
}
330
3105
100
AcDbXrecord
280
     1
  1
AcDbDs::IndexedPropertySchema
  2
AcDs:Indexable
280
     1
 91
        0
  0
XRECORD
  5
3103
102
{ACAD_REACTORS
330
3105
102
}
330
3105
100
AcDbXrecord
280
     1
  1
AcDbDs::HandleAttributeSchema
  2
AcDbDs::HandleAttribute
280
     7
 91
        1
284
     1
  0
XRECORD
  5
313A
102
{ACAD_REACTORS
330
3139
102
}
330
3139
100
AcDbXrecord
280
     1
102
DISPLAYNAME
  1
Imperial24
102
FLAGS
 90
        0
  0
XRECORD
  5
2DDB
102
{ACAD_REACTORS
330
2DD9
102
}
330
2DD9
100
AcDbXrecord
280
     1
270
     1
271
     1
  0
XRECORD
  5
2DDA
102
{ACAD_REACTORS
330
2DD9
102
}
330
2DD9
100
AcDbXrecord
280
     1
270
     1
271
     1
  0
XRECORD
  5
2DDE
102
{ACAD_REACTORS
330
2DD9
102
}
330
2DD9
100
AcDbXrecord
280
     1
270
     1
271
     1
  0
XRECORD
  5
2DDD
102
{ACAD_REACTORS
330
2DD9
102
}
330
2DD9
100
AcDbXrecord
280
     1
270
     1
271
     1
  0
XRECORD
  5
2DDF
102
{ACAD_REACTORS
330
2DD9
102
}
330
2DD9
100
AcDbXrecord
280
     1
270
     1
271
     1
  0
XRECORD
  5
2DDC
102
{ACAD_REACTORS
330
2DD9
102
}
330
2DD9
100
AcDbXrecord
280
     1
270
     1
271
     1
  0
XRECORD
  5
2DD3
102
{ACAD_REACTORS
330
2DD1
102
}
330
2DD1
100
AcDbXrecord
280
     1
270
     1
271
     1
  0
XRECORD
  5
2DD2
102
{ACAD_REACTORS
330
2DD1
102
}
330
2DD1
100
AcDbXrecord
280
     1
270
     1
271
     1
  0
XRECORD
  5
2DD6
102
{ACAD_REACTORS
330
2DD1
102
}
330
2DD1
100
AcDbXrecord
280
     1
270
     1
271
     1
  0
XRECORD
  5
2DD5
102
{ACAD_REACTORS
330
2DD1
102
}
330
2DD1
100
AcDbXrecord
280
     1
270
     1
271
     1
  0
XRECORD
  5
2DD7
102
{ACAD_REACTORS
330
2DD1
102
}
330
2DD1
100
AcDbXrecord
280
     1
270
     1
271
     1
  0
XRECORD
  5
2DD4
102
{ACAD_REACTORS
330
2DD1
102
}
330
2DD1
100
AcDbXrecord
280
     1
270
     1
271
     1
  0
XRECORD
  5
2DE3
102
{ACAD_REACTORS
330
2DE1
102
}
330
2DE1
100
AcDbXrecord
280
     1
270
     1
271
     1
  0
XRECORD
  5
2DE2
102
{ACAD_REACTORS
330
2DE1
102
}
330
2DE1
100
AcDbXrecord
280
     1
270
     1
271
     1
  0
XRECORD
  5
2DE6
102
{ACAD_REACTORS
330
2DE1
102
}
330
2DE1
100
AcDbXrecord
280
     1
270
     1
271
     1
  0
XRECORD
  5
2DE5
102
{ACAD_REACTORS
330
2DE1
102
}
330
2DE1
100
AcDbXrecord
280
     1
270
     1
271
     1
  0
XRECORD
  5
2DE7
102
{ACAD_REACTORS
330
2DE1
102
}
330
2DE1
100
AcDbXrecord
280
     1
270
     1
271
     1
  0
XRECORD
  5
2DE4
102
{ACAD_REACTORS
330
2DE1
102
}
330
2DE1
100
AcDbXrecord
280
     1
270
     1
271
     1
  0
XRECORD
  5
3138
102
{ACAD_REACTORS
330
3137
102
}
330
3137
100
AcDbXrecord
280
     1
102
DISPLAYNAME
  1
Imperial24
102
FLAGS
 90
        0
  0
CELLSTYLEMAP
  5
30FD
102
{ACAD_REACTORS
330
2FEF
102
}
330
2FEF
100
AcDbCellStyleMap
 90
        3
300
CELLSTYLE
  1
TABLEFORMAT_BEGIN
 90
        5
170
     1
 91
        0
 92
    32768
 62
   257
 93
        1
300
CONTENTFORMAT
  1
CONTENTFORMAT_BEGIN
 90
        0
 91
        0
 92
      512
 93
        0
300

 40
0.0
140
1.0
 94
        5
 62
     0
340
2E14
144
0.25
309
CONTENTFORMAT_END
171
     1
301
MARGIN
  1
CELLMARGIN_BEGIN
 40
0.06
 40
0.06
 40
0.06
 40
0.06
 40
0.18
 40
0.18
309
CELLMARGIN_END
 94
        6
 95
        1
302
GRIDFORMAT
  1
GRIDFORMAT_BEGIN
 90
        0
 91
        1
 62
     0
 92
       -2
340
0
 93
        0
 40
0.045
309
GRIDFORMAT_END
 95
        2
302
GRIDFORMAT
  1
GRIDFORMAT_BEGIN
 90
        0
 91
        1
 62
     0
 92
       -2
340
0
 93
        0
 40
0.045
309
GRIDFORMAT_END
 95
        4
302
GRIDFORMAT
  1
GRIDFORMAT_BEGIN
 90
        0
 91
        1
 62
     0
 92
       -2
340
0
 93
        0
 40
0.045
309
GRIDFORMAT_END
 95
        8
302
GRIDFORMAT
  1
GRIDFORMAT_BEGIN
 90
        0
 91
        1
 62
     0
 92
       -2
340
0
 93
        0
 40
0.045
309
GRIDFORMAT_END
 95
       16
302
GRIDFORMAT
  1
GRIDFORMAT_BEGIN
 90
        0
 91
        1
 62
     0
 92
       -2
340
0
 93
        0
 40
0.045
309
GRIDFORMAT_END
 95
       32
302
GRIDFORMAT
  1
GRIDFORMAT_BEGIN
 90
        0
 91
        1
 62
     0
 92
       -2
340
0
 93
        0
 40
0.045
309
GRIDFORMAT_END
309
TABLEFORMAT_END
  1
CELLSTYLE_BEGIN
 90
        1
 91
        1
300
_TITLE
309
CELLSTYLE_END
300
CELLSTYLE
  1
TABLEFORMAT_BEGIN
 90
        5
170
     1
 91
        0
 92
        0
 62
   257
 93
        1
300
CONTENTFORMAT
  1
CONTENTFORMAT_BEGIN
 90
        0
 91
        0
 92
      512
 93
        0
300

 40
0.0
140
1.0
 94
        5
 62
     0
340
2E14
144
0.18
309
CONTENTFORMAT_END
171
     1
301
MARGIN
  1
CELLMARGIN_BEGIN
 40
0.06
 40
0.06
 40
0.06
 40
0.06
 40
0.18
 40
0.18
309
CELLMARGIN_END
 94
        6
 95
        1
302
GRIDFORMAT
  1
GRIDFORMAT_BEGIN
 90
        0
 91
        1
 62
     0
 92
       -2
340
0
 93
        0
 40
0.045
309
GRIDFORMAT_END
 95
        2
302
GRIDFORMAT
  1
GRIDFORMAT_BEGIN
 90
        0
 91
        1
 62
     0
 92
       -2
340
0
 93
        0
 40
0.045
309
GRIDFORMAT_END
 95
        4
302
GRIDFORMAT
  1
GRIDFORMAT_BEGIN
 90
        0
 91
        1
 62
     0
 92
       -2
340
0
 93
        0
 40
0.045
309
GRIDFORMAT_END
 95
        8
302
GRIDFORMAT
  1
GRIDFORMAT_BEGIN
 90
        0
 91
        1
 62
     0
 92
       -2
340
0
 93
        0
 40
0.045
309
GRIDFORMAT_END
 95
       16
302
GRIDFORMAT
  1
GRIDFORMAT_BEGIN
 90
        0
 91
        1
 62
     0
 92
       -2
340
0
 93
        0
 40
0.045
309
GRIDFORMAT_END
 95
       32
302
GRIDFORMAT
  1
GRIDFORMAT_BEGIN
 90
        0
 91
        1
 62
     0
 92
       -2
340
0
 93
        0
 40
0.045
309
GRIDFORMAT_END
309
TABLEFORMAT_END
  1
CELLSTYLE_BEGIN
 90
        2
 91
        1
300
_HEADER
309
CELLSTYLE_END
300
CELLSTYLE
  1
TABLEFORMAT_BEGIN
 90
        5
170
     1
 91
        0
 92
        0
 62
   257
 93
        1
300
CONTENTFORMAT
  1
CONTENTFORMAT_BEGIN
 90
        0
 91
        0
 92
      512
 93
        0
300

 40
0.0
140
1.0
 94
        2
 62
     0
340
2E14
144
0.18
309
CONTENTFORMAT_END
171
     1
301
MARGIN
  1
CELLMARGIN_BEGIN
 40
0.06
 40
0.06
 40
0.06
 40
0.06
 40
0.18
 40
0.18
309
CELLMARGIN_END
 94
        6
 95
        1
302
GRIDFORMAT
  1
GRIDFORMAT_BEGIN
 90
        0
 91
        1
 62
     0
 92
       -2
340
0
 93
        0
 40
0.045
309
GRIDFORMAT_END
 95
        2
302
GRIDFORMAT
  1
GRIDFORMAT_BEGIN
 90
        0
 91
        1
 62
     0
 92
       -2
340
0
 93
        0
 40
0.045
309
GRIDFORMAT_END
 95
        4
302
GRIDFORMAT
  1
GRIDFORMAT_BEGIN
 90
        0
 91
        1
 62
     0
 92
       -2
340
0
 93
        0
 40
0.045
309
GRIDFORMAT_END
 95
        8
302
GRIDFORMAT
  1
GRIDFORMAT_BEGIN
 90
        0
 91
        1
 62
     0
 92
       -2
340
0
 93
        0
 40
0.045
309
GRIDFORMAT_END
 95
       16
302
GRIDFORMAT
  1
GRIDFORMAT_BEGIN
 90
        0
 91
        1
 62
     0
 92
       -2
340
0
 93
        0
 40
0.045
309
GRIDFORMAT_END
 95
       32
302
GRIDFORMAT
  1
GRIDFORMAT_BEGIN
 90
        0
 91
        1
 62
     0
 92
       -2
340
0
 93
        0
 40
0.045
309
GRIDFORMAT_END
309
TABLEFORMAT_END
  1
CELLSTYLE_BEGIN
 90
        3
 91
        2
300
_DATA
309
CELLSTYLE_END
  0
XRECORD
  5
3112
102
{ACAD_REACTORS
330
3111
102
}
330
3111
100
AcDbXrecord
280
     1
102
RTVSPost2010Prop28
280
     1
102
RTVSPost2010PropOp28
 70
     1
102
RTVSPost2010Prop29
280
     1
102
RTVSPost2010PropOp29
 70
     1
102
RTVSPost2010Prop30
280
     0
102
RTVSPost2010PropOp30
 70
     1
102
RTVSPost2010Prop31
280
     0
102
RTVSPost2010PropOp31
 70
     1
102
RTVSPost2010Prop32
280
     0
102
RTVSPost2010PropOp32
 70
     1
102
RTVSPost2010Prop33
280
     0
102
RTVSPost2010PropOp33
 70
     1
102
RTVSPost2010Prop34
280
     0
102
RTVSPost2010PropOp34
 70
     1
102
RTVSPost2010Prop35
280
     0
102
RTVSPost2010PropOp35
 70
     1
102
RTVSPost2010Prop36
280
     0
102
RTVSPost2010PropOp36
 70
     1
102
RTVSPost2010Prop37
 90
       50
102
RTVSPost2010PropOp37
 70
     1
102
RTVSPost2010Prop38
140
0.0
102
RTVSPost2010PropOp38
 70
     1
102
RTVSPost2010Prop39
140
1.0
102
RTVSPost2010PropOp39
 70
     1
102
RTVSPost2010Prop40
 90
        0
102
RTVSPost2010PropOp40
 70
     1
102
RTVSPost2010Prop41ColorIndex
 90
       18
102
RTVSPost2010Prop41ColorRGB
 90
        0
102
RTVSPost2010PropOp41
 70
     1
102
RTVSPost2010Prop42
 90
       50
102
RTVSPost2010PropOp42
 70
     1
102
RTVSPost2010Prop43
 90
        3
102
RTVSPost2010PropOp43
 70
     1
102
RTVSPost2010Prop44ColorIndex
 90
        5
102
RTVSPost2010Prop44ColorRGB
 90
      255
102
RTVSPost2010PropOp44
 70
     1
102
RTVSPost2010Prop45
280
     0
102
RTVSPost2010PropOp45
 70
     1
102
RTVSPost2010Prop46
 90
       50
102
RTVSPost2010PropOp46
 70
     1
102
RTVSPost2010Prop47
 90
       50
102
RTVSPost2010PropOp47
 70
     1
102
RTVSPost2010Prop48
 90
       50
102
RTVSPost2010PropOp48
 70
     1
102
RTVSPost2010Prop49
280
     0
102
RTVSPost2010PropOp49
 70
     1
102
RTVSPost2010Prop50
 90
       50
102
RTVSPost2010PropOp50
 70
     1
102
RTVSPost2010Prop51ColorIndex
 90
      256
102
RTVSPost2010Prop51ColorRGB
 90
-16777216
102
RTVSPost2010PropOp51
 70
     0
102
RTVSPost2010Prop52
140
1.0
102
RTVSPost2010PropOp52
 70
     0
102
RTVSPost2010Prop53
 90
        2
102
RTVSPost2010PropOp53
 70
     1
102
RTVSPost2010Prop54
  1
strokes_ogs.tif
102
RTVSPost2010PropOp54
 70
     1
102
RTVSPost2010Prop55
280
     0
102
RTVSPost2010PropOp55
 70
     1
102
RTVSPost2010Prop56
140
1.0
102
RTVSPost2010PropOp56
 70
     1
102
RTVSPost2010Prop57
140
1.0
102
RTVSPost2010PropOp57
 70
     1
  0
XRECORD
  5
3110
102
{ACAD_REACTORS
330
310F
102
}
330
310F
100
AcDbXrecord
280
     1
102
RTVSPost2010Prop28
280
     0
102
RTVSPost2010PropOp28
 70
     1
102
RTVSPost2010Prop29
280
     1
102
RTVSPost2010PropOp29
 70
     1
102
RTVSPost2010Prop30
280
     1
102
RTVSPost2010PropOp30
 70
     1
102
RTVSPost2010Prop31
280
     0
102
RTVSPost2010PropOp31
 70
     1
102
RTVSPost2010Prop32
280
     0
102
RTVSPost2010PropOp32
 70
     1
102
RTVSPost2010Prop33
280
     0
102
RTVSPost2010PropOp33
 70
     1
102
RTVSPost2010Prop34
280
     0
102
RTVSPost2010PropOp34
 70
     1
102
RTVSPost2010Prop35
280
     0
102
RTVSPost2010PropOp35
 70
     1
102
RTVSPost2010Prop36
280
     0
102
RTVSPost2010PropOp36
 70
     1
102
RTVSPost2010Prop37
 90
       50
102
RTVSPost2010PropOp37
 70
     1
102
RTVSPost2010Prop38
140
0.0
102
RTVSPost2010PropOp38
 70
     1
102
RTVSPost2010Prop39
140
1.0
102
RTVSPost2010PropOp39
 70
     1
102
RTVSPost2010Prop40
 90
        0
102
RTVSPost2010PropOp40
 70
     1
102
RTVSPost2010Prop41ColorIndex
 90
       18
102
RTVSPost2010Prop41ColorRGB
 90
        0
102
RTVSPost2010PropOp41
 70
     1
102
RTVSPost2010Prop42
 90
       50
102
RTVSPost2010PropOp42
 70
     1
102
RTVSPost2010Prop43
 90
        3
102
RTVSPost2010PropOp43
 70
     1
102
RTVSPost2010Prop44ColorIndex
 90
        5
102
RTVSPost2010Prop44ColorRGB
 90
      255
102
RTVSPost2010PropOp44
 70
     1
102
RTVSPost2010Prop45
280
     0
102
RTVSPost2010PropOp45
 70
     1
102
RTVSPost2010Prop46
 90
       50
102
RTVSPost2010PropOp46
 70
     1
102
RTVSPost2010Prop47
 90
       50
102
RTVSPost2010PropOp47
 70
     1
102
RTVSPost2010Prop48
 90
       50
102
RTVSPost2010PropOp48
 70
     1
102
RTVSPost2010Prop49
280
     0
102
RTVSPost2010PropOp49
 70
     1
102
RTVSPost2010Prop50
 90
       50
102
RTVSPost2010PropOp50
 70
     1
102
RTVSPost2010Prop51ColorIndex
 90
      256
102
RTVSPost2010Prop51ColorRGB
 90
-16777216
102
RTVSPost2010PropOp51
 70
     0
102
RTVSPost2010Prop52
140
1.0
102
RTVSPost2010PropOp52
 70
     0
102
RTVSPost2010Prop53
 90
        2
102
RTVSPost2010PropOp53
 70
     1
102
RTVSPost2010Prop54
  1
strokes_ogs.tif
102
RTVSPost2010PropOp54
 70
     1
102
RTVSPost2010Prop55
280
     0
102
RTVSPost2010PropOp55
 70
     1
102
RTVSPost2010Prop56
140
1.0
102
RTVSPost2010PropOp56
 70
     1
102
RTVSPost2010Prop57
140
1.0
102
RTVSPost2010PropOp57
 70
     1
  0
XRECORD
  5
311E
102
{ACAD_REACTORS
330
311D
102
}
330
311D
100
AcDbXrecord
280
     1
102
RTVSPost2010Prop28
280
     0
102
RTVSPost2010PropOp28
 70
     1
102
RTVSPost2010Prop29
280
     1
102
RTVSPost2010PropOp29
 70
     1
102
RTVSPost2010Prop30
280
     1
102
RTVSPost2010PropOp30
 70
     1
102
RTVSPost2010Prop31
280
     0
102
RTVSPost2010PropOp31
 70
     1
102
RTVSPost2010Prop32
280
     0
102
RTVSPost2010PropOp32
 70
     1
102
RTVSPost2010Prop33
280
     0
102
RTVSPost2010PropOp33
 70
     1
102
RTVSPost2010Prop34
280
     0
102
RTVSPost2010PropOp34
 70
     1
102
RTVSPost2010Prop35
280
     0
102
RTVSPost2010PropOp35
 70
     1
102
RTVSPost2010Prop36
280
     0
102
RTVSPost2010PropOp36
 70
     1
102
RTVSPost2010Prop37
 90
       50
102
RTVSPost2010PropOp37
 70
     1
102
RTVSPost2010Prop38
140
0.0
102
RTVSPost2010PropOp38
 70
     1
102
RTVSPost2010Prop39
140
1.0
102
RTVSPost2010PropOp39
 70
     1
102
RTVSPost2010Prop40
 90
        0
102
RTVSPost2010PropOp40
 70
     1
102
RTVSPost2010Prop41ColorIndex
 90
       18
102
RTVSPost2010Prop41ColorRGB
 90
        0
102
RTVSPost2010PropOp41
 70
     1
102
RTVSPost2010Prop42
 90
       50
102
RTVSPost2010PropOp42
 70
     1
102
RTVSPost2010Prop43
 90
        3
102
RTVSPost2010PropOp43
 70
     1
102
RTVSPost2010Prop44ColorIndex
 90
        5
102
RTVSPost2010Prop44ColorRGB
 90
      255
102
RTVSPost2010PropOp44
 70
     1
102
RTVSPost2010Prop45
280
     0
102
RTVSPost2010PropOp45
 70
     1
102
RTVSPost2010Prop46
 90
       50
102
RTVSPost2010PropOp46
 70
     1
102
RTVSPost2010Prop47
 90
       50
102
RTVSPost2010PropOp47
 70
     1
102
RTVSPost2010Prop48
 90
       50
102
RTVSPost2010PropOp48
 70
     1
102
RTVSPost2010Prop49
280
     0
102
RTVSPost2010PropOp49
 70
     1
102
RTVSPost2010Prop50
 90
       50
102
RTVSPost2010PropOp50
 70
     1
102
RTVSPost2010Prop51ColorIndex
 90
      256
102
RTVSPost2010Prop51ColorRGB
 90
-16777216
102
RTVSPost2010PropOp51
 70
     0
102
RTVSPost2010Prop52
140
1.0
102
RTVSPost2010PropOp52
 70
     0
102
RTVSPost2010Prop53
 90
        2
102
RTVSPost2010PropOp53
 70
     1
102
RTVSPost2010Prop54
  1
strokes_ogs.tif
102
RTVSPost2010PropOp54
 70
     1
102
RTVSPost2010Prop55
280
     0
102
RTVSPost2010PropOp55
 70
     1
102
RTVSPost2010Prop56
140
1.0
102
RTVSPost2010PropOp56
 70
     1
102
RTVSPost2010Prop57
140
1.0
102
RTVSPost2010PropOp57
 70
     1
  0
XRECORD
  5
3126
102
{ACAD_REACTORS
330
3125
102
}
330
3125
100
AcDbXrecord
280
     1
102
RTVSPost2010Prop28
280
     0
102
RTVSPost2010PropOp28
 70
     1
102
RTVSPost2010Prop29
280
     1
102
RTVSPost2010PropOp29
 70
     1
102
RTVSPost2010Prop30
280
     1
102
RTVSPost2010PropOp30
 70
     1
102
RTVSPost2010Prop31
280
     0
102
RTVSPost2010PropOp31
 70
     1
102
RTVSPost2010Prop32
280
     0
102
RTVSPost2010PropOp32
 70
     1
102
RTVSPost2010Prop33
280
     0
102
RTVSPost2010PropOp33
 70
     1
102
RTVSPost2010Prop34
280
     0
102
RTVSPost2010PropOp34
 70
     1
102
RTVSPost2010Prop35
280
     0
102
RTVSPost2010PropOp35
 70
     1
102
RTVSPost2010Prop36
280
     0
102
RTVSPost2010PropOp36
 70
     1
102
RTVSPost2010Prop37
 90
       50
102
RTVSPost2010PropOp37
 70
     1
102
RTVSPost2010Prop38
140
0.0
102
RTVSPost2010PropOp38
 70
     1
102
RTVSPost2010Prop39
140
1.0
102
RTVSPost2010PropOp39
 70
     1
102
RTVSPost2010Prop40
 90
        0
102
RTVSPost2010PropOp40
 70
     1
102
RTVSPost2010Prop41ColorIndex
 90
       18
102
RTVSPost2010Prop41ColorRGB
 90
        0
102
RTVSPost2010PropOp41
 70
     1
102
RTVSPost2010Prop42
 90
       50
102
RTVSPost2010PropOp42
 70
     1
102
RTVSPost2010Prop43
 90
        3
102
RTVSPost2010PropOp43
 70
     1
102
RTVSPost2010Prop44ColorIndex
 90
        5
102
RTVSPost2010Prop44ColorRGB
 90
      255
102
RTVSPost2010PropOp44
 70
     1
102
RTVSPost2010Prop45
280
     0
102
RTVSPost2010PropOp45
 70
     1
102
RTVSPost2010Prop46
 90
       50
102
RTVSPost2010PropOp46
 70
     1
102
RTVSPost2010Prop47
 90
       50
102
RTVSPost2010PropOp47
 70
     1
102
RTVSPost2010Prop48
 90
       50
102
RTVSPost2010PropOp48
 70
     1
102
RTVSPost2010Prop49
280
     0
102
RTVSPost2010PropOp49
 70
     1
102
RTVSPost2010Prop50
 90
       50
102
RTVSPost2010PropOp50
 70
     1
102
RTVSPost2010Prop51ColorIndex
 90
      256
102
RTVSPost2010Prop51ColorRGB
 90
-16777216
102
RTVSPost2010PropOp51
 70
     0
102
RTVSPost2010Prop52
140
1.0
102
RTVSPost2010PropOp52
 70
     0
102
RTVSPost2010Prop53
 90
        2
102
RTVSPost2010PropOp53
 70
     1
102
RTVSPost2010Prop54
  1
strokes_ogs.tif
102
RTVSPost2010PropOp54
 70
     1
102
RTVSPost2010Prop55
280
     0
102
RTVSPost2010PropOp55
 70
     1
102
RTVSPost2010Prop56
140
1.0
102
RTVSPost2010PropOp56
 70
     1
102
RTVSPost2010Prop57
140
1.0
102
RTVSPost2010PropOp57
 70
     1
  0
XRECORD
  5
3118
102
{ACAD_REACTORS
330
3117
102
}
330
3117
100
AcDbXrecord
280
     1
102
RTVSPost2010Prop28
280
     0
102
RTVSPost2010PropOp28
 70
     1
102
RTVSPost2010Prop29
280
     1
102
RTVSPost2010PropOp29
 70
     1
102
RTVSPost2010Prop30
280
     1
102
RTVSPost2010PropOp30
 70
     1
102
RTVSPost2010Prop31
280
     0
102
RTVSPost2010PropOp31
 70
     1
102
RTVSPost2010Prop32
280
     0
102
RTVSPost2010PropOp32
 70
     1
102
RTVSPost2010Prop33
280
     0
102
RTVSPost2010PropOp33
 70
     1
102
RTVSPost2010Prop34
280
     0
102
RTVSPost2010PropOp34
 70
     1
102
RTVSPost2010Prop35
280
     0
102
RTVSPost2010PropOp35
 70
     1
102
RTVSPost2010Prop36
280
     0
102
RTVSPost2010PropOp36
 70
     1
102
RTVSPost2010Prop37
 90
       50
102
RTVSPost2010PropOp37
 70
     1
102
RTVSPost2010Prop38
140
0.0
102
RTVSPost2010PropOp38
 70
     1
102
RTVSPost2010Prop39
140
1.0
102
RTVSPost2010PropOp39
 70
     1
102
RTVSPost2010Prop40
 90
        0
102
RTVSPost2010PropOp40
 70
     1
102
RTVSPost2010Prop41ColorIndex
 90
       18
102
RTVSPost2010Prop41ColorRGB
 90
        0
102
RTVSPost2010PropOp41
 70
     1
102
RTVSPost2010Prop42
 90
       50
102
RTVSPost2010PropOp42
 70
     1
102
RTVSPost2010Prop43
 90
        3
102
RTVSPost2010PropOp43
 70
     1
102
RTVSPost2010Prop44ColorIndex
 90
        5
102
RTVSPost2010Prop44ColorRGB
 90
      255
102
RTVSPost2010PropOp44
 70
     1
102
RTVSPost2010Prop45
280
     0
102
RTVSPost2010PropOp45
 70
     1
102
RTVSPost2010Prop46
 90
       50
102
RTVSPost2010PropOp46
 70
     1
102
RTVSPost2010Prop47
 90
       50
102
RTVSPost2010PropOp47
 70
     1
102
RTVSPost2010Prop48
 90
       50
102
RTVSPost2010PropOp48
 70
     1
102
RTVSPost2010Prop49
280
     0
102
RTVSPost2010PropOp49
 70
     1
102
RTVSPost2010Prop50
 90
       50
102
RTVSPost2010PropOp50
 70
     1
102
RTVSPost2010Prop51ColorIndex
 90
      256
102
RTVSPost2010Prop51ColorRGB
 90
-16777216
102
RTVSPost2010PropOp51
 70
     0
102
RTVSPost2010Prop52
140
1.0
102
RTVSPost2010PropOp52
 70
     0
102
RTVSPost2010Prop53
 90
        2
102
RTVSPost2010PropOp53
 70
     1
102
RTVSPost2010Prop54
  1
strokes_ogs.tif
102
RTVSPost2010PropOp54
 70
     1
102
RTVSPost2010Prop55
280
     0
102
RTVSPost2010PropOp55
 70
     1
102
RTVSPost2010Prop56
140
1.0
102
RTVSPost2010PropOp56
 70
     1
102
RTVSPost2010Prop57
140
1.0
102
RTVSPost2010PropOp57
 70
     1
  0
XRECORD
  5
311C
102
{ACAD_REACTORS
330
311B
102
}
330
311B
100
AcDbXrecord
280
     1
102
RTVSPost2010Prop28
280
     0
102
RTVSPost2010PropOp28
 70
     1
102
RTVSPost2010Prop29
280
     1
102
RTVSPost2010PropOp29
 70
     1
102
RTVSPost2010Prop30
280
     1
102
RTVSPost2010PropOp30
 70
     1
102
RTVSPost2010Prop31
280
     0
102
RTVSPost2010PropOp31
 70
     1
102
RTVSPost2010Prop32
280
     0
102
RTVSPost2010PropOp32
 70
     1
102
RTVSPost2010Prop33
280
     0
102
RTVSPost2010PropOp33
 70
     1
102
RTVSPost2010Prop34
280
     0
102
RTVSPost2010PropOp34
 70
     1
102
RTVSPost2010Prop35
280
     0
102
RTVSPost2010PropOp35
 70
     1
102
RTVSPost2010Prop36
280
     0
102
RTVSPost2010PropOp36
 70
     1
102
RTVSPost2010Prop37
 90
       50
102
RTVSPost2010PropOp37
 70
     1
102
RTVSPost2010Prop38
140
0.0
102
RTVSPost2010PropOp38
 70
     1
102
RTVSPost2010Prop39
140
1.0
102
RTVSPost2010PropOp39
 70
     1
102
RTVSPost2010Prop40
 90
        0
102
RTVSPost2010PropOp40
 70
     1
102
RTVSPost2010Prop41ColorIndex
 90
       18
102
RTVSPost2010Prop41ColorRGB
 90
        0
102
RTVSPost2010PropOp41
 70
     1
102
RTVSPost2010Prop42
 90
       50
102
RTVSPost2010PropOp42
 70
     1
102
RTVSPost2010Prop43
 90
        3
102
RTVSPost2010PropOp43
 70
     1
102
RTVSPost2010Prop44ColorIndex
 90
        5
102
RTVSPost2010Prop44ColorRGB
 90
      255
102
RTVSPost2010PropOp44
 70
     1
102
RTVSPost2010Prop45
280
     0
102
RTVSPost2010PropOp45
 70
     1
102
RTVSPost2010Prop46
 90
       50
102
RTVSPost2010PropOp46
 70
     1
102
RTVSPost2010Prop47
 90
       50
102
RTVSPost2010PropOp47
 70
     1
102
RTVSPost2010Prop48
 90
       50
102
RTVSPost2010PropOp48
 70
     1
102
RTVSPost2010Prop49
280
     0
102
RTVSPost2010PropOp49
 70
     1
102
RTVSPost2010Prop50
 90
       50
102
RTVSPost2010PropOp50
 70
     1
102
RTVSPost2010Prop51ColorIndex
 90
      256
102
RTVSPost2010Prop51ColorRGB
 90
-16777216
102
RTVSPost2010PropOp51
 70
     0
102
RTVSPost2010Prop52
140
1.0
102
RTVSPost2010PropOp52
 70
     0
102
RTVSPost2010Prop53
 90
        2
102
RTVSPost2010PropOp53
 70
     1
102
RTVSPost2010Prop54
  1
strokes_ogs.tif
102
RTVSPost2010PropOp54
 70
     1
102
RTVSPost2010Prop55
280
     0
102
RTVSPost2010PropOp55
 70
     1
102
RTVSPost2010Prop56
140
1.0
102
RTVSPost2010PropOp56
 70
     1
102
RTVSPost2010Prop57
140
1.0
102
RTVSPost2010PropOp57
 70
     1
  0
XRECORD
  5
3136
102
{ACAD_REACTORS
330
3135
102
}
330
3135
100
AcDbXrecord
280
     1
102
RTVSPost2010Prop28
280
     0
102
RTVSPost2010PropOp28
 70
     1
102
RTVSPost2010Prop29
280
     1
102
RTVSPost2010PropOp29
 70
     1
102
RTVSPost2010Prop30
280
     1
102
RTVSPost2010PropOp30
 70
     1
102
RTVSPost2010Prop31
280
     0
102
RTVSPost2010PropOp31
 70
     1
102
RTVSPost2010Prop32
280
     0
102
RTVSPost2010PropOp32
 70
     1
102
RTVSPost2010Prop33
280
     0
102
RTVSPost2010PropOp33
 70
     1
102
RTVSPost2010Prop34
280
     0
102
RTVSPost2010PropOp34
 70
     1
102
RTVSPost2010Prop35
280
     0
102
RTVSPost2010PropOp35
 70
     1
102
RTVSPost2010Prop36
280
     0
102
RTVSPost2010PropOp36
 70
     1
102
RTVSPost2010Prop37
 90
       50
102
RTVSPost2010PropOp37
 70
     0
102
RTVSPost2010Prop38
140
0.0
102
RTVSPost2010PropOp38
 70
     0
102
RTVSPost2010Prop39
140
1.0
102
RTVSPost2010PropOp39
 70
     0
102
RTVSPost2010Prop40
 90
        0
102
RTVSPost2010PropOp40
 70
     0
102
RTVSPost2010Prop41ColorIndex
 90
       18
102
RTVSPost2010Prop41ColorRGB
 90
        0
102
RTVSPost2010PropOp41
 70
     0
102
RTVSPost2010Prop42
 90
       50
102
RTVSPost2010PropOp42
 70
     0
102
RTVSPost2010Prop43
 90
        3
102
RTVSPost2010PropOp43
 70
     0
102
RTVSPost2010Prop44ColorIndex
 90
        5
102
RTVSPost2010Prop44ColorRGB
 90
      255
102
RTVSPost2010PropOp44
 70
     0
102
RTVSPost2010Prop45
280
     0
102
RTVSPost2010PropOp45
 70
     1
102
RTVSPost2010Prop46
 90
       50
102
RTVSPost2010PropOp46
 70
     0
102
RTVSPost2010Prop47
 90
       50
102
RTVSPost2010PropOp47
 70
     0
102
RTVSPost2010Prop48
 90
       50
102
RTVSPost2010PropOp48
 70
     0
102
RTVSPost2010Prop49
280
     0
102
RTVSPost2010PropOp49
 70
     1
102
RTVSPost2010Prop50
 90
       50
102
RTVSPost2010PropOp50
 70
     0
102
RTVSPost2010Prop51ColorIndex
 90
      256
102
RTVSPost2010Prop51ColorRGB
 90
-16777216
102
RTVSPost2010PropOp51
 70
     0
102
RTVSPost2010Prop52
140
1.0
102
RTVSPost2010PropOp52
 70
     0
102
RTVSPost2010Prop53
 90
        2
102
RTVSPost2010PropOp53
 70
     0
102
RTVSPost2010Prop54
  1
strokes_ogs.tif
102
RTVSPost2010PropOp54
 70
     0
102
RTVSPost2010Prop55
280
     0
102
RTVSPost2010PropOp55
 70
     1
102
RTVSPost2010Prop56
140
1.0
102
RTVSPost2010PropOp56
 70
     0
102
RTVSPost2010Prop57
140
1.0
102
RTVSPost2010PropOp57
 70
     0
  0
XRECORD
  5
3124
102
{ACAD_REACTORS
330
3123
102
}
330
3123
100
AcDbXrecord
280
     1
102
RTVSPost2010Prop28
280
     0
102
RTVSPost2010PropOp28
 70
     1
102
RTVSPost2010Prop29
280
     1
102
RTVSPost2010PropOp29
 70
     1
102
RTVSPost2010Prop30
280
     1
102
RTVSPost2010PropOp30
 70
     1
102
RTVSPost2010Prop31
280
     0
102
RTVSPost2010PropOp31
 70
     1
102
RTVSPost2010Prop32
280
     0
102
RTVSPost2010PropOp32
 70
     1
102
RTVSPost2010Prop33
280
     0
102
RTVSPost2010PropOp33
 70
     1
102
RTVSPost2010Prop34
280
     0
102
RTVSPost2010PropOp34
 70
     1
102
RTVSPost2010Prop35
280
     0
102
RTVSPost2010PropOp35
 70
     1
102
RTVSPost2010Prop36
280
     0
102
RTVSPost2010PropOp36
 70
     1
102
RTVSPost2010Prop37
 90
       50
102
RTVSPost2010PropOp37
 70
     1
102
RTVSPost2010Prop38
140
0.0
102
RTVSPost2010PropOp38
 70
     1
102
RTVSPost2010Prop39
140
1.0
102
RTVSPost2010PropOp39
 70
     1
102
RTVSPost2010Prop40
 90
        0
102
RTVSPost2010PropOp40
 70
     1
102
RTVSPost2010Prop41ColorIndex
 90
       18
102
RTVSPost2010Prop41ColorRGB
 90
        0
102
RTVSPost2010PropOp41
 70
     1
102
RTVSPost2010Prop42
 90
       50
102
RTVSPost2010PropOp42
 70
     1
102
RTVSPost2010Prop43
 90
        3
102
RTVSPost2010PropOp43
 70
     1
102
RTVSPost2010Prop44ColorIndex
 90
        5
102
RTVSPost2010Prop44ColorRGB
 90
      255
102
RTVSPost2010PropOp44
 70
     1
102
RTVSPost2010Prop45
280
     0
102
RTVSPost2010PropOp45
 70
     1
102
RTVSPost2010Prop46
 90
       50
102
RTVSPost2010PropOp46
 70
     1
102
RTVSPost2010Prop47
 90
       50
102
RTVSPost2010PropOp47
 70
     1
102
RTVSPost2010Prop48
 90
       50
102
RTVSPost2010PropOp48
 70
     1
102
RTVSPost2010Prop49
280
     0
102
RTVSPost2010PropOp49
 70
     1
102
RTVSPost2010Prop50
 90
       50
102
RTVSPost2010PropOp50
 70
     1
102
RTVSPost2010Prop51ColorIndex
 90
      256
102
RTVSPost2010Prop51ColorRGB
 90
-16777216
102
RTVSPost2010PropOp51
 70
     0
102
RTVSPost2010Prop52
140
1.0
102
RTVSPost2010PropOp52
 70
     0
102
RTVSPost2010Prop53
 90
        2
102
RTVSPost2010PropOp53
 70
     1
102
RTVSPost2010Prop54
  1
strokes_ogs.tif
102
RTVSPost2010PropOp54
 70
     1
102
RTVSPost2010Prop55
280
     0
102
RTVSPost2010PropOp55
 70
     1
102
RTVSPost2010Prop56
140
1.0
102
RTVSPost2010PropOp56
 70
     1
102
RTVSPost2010Prop57
140
1.0
102
RTVSPost2010PropOp57
 70
     1
  0
XRECORD
  5
3108
102
{ACAD_REACTORS
330
3107
102
}
330
3107
100
AcDbXrecord
280
     1
102
RTVSPost2010Prop28
280
     0
102
RTVSPost2010PropOp28
 70
     1
102
RTVSPost2010Prop29
280
     1
102
RTVSPost2010PropOp29
 70
     1
102
RTVSPost2010Prop30
280
     1
102
RTVSPost2010PropOp30
 70
     1
102
RTVSPost2010Prop31
280
     0
102
RTVSPost2010PropOp31
 70
     1
102
RTVSPost2010Prop32
280
     0
102
RTVSPost2010PropOp32
 70
     1
102
RTVSPost2010Prop33
280
     0
102
RTVSPost2010PropOp33
 70
     1
102
RTVSPost2010Prop34
280
     0
102
RTVSPost2010PropOp34
 70
     1
102
RTVSPost2010Prop35
280
     0
102
RTVSPost2010PropOp35
 70
     1
102
RTVSPost2010Prop36
280
     0
102
RTVSPost2010PropOp36
 70
     1
102
RTVSPost2010Prop37
 90
       50
102
RTVSPost2010PropOp37
 70
     1
102
RTVSPost2010Prop38
140
0.0
102
RTVSPost2010PropOp38
 70
     1
102
RTVSPost2010Prop39
140
1.0
102
RTVSPost2010PropOp39
 70
     1
102
RTVSPost2010Prop40
 90
        0
102
RTVSPost2010PropOp40
 70
     1
102
RTVSPost2010Prop41ColorIndex
 90
       18
102
RTVSPost2010Prop41ColorRGB
 90
        0
102
RTVSPost2010PropOp41
 70
     1
102
RTVSPost2010Prop42
 90
       50
102
RTVSPost2010PropOp42
 70
     1
102
RTVSPost2010Prop43
 90
        3
102
RTVSPost2010PropOp43
 70
     1
102
RTVSPost2010Prop44ColorIndex
 90
        5
102
RTVSPost2010Prop44ColorRGB
 90
      255
102
RTVSPost2010PropOp44
 70
     1
102
RTVSPost2010Prop45
280
     0
102
RTVSPost2010PropOp45
 70
     1
102
RTVSPost2010Prop46
 90
       50
102
RTVSPost2010PropOp46
 70
     1
102
RTVSPost2010Prop47
 90
       50
102
RTVSPost2010PropOp47
 70
     1
102
RTVSPost2010Prop48
 90
       50
102
RTVSPost2010PropOp48
 70
     1
102
RTVSPost2010Prop49
280
     0
102
RTVSPost2010PropOp49
 70
     1
102
RTVSPost2010Prop50
 90
       50
102
RTVSPost2010PropOp50
 70
     1
102
RTVSPost2010Prop51ColorIndex
 90
      256
102
RTVSPost2010Prop51ColorRGB
 90
-16777216
102
RTVSPost2010PropOp51
 70
     0
102
RTVSPost2010Prop52
140
1.0
102
RTVSPost2010PropOp52
 70
     0
102
RTVSPost2010Prop53
 90
        2
102
RTVSPost2010PropOp53
 70
     1
102
RTVSPost2010Prop54
  1
strokes_ogs.tif
102
RTVSPost2010PropOp54
 70
     1
102
RTVSPost2010Prop55
280
     0
102
RTVSPost2010PropOp55
 70
     1
102
RTVSPost2010Prop56
140
1.0
102
RTVSPost2010PropOp56
 70
     1
102
RTVSPost2010Prop57
140
1.0
102
RTVSPost2010PropOp57
 70
     1
  0
XRECORD
  5
310A
102
{ACAD_REACTORS
330
3109
102
}
330
3109
100
AcDbXrecord
280
     1
102
RTVSPost2010Prop28
280
     0
102
RTVSPost2010PropOp28
 70
     1
102
RTVSPost2010Prop29
280
     1
102
RTVSPost2010PropOp29
 70
     1
102
RTVSPost2010Prop30
280
     1
102
RTVSPost2010PropOp30
 70
     1
102
RTVSPost2010Prop31
280
     0
102
RTVSPost2010PropOp31
 70
     1
102
RTVSPost2010Prop32
280
     0
102
RTVSPost2010PropOp32
 70
     1
102
RTVSPost2010Prop33
280
     0
102
RTVSPost2010PropOp33
 70
     1
102
RTVSPost2010Prop34
280
     0
102
RTVSPost2010PropOp34
 70
     1
102
RTVSPost2010Prop35
280
     0
102
RTVSPost2010PropOp35
 70
     1
102
RTVSPost2010Prop36
280
     0
102
RTVSPost2010PropOp36
 70
     1
102
RTVSPost2010Prop37
 90
       50
102
RTVSPost2010PropOp37
 70
     1
102
RTVSPost2010Prop38
140
0.0
102
RTVSPost2010PropOp38
 70
     1
102
RTVSPost2010Prop39
140
1.0
102
RTVSPost2010PropOp39
 70
     1
102
RTVSPost2010Prop40
 90
        0
102
RTVSPost2010PropOp40
 70
     1
102
RTVSPost2010Prop41ColorIndex
 90
       18
102
RTVSPost2010Prop41ColorRGB
 90
        0
102
RTVSPost2010PropOp41
 70
     1
102
RTVSPost2010Prop42
 90
       50
102
RTVSPost2010PropOp42
 70
     1
102
RTVSPost2010Prop43
 90
        3
102
RTVSPost2010PropOp43
 70
     1
102
RTVSPost2010Prop44ColorIndex
 90
        5
102
RTVSPost2010Prop44ColorRGB
 90
      255
102
RTVSPost2010PropOp44
 70
     1
102
RTVSPost2010Prop45
280
     0
102
RTVSPost2010PropOp45
 70
     1
102
RTVSPost2010Prop46
 90
       50
102
RTVSPost2010PropOp46
 70
     1
102
RTVSPost2010Prop47
 90
       50
102
RTVSPost2010PropOp47
 70
     1
102
RTVSPost2010Prop48
 90
       50
102
RTVSPost2010PropOp48
 70
     1
102
RTVSPost2010Prop49
280
     0
102
RTVSPost2010PropOp49
 70
     1
102
RTVSPost2010Prop50
 90
       50
102
RTVSPost2010PropOp50
 70
     1
102
RTVSPost2010Prop51ColorIndex
 90
      256
102
RTVSPost2010Prop51ColorRGB
 90
-16777216
102
RTVSPost2010PropOp51
 70
     0
102
RTVSPost2010Prop52
140
1.0
102
RTVSPost2010PropOp52
 70
     0
102
RTVSPost2010Prop53
 90
        2
102
RTVSPost2010PropOp53
 70
     1
102
RTVSPost2010Prop54
  1
strokes_ogs.tif
102
RTVSPost2010PropOp54
 70
     1
102
RTVSPost2010Prop55
280
     0
102
RTVSPost2010PropOp55
 70
     1
102
RTVSPost2010Prop56
140
1.0
102
RTVSPost2010PropOp56
 70
     1
102
RTVSPost2010Prop57
140
1.0
102
RTVSPost2010PropOp57
 70
     1
  0
XRECORD
  5
310C
102
{ACAD_REACTORS
330
310B
102
}
330
310B
100
AcDbXrecord
280
     1
102
RTVSPost2010Prop28
280
     0
102
RTVSPost2010PropOp28
 70
     1
102
RTVSPost2010Prop29
280
     1
102
RTVSPost2010PropOp29
 70
     1
102
RTVSPost2010Prop30
280
     1
102
RTVSPost2010PropOp30
 70
     1
102
RTVSPost2010Prop31
280
     0
102
RTVSPost2010PropOp31
 70
     1
102
RTVSPost2010Prop32
280
     0
102
RTVSPost2010PropOp32
 70
     1
102
RTVSPost2010Prop33
280
     0
102
RTVSPost2010PropOp33
 70
     1
102
RTVSPost2010Prop34
280
     0
102
RTVSPost2010PropOp34
 70
     1
102
RTVSPost2010Prop35
280
     0
102
RTVSPost2010PropOp35
 70
     1
102
RTVSPost2010Prop36
280
     0
102
RTVSPost2010PropOp36
 70
     1
102
RTVSPost2010Prop37
 90
       50
102
RTVSPost2010PropOp37
 70
     1
102
RTVSPost2010Prop38
140
0.0
102
RTVSPost2010PropOp38
 70
     1
102
RTVSPost2010Prop39
140
1.0
102
RTVSPost2010PropOp39
 70
     1
102
RTVSPost2010Prop40
 90
        0
102
RTVSPost2010PropOp40
 70
     1
102
RTVSPost2010Prop41ColorIndex
 90
       18
102
RTVSPost2010Prop41ColorRGB
 90
        0
102
RTVSPost2010PropOp41
 70
     1
102
RTVSPost2010Prop42
 90
       50
102
RTVSPost2010PropOp42
 70
     1
102
RTVSPost2010Prop43
 90
        3
102
RTVSPost2010PropOp43
 70
     1
102
RTVSPost2010Prop44ColorIndex
 90
        5
102
RTVSPost2010Prop44ColorRGB
 90
      255
102
RTVSPost2010PropOp44
 70
     1
102
RTVSPost2010Prop45
280
     0
102
RTVSPost2010PropOp45
 70
     1
102
RTVSPost2010Prop46
 90
       50
102
RTVSPost2010PropOp46
 70
     1
102
RTVSPost2010Prop47
 90
       50
102
RTVSPost2010PropOp47
 70
     1
102
RTVSPost2010Prop48
 90
       50
102
RTVSPost2010PropOp48
 70
     1
102
RTVSPost2010Prop49
280
     0
102
RTVSPost2010PropOp49
 70
     1
102
RTVSPost2010Prop50
 90
       50
102
RTVSPost2010PropOp50
 70
     1
102
RTVSPost2010Prop51ColorIndex
 90
      256
102
RTVSPost2010Prop51ColorRGB
 90
-16777216
102
RTVSPost2010PropOp51
 70
     0
102
RTVSPost2010Prop52
140
1.0
102
RTVSPost2010PropOp52
 70
     0
102
RTVSPost2010Prop53
 90
        2
102
RTVSPost2010PropOp53
 70
     1
102
RTVSPost2010Prop54
  1
strokes_ogs.tif
102
RTVSPost2010PropOp54
 70
     1
102
RTVSPost2010Prop55
280
     0
102
RTVSPost2010PropOp55
 70
     1
102
RTVSPost2010Prop56
140
1.0
102
RTVSPost2010PropOp56
 70
     1
102
RTVSPost2010Prop57
140
1.0
102
RTVSPost2010PropOp57
 70
     1
  0
XRECORD
  5
310E
102
{ACAD_REACTORS
330
310D
102
}
330
310D
100
AcDbXrecord
280
     1
102
RTVSPost2010Prop28
280
     0
102
RTVSPost2010PropOp28
 70
     1
102
RTVSPost2010Prop29
280
     1
102
RTVSPost2010PropOp29
 70
     1
102
RTVSPost2010Prop30
280
     1
102
RTVSPost2010PropOp30
 70
     1
102
RTVSPost2010Prop31
280
     0
102
RTVSPost2010PropOp31
 70
     1
102
RTVSPost2010Prop32
280
     0
102
RTVSPost2010PropOp32
 70
     1
102
RTVSPost2010Prop33
280
     0
102
RTVSPost2010PropOp33
 70
     1
102
RTVSPost2010Prop34
280
     0
102
RTVSPost2010PropOp34
 70
     1
102
RTVSPost2010Prop35
280
     0
102
RTVSPost2010PropOp35
 70
     1
102
RTVSPost2010Prop36
280
     0
102
RTVSPost2010PropOp36
 70
     1
102
RTVSPost2010Prop37
 90
       50
102
RTVSPost2010PropOp37
 70
     1
102
RTVSPost2010Prop38
140
0.0
102
RTVSPost2010PropOp38
 70
     1
102
RTVSPost2010Prop39
140
1.0
102
RTVSPost2010PropOp39
 70
     1
102
RTVSPost2010Prop40
 90
        0
102
RTVSPost2010PropOp40
 70
     1
102
RTVSPost2010Prop41ColorIndex
 90
       18
102
RTVSPost2010Prop41ColorRGB
 90
        0
102
RTVSPost2010PropOp41
 70
     1
102
RTVSPost2010Prop42
 90
       50
102
RTVSPost2010PropOp42
 70
     1
102
RTVSPost2010Prop43
 90
        3
102
RTVSPost2010PropOp43
 70
     1
102
RTVSPost2010Prop44ColorIndex
 90
        5
102
RTVSPost2010Prop44ColorRGB
 90
      255
102
RTVSPost2010PropOp44
 70
     1
102
RTVSPost2010Prop45
280
     0
102
RTVSPost2010PropOp45
 70
     1
102
RTVSPost2010Prop46
 90
       50
102
RTVSPost2010PropOp46
 70
     1
102
RTVSPost2010Prop47
 90
       50
102
RTVSPost2010PropOp47
 70
     1
102
RTVSPost2010Prop48
 90
       50
102
RTVSPost2010PropOp48
 70
     1
102
RTVSPost2010Prop49
280
     0
102
RTVSPost2010PropOp49
 70
     1
102
RTVSPost2010Prop50
 90
       50
102
RTVSPost2010PropOp50
 70
     1
102
RTVSPost2010Prop51ColorIndex
 90
      256
102
RTVSPost2010Prop51ColorRGB
 90
-16777216
102
RTVSPost2010PropOp51
 70
     0
102
RTVSPost2010Prop52
140
1.0
102
RTVSPost2010PropOp52
 70
     0
102
RTVSPost2010Prop53
 90
        2
102
RTVSPost2010PropOp53
 70
     1
102
RTVSPost2010Prop54
  1
strokes_ogs.tif
102
RTVSPost2010PropOp54
 70
     1
102
RTVSPost2010Prop55
280
     0
102
RTVSPost2010PropOp55
 70
     1
102
RTVSPost2010Prop56
140
1.0
102
RTVSPost2010PropOp56
 70
     1
102
RTVSPost2010Prop57
140
1.0
102
RTVSPost2010PropOp57
 70
     1
  0
XRECORD
  5
3116
102
{ACAD_REACTORS
330
3115
102
}
330
3115
100
AcDbXrecord
280
     1
102
RTVSPost2010Prop28
280
     0
102
RTVSPost2010PropOp28
 70
     1
102
RTVSPost2010Prop29
280
     1
102
RTVSPost2010PropOp29
 70
     1
102
RTVSPost2010Prop30
280
     1
102
RTVSPost2010PropOp30
 70
     1
102
RTVSPost2010Prop31
280
     0
102
RTVSPost2010PropOp31
 70
     1
102
RTVSPost2010Prop32
280
     0
102
RTVSPost2010PropOp32
 70
     1
102
RTVSPost2010Prop33
280
     0
102
RTVSPost2010PropOp33
 70
     1
102
RTVSPost2010Prop34
280
     0
102
RTVSPost2010PropOp34
 70
     1
102
RTVSPost2010Prop35
280
     0
102
RTVSPost2010PropOp35
 70
     1
102
RTVSPost2010Prop36
280
     0
102
RTVSPost2010PropOp36
 70
     1
102
RTVSPost2010Prop37
 90
       50
102
RTVSPost2010PropOp37
 70
     1
102
RTVSPost2010Prop38
140
0.0
102
RTVSPost2010PropOp38
 70
     1
102
RTVSPost2010Prop39
140
1.0
102
RTVSPost2010PropOp39
 70
     1
102
RTVSPost2010Prop40
 90
        0
102
RTVSPost2010PropOp40
 70
     1
102
RTVSPost2010Prop41ColorIndex
 90
       18
102
RTVSPost2010Prop41ColorRGB
 90
        0
102
RTVSPost2010PropOp41
 70
     1
102
RTVSPost2010Prop42
 90
       50
102
RTVSPost2010PropOp42
 70
     1
102
RTVSPost2010Prop43
 90
        3
102
RTVSPost2010PropOp43
 70
     1
102
RTVSPost2010Prop44ColorIndex
 90
        5
102
RTVSPost2010Prop44ColorRGB
 90
      255
102
RTVSPost2010PropOp44
 70
     1
102
RTVSPost2010Prop45
280
     0
102
RTVSPost2010PropOp45
 70
     1
102
RTVSPost2010Prop46
 90
       50
102
RTVSPost2010PropOp46
 70
     1
102
RTVSPost2010Prop47
 90
       50
102
RTVSPost2010PropOp47
 70
     1
102
RTVSPost2010Prop48
 90
       50
102
RTVSPost2010PropOp48
 70
     1
102
RTVSPost2010Prop49
280
     0
102
RTVSPost2010PropOp49
 70
     1
102
RTVSPost2010Prop50
 90
       50
102
RTVSPost2010PropOp50
 70
     1
102
RTVSPost2010Prop51ColorIndex
 90
      256
102
RTVSPost2010Prop51ColorRGB
 90
-16777216
102
RTVSPost2010PropOp51
 70
     0
102
RTVSPost2010Prop52
140
1.0
102
RTVSPost2010PropOp52
 70
     0
102
RTVSPost2010Prop53
 90
        2
102
RTVSPost2010PropOp53
 70
     1
102
RTVSPost2010Prop54
  1
strokes_ogs.tif
102
RTVSPost2010PropOp54
 70
     1
102
RTVSPost2010Prop55
280
     0
102
RTVSPost2010PropOp55
 70
     1
102
RTVSPost2010Prop56
140
1.0
102
RTVSPost2010PropOp56
 70
     1
102
RTVSPost2010Prop57
140
1.0
102
RTVSPost2010PropOp57
 70
     1
  0
XRECORD
  5
3132
102
{ACAD_REACTORS
330
3131
102
}
330
3131
100
AcDbXrecord
280
     1
102
RTVSPost2010Prop28
280
     0
102
RTVSPost2010PropOp28
 70
     1
102
RTVSPost2010Prop29
280
     1
102
RTVSPost2010PropOp29
 70
     1
102
RTVSPost2010Prop30
280
     1
102
RTVSPost2010PropOp30
 70
     1
102
RTVSPost2010Prop31
280
     0
102
RTVSPost2010PropOp31
 70
     1
102
RTVSPost2010Prop32
280
     0
102
RTVSPost2010PropOp32
 70
     1
102
RTVSPost2010Prop33
280
     0
102
RTVSPost2010PropOp33
 70
     1
102
RTVSPost2010Prop34
280
     0
102
RTVSPost2010PropOp34
 70
     1
102
RTVSPost2010Prop35
280
     0
102
RTVSPost2010PropOp35
 70
     1
102
RTVSPost2010Prop36
280
     0
102
RTVSPost2010PropOp36
 70
     1
102
RTVSPost2010Prop37
 90
       50
102
RTVSPost2010PropOp37
 70
     0
102
RTVSPost2010Prop38
140
0.0
102
RTVSPost2010PropOp38
 70
     0
102
RTVSPost2010Prop39
140
1.0
102
RTVSPost2010PropOp39
 70
     0
102
RTVSPost2010Prop40
 90
        0
102
RTVSPost2010PropOp40
 70
     0
102
RTVSPost2010Prop41ColorIndex
 90
       18
102
RTVSPost2010Prop41ColorRGB
 90
        0
102
RTVSPost2010PropOp41
 70
     0
102
RTVSPost2010Prop42
 90
       50
102
RTVSPost2010PropOp42
 70
     0
102
RTVSPost2010Prop43
 90
        3
102
RTVSPost2010PropOp43
 70
     0
102
RTVSPost2010Prop44ColorIndex
 90
        5
102
RTVSPost2010Prop44ColorRGB
 90
      255
102
RTVSPost2010PropOp44
 70
     0
102
RTVSPost2010Prop45
280
     0
102
RTVSPost2010PropOp45
 70
     1
102
RTVSPost2010Prop46
 90
       50
102
RTVSPost2010PropOp46
 70
     0
102
RTVSPost2010Prop47
 90
       50
102
RTVSPost2010PropOp47
 70
     0
102
RTVSPost2010Prop48
 90
       50
102
RTVSPost2010PropOp48
 70
     0
102
RTVSPost2010Prop49
280
     0
102
RTVSPost2010PropOp49
 70
     1
102
RTVSPost2010Prop50
 90
       50
102
RTVSPost2010PropOp50
 70
     0
102
RTVSPost2010Prop51ColorIndex
 90
      256
102
RTVSPost2010Prop51ColorRGB
 90
-16777216
102
RTVSPost2010PropOp51
 70
     0
102
RTVSPost2010Prop52
140
1.0
102
RTVSPost2010PropOp52
 70
     0
102
RTVSPost2010Prop53
 90
        2
102
RTVSPost2010PropOp53
 70
     0
102
RTVSPost2010Prop54
  1
strokes_ogs.tif
102
RTVSPost2010PropOp54
 70
     0
102
RTVSPost2010Prop55
280
     0
102
RTVSPost2010PropOp55
 70
     1
102
RTVSPost2010Prop56
140
1.0
102
RTVSPost2010PropOp56
 70
     0
102
RTVSPost2010Prop57
140
1.0
102
RTVSPost2010PropOp57
 70
     0
  0
XRECORD
  5
3122
102
{ACAD_REACTORS
330
3121
102
}
330
3121
100
AcDbXrecord
280
     1
102
RTVSPost2010Prop28
280
     0
102
RTVSPost2010PropOp28
 70
     1
102
RTVSPost2010Prop29
280
     1
102
RTVSPost2010PropOp29
 70
     1
102
RTVSPost2010Prop30
280
     1
102
RTVSPost2010PropOp30
 70
     1
102
RTVSPost2010Prop31
280
     0
102
RTVSPost2010PropOp31
 70
     1
102
RTVSPost2010Prop32
280
     0
102
RTVSPost2010PropOp32
 70
     1
102
RTVSPost2010Prop33
280
     0
102
RTVSPost2010PropOp33
 70
     1
102
RTVSPost2010Prop34
280
     0
102
RTVSPost2010PropOp34
 70
     1
102
RTVSPost2010Prop35
280
     0
102
RTVSPost2010PropOp35
 70
     1
102
RTVSPost2010Prop36
280
     0
102
RTVSPost2010PropOp36
 70
     1
102
RTVSPost2010Prop37
 90
       50
102
RTVSPost2010PropOp37
 70
     1
102
RTVSPost2010Prop38
140
0.0
102
RTVSPost2010PropOp38
 70
     1
102
RTVSPost2010Prop39
140
1.0
102
RTVSPost2010PropOp39
 70
     1
102
RTVSPost2010Prop40
 90
        0
102
RTVSPost2010PropOp40
 70
     1
102
RTVSPost2010Prop41ColorIndex
 90
       18
102
RTVSPost2010Prop41ColorRGB
 90
        0
102
RTVSPost2010PropOp41
 70
     1
102
RTVSPost2010Prop42
 90
       50
102
RTVSPost2010PropOp42
 70
     1
102
RTVSPost2010Prop43
 90
        3
102
RTVSPost2010PropOp43
 70
     1
102
RTVSPost2010Prop44ColorIndex
 90
        5
102
RTVSPost2010Prop44ColorRGB
 90
      255
102
RTVSPost2010PropOp44
 70
     1
102
RTVSPost2010Prop45
280
     0
102
RTVSPost2010PropOp45
 70
     1
102
RTVSPost2010Prop46
 90
       50
102
RTVSPost2010PropOp46
 70
     1
102
RTVSPost2010Prop47
 90
       50
102
RTVSPost2010PropOp47
 70
     1
102
RTVSPost2010Prop48
 90
       50
102
RTVSPost2010PropOp48
 70
     1
102
RTVSPost2010Prop49
280
     0
102
RTVSPost2010PropOp49
 70
     1
102
RTVSPost2010Prop50
 90
       50
102
RTVSPost2010PropOp50
 70
     1
102
RTVSPost2010Prop51ColorIndex
 90
      256
102
RTVSPost2010Prop51ColorRGB
 90
-16777216
102
RTVSPost2010PropOp51
 70
     0
102
RTVSPost2010Prop52
140
1.0
102
RTVSPost2010PropOp52
 70
     0
102
RTVSPost2010Prop53
 90
        2
102
RTVSPost2010PropOp53
 70
     1
102
RTVSPost2010Prop54
  1
strokes_ogs.tif
102
RTVSPost2010PropOp54
 70
     1
102
RTVSPost2010Prop55
280
     0
102
RTVSPost2010PropOp55
 70
     1
102
RTVSPost2010Prop56
140
1.0
102
RTVSPost2010PropOp56
 70
     1
102
RTVSPost2010Prop57
140
1.0
102
RTVSPost2010PropOp57
 70
     1
  0
XRECORD
  5
3134
102
{ACAD_REACTORS
330
3133
102
}
330
3133
100
AcDbXrecord
280
     1
102
RTVSPost2010Prop28
280
     0
102
RTVSPost2010PropOp28
 70
     1
102
RTVSPost2010Prop29
280
     1
102
RTVSPost2010PropOp29
 70
     1
102
RTVSPost2010Prop30
280
     1
102
RTVSPost2010PropOp30
 70
     1
102
RTVSPost2010Prop31
280
     0
102
RTVSPost2010PropOp31
 70
     1
102
RTVSPost2010Prop32
280
     0
102
RTVSPost2010PropOp32
 70
     1
102
RTVSPost2010Prop33
280
     0
102
RTVSPost2010PropOp33
 70
     1
102
RTVSPost2010Prop34
280
     0
102
RTVSPost2010PropOp34
 70
     1
102
RTVSPost2010Prop35
280
     0
102
RTVSPost2010PropOp35
 70
     1
102
RTVSPost2010Prop36
280
     0
102
RTVSPost2010PropOp36
 70
     1
102
RTVSPost2010Prop37
 90
       50
102
RTVSPost2010PropOp37
 70
     0
102
RTVSPost2010Prop38
140
0.0
102
RTVSPost2010PropOp38
 70
     0
102
RTVSPost2010Prop39
140
1.0
102
RTVSPost2010PropOp39
 70
     0
102
RTVSPost2010Prop40
 90
        0
102
RTVSPost2010PropOp40
 70
     0
102
RTVSPost2010Prop41ColorIndex
 90
       18
102
RTVSPost2010Prop41ColorRGB
 90
        0
102
RTVSPost2010PropOp41
 70
     0
102
RTVSPost2010Prop42
 90
       50
102
RTVSPost2010PropOp42
 70
     0
102
RTVSPost2010Prop43
 90
        3
102
RTVSPost2010PropOp43
 70
     0
102
RTVSPost2010Prop44ColorIndex
 90
        5
102
RTVSPost2010Prop44ColorRGB
 90
      255
102
RTVSPost2010PropOp44
 70
     0
102
RTVSPost2010Prop45
280
     0
102
RTVSPost2010PropOp45
 70
     1
102
RTVSPost2010Prop46
 90
       50
102
RTVSPost2010PropOp46
 70
     0
102
RTVSPost2010Prop47
 90
       50
102
RTVSPost2010PropOp47
 70
     0
102
RTVSPost2010Prop48
 90
       50
102
RTVSPost2010PropOp48
 70
     0
102
RTVSPost2010Prop49
280
     0
102
RTVSPost2010PropOp49
 70
     1
102
RTVSPost2010Prop50
 90
       50
102
RTVSPost2010PropOp50
 70
     0
102
RTVSPost2010Prop51ColorIndex
 90
      256
102
RTVSPost2010Prop51ColorRGB
 90
-16777216
102
RTVSPost2010PropOp51
 70
     0
102
RTVSPost2010Prop52
140
1.0
102
RTVSPost2010PropOp52
 70
     0
102
RTVSPost2010Prop53
 90
        2
102
RTVSPost2010PropOp53
 70
     0
102
RTVSPost2010Prop54
  1
strokes_ogs.tif
102
RTVSPost2010PropOp54
 70
     0
102
RTVSPost2010Prop55
280
     0
102
RTVSPost2010PropOp55
 70
     1
102
RTVSPost2010Prop56
140
1.0
102
RTVSPost2010PropOp56
 70
     0
102
RTVSPost2010Prop57
140
1.0
102
RTVSPost2010PropOp57
 70
     0
  0
XRECORD
  5
311A
102
{ACAD_REACTORS
330
3119
102
}
330
3119
100
AcDbXrecord
280
     1
102
RTVSPost2010Prop28
280
     0
102
RTVSPost2010PropOp28
 70
     1
102
RTVSPost2010Prop29
280
     1
102
RTVSPost2010PropOp29
 70
     1
102
RTVSPost2010Prop30
280
     1
102
RTVSPost2010PropOp30
 70
     1
102
RTVSPost2010Prop31
280
     0
102
RTVSPost2010PropOp31
 70
     1
102
RTVSPost2010Prop32
280
     0
102
RTVSPost2010PropOp32
 70
     1
102
RTVSPost2010Prop33
280
     0
102
RTVSPost2010PropOp33
 70
     1
102
RTVSPost2010Prop34
280
     0
102
RTVSPost2010PropOp34
 70
     1
102
RTVSPost2010Prop35
280
     0
102
RTVSPost2010PropOp35
 70
     1
102
RTVSPost2010Prop36
280
     0
102
RTVSPost2010PropOp36
 70
     1
102
RTVSPost2010Prop37
 90
       50
102
RTVSPost2010PropOp37
 70
     1
102
RTVSPost2010Prop38
140
0.0
102
RTVSPost2010PropOp38
 70
     1
102
RTVSPost2010Prop39
140
1.0
102
RTVSPost2010PropOp39
 70
     1
102
RTVSPost2010Prop40
 90
        0
102
RTVSPost2010PropOp40
 70
     1
102
RTVSPost2010Prop41ColorIndex
 90
       18
102
RTVSPost2010Prop41ColorRGB
 90
        0
102
RTVSPost2010PropOp41
 70
     1
102
RTVSPost2010Prop42
 90
       50
102
RTVSPost2010PropOp42
 70
     1
102
RTVSPost2010Prop43
 90
        3
102
RTVSPost2010PropOp43
 70
     1
102
RTVSPost2010Prop44ColorIndex
 90
        5
102
RTVSPost2010Prop44ColorRGB
 90
      255
102
RTVSPost2010PropOp44
 70
     1
102
RTVSPost2010Prop45
280
     0
102
RTVSPost2010PropOp45
 70
     1
102
RTVSPost2010Prop46
 90
       50
102
RTVSPost2010PropOp46
 70
     1
102
RTVSPost2010Prop47
 90
       50
102
RTVSPost2010PropOp47
 70
     1
102
RTVSPost2010Prop48
 90
       50
102
RTVSPost2010PropOp48
 70
     1
102
RTVSPost2010Prop49
280
     0
102
RTVSPost2010PropOp49
 70
     1
102
RTVSPost2010Prop50
 90
       50
102
RTVSPost2010PropOp50
 70
     1
102
RTVSPost2010Prop51ColorIndex
 90
      256
102
RTVSPost2010Prop51ColorRGB
 90
-16777216
102
RTVSPost2010PropOp51
 70
     0
102
RTVSPost2010Prop52
140
1.0
102
RTVSPost2010PropOp52
 70
     0
102
RTVSPost2010Prop53
 90
        2
102
RTVSPost2010PropOp53
 70
     1
102
RTVSPost2010Prop54
  1
strokes_ogs.tif
102
RTVSPost2010PropOp54
 70
     1
102
RTVSPost2010Prop55
280
     0
102
RTVSPost2010PropOp55
 70
     1
102
RTVSPost2010Prop56
140
1.0
102
RTVSPost2010PropOp56
 70
     1
102
RTVSPost2010Prop57
140
1.0
102
RTVSPost2010PropOp57
 70
     1
  0
XRECORD
  5
3130
102
{ACAD_REACTORS
330
312F
102
}
330
312F
100
AcDbXrecord
280
     1
102
RTVSPost2010Prop28
280
     0
102
RTVSPost2010PropOp28
 70
     1
102
RTVSPost2010Prop29
280
     1
102
RTVSPost2010PropOp29
 70
     1
102
RTVSPost2010Prop30
280
     1
102
RTVSPost2010PropOp30
 70
     1
102
RTVSPost2010Prop31
280
     0
102
RTVSPost2010PropOp31
 70
     1
102
RTVSPost2010Prop32
280
     0
102
RTVSPost2010PropOp32
 70
     1
102
RTVSPost2010Prop33
280
     0
102
RTVSPost2010PropOp33
 70
     1
102
RTVSPost2010Prop34
280
     0
102
RTVSPost2010PropOp34
 70
     1
102
RTVSPost2010Prop35
280
     0
102
RTVSPost2010PropOp35
 70
     1
102
RTVSPost2010Prop36
280
     0
102
RTVSPost2010PropOp36
 70
     1
102
RTVSPost2010Prop37
 90
       50
102
RTVSPost2010PropOp37
 70
     1
102
RTVSPost2010Prop38
140
0.0
102
RTVSPost2010PropOp38
 70
     1
102
RTVSPost2010Prop39
140
1.0
102
RTVSPost2010PropOp39
 70
     1
102
RTVSPost2010Prop40
 90
        0
102
RTVSPost2010PropOp40
 70
     1
102
RTVSPost2010Prop41ColorIndex
 90
       18
102
RTVSPost2010Prop41ColorRGB
 90
        0
102
RTVSPost2010PropOp41
 70
     1
102
RTVSPost2010Prop42
 90
       50
102
RTVSPost2010PropOp42
 70
     1
102
RTVSPost2010Prop43
 90
        3
102
RTVSPost2010PropOp43
 70
     1
102
RTVSPost2010Prop44ColorIndex
 90
        5
102
RTVSPost2010Prop44ColorRGB
 90
      255
102
RTVSPost2010PropOp44
 70
     1
102
RTVSPost2010Prop45
280
     0
102
RTVSPost2010PropOp45
 70
     1
102
RTVSPost2010Prop46
 90
       50
102
RTVSPost2010PropOp46
 70
     1
102
RTVSPost2010Prop47
 90
       50
102
RTVSPost2010PropOp47
 70
     1
102
RTVSPost2010Prop48
 90
       50
102
RTVSPost2010PropOp48
 70
     1
102
RTVSPost2010Prop49
280
     0
102
RTVSPost2010PropOp49
 70
     1
102
RTVSPost2010Prop50
 90
       50
102
RTVSPost2010PropOp50
 70
     1
102
RTVSPost2010Prop51ColorIndex
 90
      256
102
RTVSPost2010Prop51ColorRGB
 90
-16777216
102
RTVSPost2010PropOp51
 70
     0
102
RTVSPost2010Prop52
140
1.0
102
RTVSPost2010PropOp52
 70
     0
102
RTVSPost2010Prop53
 90
        2
102
RTVSPost2010PropOp53
 70
     1
102
RTVSPost2010Prop54
  1
strokes_ogs.tif
102
RTVSPost2010PropOp54
 70
     1
102
RTVSPost2010Prop55
280
     0
102
RTVSPost2010PropOp55
 70
     1
102
RTVSPost2010Prop56
140
1.0
102
RTVSPost2010PropOp56
 70
     1
102
RTVSPost2010Prop57
140
1.0
102
RTVSPost2010PropOp57
 70
     1
  0
XRECORD
  5
312E
102
{ACAD_REACTORS
330
312D
102
}
330
312D
100
AcDbXrecord
280
     1
102
RTVSPost2010Prop28
280
     0
102
RTVSPost2010PropOp28
 70
     1
102
RTVSPost2010Prop29
280
     1
102
RTVSPost2010PropOp29
 70
     1
102
RTVSPost2010Prop30
280
     1
102
RTVSPost2010PropOp30
 70
     1
102
RTVSPost2010Prop31
280
     0
102
RTVSPost2010PropOp31
 70
     1
102
RTVSPost2010Prop32
280
     0
102
RTVSPost2010PropOp32
 70
     1
102
RTVSPost2010Prop33
280
     0
102
RTVSPost2010PropOp33
 70
     1
102
RTVSPost2010Prop34
280
     0
102
RTVSPost2010PropOp34
 70
     1
102
RTVSPost2010Prop35
280
     0
102
RTVSPost2010PropOp35
 70
     1
102
RTVSPost2010Prop36
280
     0
102
RTVSPost2010PropOp36
 70
     1
102
RTVSPost2010Prop37
 90
       50
102
RTVSPost2010PropOp37
 70
     1
102
RTVSPost2010Prop38
140
0.0
102
RTVSPost2010PropOp38
 70
     1
102
RTVSPost2010Prop39
140
1.0
102
RTVSPost2010PropOp39
 70
     1
102
RTVSPost2010Prop40
 90
        0
102
RTVSPost2010PropOp40
 70
     1
102
RTVSPost2010Prop41ColorIndex
 90
       18
102
RTVSPost2010Prop41ColorRGB
 90
        0
102
RTVSPost2010PropOp41
 70
     1
102
RTVSPost2010Prop42
 90
       50
102
RTVSPost2010PropOp42
 70
     1
102
RTVSPost2010Prop43
 90
        3
102
RTVSPost2010PropOp43
 70
     1
102
RTVSPost2010Prop44ColorIndex
 90
        5
102
RTVSPost2010Prop44ColorRGB
 90
      255
102
RTVSPost2010PropOp44
 70
     1
102
RTVSPost2010Prop45
280
     0
102
RTVSPost2010PropOp45
 70
     1
102
RTVSPost2010Prop46
 90
       50
102
RTVSPost2010PropOp46
 70
     1
102
RTVSPost2010Prop47
 90
       50
102
RTVSPost2010PropOp47
 70
     1
102
RTVSPost2010Prop48
 90
       50
102
RTVSPost2010PropOp48
 70
     1
102
RTVSPost2010Prop49
280
     0
102
RTVSPost2010PropOp49
 70
     1
102
RTVSPost2010Prop50
 90
       50
102
RTVSPost2010PropOp50
 70
     1
102
RTVSPost2010Prop51ColorIndex
 90
      256
102
RTVSPost2010Prop51ColorRGB
 90
-16777216
102
RTVSPost2010PropOp51
 70
     0
102
RTVSPost2010Prop52
140
1.0
102
RTVSPost2010PropOp52
 70
     0
102
RTVSPost2010Prop53
 90
        2
102
RTVSPost2010PropOp53
 70
     1
102
RTVSPost2010Prop54
  1
strokes_ogs.tif
102
RTVSPost2010PropOp54
 70
     1
102
RTVSPost2010Prop55
280
     0
102
RTVSPost2010PropOp55
 70
     1
102
RTVSPost2010Prop56
140
1.0
102
RTVSPost2010PropOp56
 70
     1
102
RTVSPost2010Prop57
140
1.0
102
RTVSPost2010PropOp57
 70
     1
  0
XRECORD
  5
3128
102
{ACAD_REACTORS
330
3127
102
}
330
3127
100
AcDbXrecord
280
     1
102
RTVSPost2010Prop28
280
     0
102
RTVSPost2010PropOp28
 70
     1
102
RTVSPost2010Prop29
280
     1
102
RTVSPost2010PropOp29
 70
     1
102
RTVSPost2010Prop30
280
     1
102
RTVSPost2010PropOp30
 70
     1
102
RTVSPost2010Prop31
280
     0
102
RTVSPost2010PropOp31
 70
     1
102
RTVSPost2010Prop32
280
     0
102
RTVSPost2010PropOp32
 70
     1
102
RTVSPost2010Prop33
280
     0
102
RTVSPost2010PropOp33
 70
     1
102
RTVSPost2010Prop34
280
     0
102
RTVSPost2010PropOp34
 70
     1
102
RTVSPost2010Prop35
280
     0
102
RTVSPost2010PropOp35
 70
     1
102
RTVSPost2010Prop36
280
     0
102
RTVSPost2010PropOp36
 70
     1
102
RTVSPost2010Prop37
 90
       50
102
RTVSPost2010PropOp37
 70
     1
102
RTVSPost2010Prop38
140
0.0
102
RTVSPost2010PropOp38
 70
     1
102
RTVSPost2010Prop39
140
1.0
102
RTVSPost2010PropOp39
 70
     1
102
RTVSPost2010Prop40
 90
        0
102
RTVSPost2010PropOp40
 70
     1
102
RTVSPost2010Prop41ColorIndex
 90
       18
102
RTVSPost2010Prop41ColorRGB
 90
        0
102
RTVSPost2010PropOp41
 70
     1
102
RTVSPost2010Prop42
 90
       50
102
RTVSPost2010PropOp42
 70
     1
102
RTVSPost2010Prop43
 90
        3
102
RTVSPost2010PropOp43
 70
     1
102
RTVSPost2010Prop44ColorIndex
 90
        5
102
RTVSPost2010Prop44ColorRGB
 90
      255
102
RTVSPost2010PropOp44
 70
     1
102
RTVSPost2010Prop45
280
     0
102
RTVSPost2010PropOp45
 70
     1
102
RTVSPost2010Prop46
 90
       50
102
RTVSPost2010PropOp46
 70
     1
102
RTVSPost2010Prop47
 90
       50
102
RTVSPost2010PropOp47
 70
     1
102
RTVSPost2010Prop48
 90
       50
102
RTVSPost2010PropOp48
 70
     1
102
RTVSPost2010Prop49
280
     0
102
RTVSPost2010PropOp49
 70
     1
102
RTVSPost2010Prop50
 90
       50
102
RTVSPost2010PropOp50
 70
     1
102
RTVSPost2010Prop51ColorIndex
 90
      256
102
RTVSPost2010Prop51ColorRGB
 90
-16777216
102
RTVSPost2010PropOp51
 70
     0
102
RTVSPost2010Prop52
140
1.0
102
RTVSPost2010PropOp52
 70
     0
102
RTVSPost2010Prop53
 90
        2
102
RTVSPost2010PropOp53
 70
     1
102
RTVSPost2010Prop54
  1
strokes_ogs.tif
102
RTVSPost2010PropOp54
 70
     1
102
RTVSPost2010Prop55
280
     0
102
RTVSPost2010PropOp55
 70
     1
102
RTVSPost2010Prop56
140
1.0
102
RTVSPost2010PropOp56
 70
     1
102
RTVSPost2010Prop57
140
1.0
102
RTVSPost2010PropOp57
 70
     1
  0
XRECORD
  5
312A
102
{ACAD_REACTORS
330
3129
102
}
330
3129
100
AcDbXrecord
280
     1
102
RTVSPost2010Prop28
280
     0
102
RTVSPost2010PropOp28
 70
     1
102
RTVSPost2010Prop29
280
     1
102
RTVSPost2010PropOp29
 70
     1
102
RTVSPost2010Prop30
280
     1
102
RTVSPost2010PropOp30
 70
     1
102
RTVSPost2010Prop31
280
     0
102
RTVSPost2010PropOp31
 70
     1
102
RTVSPost2010Prop32
280
     0
102
RTVSPost2010PropOp32
 70
     1
102
RTVSPost2010Prop33
280
     0
102
RTVSPost2010PropOp33
 70
     1
102
RTVSPost2010Prop34
280
     0
102
RTVSPost2010PropOp34
 70
     1
102
RTVSPost2010Prop35
280
     0
102
RTVSPost2010PropOp35
 70
     1
102
RTVSPost2010Prop36
280
     0
102
RTVSPost2010PropOp36
 70
     1
102
RTVSPost2010Prop37
 90
       50
102
RTVSPost2010PropOp37
 70
     1
102
RTVSPost2010Prop38
140
0.0
102
RTVSPost2010PropOp38
 70
     1
102
RTVSPost2010Prop39
140
1.0
102
RTVSPost2010PropOp39
 70
     1
102
RTVSPost2010Prop40
 90
        0
102
RTVSPost2010PropOp40
 70
     1
102
RTVSPost2010Prop41ColorIndex
 90
       18
102
RTVSPost2010Prop41ColorRGB
 90
        0
102
RTVSPost2010PropOp41
 70
     1
102
RTVSPost2010Prop42
 90
       50
102
RTVSPost2010PropOp42
 70
     1
102
RTVSPost2010Prop43
 90
        3
102
RTVSPost2010PropOp43
 70
     1
102
RTVSPost2010Prop44ColorIndex
 90
        5
102
RTVSPost2010Prop44ColorRGB
 90
      255
102
RTVSPost2010PropOp44
 70
     1
102
RTVSPost2010Prop45
280
     0
102
RTVSPost2010PropOp45
 70
     1
102
RTVSPost2010Prop46
 90
       50
102
RTVSPost2010PropOp46
 70
     1
102
RTVSPost2010Prop47
 90
       50
102
RTVSPost2010PropOp47
 70
     1
102
RTVSPost2010Prop48
 90
       50
102
RTVSPost2010PropOp48
 70
     1
102
RTVSPost2010Prop49
280
     0
102
RTVSPost2010PropOp49
 70
     1
102
RTVSPost2010Prop50
 90
       50
102
RTVSPost2010PropOp50
 70
     1
102
RTVSPost2010Prop51ColorIndex
 90
      256
102
RTVSPost2010Prop51ColorRGB
 90
-16777216
102
RTVSPost2010PropOp51
 70
     0
102
RTVSPost2010Prop52
140
1.0
102
RTVSPost2010PropOp52
 70
     0
102
RTVSPost2010Prop53
 90
        2
102
RTVSPost2010PropOp53
 70
     1
102
RTVSPost2010Prop54
  1
strokes_ogs.tif
102
RTVSPost2010PropOp54
 70
     1
102
RTVSPost2010Prop55
280
     0
102
RTVSPost2010PropOp55
 70
     1
102
RTVSPost2010Prop56
140
1.0
102
RTVSPost2010PropOp56
 70
     1
102
RTVSPost2010Prop57
140
1.0
102
RTVSPost2010PropOp57
 70
     1
  0
XRECORD
  5
3120
102
{ACAD_REACTORS
330
311F
102
}
330
311F
100
AcDbXrecord
280
     1
102
RTVSPost2010Prop28
280
     0
102
RTVSPost2010PropOp28
 70
     1
102
RTVSPost2010Prop29
280
     1
102
RTVSPost2010PropOp29
 70
     1
102
RTVSPost2010Prop30
280
     1
102
RTVSPost2010PropOp30
 70
     1
102
RTVSPost2010Prop31
280
     0
102
RTVSPost2010PropOp31
 70
     1
102
RTVSPost2010Prop32
280
     0
102
RTVSPost2010PropOp32
 70
     1
102
RTVSPost2010Prop33
280
     0
102
RTVSPost2010PropOp33
 70
     1
102
RTVSPost2010Prop34
280
     0
102
RTVSPost2010PropOp34
 70
     1
102
RTVSPost2010Prop35
280
     0
102
RTVSPost2010PropOp35
 70
     1
102
RTVSPost2010Prop36
280
     0
102
RTVSPost2010PropOp36
 70
     1
102
RTVSPost2010Prop37
 90
       50
102
RTVSPost2010PropOp37
 70
     1
102
RTVSPost2010Prop38
140
0.0
102
RTVSPost2010PropOp38
 70
     1
102
RTVSPost2010Prop39
140
1.0
102
RTVSPost2010PropOp39
 70
     1
102
RTVSPost2010Prop40
 90
        0
102
RTVSPost2010PropOp40
 70
     1
102
RTVSPost2010Prop41ColorIndex
 90
       18
102
RTVSPost2010Prop41ColorRGB
 90
        0
102
RTVSPost2010PropOp41
 70
     1
102
RTVSPost2010Prop42
 90
       50
102
RTVSPost2010PropOp42
 70
     1
102
RTVSPost2010Prop43
 90
        3
102
RTVSPost2010PropOp43
 70
     1
102
RTVSPost2010Prop44ColorIndex
 90
        5
102
RTVSPost2010Prop44ColorRGB
 90
      255
102
RTVSPost2010PropOp44
 70
     1
102
RTVSPost2010Prop45
280
     0
102
RTVSPost2010PropOp45
 70
     1
102
RTVSPost2010Prop46
 90
       50
102
RTVSPost2010PropOp46
 70
     1
102
RTVSPost2010Prop47
 90
       50
102
RTVSPost2010PropOp47
 70
     1
102
RTVSPost2010Prop48
 90
       50
102
RTVSPost2010PropOp48
 70
     1
102
RTVSPost2010Prop49
280
     0
102
RTVSPost2010PropOp49
 70
     1
102
RTVSPost2010Prop50
 90
       50
102
RTVSPost2010PropOp50
 70
     1
102
RTVSPost2010Prop51ColorIndex
 90
      256
102
RTVSPost2010Prop51ColorRGB
 90
-16777216
102
RTVSPost2010PropOp51
 70
     0
102
RTVSPost2010Prop52
140
1.0
102
RTVSPost2010PropOp52
 70
     0
102
RTVSPost2010Prop53
 90
        2
102
RTVSPost2010PropOp53
 70
     1
102
RTVSPost2010Prop54
  1
strokes_ogs.tif
102
RTVSPost2010PropOp54
 70
     1
102
RTVSPost2010Prop55
280
     0
102
RTVSPost2010PropOp55
 70
     1
102
RTVSPost2010Prop56
140
1.0
102
RTVSPost2010PropOp56
 70
     1
102
RTVSPost2010Prop57
140
1.0
102
RTVSPost2010PropOp57
 70
     1
  0
XRECORD
  5
3114
102
{ACAD_REACTORS
330
3113
102
}
330
3113
100
AcDbXrecord
280
     1
102
RTVSPost2010Prop28
280
     0
102
RTVSPost2010PropOp28
 70
     1
102
RTVSPost2010Prop29
280
     1
102
RTVSPost2010PropOp29
 70
     1
102
RTVSPost2010Prop30
280
     1
102
RTVSPost2010PropOp30
 70
     1
102
RTVSPost2010Prop31
280
     0
102
RTVSPost2010PropOp31
 70
     1
102
RTVSPost2010Prop32
280
     0
102
RTVSPost2010PropOp32
 70
     1
102
RTVSPost2010Prop33
280
     0
102
RTVSPost2010PropOp33
 70
     1
102
RTVSPost2010Prop34
280
     0
102
RTVSPost2010PropOp34
 70
     1
102
RTVSPost2010Prop35
280
     0
102
RTVSPost2010PropOp35
 70
     1
102
RTVSPost2010Prop36
280
     0
102
RTVSPost2010PropOp36
 70
     1
102
RTVSPost2010Prop37
 90
       50
102
RTVSPost2010PropOp37
 70
     1
102
RTVSPost2010Prop38
140
0.0
102
RTVSPost2010PropOp38
 70
     1
102
RTVSPost2010Prop39
140
1.0
102
RTVSPost2010PropOp39
 70
     1
102
RTVSPost2010Prop40
 90
        0
102
RTVSPost2010PropOp40
 70
     1
102
RTVSPost2010Prop41ColorIndex
 90
       18
102
RTVSPost2010Prop41ColorRGB
 90
        0
102
RTVSPost2010PropOp41
 70
     1
102
RTVSPost2010Prop42
 90
       50
102
RTVSPost2010PropOp42
 70
     1
102
RTVSPost2010Prop43
 90
        3
102
RTVSPost2010PropOp43
 70
     1
102
RTVSPost2010Prop44ColorIndex
 90
        5
102
RTVSPost2010Prop44ColorRGB
 90
      255
102
RTVSPost2010PropOp44
 70
     1
102
RTVSPost2010Prop45
280
     0
102
RTVSPost2010PropOp45
 70
     1
102
RTVSPost2010Prop46
 90
       50
102
RTVSPost2010PropOp46
 70
     1
102
RTVSPost2010Prop47
 90
       50
102
RTVSPost2010PropOp47
 70
     1
102
RTVSPost2010Prop48
 90
       50
102
RTVSPost2010PropOp48
 70
     1
102
RTVSPost2010Prop49
280
     0
102
RTVSPost2010PropOp49
 70
     1
102
RTVSPost2010Prop50
 90
       50
102
RTVSPost2010PropOp50
 70
     1
102
RTVSPost2010Prop51ColorIndex
 90
      256
102
RTVSPost2010Prop51ColorRGB
 90
-16777216
102
RTVSPost2010PropOp51
 70
     0
102
RTVSPost2010Prop52
140
1.0
102
RTVSPost2010PropOp52
 70
     0
102
RTVSPost2010Prop53
 90
        2
102
RTVSPost2010PropOp53
 70
     1
102
RTVSPost2010Prop54
  1
strokes_ogs.tif
102
RTVSPost2010PropOp54
 70
     1
102
RTVSPost2010Prop55
280
     0
102
RTVSPost2010PropOp55
 70
     1
102
RTVSPost2010Prop56
140
1.0
102
RTVSPost2010PropOp56
 70
     1
102
RTVSPost2010Prop57
140
1.0
102
RTVSPost2010PropOp57
 70
     1
  0
XRECORD
  5
312C
102
{ACAD_REACTORS
330
312B
102
}
330
312B
100
AcDbXrecord
280
     1
102
RTVSPost2010Prop28
280
     0
102
RTVSPost2010PropOp28
 70
     1
102
RTVSPost2010Prop29
280
     1
102
RTVSPost2010PropOp29
 70
     1
102
RTVSPost2010Prop30
280
     1
102
RTVSPost2010PropOp30
 70
     1
102
RTVSPost2010Prop31
280
     0
102
RTVSPost2010PropOp31
 70
     1
102
RTVSPost2010Prop32
280
     0
102
RTVSPost2010PropOp32
 70
     1
102
RTVSPost2010Prop33
280
     0
102
RTVSPost2010PropOp33
 70
     1
102
RTVSPost2010Prop34
280
     0
102
RTVSPost2010PropOp34
 70
     1
102
RTVSPost2010Prop35
280
     0
102
RTVSPost2010PropOp35
 70
     1
102
RTVSPost2010Prop36
280
     0
102
RTVSPost2010PropOp36
 70
     1
102
RTVSPost2010Prop37
 90
       50
102
RTVSPost2010PropOp37
 70
     1
102
RTVSPost2010Prop38
140
0.0
102
RTVSPost2010PropOp38
 70
     1
102
RTVSPost2010Prop39
140
1.0
102
RTVSPost2010PropOp39
 70
     1
102
RTVSPost2010Prop40
 90
        0
102
RTVSPost2010PropOp40
 70
     1
102
RTVSPost2010Prop41ColorIndex
 90
       18
102
RTVSPost2010Prop41ColorRGB
 90
        0
102
RTVSPost2010PropOp41
 70
     1
102
RTVSPost2010Prop42
 90
       50
102
RTVSPost2010PropOp42
 70
     1
102
RTVSPost2010Prop43
 90
        3
102
RTVSPost2010PropOp43
 70
     1
102
RTVSPost2010Prop44ColorIndex
 90
        5
102
RTVSPost2010Prop44ColorRGB
 90
      255
102
RTVSPost2010PropOp44
 70
     1
102
RTVSPost2010Prop45
280
     0
102
RTVSPost2010PropOp45
 70
     1
102
RTVSPost2010Prop46
 90
       50
102
RTVSPost2010PropOp46
 70
     1
102
RTVSPost2010Prop47
 90
       50
102
RTVSPost2010PropOp47
 70
     1
102
RTVSPost2010Prop48
 90
       50
102
RTVSPost2010PropOp48
 70
     1
102
RTVSPost2010Prop49
280
     0
102
RTVSPost2010PropOp49
 70
     1
102
RTVSPost2010Prop50
 90
       50
102
RTVSPost2010PropOp50
 70
     1
102
RTVSPost2010Prop51ColorIndex
 90
      256
102
RTVSPost2010Prop51ColorRGB
 90
-16777216
102
RTVSPost2010PropOp51
 70
     0
102
RTVSPost2010Prop52
140
1.0
102
RTVSPost2010PropOp52
 70
     0
102
RTVSPost2010Prop53
 90
        2
102
RTVSPost2010PropOp53
 70
     1
102
RTVSPost2010Prop54
  1
strokes_ogs.tif
102
RTVSPost2010PropOp54
 70
     1
102
RTVSPost2010Prop55
280
     0
102
RTVSPost2010PropOp55
 70
     1
102
RTVSPost2010Prop56
140
1.0
102
RTVSPost2010PropOp56
 70
     1
102
RTVSPost2010Prop57
140
1.0
102
RTVSPost2010PropOp57
 70
     1
  0
ENDSEC
  0
EOF
