  0
SECTION
  2
HEADER
  9
$ACADVER
  1
AC1009
  9
$INSBASE
 10
0.0
 20
0.0
 30
0.0
  9
$EXTMIN
 10
176.53187149848279
 20
235.89363340974521
 30
-0.0000000000112498
  9
$EXTMAX
 10
934.05826842942952
 20
792.28248796109392
 30
0.0000000000002956
  9
$LIMMIN
 10
0.0
 20
0.0
  9
$LIMMAX
 10
1422.5
 20
925.0
  9
$ORTHOMODE
 70
     0
  9
$REGENMODE
 70
     1
  9
$FILLMODE
 70
     1
  9
$QTEXTMODE
 70
     0
  9
$MIRRTEXT
 70
     1
  9
$DRAGMODE
 70
     2
  9
$LTSCALE
 40
5.0
  9
$OSMODE
 70
   551
  9
$ATTMODE
 70
     1
  9
$TEXTSIZE
 40
2.5
  9
$TRACEWID
 40
1.0
  9
$TEXTSTYLE
  7
STANDARD
  9
$CLAYER
  8
AM_0
  9
$CELTYPE
  6
BYLAYER
  9
$CECOLOR
 62
   256
  9
$DIMSCALE
 40
1.0
  9
$DIMASZ
 40
2.5
  9
$DIMEXO
 40
1.0
  9
$DIMDLI
 40
8.0
  9
$DIMRND
 40
0.0
  9
$DIMDLE
 40
0.0
  9
$DIMEXE
 40
0.6
  9
$DIMTP
 40
0.1
  9
$DIMTM
 40
0.1
  9
$DIMTXT
 40
2.5
  9
$DIMCEN
 40
0.0
  9
$DIMTSZ
 40
0.0
  9
$DIMTOL
 70
     0
  9
$DIMLIM
 70
     0
  9
$DIMTIH
 70
     0
  9
$DIMTOH
 70
     0
  9
$DIMSE1
 70
     0
  9
$DIMSE2
 70
     0
  9
$DIMTAD
 70
     1
  9
$DIMZIN
 70
     8
  9
$DIMBLK
  1

  9
$DIMASO
 70
     1
  9
$DIMSHO
 70
     1
  9
$DIMPOST
  1

  9
$DIMAPOST
  1
"
  9
$DIMALT
 70
     0
  9
$DIMALTD
 70
     2
  9
$DIMALTF
 40
0.0393701
  9
$DIMLFAC
 40
1.0
  9
$DIMTOFL
 70
     1
  9
$DIMTVP
 40
0.0
  9
$DIMTIX
 70
     0
  9
$DIMSOXD
 70
     0
  9
$DIMSAH
 70
     0
  9
$DIMBLK1
  1

  9
$DIMBLK2
  1

  9
$DIMSTYLE
  2
AM_ISO
  9
$DIMCLRD
 70
   256
  9
$DIMCLRE
 70
   256
  9
$DIMCLRT
 70
     4
  9
$DIMTFAC
 40
0.71
  9
$DIMGAP
 40
0.8
  9
$LUNITS
 70
     2
  9
$LUPREC
 70
     2
  9
$SKETCHINC
 40
1.0
  9
$FILLETRAD
 40
2.0
  9
$AUNITS
 70
     0
  9
$AUPREC
 70
     0
  9
$MENU
  1
.
  9
$ELEVATION
 40
0.0
  9
$PELEVATION
 40
0.0
  9
$THICKNESS
 40
0.0
  9
$LIMCHECK
 70
     0
  9
$BLIPMODE
 70
     0
  9
$CHAMFERA
 40
10.0
  9
$CHAMFERB
 40
5.0
  9
$SKPOLY
 70
     0
  9
$TDCREATE
 40
2452066.611134259
  9
$TDUPDATE
 40
2458541.4195038662
  9
$TDINDWG
 40
0.0855578356
  9
$TDUSRTIMER
 40
0.0855576389
  9
$USRTIMER
 70
     1
  9
$ANGBASE
 50
0.0
  9
$ANGDIR
 70
     0
  9
$PDMODE
 70
     0
  9
$PDSIZE
 40
0.0
  9
$PLINEWID
 40
0.0
  9
$COORDS
 70
     1
  9
$SPLFRAME
 70
     0
  9
$SPLINETYPE
 70
     6
  9
$SPLINESEGS
 70
     8
  9
$ATTDIA
 70
     1
  9
$ATTREQ
 70
     1
  9
$HANDLING
 70
     1
  9
$HANDSEED
  5
2E30
  9
$SURFTAB1
 70
     6
  9
$SURFTAB2
 70
     6
  9
$SURFTYPE
 70
     6
  9
$SURFU
 70
     6
  9
$SURFV
 70
     6
  9
$UCSNAME
  2

  9
$UCSORG
 10
0.0
 20
0.0
 30
0.0
  9
$UCSXDIR
 10
1.0
 20
0.0
 30
0.0
  9
$UCSYDIR
 10
0.0
 20
1.0
 30
0.0
  9
$PUCSNAME
  2

  9
$PUCSORG
 10
0.0
 20
0.0
 30
0.0
  9
$PUCSXDIR
 10
1.0
 20
0.0
 30
0.0
  9
$PUCSYDIR
 10
0.0
 20
1.0
 30
0.0
  9
$USERI1
 70
     0
  9
$USERI2
 70
     0
  9
$USERI3
 70
     0
  9
$USERI4
 70
     0
  9
$USERI5
 70
     0
  9
$USERR1
 40
0.0
  9
$USERR2
 40
0.0
  9
$USERR3
 40
0.0
  9
$USERR4
 40
0.0
  9
$USERR5
 40
0.0
  9
$WORLDVIEW
 70
     1
  9
$SHADEDGE
 70
     3
  9
$SHADEDIF
 70
    70
  9
$TILEMODE
 70
     1
  9
$MAXACTVP
 70
    64
  9
$PLIMCHECK
 70
     0
  9
$PEXTMIN
 10
1.0000000000000000E+020
 20
1.0000000000000000E+020
 30
1.0000000000000000E+020
  9
$PEXTMAX
 10
-1.0000000000000000E+020
 20
-1.0000000000000000E+020
 30
-1.0000000000000000E+020
  9
$PLIMMIN
 10
0.0
 20
0.0
  9
$PLIMMAX
 10
420.0
 20
297.0
  9
$UNITMODE
 70
     0
  9
$VISRETAIN
 70
     1
  9
$PLINEGEN
 70
     0
  9
$PSLTSCALE
 70
     1
  0
ENDSEC
  0
SECTION
  2
TABLES
  0
TABLE
  2
VPORT
 70
     1
  0
VPORT
  2
*ACTIVE
 70
     0
 10
0.0
 20
0.0
 11
1.0
 21
1.0
 12
555.29506996395605
 22
514.08806068541946
 13
0.0
 23
0.0
 14
12.5
 24
12.5
 15
50.0
 25
50.0
 16
0.0
 26
0.0
 36
1.0
 17
0.0
 27
0.0
 37
0.0
 40
560.20845767183835
 41
1.7571592210767459
 42
50.0
 43
0.0
 44
0.0
 50
0.0
 51
0.0
 71
     0
 72
   100
 73
     1
 74
     3
 75
     0
 76
     0
 77
     0
 78
     0
  0
ENDTAB
  0
TABLE
  2
LTYPE
 70
    27
  0
LTYPE
  2
CONTINUOUS
 70
     0
  3
Solid line
 72
    65
 73
     0
 40
0.0
  0
LTYPE
  2
AM_ISO02W050
 70
     0
  3
__ __ __ __ __ __ __ __ __ __ __ __ __ __ __
 72
    65
 73
     2
 40
7.5
 49
6.0
 49
-1.5
  0
LTYPE
  2
AM_ISO08W050
 70
     0
  3
____ . ____ . ____ . ____ . ____ . ____ . ____
 72
    65
 73
     4
 40
18.0
 49
12.0
 49
-1.5
 49
3.0
 49
-1.5
  0
LTYPE
  2
AM_ISO09W050
 70
     0
  3
_____ . . _____ . . _____ . . ____ .. ____
 72
    65
 73
     6
 40
22.5
 49
12.0
 49
-1.5
 49
3.0
 49
-1.5
 49
3.0
 49
-1.5
  0
LTYPE
  2
AMCONSTR
 70
     0
  3
_______________________
 72
    65
 73
     2
 40
9999.0
 49
9999.0
 49
0.0
  0
LTYPE
  2
AM_ISO08W050X2
 70
     0
  3
__ . __ . __ . __ . __ . __
 72
    65
 73
     4
 40
9.0
 49
6.0
 49
-0.75
 49
1.5
 49
-0.75
  0
LTYPE
  2
AM_ISO02W050X2
 70
     0
  3
 _ _ _ _ _ _ _ _ _ _ _ _
 72
    65
 73
     2
 40
3.75
 49
3.0
 49
-0.75
  0
LTYPE
  2
AMZIGZAG
 70
     0
  3
/\/-/\/-/\/-/\/-/\/-/\/
 72
    65
 73
     2
 40
11.000099999999991
 49
0.0001
 49
-11.0
  0
LTYPE
  2
ACISOWELD
 70
     0
  3
_ _ _ _ _
 72
    65
 73
     2
 40
2.0
 49
2.0
 49
-1.0
  0
LTYPE
  2
ACISOTGB
 70
     0
  3
__ . . __ . .
 72
    65
 73
     6
 40
9.0
 49
4.0
 49
-1.0
 49
1.0
 49
-1.0
 49
1.0
 49
-1.0
  0
LTYPE
  2
ACISOTGL
 70
     0
  3
_ _ _ _ _
 72
    65
 73
     2
 40
3.0
 49
2.0
 49
-1.0
  0
LTYPE
  2
CENTER
 70
     0
  3
__ . __
 72
    65
 73
     4
 40
7.0
 49
4.0
 49
-1.0
 49
1.0
 49
-1.0
  0
LTYPE
  2
PHANTOM2
 70
     0
  3
Phantom (.5x) ___ _ _ ___ _ _ ___ _ _ ___ _ _
 72
    65
 73
     6
 40
31.75
 49
15.875
 49
-3.174999999999998
 49
3.174999999999998
 49
-3.174999999999998
 49
3.174999999999998
 49
-3.174999999999998
  0
LTYPE
  2
ACANSTGBM
 70
     0
  3
__ . . __ . .
 72
    65
 73
     6
 40
9.0
 49
4.0
 49
-1.0
 49
1.0
 49
-1.0
 49
1.0
 49
-1.0
  0
LTYPE
  2
ACANSTGLM
 70
     0
  3
_ _ _ _ _
 72
    65
 73
     2
 40
3.0
 49
2.0
 49
-1.0
  0
LTYPE
  2
GEN7
 70
     0
  3
____ . ____ . ____ . ____ . ____ . ____ . ____
 72
    65
 73
     4
 40
14.25
 49
9.75
 49
-1.5
 49
1.5
 49
-1.5
  0
LTYPE
  2
GEN3B
 70
     0
  3
 - - - - -
 72
    65
 73
     2
 40
1.0
 49
0.5
 49
-0.5
  0
LTYPE
  2
GEN7A
 70
     0
  3
__ . __ . __
 72
    65
 73
     4
 40
7.375
 49
4.75
 49
-0.875
 49
0.875
 49
-0.875
  0
LTYPE
  2
ACJISTGB
 70
     0
  3
__ . . __ . .
 72
    65
 73
     6
 40
9.0
 49
4.0
 49
-1.0
 49
1.0
 49
-1.0
 49
1.0
 49
-1.0
  0
LTYPE
  2
ACJISTGL
 70
     0
  3
_ _ _ _ _
 72
    65
 73
     2
 40
3.0
 49
2.0
 49
-1.0
  0
LTYPE
  2
HIDDEN
 70
     0
  3
Hidden __ __ __ __ __ __ __ __ __ __ __ __ __ _
 72
    65
 73
     2
 40
0.375
 49
0.25
 49
-0.125
  0
LTYPE
  2
CENTER2
 70
     0
  3
Center (.5x) ___ _ ___ _ ___ _ ___ _ ___ _ ___
 72
    65
 73
     4
 40
1.125
 49
0.75
 49
-0.125
 49
0.125
 49
-0.125
  0
LTYPE
  2
HIDDEN2
 70
     0
  3
Hidden (.5x) _ _ _ _ _ _ _ _ _ _ _ _ _ _ _ _ _
 72
    65
 73
     2
 40
0.1875
 49
0.125
 49
-0.0625
  0
LTYPE
  2
AMZIGZAG2
 70
     0
  3
/\/-/\/-/\/-/\/-/\/-/\/
 72
    65
 73
     2
 40
0.4401
 49
0.0001
 49
-0.4400000000000002
  0
LTYPE
  2
ACANSTGB
 70
     0
  3
__ . . __ . .
 72
    65
 73
     6
 40
0.35433070866
 49
0.15748031496
 49
-0.03937007874
 49
0.03937007874
 49
-0.03937007874
 49
0.03937007874
 49
-0.03937007874
  0
LTYPE
  2
ACANSTGL
 70
     0
  3
_ _ _ _ _
 72
    65
 73
     2
 40
0.11811023622
 49
0.07874015748
 49
-0.03937007874
  0
ENDTAB
  0
TABLE
  2
LAYER
 70
     7
  0
LAYER
  2
0
 70
     0
 62
     7
  6
CONTINUOUS
  0
LAYER
  2
AM_0
 70
     0
 62
     7
  6
CONTINUOUS
  0
LAYER
  2
AM_5
 70
     0
 62
     2
  6
CONTINUOUS
  0
LAYER
  2
DEFPOINTS
 70
     0
 62
     7
  6
CONTINUOUS
  0
LAYER
  2
ｶｸﾚｾﾝ2
 70
     0
 62
     3
  6
GEN3B
  0
LAYER
  2
ﾁｭｳｼﾝｾﾝ
 70
     0
 62
     1
  6
GEN7
  0
LAYER
  2
ﾁｭｳｼﾝｾﾝ1
 70
     0
 62
     1
  6
GEN7A
  0
ENDTAB
  0
TABLE
  2
STYLE
 70
     9
  0
STYLE
  2
STANDARD
 70
     0
 40
0.0
 41
0.8299999999999999
 50
0.0
 71
     0
 42
2.5
  3
txt.shx
  4
bigfont.shx
  0
STYLE
  2
ANNOTATIVE
 70
     0
 40
0.0
 41
1.0
 50
0.0
 71
     0
 42
0.2
  3
txt
  4

  0
STYLE
  2

 70
     1
 40
0.0
 41
1.0
 50
0.0
 71
     0
 42
2.5
  3
ltypeshp.shx
  4

  0
STYLE
  2
ACISOTS
 70
     0
 40
1.0
 41
1.0
 50
0.0
 71
     0
 42
2.5
  3
isocp.shx
  4
extfont.shx
  0
STYLE
  2
ACISOGDT
 70
     0
 40
0.0
 41
1.0
 50
0.0
 71
     0
 42
2.5
  3
amgdt.shx
  4

  0
STYLE
  2
ACANSTS
 70
     0
 40
1.0
 41
1.0
 50
0.0
 71
     0
 42
2.5
  3
romans.shx
  4
bigfont.shx
  0
STYLE
  2
ACANSGDT
 70
     0
 40
0.0
 41
1.0
 50
0.0
 71
     0
 42
2.5
  3
amgdt.shx
  4

  0
STYLE
  2
ACJISTS
 70
     0
 40
1.0
 41
1.0
 50
0.0
 71
     0
 42
2.5
  3
isocp.shx
  4
bigfont.shx
  0
STYLE
  2
ACJISGDT
 70
     0
 40
0.0
 41
1.0
 50
0.0
 71
     0
 42
2.5
  3
amgdt.shx
  4

  0
ENDTAB
  0
TABLE
  2
VIEW
 70
     6
  0
VIEW
  2
AM_VIEW1
 70
     0
 40
462.5
 10
416.07965009208078
 20
693.75
 41
832.15930018416213
 11
0.0
 21
0.0
 31
1.0
 12
0.0
 22
0.0
 32
0.0
 42
50.0
 43
0.0
 44
0.0
 50
0.0
 71
     0
  0
VIEW
  2
AM_VIEW2
 70
     0
 40
462.5
 10
1006.420349907918
 20
693.75
 41
832.15930018416213
 11
0.0
 21
0.0
 31
1.0
 12
0.0
 22
0.0
 32
0.0
 42
50.0
 43
0.0
 44
0.0
 50
0.0
 71
     0
  0
VIEW
  2
AM_VIEW3
 70
     0
 40
462.5
 10
416.07965009208078
 20
231.25
 41
832.15930018416213
 11
0.0
 21
0.0
 31
1.0
 12
0.0
 22
0.0
 32
0.0
 42
50.0
 43
0.0
 44
0.0
 50
0.0
 71
     0
  0
VIEW
  2
AM_VIEW4
 70
     0
 40
462.5
 10
1006.420349907918
 20
231.25
 41
832.15930018416213
 11
0.0
 21
0.0
 31
1.0
 12
0.0
 22
0.0
 32
0.0
 42
50.0
 43
0.0
 44
0.0
 50
0.0
 71
     0
  0
VIEW
  2
AM_VIEW5
 70
     0
 40
462.5
 10
711.24999999999966
 20
462.5
 41
832.15930018416179
 11
0.0
 21
0.0
 31
1.0
 12
0.0
 22
0.0
 32
0.0
 42
50.0
 43
0.0
 44
0.0
 50
0.0
 71
     0
  0
VIEW
  2
AM_VIEW6
 70
     0
 40
924.99075000000005
 10
711.24999999999966
 20
462.5
 41
1664.3019571823199
 11
0.0
 21
0.0
 31
1.0
 12
0.0
 22
0.0
 32
0.0
 42
50.0
 43
0.0
 44
0.0
 50
0.0
 71
     0
  0
ENDTAB
  0
TABLE
  2
UCS
 70
     0
  0
ENDTAB
  0
TABLE
  2
APPID
 70
    95
  0
APPID
  2
ACAD
 70
     0
  0
APPID
  2
ACADANNOTATIVE
 70
     0
  0
APPID
  2
MCAD_NO_VIS
 70
     0
  0
APPID
  2
ACAD_TEMP_GRAPHIC
 70
     0
  0
APPID
  2
ACATTRIBSERVICES
 70
     0
  0
APPID
  2
GENIUS_GENREC_14
 70
     0
  0
APPID
  2
GENIUS_GENOBJ-N-REC_13
 70
     0
  0
APPID
  2
GENIUS_GENODEF_13
 70
     0
  0
APPID
  2
GENIUS_GENOLIS_13
 70
     0
  0
APPID
  2
GENIUS_GENOBJ-N-TIT_13
 70
     0
  0
APPID
  2
GENIUS_GENOENT_13
 70
     0
  0
APPID
  2
GENIUS_GENTITLE_13
 70
     0
  0
APPID
  2
GENIUS_GENOREF_13
 70
     0
  0
APPID
  2
GENIUS_GENSCREG_15
 70
     0
  0
APPID
  2
GENIUS_GENOBJ-N-SDF_13
 70
     0
  0
APPID
  2
GENIUS_GENFIL_13
 70
     0
  0
APPID
  2
GENIUS_GENOBJ-N-CHA_13
 70
     0
  0
APPID
  2
GENIUS_GENDTOL_13
 70
     0
  0
APPID
  2
GENIUS_GENOBJ-N-FIL_13
 70
     0
  0
APPID
  2
AD_DRAW
 70
     0
  0
APPID
  2
DESIGNERASSEMBLIES
 70
     0
  0
APPID
  2
ASURF_PCURVE_APPNAME
 70
     0
  0
APPID
  2
GENIUS_GE3SECT_13
 70
     0
  0
APPID
  2
GENIUS_GENCFG_13
 70
     0
  0
APPID
  2
GENIUS_GE3CFG0_13
 70
     0
  0
APPID
  2
GENIUS_GENCFG0_13
 70
     0
  0
APPID
  2
GENIUS_GENCFG1_13
 70
     0
  0
APPID
  2
GENIUS_GENCFG2_13
 70
     0
  0
APPID
  2
GENIUS_GENCFG3_13
 70
     0
  0
APPID
  2
GENIUS_GENCFG4_13
 70
     0
  0
APPID
  2
GENIUS_GEVCFG0_13
 70
     0
  0
APPID
  2
GENIUS_GENHINW_13
 70
     0
  0
APPID
  2
GENIUS_FIRSTVISTXT_14
 70
     0
  0
APPID
  2
GENIUS_GENOBJ-N-LEADER_13
 70
     0
  0
APPID
  2
GEV_VCCNULL_SWITCH_OFF
 70
     0
  0
APPID
  2
GENIUS_GEFCFG0_13
 70
     0
  0
APPID
  2
GENIUS_GENZVEED_13
 70
     0
  0
APPID
  2
GENIUS_GENSCREG_13
 70
     0
  0
APPID
  2
GENIUS_DUMCFG0_13
 70
     0
  0
APPID
  2
GEVID936201362
 70
     0
  0
APPID
  2
GEVDC
 70
     0
  0
APPID
  2
GEVCON
 70
     0
  0
APPID
  2
VCC
 70
     0
  0
APPID
  2
GEVPT
 70
     0
  0
APPID
  2
GEVIT
 70
     0
  0
APPID
  2
GENBH
 70
     0
  0
APPID
  2
GEVMK
 70
     0
  0
APPID
  2
GENIUS_GENBH_13
 70
     0
  0
APPID
  2
GENIUS_GENOBJ-NBEHI-BHF_13
 70
     0
  0
APPID
  2
GENIUS_GENOBJ-NBEHI-BHB_13
 70
     0
  0
APPID
  2
GENIUS_GENOBJ-F-DESC_13
 70
     0
  0
APPID
  2
GENIUS_GEFDESC_14
 70
     0
  0
APPID
  2
GENIUS_GENOBJ-F-PART_13
 70
     0
  0
APPID
  2
GENIUS_GEFSTDP_13
 70
     0
  0
APPID
  2
GENIUS_GEFPARTINS_13
 70
     0
  0
APPID
  2
GENIUS_GENTRA_14
 70
     0
  0
APPID
  2
GENIUS_GENINF13_13
 70
     0
  0
APPID
  2
GENIUS_GENOBJ-N-INFOPT_13
 70
     0
  0
APPID
  2
GENIUS_GENOBJ-N-RSSYM_13
 70
     0
  0
APPID
  2
GENIUS_GENSYMENT_13
 70
     0
  0
APPID
  2
GENIUS_GENSCSYM_13
 70
     0
  0
APPID
  2
GENIUS_GEFINFNAM_13
 70
     0
  0
APPID
  2
GENIUS_GENOBJ-N-CEN_13
 70
     0
  0
APPID
  2
GENIUS_GENOBJ-N-CRS_13
 70
     0
  0
APPID
  2
GENIUS_GENOBJ-N-CRC_13
 70
     0
  0
APPID
  2
GENIUS_GENCRC_14
 70
     0
  0
APPID
  2
GEVID942827039
 70
     0
  0
APPID
  2
GEVID942827040
 70
     0
  0
APPID
  2
GEVID942827041
 70
     0
  0
APPID
  2
GENIUS_GENOBJ-F-SCPASSM_13
 70
     0
  0
APPID
  2
GENIUS_GENDIMSH_14
 70
     0
  0
APPID
  2
GEVID942827042
 70
     0
  0
APPID
  2
GEVID946020473
 70
     0
  0
APPID
  2
GEVID946020474
 70
     0
  0
APPID
  2
GEVID946020475
 70
     0
  0
APPID
  2
GENIUS_GENOBJ-N-HTC_13
 70
     0
  0
APPID
  2
GENIUS_GENHATCH_13
 70
     0
  0
APPID
  2
GEVID948854295
 70
     0
  0
APPID
  2
GEVID939402019
 70
     0
  0
APPID
  2
GEVID952919491
 70
     0
  0
APPID
  2
GEVID952919492
 70
     0
  0
APPID
  2
GENIUS_GEFWELD_13
 70
     0
  0
APPID
  2
GENIUS_GENOBJ-F-WELS_13
 70
     0
  0
APPID
  2
GEVID952919493
 70
     0
  0
APPID
  2
GENIUS_GENOBJ-N-RSBK_13
 70
     0
  0
APPID
  2
GENIUS_GENOBJ-N-LIB_13
 70
     0
  0
APPID
  2
GENIUS_GENSCALE_13
 70
     0
  0
APPID
  2
GEVID986376691
 70
     0
  0
APPID
  2
DCO15
 70
     0
  0
APPID
  2
ACAD_DSTYLE_DIMBREAK
 70
     0
  0
APPID
  2
ACAD_DSTYLE_DIMJAG
 70
     0
  0
APPID
  2
ACAD_NAV_VCDISPLAY
 70
     0
  0
APPID
  2
ACADANNOPO
 70
     0
  0
APPID
  2
ACAD_EXEMPT_FROM_CAD_STANDARDS
 70
     0
  0
APPID
  2
ACAD_MLEADERVER
 70
     0
  0
ENDTAB
  0
TABLE
  2
DIMSTYLE
 70
    22
  0
DIMSTYLE
  2
STANDARD
 70
     0
  3

  4

  5

  6

  7

 40
1.0
 41
0.18
 42
0.0625
 43
0.38
 44
0.18
 45
0.0
 46
0.0
 47
0.0
 48
0.0
140
0.18
141
0.09
142
0.0
143
25.399999999999999
144
1.0
145
0.0
146
1.0
147
0.09
 71
     0
 72
     0
 73
     1
 74
     1
 75
     0
 76
     0
 77
     0
 78
     0
170
     0
171
     2
172
     0
173
     0
174
     0
175
     0
176
     0
177
     0
178
     0
  0
DIMSTYLE
  2
ANNOTATIVE
 70
     0
  3

  4

  5

  6

  7

 40
1.0
 41
0.18
 42
0.0625
 43
0.38
 44
0.18
 45
0.0
 46
0.0
 47
0.0
 48
0.0
140
0.18
141
0.09
142
0.0
143
25.399999999999999
144
1.0
145
0.0
146
1.0
147
0.09
 71
     0
 72
     0
 73
     1
 74
     1
 75
     0
 76
     0
 77
     0
 78
     0
170
     0
171
     2
172
     0
173
     0
174
     0
175
     0
176
     0
177
     0
178
     0
  0
DIMSTYLE
  2
AM_ISO
 70
     0
  3

  4
"
  5

  6

  7

 40
1.0
 41
2.5
 42
1.0
 43
8.0
 44
0.6
 45
0.0
 46
0.0
 47
0.1
 48
0.1
140
2.5
141
0.0
142
0.0
143
0.0393701
144
1.0
145
0.0
146
0.71
147
0.8
 71
     0
 72
     0
 73
     0
 74
     0
 75
     0
 76
     0
 77
     1
 78
     8
170
     0
171
     2
172
     1
173
     0
174
     0
175
     0
176
   256
177
   256
178
     4
  0
DIMSTYLE
  2
AM_ISO$3
 70
     0
  3

  4
"
  5

  6

  7

 40
1.0
 41
2.5
 42
1.0
 43
8.0
 44
0.6
 45
0.0
 46
0.0
 47
0.1
 48
0.1
140
2.5
141
0.0
142
0.0
143
0.0393701
144
1.0
145
0.0
146
0.71
147
0.8
 71
     0
 72
     0
 73
     0
 74
     1
 75
     0
 76
     0
 77
     1
 78
     8
170
     0
171
     2
172
     0
173
     0
174
     0
175
     0
176
   256
177
   256
178
     4
  0
DIMSTYLE
  2
AM_ISO$4
 70
     0
  3

  4
"
  5

  6

  7

 40
1.0
 41
2.5
 42
1.0
 43
8.0
 44
0.6
 45
0.0
 46
0.0
 47
0.1
 48
0.1
140
2.5
141
0.0
142
0.0
143
0.0393701
144
1.0
145
0.0
146
0.71
147
0.8
 71
     0
 72
     0
 73
     0
 74
     1
 75
     0
 76
     0
 77
     1
 78
     8
170
     0
171
     2
172
     0
173
     0
174
     0
175
     0
176
   256
177
   256
178
     4
  0
DIMSTYLE
  2
AM_ISO$6
 70
     0
  3

  4
"
  5

  6

  7

 40
1.0
 41
2.5
 42
1.0
 43
8.0
 44
0.6
 45
0.0
 46
0.0
 47
0.1
 48
0.1
140
2.5
141
0.0
142
0.0
143
0.0393701
144
1.0
145
0.0
146
0.71
147
0.8
 71
     0
 72
     0
 73
     0
 74
     0
 75
     0
 76
     0
 77
     0
 78
     8
170
     0
171
     2
172
     1
173
     0
174
     0
175
     0
176
   256
177
   256
178
     4
  0
DIMSTYLE
  2
AM_ISO$7
 70
     0
  3

  4
"
  5

  6

  7

 40
1.0
 41
2.5
 42
1.0
 43
8.0
 44
0.6
 45
0.0
 46
0.0
 47
0.1
 48
0.1
140
2.5
141
0.0
142
0.0
143
0.0393701
144
1.0
145
0.0
146
0.71
147
0.8
 71
     0
 72
     0
 73
     0
 74
     0
 75
     0
 76
     0
 77
     1
 78
     8
170
     0
171
     2
172
     1
173
     0
174
     0
175
     0
176
   256
177
   256
178
     4
  0
DIMSTYLE
  2
AM_ISO$SF
 70
     0
  3

  4
"
  5

  6

  7

 40
1.0
 41
2.5
 42
1.0
 43
10.0
 44
1.0
 45
0.0
 46
0.0
 47
0.1
 48
0.1
140
3.5
141
0.0
142
0.0
143
0.0393701
144
1.0
145
0.0
146
0.71
147
1.5
 71
     0
 72
     0
 73
     0
 74
     0
 75
     1
 76
     1
 77
     1
 78
     8
170
     0
171
     2
172
     1
173
     0
174
     0
175
     0
176
   256
177
   256
178
     2
  0
DIMSTYLE
  2
AM_ISO$SH
 70
     0
  3

  4
"
  5

  6

  7

 40
1.0
 41
2.5
 42
1.0
 43
10.0
 44
1.0
 45
0.0
 46
0.0
 47
0.1
 48
0.1
140
3.5
141
0.0
142
0.0
143
0.0393701
144
2.0
145
0.0
146
0.71
147
1.5
 71
     0
 72
     0
 73
     0
 74
     0
 75
     1
 76
     1
 77
     1
 78
     8
170
     0
171
     2
172
     1
173
     1
174
     0
175
     0
176
   256
177
   256
178
     2
  0
DIMSTYLE
  2
AM_JIS
 70
     0
  3

  4
"
  5

  6

  7

 40
1.0
 41
2.5
 42
1.0
 43
7.0
 44
1.0
 45
0.0
 46
0.0
 47
0.1
 48
0.1000000001
140
2.5
141
0.0
142
0.0
143
0.0393701
144
1.0
145
0.0
146
0.71
147
1.0
 71
     0
 72
     0
 73
     0
 74
     0
 75
     0
 76
     0
 77
     3
 78
     8
170
     0
171
     2
172
     1
173
     0
174
     0
175
     0
176
   256
177
   256
178
     4
  0
DIMSTYLE
  2
AM_JIS$3
 70
     0
  3

  4
"
  5

  6

  7

 40
1.0
 41
2.5
 42
1.0
 43
7.0
 44
1.0
 45
0.0
 46
0.0
 47
0.1
 48
0.1000000001
140
2.5
141
0.0
142
0.0
143
0.0393701
144
1.0
145
0.0
146
0.71
147
1.0
 71
     0
 72
     0
 73
     0
 74
     1
 75
     0
 76
     0
 77
     3
 78
     8
170
     0
171
     2
172
     0
173
     0
174
     0
175
     0
176
   256
177
   256
178
     4
  0
DIMSTYLE
  2
AM_JIS$4
 70
     0
  3

  4
"
  5

  6

  7

 40
1.0
 41
2.5
 42
1.0
 43
7.0
 44
1.0
 45
0.0
 46
0.0
 47
0.1
 48
0.1000000001
140
2.5
141
0.0
142
0.0
143
0.0393701
144
1.0
145
0.0
146
0.71
147
1.0
 71
     0
 72
     0
 73
     0
 74
     0
 75
     0
 76
     0
 77
     3
 78
     8
170
     0
171
     2
172
     0
173
     0
174
     0
175
     0
176
   256
177
   256
178
     4
  0
DIMSTYLE
  2
AM_JIS$6
 70
     0
  3

  4
"
  5

  6

  7

 40
1.0
 41
2.5
 42
1.0
 43
7.0
 44
1.0
 45
0.0
 46
0.0
 47
0.1
 48
0.1000000001
140
2.5
141
0.0
142
0.0
143
0.0393701
144
1.0
145
0.0
146
0.71
147
1.0
 71
     0
 72
     0
 73
     0
 74
     0
 75
     0
 76
     0
 77
     0
 78
     8
170
     0
171
     2
172
     1
173
     0
174
     0
175
     0
176
   256
177
   256
178
     4
  0
DIMSTYLE
  2
AM_JIS$7
 70
     0
  3

  4
"
  5

  6

  7

 40
1.0
 41
2.5
 42
1.0
 43
7.0
 44
1.0
 45
0.0
 46
0.0
 47
0.1
 48
0.1000000001
140
2.5
141
0.0
142
0.0
143
0.0393701
144
1.0
145
0.0
146
0.71
147
1.0
 71
     0
 72
     0
 73
     0
 74
     0
 75
     0
 76
     0
 77
     3
 78
     8
170
     0
171
     2
172
     1
173
     0
174
     0
175
     0
176
   256
177
   256
178
     4
  0
DIMSTYLE
  2
AM_JIS$SF
 70
     0
  3

  4
"
  5

  6

  7

 40
1.0
 41
2.5
 42
1.0
 43
10.0
 44
1.0
 45
0.0
 46
0.0
 47
0.1
 48
0.1
140
3.5
141
0.0
142
0.0
143
0.0393701
144
1.0
145
0.0
146
0.71
147
1.5
 71
     0
 72
     0
 73
     0
 74
     0
 75
     1
 76
     1
 77
     3
 78
     8
170
     0
171
     2
172
     1
173
     0
174
     0
175
     0
176
   256
177
   256
178
     4
  0
DIMSTYLE
  2
AM_JIS$SH
 70
     0
  3

  4
"
  5

  6

  7

 40
1.0
 41
2.5
 42
1.0
 43
10.0
 44
1.0
 45
0.0
 46
0.0
 47
0.1
 48
0.1
140
3.5
141
0.0
142
0.0
143
0.0393701
144
1.0
145
0.0
146
0.71
147
1.5
 71
     0
 72
     0
 73
     0
 74
     0
 75
     1
 76
     0
 77
     3
 78
     8
170
     0
171
     2
172
     1
173
     1
174
     0
175
     0
176
   256
177
   256
178
     4
  0
DIMSTYLE
  2
AM_ANSI
 70
     0
  3

  4
mm
  5

  6

  7

 40
1.0
 41
0.1
 42
0.05
 43
0.5
 44
0.1
 45
0.0
 46
0.0
 47
0.1
 48
0.1
140
0.12
141
0.0
142
0.0
143
25.399999999999999
144
1.0
145
0.0
146
0.71
147
0.06
 71
     0
 72
     0
 73
     1
 74
     1
 75
     0
 76
     0
 77
     0
 78
     7
170
     0
171
     2
172
     0
173
     0
174
     0
175
     0
176
   256
177
   256
178
     2
  0
DIMSTYLE
  2
AM_ANSI$3
 70
     0
  3

  4
mm
  5

  6

  7

 40
1.0
 41
0.1
 42
0.05
 43
0.5
 44
0.1
 45
0.0
 46
0.0
 47
0.1
 48
0.1
140
0.12
141
0.0
142
0.0
143
25.399999999999999
144
1.0
145
0.0
146
0.71
147
0.06
 71
     0
 72
     0
 73
     1
 74
     1
 75
     0
 76
     0
 77
     0
 78
     7
170
     0
171
     2
172
     0
173
     0
174
     0
175
     0
176
   256
177
   256
178
     2
  0
DIMSTYLE
  2
AM_ANSI$4
 70
     0
  3

  4
mm
  5

  6

  7

 40
1.0
 41
0.1
 42
0.05
 43
0.5
 44
0.1
 45
0.0
 46
0.0
 47
0.1
 48
0.1
140
0.12
141
0.0
142
0.0
143
25.399999999999999
144
1.0
145
0.0
146
0.71
147
0.06
 71
     0
 72
     0
 73
     1
 74
     1
 75
     0
 76
     0
 77
     0
 78
     7
170
     0
171
     2
172
     0
173
     0
174
     0
175
     0
176
   256
177
   256
178
     2
  0
DIMSTYLE
  2
AM_ANSI$7
 70
     0
  3

  4
mm
  5

  6

  7

 40
1.0
 41
0.1
 42
0.05
 43
0.5
 44
0.1
 45
0.0
 46
0.0
 47
0.1
 48
0.1
140
0.24
141
0.0
142
0.0
143
25.399999999999999
144
1.0
145
0.0
146
0.71
147
0.06
 71
     0
 72
     0
 73
     1
 74
     1
 75
     0
 76
     0
 77
     0
 78
     7
170
     0
171
     2
172
     0
173
     0
174
     0
175
     0
176
   256
177
   256
178
     2
  0
DIMSTYLE
  2
AM_ANSI$SF
 70
     0
  3

  4
mm
  5

  6

  7

 40
1.0
 41
0.1
 42
0.05
 43
0.5
 44
0.1
 45
0.0
 46
0.0
 47
0.1
 48
0.1
140
0.12
141
0.0
142
0.0
143
25.399999999999999
144
1.0
145
0.0
146
0.71
147
0.06
 71
     0
 72
     0
 73
     1
 74
     1
 75
     1
 76
     1
 77
     0
 78
     7
170
     0
171
     2
172
     0
173
     0
174
     0
175
     0
176
   256
177
   256
178
     2
  0
DIMSTYLE
  2
AM_ANSI$SH
 70
     0
  3

  4
mm
  5

  6

  7

 40
1.0
 41
0.1
 42
0.05
 43
0.5
 44
0.1
 45
0.0
 46
0.0
 47
0.1
 48
0.1
140
0.12
141
0.0
142
0.0
143
25.399999999999999
144
1.0
145
0.0
146
0.71
147
0.06
 71
     0
 72
     0
 73
     1
 74
     1
 75
     1
 76
     1
 77
     0
 78
     7
170
     0
171
     2
172
     0
173
     1
174
     0
175
     0
176
   256
177
   256
178
     2
  0
ENDTAB
  0
ENDSEC
  0
SECTION
  2
BLOCKS
  0
BLOCK
  8
0
  2
$MODEL_SPACE
 70
     0
 10
0.0
 20
0.0
 30
0.0
  3
$MODEL_SPACE
  1

  0
ENDBLK
  5
2C9E
  8
0
  0
BLOCK
 67
     1
  8
0
  2
$PAPER_SPACE
 70
     0
 10
0.0
 20
0.0
 30
0.0
  3
$PAPER_SPACE
  1

  0
ENDBLK
  5
2C9A
 67
     1
  8
0
  0
BLOCK
  8
0
  2
GENAXEH
 70
     0
 10
0.0
 20
0.0
 30
0.0
  3
GENAXEH
  1

  0
LINE
  5
2A0B
  8
0
 10
-1.0
 20
0.0
 30
0.0
 11
1.0
 21
0.0
 31
0.0
  0
ENDBLK
  5
2A0C
  8
0
  0
BLOCK
  8
0
  2
_OPEN30
 70
     0
 10
0.0
 20
0.0
 30
0.0
  3
_OPEN30
  1

  0
LINE
  5
2A0F
  8
0
 62
     0
 10
-1.0
 20
0.26794919
 30
0.0
 11
0.0
 21
0.0
 31
0.0
  0
LINE
  5
2A10
  8
0
 62
     0
 10
0.0
 20
0.0
 30
0.0
 11
-1.0
 21
-0.26794919
 31
0.0
  0
LINE
  5
2A11
  8
0
 62
     0
 10
0.0
 20
0.0
 30
0.0
 11
-1.0
 21
0.0
 31
0.0
  0
ENDBLK
  5
2A12
  8
0
  0
BLOCK
  8
0
  2
_NONE
 70
     0
 10
0.0
 20
0.0
 30
0.0
  3
_NONE
  1

  0
ENDBLK
  5
2A15
  8
0
  0
BLOCK
  8
0
  2
*U5
 70
     1
 10
0.0
 20
0.0
 30
0.0
  3
*U5
  1

  0
TEXT
  5
2A18
  8
AM_0
 62
     4
 10
967.78875371546462
 20
288.71691585178593
 30
0.0
 40
12.5
  1
140
 50
90.0
 41
0.8299999999999999
  0
TEXT
  5
2A19
  8
AM_0
 62
     3
 10
955.95542038213125
 20
314.65441585178593
 30
0.0
 40
8.875
  1
 0
 50
90.0
 41
0.8299999999999999
  0
TEXT
  5
2A1A
  8
AM_0
 62
     3
 10
967.78875371546462
 20
314.65441585178593
 30
0.0
 40
8.875
  1
-0.5
 50
90.0
 41
0.8299999999999999
  0
ENDBLK
  5
2A1B
  8
0
  0
BLOCK
  8
0
  2
_ACMFILLEDHALF
 70
     0
 10
0.0
 20
0.0
 30
0.0
  3
_ACMFILLEDHALF
  1

  0
TRACE
  5
2D98
  8
AM_0
 62
     0
 10
-0.8
 20
0.0
 30
0.0
 11
-1.0
 21
0.166666666
 31
0.0
 12
0.0
 22
0.0
 32
0.0
 13
0.0
 23
0.0
 33
0.0
  0
LINE
  5
2D99
  8
AM_0
 62
     0
 10
-1.0
 20
0.0
 30
0.0
 11
-0.8
 21
0.0
 31
0.0
  0
ENDBLK
  5
2D97
  8
0
  0
ENDSEC
  0
SECTION
  2
ENTITIES
  0
LINE
  5
2A1C
  8
ﾁｭｳｼﾝｾﾝ
 10
719.92896350292312
 20
382.1211811851191
 30
0.0
 11
831.29220189952991
 21
382.12118118511893
 31
0.0
  0
ARC
  5
2A1D
  8
AM_0
 10
775.61058270122624
 20
354.12120918511908
 30
0.0
 40
99.500004000000004
 50
8.4654901000000002
 51
171.53450000000001
  0
LINE
  5
2A1E
  8
AM_0
 10
704.28860370122686
 20
435.83523618511902
 30
0.0
 11
745.42523070122616
 21
448.93209618511901
 31
0.0
  0
ARC
  5
2A1F
  8
AM_0
 10
775.61058270122624
 20
365.12121018511908
 30
0.0
 40
65.000000999999997
 50
0.0
 51
180.00001
  0
ARC
  5
2A20
  8
AM_0
 10
695.61056370122651
 20
275.12120718511892
 30
0.0
 40
15.00000029999998
 50
270.0
 51
0.0
  0
ARC
  5
2A21
  8
AM_0
 10
706.61056470122685
 20
256.12117518511911
 30
0.0
 40
4.000000199999997
 50
0.0
 51
90.000003000000007
  0
ARC
  5
2A22
  8
AM_0
 10
712.61056470122685
 20
242.12119218511901
 30
0.0
 40
2.00000007
 50
90.000003000000007
 51
180.00001
  0
CIRCLE
  5
2A23
  8
AM_0
 10
357.05954803809021
 20
468.12117618511911
 30
0.0
 40
9.9999992999999971
  0
ARC
  5
2A24
  8
AM_0
 10
357.05954803809021
 20
468.12117618511911
 30
0.0
 40
16.299997799999989
 50
304.10957000000002
 51
235.89042000000001
  0
LINE
  5
2A25
  8
ﾁｭｳｼﾝｾﾝ
 10
176.53216418596071
 20
354.12120918511908
 30
0.0
 11
351.7763566300564
 21
354.12120918511908
 31
0.0
  0
LINE
  5
2A26
  8
AM_0
 10
321.55954803809021
 20
278.0645851851192
 30
0.0
 11
265.34091503809032
 21
310.52242818511911
 31
0.0
  0
LINE
  5
2A27
  8
AM_0
 10
321.55954803809021
 20
430.1778331851192
 30
0.0
 11
265.34091503809032
 21
397.71999018511912
 31
0.0
  0
ARC
  5
2A28
  8
AM_0
 10
224.5595480380901
 20
318.27591018511907
 30
0.0
 40
2.0
 50
180.0
 51
239.99999999999949
  0
LINE
  5
2A29
  8
AM_0
 10
263.54916003809018
 20
394.12120918511908
 30
0.0
 11
263.54916003809018
 21
314.12120918511908
 31
0.0
  0
LINE
  5
2A2A
  8
AM_0
 10
231.21980203808999
 20
393.12120918511908
 30
0.0
 11
231.21980203808999
 21
315.12120918511908
 31
0.0
  0
LINE
  5
2A2B
  8
AM_0
 10
233.2884280380903
 20
312.08510118511919
 30
0.0
 11
261.4805340380903
 21
311.59300618511912
 31
0.0
  0
LINE
  5
2A2C
  8
AM_0
 10
223.5595480380901
 20
316.54385918511917
 30
0.0
 11
229.42804703809
 21
313.15567918511908
 31
0.0
  0
ARC
  5
2A2D
  8
AM_0
 10
233.42804703809011
 20
320.08388318511919
 30
0.0
 40
8.0
 50
239.99999999999949
 51
268.99999999999812
  0
ARC
  5
2A2E
  8
AM_0
 10
261.34091503809032
 20
303.59422418511912
 30
0.0
 40
8.0
 50
59.999999999999439
 51
88.999999999998224
  0
ARC
  5
2A2F
  8
AM_0
 10
224.5595480380901
 20
389.96650818511893
 30
0.0
 40
2.0
 50
120.0000000000005
 51
180.0
  0
LINE
  5
2A30
  8
AM_0
 10
181.5595480380901
 20
366.12120918511908
 30
0.0
 11
217.55954803809021
 21
366.12120918511908
 31
0.0
  0
LINE
  5
2A31
  8
AM_0
 10
181.5595480380901
 20
342.12120918511908
 30
0.0
 11
217.55954803809021
 21
342.12120918511908
 31
0.0
  0
LINE
  5
2A32
  8
AM_0
 10
181.5595480380901
 20
366.12120918511908
 30
0.0
 11
181.5595480380901
 21
342.12120918511908
 31
0.0
  0
LINE
  5
2A33
  8
AM_0
 10
181.5595480380901
 20
369.12120918511908
 30
0.0
 11
209.55954803809021
 21
369.12120918511908
 31
0.0
  0
LINE
  5
2A34
  8
AM_0
 10
181.5595480380901
 20
366.12120918511908
 30
0.0
 11
181.5595480380901
 21
369.12120918511908
 31
0.0
  0
LINE
  5
2A35
  8
AM_0
 10
209.55954803809021
 20
366.12120918511908
 30
0.0
 11
209.55954803809021
 21
369.12120918511908
 31
0.0
  0
LINE
  5
2A36
  8
AM_0
 10
217.55954803809021
 20
366.62120918511908
 30
0.0
 11
217.55954803809021
 21
341.62120918511908
 31
0.0
  0
LINE
  5
2A37
  8
AM_0
 10
222.5595480380901
 20
318.27591018511907
 30
0.0
 11
222.5595480380901
 21
389.96650818511893
 31
0.0
  0
LINE
  5
2A38
  8
AM_0
 10
220.5595480380901
 20
329.12120918511908
 30
0.0
 11
220.5595480380901
 21
379.12120918511908
 31
0.0
  0
LINE
  5
2A39
  8
AM_0
 10
220.5595480380901
 20
329.12120918511908
 30
0.0
 11
222.5595480380901
 21
327.12120918511908
 31
0.0
  0
LINE
  5
2A3A
  8
AM_0
 10
217.55954803809021
 20
341.62120918511908
 30
0.0
 11
220.5595480380901
 21
341.62120918511908
 31
0.0
  0
LINE
  5
2A3B
  8
AM_0
 10
217.55954803809021
 20
366.62120918511908
 30
0.0
 11
220.5595480380901
 21
366.62120918511908
 31
0.0
  0
LINE
  5
2A3C
  8
AM_0
 10
220.5595480380901
 20
379.12120918511908
 30
0.0
 11
222.5595480380901
 21
381.12120918511908
 31
0.0
  0
LINE
  5
2A3D
  8
AM_0
 10
233.2884280380903
 20
396.15731718511893
 30
0.0
 11
261.4805340380903
 21
396.6494121851191
 31
0.0
  0
LINE
  5
2A3E
  8
AM_0
 10
223.5595480380901
 20
391.69855918511911
 30
0.0
 11
229.42804703809
 21
395.08673918511909
 31
0.0
  0
ARC
  5
2A3F
  8
AM_0
 10
233.42804703809011
 20
388.15853518511909
 30
0.0
 40
8.0
 50
91.000000000001705
 51
120.0000000000005
  0
ARC
  5
2A40
  8
AM_0
 10
261.34091503809032
 20
404.64819418511888
 30
0.0
 40
8.0
 50
271.00000000000171
 51
300.00000000000051
  0
LINE
  5
2A41
  8
AM_0
 10
544.05953803809052
 20
366.12120918511908
 30
0.0
 11
486.05951803809
 21
366.12120918511908
 31
0.0
  0
LINE
  5
2A42
  8
ﾁｭｳｼﾝｾﾝ
 10
330.39002519333133
 20
382.12118118511893
 30
0.0
 11
555.43905803809025
 21
382.1211811851191
 31
0.0
  0
LINE
  5
2A43
  8
AM_0
 10
544.05953803809052
 20
398.12121618511912
 30
0.0
 11
486.05951803809
 21
398.12121618511912
 31
0.0
  0
ARC
  5
2A44
  8
AM_0
 10
326.05954803809021
 20
320.1830711851191
 30
0.0
 40
2.0
 50
180.0
 51
270.0
  0
ARC
  5
2A45
  8
AM_0
 10
336.05954803809021
 20
320.1830711851191
 30
0.0
 40
2.0
 50
270.0
 51
0.0
  0
LINE
  5
2A46
  8
AM_0
 10
373.05953803809052
 20
310.74561318511911
 30
0.0
 11
373.05953803809052
 21
368.76894618511892
 31
0.0
  0
LINE
  5
2A47
  8
AM_0
 10
339.0595480380901
 20
439.12120918511903
 30
0.0
 11
339.0595480380901
 21
269.12120918511903
 31
0.0
  0
LINE
  5
2A48
  8
AM_0
 10
475.05953803809052
 20
267.66059118511902
 30
0.0
 11
475.05953803809052
 21
426.12120618511932
 31
0.0
  0
LINE
  5
2A49
  8
AM_0
 10
434.05955803809019
 20
275.12120718511892
 30
0.0
 11
434.05955803809019
 21
413.56392618511887
 31
0.0
  0
LINE
  5
2A4A
  8
AM_0
 10
338.05954803809021
 20
328.37430318511912
 30
0.0
 11
338.05954803809021
 21
294.20230918511908
 31
0.0
  0
LINE
  5
2A4B
  8
AM_0
 10
341.0595580380903
 20
323.010765185119
 30
0.0
 11
341.0595580380903
 21
298.26825618511918
 31
0.0
  0
LINE
  5
2A4C
  8
AM_0
 10
324.05954803809021
 20
270.12120918511908
 30
0.0
 11
324.05954803809021
 21
451.12120918511908
 31
0.0
  0
LINE
  5
2A4D
  8
AM_0
 10
454.05953803809052
 20
282.57892518511892
 30
0.0
 11
454.05953803809052
 21
443.60214618511918
 31
0.0
  0
LINE
  5
2A4E
  8
AM_0
 10
369.05954803809033
 20
297.62120718511892
 30
0.0
 11
369.05954803809033
 21
453.62121618511912
 31
0.0
  0
LINE
  5
2A4F
  8
AM_0
 10
359.0595580380903
 20
266.37120618511909
 30
0.0
 11
359.0595580380903
 21
451.34061618511902
 31
0.0
  0
LINE
  5
2A50
  8
AM_0
 10
359.0595580380903
 20
244.1211901851191
 30
0.0
 11
444.05951803809
 21
244.1211901851191
 31
0.0
  0
LINE
  5
2A51
  8
ｶｸﾚｾﾝ2
 10
331.55954803809021
 20
260.12119218511918
 30
0.0
 11
331.55954803809021
 21
242.12119218511901
 31
0.0
  0
LINE
  5
2A52
  8
ｶｸﾚｾﾝ2
 10
346.55954803809021
 20
260.12119218511918
 30
0.0
 11
346.55954803809021
 21
242.12119218511901
 31
0.0
  0
LINE
  5
2A53
  8
ﾁｭｳｼﾝｾﾝ1
 10
339.0595480380901
 20
238.78987518511909
 30
0.0
 11
339.0595480380901
 21
263.64960318511902
 31
0.0
  0
LINE
  5
2A54
  8
AM_0
 10
321.05954803809021
 20
242.12119218511901
 30
0.0
 11
321.05954803809021
 21
258.12119118511902
 31
0.0
  0
LINE
  5
2A55
  8
AM_0
 10
321.05954803809021
 20
242.12119218511901
 30
0.0
 11
357.05954803809021
 21
242.12119218511901
 31
0.0
  0
ARC
  5
2A56
  8
AM_0
 10
359.0595580380903
 20
242.12119218511901
 30
0.0
 40
2.00000007
 50
90.000003000000007
 51
180.00001
  0
ARC
  5
2A57
  8
AM_0
 10
323.0595580380903
 20
258.12119118511902
 30
0.0
 40
2.00000007
 50
90.000003000000007
 51
180.00001
  0
ARC
  5
2A58
  8
AM_0
 10
319.05954803809021
 20
273.73445818511908
 30
0.0
 40
5.0
 50
0.0
 51
59.999999999999439
  0
LINE
  5
2A59
  8
AM_0
 10
357.05954803809021
 20
289.84986018511921
 30
0.0
 11
357.05954803809021
 21
274.8498601851191
 31
0.0
  0
LINE
  5
2A5A
  8
AM_0
 10
349.05953803809052
 20
288.84986118511921
 30
0.0
 11
349.05953803809052
 21
275.84987418511901
 31
0.0
  0
LINE
  5
2A5B
  8
AM_0
 10
357.94943803809031
 20
262.90207518511897
 30
0.0
 11
372.86924803809029
 21
309.52648218511911
 31
0.0
  0
LINE
  5
2A5C
  8
AM_0
 10
339.0595480380901
 20
270.62119218511918
 30
0.0
 11
353.91890803809002
 21
270.10228518511911
 31
0.0
  0
LINE
  5
2A5D
  8
AM_0
 10
357.05954803809021
 20
275.84987418511901
 30
0.0
 11
349.05953803809052
 21
275.84987418511901
 31
0.0
  0
LINE
  5
2A5E
  8
AM_0
 10
323.0595580380903
 20
260.12119218511918
 30
0.0
 11
354.13973803809029
 21
260.12119218511918
 31
0.0
  0
LINE
  5
2A5F
  8
AM_0
 10
338.05954803809021
 20
268.12120918511908
 30
0.0
 11
326.05954803809021
 21
268.12120918511908
 31
0.0
  0
ARC
  5
2A60
  8
AM_0
 10
326.05954803809021
 20
270.12120918511908
 30
0.0
 40
2.0
 50
180.0
 51
270.0
  0
LINE
  5
2A61
  8
AM_0
 10
338.05954803809021
 20
268.12120918511908
 30
0.0
 11
339.0595480380901
 21
269.12120918511903
 31
0.0
  0
ARC
  5
2A62
  8
AM_0
 10
354.13973803809029
 20
264.12119118511902
 30
0.0
 40
4.000000199999997
 50
270.0
 51
342.2553299999999
  0
LINE
  5
2A63
  8
AM_0
 10
359.0595580380903
 20
273.70342218511911
 30
0.0
 11
361.40585803809
 21
273.70342218511911
 31
0.0
  0
ARC
  5
2A64
  8
AM_0
 10
353.74442803809052
 20
265.10533818511902
 30
0.0
 40
5.0000001000000003
 50
19.999998999999981
 51
88.0
  0
LINE
  5
2A65
  8
AM_0
 10
359.0595580380903
 20
274.8498601851191
 30
0.0
 11
357.05954803809021
 21
274.8498601851191
 31
0.0
  0
LINE
  5
2A66
  8
AM_0
 10
358.44290803809031
 20
266.81543718511909
 30
0.0
 11
358.84670803809018
 21
265.7060161851191
 31
0.0
  0
LINE
  5
2A67
  8
AM_0
 10
341.0595580380903
 20
311.25864318511901
 30
0.0
 11
359.0595580380903
 21
311.25864318511901
 31
0.0
  0
LINE
  5
2A68
  8
AM_0
 10
341.0595580380903
 20
298.26825618511918
 30
0.0
 11
359.0595580380903
 21
298.26825618511918
 31
0.0
  0
LINE
  5
2A69
  8
AM_0
 10
357.05954803809021
 20
288.84986118511921
 30
0.0
 11
349.05953803809052
 21
288.84986118511921
 31
0.0
  0
ARC
  5
2A6A
  8
AM_0
 10
336.05954803809021
 20
294.20230918511908
 30
0.0
 40
2.0
 50
270.0
 51
0.0
  0
LINE
  5
2A6B
  8
AM_0
 10
336.05954803809021
 20
292.20230918511908
 30
0.0
 11
326.05954803809021
 21
292.20230918511908
 31
0.0
  0
ARC
  5
2A6C
  8
AM_0
 10
326.05954803809021
 20
294.20230918511908
 30
0.0
 40
2.0
 50
180.0
 51
270.0
  0
LINE
  5
2A6D
  8
AM_0
 10
359.0595580380903
 20
290.26183218511892
 30
0.0
 11
366.70457803809029
 21
290.26183218511892
 31
0.0
  0
LINE
  5
2A6E
  8
AM_0
 10
359.0595580380903
 20
289.84986018511921
 30
0.0
 11
357.05954803809021
 21
289.84986018511921
 31
0.0
  0
ARC
  5
2A6F
  8
AM_0
 10
369.05954803809033
 20
310.74561318511911
 30
0.0
 40
4.000000199999997
 50
342.2553299999999
 51
0.0
  0
LINE
  5
2A70
  8
ｶｸﾚｾﾝ2
 10
471.55955803809019
 20
260.12119218511918
 30
0.0
 11
471.55955803809019
 21
242.12119218511901
 31
0.0
  0
LINE
  5
2A71
  8
AM_0
 10
482.05955803809047
 20
242.12119218511901
 30
0.0
 11
482.05955803809047
 21
258.12119118511902
 31
0.0
  0
LINE
  5
2A72
  8
ｶｸﾚｾﾝ2
 10
456.55955803809047
 20
260.12119218511918
 30
0.0
 11
456.55955803809047
 21
242.12119218511901
 31
0.0
  0
LINE
  5
2A73
  8
ﾁｭｳｼﾝｾﾝ1
 10
464.05955803809019
 20
238.789875185119
 30
0.0
 11
464.05955803809019
 21
263.64960318511902
 31
0.0
  0
LINE
  5
2A74
  8
AM_0
 10
446.05955803809019
 20
242.12119218511901
 30
0.0
 11
482.05955803809047
 21
242.12119218511901
 31
0.0
  0
LINE
  5
2A75
  8
AM_0
 10
446.05955803809019
 20
242.12119218511901
 30
0.0
 11
446.05955803809019
 21
242.12119218511901
 31
0.0
  0
ARC
  5
2A76
  8
AM_0
 10
444.05951803809
 20
242.12119218511901
 30
0.0
 40
2.00000007
 50
0.0
 51
90.000003000000007
  0
ARC
  5
2A77
  8
AM_0
 10
449.05955803809047
 20
275.12120718511892
 30
0.0
 40
15.00000029999998
 50
179.99998999999991
 51
270.0
  0
ARC
  5
2A78
  8
AM_0
 10
446.05955803809019
 20
282.57892518511892
 30
0.0
 40
8.0000000999999976
 50
270.0
 51
0.0
  0
LINE
  5
2A79
  8
AM_0
 10
449.05955803809047
 20
260.12119218511918
 30
0.0
 11
480.05951803809
 21
260.12119218511918
 31
0.0
  0
LINE
  5
2A7A
  8
AM_0
 10
439.13453803809028
 20
274.57893918511911
 30
0.0
 11
446.05955803809019
 21
274.57893918511911
 31
0.0
  0
ARC
  5
2A7B
  8
AM_0
 10
483.05951803809012
 20
267.66059118511902
 30
0.0
 40
8.0000000999999976
 50
179.99998999999991
 51
252.54239000000001
  0
ARC
  5
2A7C
  8
AM_0
 10
480.05951803809
 20
258.12119118511902
 30
0.0
 40
2.00000007
 50
0.0
 51
90.000003000000007
  0
LINE
  5
2A7D
  8
AM_0
 10
369.05960803809029
 20
453.62121618511912
 30
0.0
 11
446.2689880380903
 21
451.59939618511902
 31
0.0
  0
POLYLINE
  5
2A7E
  8
AM_0
 66
     1
 10
0.0
 20
0.0
 30
0.0
  0
VERTEX
  5
2A7F
  8
AM_0
  6
CONTINUOUS
 10
402.51620803809021
 20
426.76260618511901
 30
0.0
 42
0.046333928
  0
VERTEX
  5
2A80
  8
AM_0
  6
CONTINUOUS
 10
400.66439803809033
 20
427.82022618511888
 30
0.0
 42
0.024113287
  0
VERTEX
  5
2A81
  8
AM_0
  6
CONTINUOUS
 10
398.68490803809033
 20
428.62008618511908
 30
0.0
 42
0.015482173
  0
VERTEX
  5
2A82
  8
AM_0
  6
CONTINUOUS
 10
396.64796803809031
 20
429.2647561851191
 30
0.0
 42
0.01117072
  0
VERTEX
  5
2A83
  8
AM_0
  6
CONTINUOUS
 10
394.5802480380903
 20
429.80124618511911
 30
0.0
 42
0.0086851636
  0
VERTEX
  5
2A84
  8
AM_0
  6
CONTINUOUS
 10
392.4926680380903
 20
430.25592618511888
 30
0.0
 42
0.0071112813
  0
VERTEX
  5
2A85
  8
AM_0
  6
CONTINUOUS
 10
390.3909880380902
 20
430.64493618511909
 30
0.0
 42
0.0060487741
  0
VERTEX
  5
2A86
  8
AM_0
  6
CONTINUOUS
 10
388.27826803809018
 20
430.97895618511882
 30
0.0
 42
0.0052886701
  0
VERTEX
  5
2A87
  8
AM_0
  6
CONTINUOUS
 10
386.16089803809001
 20
431.26479618511888
 30
0.0
 42
0.0047450804
  0
VERTEX
  5
2A88
  8
AM_0
  6
CONTINUOUS
 10
384.03578803809017
 20
431.50848618511912
 30
0.0
 42
0.004337472
  0
VERTEX
  5
2A89
  8
AM_0
  6
CONTINUOUS
 10
381.90608803809027
 20
431.7136261851191
 30
0.0
 42
0.0040309329
  0
VERTEX
  5
2A8A
  8
AM_0
  6
CONTINUOUS
 10
379.77329803809022
 20
431.88312618511901
 30
0.0
 42
0.0038017188
  0
VERTEX
  5
2A8B
  8
AM_0
  6
CONTINUOUS
 10
377.63807803809033
 20
432.0192361851191
 30
0.0
 42
0.0036333127
  0
VERTEX
  5
2A8C
  8
AM_0
  6
CONTINUOUS
 10
375.50099803809019
 20
432.12363618511881
 30
0.0
 42
0.0035147917
  0
VERTEX
  5
2A8D
  8
AM_0
  6
CONTINUOUS
 10
373.3625980380902
 20
432.19749618511912
 30
0.0
 42
0.0034390753
  0
VERTEX
  5
2A8E
  8
AM_0
  6
CONTINUOUS
 10
371.22335803809028
 20
432.241626185119
 30
0.0
 42
0.0034021186
  0
VERTEX
  5
2A8F
  8
AM_0
  6
CONTINUOUS
 10
369.08366803809031
 20
432.25650618511912
 30
0.0
  0
SEQEND
  5
2A90
  8
AM_0
  0
LINE
  5
2A91
  8
AM_0
 10
369.05954803809033
 20
384.306513185119
 30
0.0
 11
396.82820803809028
 21
409.59297618511903
 31
0.0
  0
POLYLINE
  5
2A92
  8
AM_0
 66
     1
 10
0.0
 20
0.0
 30
0.0
  0
VERTEX
  5
2A93
  8
AM_0
  6
CONTINUOUS
 10
396.82874803809028
 20
409.59351618511892
 30
0.0
 42
0.038759412
  0
VERTEX
  5
2A94
  8
AM_0
  6
CONTINUOUS
 10
399.57656803809027
 20
412.50438618511907
 30
0.0
 42
0.04530642
  0
VERTEX
  5
2A95
  8
AM_0
  6
CONTINUOUS
 10
401.79875803809028
 20
415.83210618511902
 30
0.0
 42
0.052171517
  0
VERTEX
  5
2A96
  8
AM_0
  6
CONTINUOUS
 10
403.33544803809042
 20
419.5299061851191
 30
0.0
 42
0.057266797
  0
VERTEX
  5
2A97
  8
AM_0
  6
CONTINUOUS
 10
404.02970803809018
 20
423.46866618511899
 30
0.0
 42
0.058402473
  0
VERTEX
  5
2A98
  8
AM_0
  6
CONTINUOUS
 10
403.79894803808992
 20
427.45686618511911
 30
0.0
 42
0.055045428
  0
VERTEX
  5
2A99
  8
AM_0
  6
CONTINUOUS
 10
402.6734380380903
 20
431.29203618511889
 30
0.0
 42
0.048778207
  0
VERTEX
  5
2A9A
  8
AM_0
  6
CONTINUOUS
 10
400.78055803809002
 20
434.81253618511909
 30
0.0
 42
0.041944178
  0
VERTEX
  5
2A9B
  8
AM_0
  6
CONTINUOUS
 10
398.2830580380903
 20
437.93556618511911
 30
0.0
 42
0.035908203
  0
VERTEX
  5
2A9C
  8
AM_0
  6
CONTINUOUS
 10
395.33045803809028
 20
440.63634618511912
 30
0.0
 42
0.031063143
  0
VERTEX
  5
2A9D
  8
AM_0
  6
CONTINUOUS
 10
392.0437780380903
 20
442.9203061851191
 30
0.0
 42
0.027381807
  0
VERTEX
  5
2A9E
  8
AM_0
  6
CONTINUOUS
 10
388.51184803809031
 20
444.80742618511903
 30
0.0
 42
0.024647351
  0
VERTEX
  5
2A9F
  8
AM_0
  6
CONTINUOUS
 10
384.8028280380903
 20
446.31855618511912
 30
0.0
 42
0.022677519
  0
VERTEX
  5
2AA0
  8
AM_0
  6
CONTINUOUS
 10
380.96744803809031
 20
447.47322618511902
 30
0.0
 42
0.021321472
  0
VERTEX
  5
2AA1
  8
AM_0
  6
CONTINUOUS
 10
377.0450380380903
 20
448.28703618511901
 30
0.0
 42
0.020471059
  0
VERTEX
  5
2AA2
  8
AM_0
  6
CONTINUOUS
 10
373.06814803809038
 20
448.77111618511913
 30
0.0
 42
0.020088491
  0
VERTEX
  5
2AA3
  8
AM_0
  6
CONTINUOUS
 10
369.05951803809029
 20
448.93203618511887
 30
0.0
  0
SEQEND
  5
2AA4
  8
AM_0
  0
LINE
  5
2AA5
  8
AM_0
 10
341.0595580380903
 20
323.010765185119
 30
0.0
 11
359.0595580380903
 21
323.010765185119
 31
0.0
  0
LINE
  5
2AA6
  8
AM_0
 10
325.05954803809021
 20
328.37430318511912
 30
0.0
 11
337.0595480380901
 21
328.37430318511912
 31
0.0
  0
LINE
  5
2AA7
  8
AM_0
 10
326.05954803809021
 20
318.1830711851191
 30
0.0
 11
336.05954803809021
 21
318.1830711851191
 31
0.0
  0
LINE
  5
2AA8
  8
AM_0
 10
369.05954803809033
 20
368.76894618511892
 30
0.0
 11
373.05953803809052
 21
368.76894618511892
 31
0.0
  0
LINE
  5
2AA9
  8
AM_0
 10
369.05960803809029
 20
384.306513185119
 30
0.0
 11
369.06113803809018
 21
384.306513185119
 31
0.0
  0
ARC
  5
2AAA
  8
AM_0
 10
319.05954803809021
 20
434.50796018511909
 30
0.0
 40
5.0
 50
300.00000000000051
 51
0.0
  0
LINE
  5
2AAB
  8
AM_0
 10
357.05954803809021
 20
418.3925461851191
 30
0.0
 11
357.05954803809021
 21
433.39254618511899
 31
0.0
  0
LINE
  5
2AAC
  8
AM_0
 10
349.05953803809052
 20
419.39253618511901
 30
0.0
 11
349.05953803809052
 21
432.39255618511919
 31
0.0
  0
LINE
  5
2AAD
  8
AM_0
 10
357.05954803809021
 20
419.39253618511901
 30
0.0
 11
349.05953803809052
 21
419.39253618511901
 31
0.0
  0
LINE
  5
2AAE
  8
AM_0
 10
359.0595580380903
 20
418.3925461851191
 30
0.0
 11
357.05954803809021
 21
418.3925461851191
 31
0.0
  0
LINE
  5
2AAF
  8
AM_0
 10
348.05954803809021
 20
451.121196185119
 30
0.0
 11
359.0595580380903
 21
451.121196185119
 31
0.0
  0
LINE
  5
2AB0
  8
AM_0
 10
349.05953803809052
 20
451.121196185119
 30
0.0
 11
350.25497803809043
 21
455.58261618511892
 31
0.0
  0
LINE
  5
2AB1
  8
AM_0
 10
341.0595580380903
 20
437.69103618511917
 30
0.0
 11
354.23405803809021
 21
438.15108618511903
 31
0.0
  0
LINE
  5
2AB2
  8
AM_0
 10
357.05954803809021
 20
432.39255618511919
 30
0.0
 11
349.05953803809052
 21
432.39255618511919
 31
0.0
  0
LINE
  5
2AB3
  8
AM_0
 10
338.05954803809021
 20
438.05676618511887
 30
0.0
 11
338.05954803809021
 21
451.12120918511908
 31
0.0
  0
LINE
  5
2AB4
  8
AM_0
 10
341.0595580380903
 20
437.69103618511917
 30
0.0
 11
341.0595580380903
 21
453.12120618511898
 31
0.0
  0
LINE
  5
2AB5
  8
AM_0
 10
348.05954803809021
 20
438.90117618511908
 30
0.0
 11
348.05954803809021
 21
451.121196185119
 31
0.0
  0
LINE
  5
2AB6
  8
AM_0
 10
337.0595480380901
 20
438.05676618511887
 30
0.0
 11
325.05954803809021
 21
438.05676618511887
 31
0.0
  0
LINE
  5
2AB7
  8
AM_0
 10
338.05954803809021
 20
440.12120918511903
 30
0.0
 11
339.0595480380901
 21
439.12120918511903
 31
0.0
  0
LINE
  5
2AB8
  8
AM_0
 10
339.0595480380901
 20
437.62119618511917
 30
0.0
 11
341.0595580380903
 21
437.69103618511917
 31
0.0
  0
ARC
  5
2AB9
  8
AM_0
 10
347.0595580380903
 20
438.90117618511908
 30
0.0
 40
1.0000000199999981
 50
272.0
 51
0.0
  0
ARC
  5
2ABA
  8
AM_0
 10
336.05954803809021
 20
451.12120918511908
 30
0.0
 40
2.0
 50
0.0
 51
90.0
  0
LINE
  5
2ABB
  8
AM_0
 10
326.05954803809021
 20
453.12120918511903
 30
0.0
 11
336.05954803809021
 21
453.12120918511903
 31
0.0
  0
ARC
  5
2ABC
  8
AM_0
 10
326.05954803809021
 20
451.12120918511908
 30
0.0
 40
2.0
 50
90.0
 51
180.0
  0
LINE
  5
2ABD
  8
AM_0
 10
341.0595580380903
 20
453.12120618511898
 30
0.0
 11
349.06595803809017
 21
453.12120618511898
 31
0.0
  0
ARC
  5
2ABE
  8
AM_0
 10
346.22855803809028
 20
452.14683618511901
 30
0.0
 40
3.0
 50
345.0
 51
55.861736999999991
  0
LINE
  5
2ABF
  8
AM_0
 10
360.2393080380902
 20
432.25650618511912
 30
0.0
 11
369.05954803809033
 21
432.25650618511912
 31
0.0
  0
ARC
  5
2AC0
  8
AM_0
 10
354.05954803809021
 20
443.148036185119
 30
0.0
 40
5.0000001000000003
 50
272.0
 51
0.0
  0
LINE
  5
2AC1
  8
AM_0
 10
359.0595580380903
 20
433.39254618511899
 30
0.0
 11
357.05954803809021
 21
433.39254618511899
 31
0.0
  0
LINE
  5
2AC2
  8
AM_0
 10
360.98972803809028
 20
453.33939618511903
 30
0.0
 11
369.05954803809033
 21
453.62118618511909
 31
0.0
  0
LINE
  5
2AC3
  8
AM_0
 10
364.43294803809027
 20
453.45966618511909
 30
0.0
 11
363.82346803809031
 21
455.73417618511911
 31
0.0
  0
LINE
  5
2AC4
  8
AM_0
 10
357.05954803809021
 20
458.12121618511901
 30
0.0
 11
363.1247980380902
 21
456.43902618511902
 31
0.0
  0
ARC
  5
2AC5
  8
AM_0
 10
361.05953803809052
 20
451.34061618511902
 30
0.0
 40
2.00000007
 50
109.0653999999999
 51
180.00001
  0
LINE
  5
2AC6
  8
AM_0
 10
350.93333803809031
 20
456.28158618511901
 30
0.0
 11
357.05954803809021
 21
458.12121618511901
 31
0.0
  0
ARC
  5
2AC7
  8
AM_0
 10
351.2209180380903
 20
455.32380618511911
 30
0.0
 40
1.0000000199999981
 50
106.7144199999999
 51
164.99999
  0
ARC
  5
2AC8
  8
AM_0
 10
361.05953803809052
 20
451.34061618511902
 30
0.0
 40
2.00000007
 50
91.999997999999948
 51
109.0653999999999
  0
ARC
  5
2AC9
  8
AM_0
 10
362.85758803809028
 20
455.47539618511883
 30
0.0
 40
1.0000000199999981
 50
15.0
 51
74.498793000000006
  0
ARC
  5
2ACA
  8
AM_0
 10
367.8905380380902
 20
452.14683618511901
 30
0.0
 40
3.0
 50
124.13826
 51
153.47471999999991
  0
LINE
  5
2ACB
  8
AM_0
 10
482.05955803809047
 20
382.12118118511893
 30
0.0
 11
482.05955803809047
 21
409.38915618511902
 31
0.0
  0
LINE
  5
2ACC
  8
AM_0
 10
486.05951803809
 20
364.62120918511908
 30
0.0
 11
486.05951803809
 21
399.62121618511901
 31
0.0
  0
ARC
  5
2ACD
  8
AM_0
 10
479.0595580380903
 20
354.85326618511908
 30
0.0
 40
3.0
 50
300.0
 51
0.0
  0
ARC
  5
2ACE
  8
AM_0
 10
478.05953803809052
 20
347.34771018511918
 30
0.0
 40
3.0
 50
119.9999999999999
 51
180.00001
  0
LINE
  5
2ACF
  8
AM_0
 10
476.55950803809031
 20
349.94579418511893
 30
0.0
 11
480.55952803809021
 21
352.25518218511911
 31
0.0
  0
LINE
  5
2AD0
  8
AM_0
 10
482.05955803809047
 20
354.85326618511908
 30
0.0
 11
482.05955803809047
 21
382.12118118511893
 31
0.0
  0
LINE
  5
2AD1
  8
AM_0
 10
486.05951803809
 20
364.62120918511908
 30
0.0
 11
482.05955803809047
 21
364.62120918511908
 31
0.0
  0
ARC
  5
2AD2
  8
AM_0
 10
442.05953803809052
 20
413.56392618511887
 30
0.0
 40
8.0000000999999976
 50
90.000003000000007
 51
180.00001
  0
ARC
  5
2AD3
  8
AM_0
 10
471.05951803809
 20
426.12120618511932
 30
0.0
 40
4.000000199999997
 50
0.0
 51
90.000003000000007
  0
LINE
  5
2AD4
  8
AM_0
 10
442.05953803809052
 20
421.56393618511908
 30
0.0
 11
450.45902803809008
 21
421.56393618511908
 31
0.0
  0
LINE
  5
2AD5
  8
AM_0
 10
486.05951803809
 20
399.62121618511901
 30
0.0
 11
482.05955803809047
 21
399.62121618511901
 31
0.0
  0
ARC
  5
2AD6
  8
AM_0
 10
478.05953803809052
 20
416.89470618511911
 30
0.0
 40
3.0
 50
179.99998999999991
 51
240.00001
  0
LINE
  5
2AD7
  8
AM_0
 10
476.55953803809052
 20
414.29661618511881
 30
0.0
 11
480.55955803809019
 21
411.98724618511909
 31
0.0
  0
ARC
  5
2AD8
  8
AM_0
 10
479.0595580380903
 20
409.38915618511902
 30
0.0
 40
3.0
 50
0.0
 51
60.000002000000002
  0
ARC
  5
2AD9
  8
AM_0
 10
462.05951803809012
 20
438.12120618511932
 30
0.0
 40
8.0000000999999976
 50
179.99998999999991
 51
270.0
  0
ARC
  5
2ADA
  8
AM_0
 10
446.05955803809019
 20
443.60214618511918
 30
0.0
 40
8.0000000999999976
 50
0.0
 51
88.499996999999965
  0
LINE
  5
2ADB
  8
AM_0
 10
462.05951803809012
 20
430.12122618511893
 30
0.0
 11
471.05951803809
 21
430.12122618511893
 31
0.0
  0
LINE
  5
2ADC
  8
AM_0
 10
698.61056370122651
 20
414.21489618511919
 30
0.0
 11
698.61056370122651
 21
315.85846818511908
 31
0.0
  0
LINE
  5
2ADD
  8
AM_0
 10
660.64323270122645
 20
257.56284018511911
 30
0.0
 11
677.19462270122665
 21
368.76894618511892
 31
0.0
  0
LINE
  5
2ADE
  8
AM_0
 10
710.61056370122651
 20
365.12121018511908
 30
0.0
 11
710.61056370122651
 21
275.12120718511892
 31
0.0
  0
LINE
  5
2ADF
  8
ｶｸﾚｾﾝ2
 10
688.11057870122636
 20
260.12119218511918
 30
0.0
 11
688.11057870122636
 21
242.12119218511901
 31
0.0
  0
LINE
  5
2AE0
  8
AM_0
 10
710.61056370122651
 20
256.12117518511911
 30
0.0
 11
710.61056370122651
 21
242.12119218511901
 31
0.0
  0
LINE
  5
2AE1
  8
ｶｸﾚｾﾝ2
 10
673.11057870122625
 20
260.12119218511918
 30
0.0
 11
673.11057870122625
 21
242.12119218511901
 31
0.0
  0
LINE
  5
2AE2
  8
AM_0
 10
660.6105777012267
 20
257.12119218511918
 30
0.0
 11
660.6105777012267
 21
242.12119218511901
 31
0.0
  0
LINE
  5
2AE3
  8
ﾁｭｳｼﾝｾﾝ1
 10
680.61057870122625
 20
265.13307918511902
 30
0.0
 11
680.61057870122625
 21
238.789875185119
 31
0.0
  0
LINE
  5
2AE4
  8
AM_0
 10
660.6105777012267
 20
242.12119218511901
 30
0.0
 11
710.61056370122651
 21
242.12119218511901
 31
0.0
  0
ARC
  5
2AE5
  8
AM_0
 10
775.61058270122624
 20
315.85846818511908
 30
0.0
 40
77.000000999999983
 50
179.99998999999991
 51
212.4183899999997
  0
LINE
  5
2AE6
  8
AM_0
 10
706.61056470122685
 20
260.12119218511918
 30
0.0
 11
663.6105777012267
 21
260.12119218511918
 31
0.0
  0
ARC
  5
2AE7
  8
AM_0
 10
663.6105777012267
 20
257.12119218511918
 30
0.0
 40
3.0
 50
90.000003000000007
 51
180.00001
  0
LINE
  5
2AE8
  8
AM_0
 10
544.05953803809052
 20
366.12120918511908
 30
0.0
 11
544.05953803809052
 21
401.12121618511901
 31
0.0
  0
LINE
  5
2AE9
  8
AM_0
 10
544.05953803809052
 20
401.12121618511901
 30
0.0
 11
499.05953803809052
 21
401.12121618511901
 31
0.0
  0
LINE
  5
2AEA
  8
AM_0
 10
499.05953803809052
 20
398.12121618511912
 30
0.0
 11
499.05953803809052
 21
401.12121618511901
 31
0.0
  0
LINE
  5
2AEB
  8
AM_0
 10
693.89658870122685
 20
425.44314618511902
 30
0.0
 11
680.79975570122645
 21
384.306513185119
 31
0.0
  0
ARC
  5
2AEC
  8
AM_0
 10
709.14251670122667
 20
420.58926618511907
 30
0.0
 40
16.000000499999999
 50
107.0794599999999
 51
162.92053000000001
  0
ARC
  5
2AED
  8
AM_0
 10
706.61056470122685
 20
414.21489618511919
 30
0.0
 40
8.0000000999999976
 50
138.94665000000001
 51
180.00001
  0
LINE
  5
2AEE
  8
AM_0
 10
766.7605737012268
 20
481.271166185119
 30
0.0
 11
766.7605737012268
 21
455.12121618511901
 31
0.0
  0
LINE
  5
2AEF
  8
AM_0
 10
760.46057070122652
 20
481.271166185119
 30
0.0
 11
760.46057070122652
 21
455.12121618511901
 31
0.0
  0
LINE
  5
2AF0
  8
ﾁｭｳｼﾝｾﾝ1
 10
763.61057970122624
 20
450.00483618511907
 30
0.0
 11
763.61057970122624
 21
487.27380569196367
 31
0.0
  0
LINE
  5
2AF1
  8
ﾁｭｳｼﾝｾﾝ
 10
775.61058270122624
 20
235.9451989764222
 30
0.0
 11
775.61058270122624
 21
462.93094437965402
 31
0.0
  0
LINE
  5
2AF2
  8
AM_0
 10
852.6105747012266
 20
414.21489618511919
 30
0.0
 11
852.6105747012266
 21
315.85846818511908
 31
0.0
  0
LINE
  5
2AF3
  8
AM_0
 10
890.57789370122703
 20
257.5628251851191
 30
0.0
 11
874.02649170122675
 21
368.76894618511892
 31
0.0
  0
LINE
  5
2AF4
  8
AM_0
 10
840.61057470122648
 20
365.12121018511908
 30
0.0
 11
840.61057470122648
 21
275.12120718511892
 31
0.0
  0
LINE
  5
2AF5
  8
AM_0
 10
712.61056470122685
 20
244.1211901851191
 30
0.0
 11
838.61057670122625
 21
244.1211901851191
 31
0.0
  0
LINE
  5
2AF6
  8
AM_0
 10
890.61057870122625
 20
257.12119218511918
 30
0.0
 11
890.61057870122625
 21
242.12119218511901
 31
0.0
  0
LINE
  5
2AF7
  8
ｶｸﾚｾﾝ2
 10
878.11057770122682
 20
260.12119218511918
 30
0.0
 11
878.11057770122682
 21
242.12119218511901
 31
0.0
  0
LINE
  5
2AF8
  8
ｶｸﾚｾﾝ2
 10
863.1105777012267
 20
260.12119218511918
 30
0.0
 11
863.1105777012267
 21
242.12119218511901
 31
0.0
  0
LINE
  5
2AF9
  8
AM_0
 10
840.61057470122648
 20
256.12117518511911
 30
0.0
 11
840.61057470122648
 21
242.12119218511901
 31
0.0
  0
LINE
  5
2AFA
  8
ﾁｭｳｼﾝｾﾝ1
 10
870.61057770122682
 20
264.37052118511912
 30
0.0
 11
870.61057770122682
 21
238.789875185119
 31
0.0
  0
LINE
  5
2AFB
  8
AM_0
 10
840.61057470122648
 20
242.12119218511901
 30
0.0
 11
890.61057870122625
 21
242.12119218511901
 31
0.0
  0
ARC
  5
2AFC
  8
AM_0
 10
838.61057670122625
 20
242.12119218511901
 30
0.0
 40
2.00000007
 50
0.0
 51
90.000003000000007
  0
LINE
  5
2AFD
  8
AM_0
 10
844.61057670122625
 20
260.12119218511918
 30
0.0
 11
887.61057570122682
 21
260.12119218511918
 31
0.0
  0
ARC
  5
2AFE
  8
AM_0
 10
775.61058270122624
 20
315.85846818511908
 30
0.0
 40
77.000000999999983
 50
327.58159999999992
 51
0.0
  0
ARC
  5
2AFF
  8
AM_0
 10
855.61057470122648
 20
275.12120718511892
 30
0.0
 40
15.00000029999998
 50
179.99998999999991
 51
270.0
  0
ARC
  5
2B00
  8
AM_0
 10
844.61057670122625
 20
256.12117518511911
 30
0.0
 40
4.000000199999997
 50
90.000003000000007
 51
180.00001
  0
ARC
  5
2B01
  8
AM_0
 10
887.61057570122682
 20
257.12119218511918
 30
0.0
 40
3.0
 50
0.0
 51
90.000003000000007
  0
LINE
  5
2B02
  8
AM_0
 10
847.13132070122685
 20
436.23714618511912
 30
0.0
 11
804.83349870122674
 21
449.23305618511881
 31
0.0
  0
CIRCLE
  5
2B03
  8
AM_0
 10
775.61058270122624
 20
382.12118118511893
 30
0.0
 40
29.000001000000001
  0
ARC
  5
2B04
  8
AM_0
 10
775.61058270122624
 20
382.12118118511893
 30
0.0
 40
16.000000499999999
 50
108.20996
 51
71.790052000000003
  0
CIRCLE
  5
2B05
  8
AM_0
 10
775.61058270122624
 20
382.12118118511893
 30
0.0
 40
2.75000007
  0
CIRCLE
  5
2B06
  8
AM_5
 10
775.61058270122624
 20
382.12118118511893
 30
0.0
 40
4.000000199999997
  0
LINE
  5
2B07
  8
AM_0
 10
766.7605737012268
 20
457.17528618511909
 30
0.0
 11
769.73681670122676
 21
456.28155618511892
 31
0.0
  0
ARC
  5
2B08
  8
AM_0
 10
768.76057470122623
 20
455.12121618511901
 30
0.0
 40
2.00000007
 50
179.99998999999991
 51
244.16259999999991
  0
ARC
  5
2B09
  8
AM_0
 10
758.46057270122685
 20
455.12121618511901
 30
0.0
 40
2.00000007
 50
270.0
 51
0.0
  0
ARC
  5
2B0A
  8
AM_0
 10
757.77194370122652
 20
455.32380618511911
 30
0.0
 40
1.0000000199999981
 50
106.7144199999999
 51
164.99999
  0
LINE
  5
2B0B
  8
AM_0
 10
755.74359270122648
 20
451.61760618511897
 30
0.0
 11
756.8060157012261
 21
455.58264618511902
 31
0.0
  0
LINE
  5
2B0C
  8
AM_0
 10
757.48433070122655
 20
456.28155618511892
 30
0.0
 11
760.46057070122652
 21
457.17528618511909
 31
0.0
  0
LINE
  5
2B0D
  8
AM_0
 10
770.61056670122639
 20
401.12121618511901
 30
0.0
 11
780.61056570122685
 21
401.12121618511901
 31
0.0
  0
LINE
  5
2B0E
  8
AM_0
 10
770.61056670122639
 20
393.12120618511909
 30
0.0
 11
780.61056570122685
 21
393.12120618511909
 31
0.0
  0
LINE
  5
2B0F
  8
AM_0
 10
770.61056670122639
 20
393.12120618511909
 30
0.0
 11
770.61056670122639
 21
401.12121618511901
 31
0.0
  0
LINE
  5
2B10
  8
AM_0
 10
780.61056570122685
 20
393.12120618511909
 30
0.0
 11
780.61056570122685
 21
401.12121618511901
 31
0.0
  0
ARC
  5
2B11
  8
AM_0
 10
769.44921870122653
 20
455.32380618511911
 30
0.0
 40
1.0000000199999981
 50
15.0
 51
73.285572999999985
  0
LINE
  5
2B12
  8
AM_0
 10
770.96971170122686
 20
453.51291618511902
 30
0.0
 11
770.41513170122653
 21
455.58264618511902
 31
0.0
  0
LINE
  5
2B13
  8
AM_0
 10
857.72654370122655
 20
425.64192618511902
 30
0.0
 11
870.72246870122694
 21
383.34411018511912
 31
0.0
  0
ARC
  5
2B14
  8
AM_0
 10
842.4321687012266
 20
420.94281618511911
 30
0.0
 40
16.000000499999999
 50
17.079463000000001
 51
72.920534000000004
  0
ARC
  5
2B15
  8
AM_0
 10
844.61057670122625
 20
414.21489618511919
 30
0.0
 40
8.0000000999999976
 50
0.0
 51
41.053350999999999
  0
ARC
  5
2B16
  8
AM_0
 10
763.61057970122624
 20
481.271166185119
 30
0.0
 40
3.1500002999999981
 50
359.99998999999991
 51
179.99998999999991
  0
LINE
  5
2B17
  8
ﾁｭｳｼﾝｾﾝ
 10
680.13151502668745
 20
354.12120918511908
 30
0.0
 11
871.0896503757657
 21
354.12120918511908
 31
0.0
  0
LINE
  5
2B18
  8
ﾁｭｳｼﾝｾﾝ
 10
176.53216418596071
 20
677.2148442073302
 30
0.0
 11
555.43905803809025
 21
677.2148442073302
 31
0.0
  0
LINE
  5
2B19
  8
AM_0
 10
499.05953803809052
 20
682.21484420733043
 30
0.0
 11
544.05953803809052
 21
682.21484420733043
 31
0.0
  0
LINE
  5
2B1A
  8
AM_0
 10
499.05953803809052
 20
672.21484420733043
 30
0.0
 11
544.05953803809052
 21
672.21484420733043
 31
0.0
  0
LINE
  5
2B1B
  8
AM_0
 10
544.05953803809052
 20
661.21484420733043
 30
0.0
 11
486.0595680380905
 21
661.21484420733043
 31
0.0
  0
LINE
  5
2B1C
  8
AM_0
 10
544.05953803809052
 20
693.21484420733032
 30
0.0
 11
486.0595680380905
 21
693.21484420733032
 31
0.0
  0
ARC
  5
2B1D
  8
AM_0
 10
370.20950803809052
 20
665.21484420733043
 30
0.0
 40
3.1499977000000001
 50
270.0
 51
90.00000299999769
  0
ARC
  5
2B1E
  8
AM_0
 10
343.90951803809048
 20
665.21484420733043
 30
0.0
 40
3.1499977000000001
 50
90.00000299999769
 51
270.0
  0
LINE
  5
2B1F
  8
AM_0
 10
339.05953803809052
 20
593.71487420733024
 30
0.0
 11
339.05953803809052
 21
762.21484420733032
 31
0.0
  0
LINE
  5
2B20
  8
AM_0
 10
454.0595680380905
 20
608.00811420733044
 30
0.0
 11
454.0595680380905
 21
746.42156420733033
 31
0.0
  0
LINE
  5
2B21
  8
AM_0
 10
486.0595680380905
 20
659.71484420733043
 30
0.0
 11
486.0595680380905
 21
694.71484420733032
 31
0.0
  0
LINE
  5
2B22
  8
AM_0
 10
482.05953803809052
 20
649.94689420733039
 30
0.0
 11
482.05953803809052
 21
677.2148442073302
 31
0.0
  0
LINE
  5
2B23
  8
AM_0
 10
475.0595680380905
 20
616.11147420733005
 30
0.0
 11
475.0595680380905
 21
738.31823420733031
 31
0.0
  0
LINE
  5
2B24
  8
AM_0
 10
343.90951803809048
 20
662.0648142073303
 30
0.0
 11
370.20950803809052
 21
662.0648142073303
 31
0.0
  0
LINE
  5
2B25
  8
AM_0
 10
369.05953803809052
 20
646.93841420733042
 30
0.0
 11
359.05953803809052
 21
646.93841420733042
 31
0.0
  0
LINE
  5
2B26
  8
AM_0
 10
369.05953803809052
 20
599.79803420733026
 30
0.0
 11
359.05953803809052
 21
599.79803420733026
 31
0.0
  0
LINE
  5
2B27
  8
AM_0
 10
369.05953803809052
 20
582.42465420733038
 30
0.0
 11
359.05953803809052
 21
582.42465420733038
 31
0.0
  0
LINE
  5
2B28
  8
AM_0
 10
361.95486803809052
 20
577.96295420733043
 30
0.0
 11
369.05947803809062
 21
577.71484420733043
 31
0.0
  0
LINE
  5
2B29
  8
AM_0
 10
360.3210180380903
 20
569.52722420733005
 30
0.0
 11
368.7109680380903
 21
568.79318420733046
 31
0.0
  0
LINE
  5
2B2A
  8
AM_0
 10
324.71090803809051
 20
566.61977420733024
 30
0.0
 11
375.05953803809058
 21
562.21484420733032
 31
0.0
  0
LINE
  5
2B2B
  8
AM_0
 10
359.05953803809052
 20
580.96111420732996
 30
0.0
 11
359.05953803809052
 21
653.25659420733007
 31
0.0
  0
LINE
  5
2B2C
  8
ﾁｭｳｼﾝｾﾝ1
 10
325.55953803809052
 20
582.21484420733043
 30
0.0
 11
352.55953803809052
 21
582.21484420733043
 31
0.0
  0
LINE
  5
2B2D
  8
AM_0
 10
321.05953803809052
 20
594.67627420733004
 30
0.0
 11
321.05953803809052
 21
570.60455420733035
 31
0.0
  0
ARC
  5
2B2E
  8
AM_0
 10
325.05953803809058
 20
570.60455420733035
 30
0.0
 40
4.0
 50
179.9999899999988
 51
265.0
  0
LINE
  5
2B2F
  8
ﾁｭｳｼﾝｾﾝ1
 10
339.05953803809052
 20
595.71484420733043
 30
0.0
 11
339.05953803809052
 21
568.7148442073302
 31
0.0
  0
ARC
  5
2B30
  8
AM_0
 10
360.05953803809052
 20
566.53863420733035
 30
0.0
 40
3.0
 50
85.000003999997659
 51
265.0
  0
ARC
  5
2B31
  8
AM_0
 10
362.05953803809052
 20
580.96111420732996
 30
0.0
 40
3.0
 50
180.00001000000091
 51
267.99999999999631
  0
LINE
  5
2B32
  8
AM_0
 10
339.05953803809052
 20
593.71487420733024
 30
0.0
 11
354.23403803809038
 21
593.18496420733004
 31
0.0
  0
ARC
  5
2B33
  8
AM_0
 10
354.05953803809058
 20
588.18798420733037
 30
0.0
 40
5.0
 50
0.0
 51
87.999999999996248
  0
ARC
  5
2B34
  8
AM_0
 10
357.05953803809052
 20
665.21484420733043
 30
0.0
 40
9.0
 50
200.4873
 51
265.21980000000372
  0
ARC
  5
2B35
  8
AM_0
 10
357.05953803809052
 20
665.21484420733043
 30
0.0
 40
8.0
 50
203.18801999999641
 51
336.81196999999531
  0
ARC
  5
2B36
  8
AM_0
 10
356.05953803809058
 20
653.25659420733007
 30
0.0
 40
3.0
 50
0.0
 51
85.219805999998442
  0
ARC
  5
2B37
  8
AM_0
 10
442.05953803809052
 20
572.55941420733041
 30
0.0
 40
8.0
 50
180.00001000000091
 51
271.99999000000139
  0
ARC
  5
2B38
  8
AM_0
 10
446.05953803809052
 20
588.00124420733027
 30
0.0
 40
12.0
 50
91.500001000001546
 51
180.00001000000091
  0
LINE
  5
2B39
  8
AM_0
 10
375.05953803809058
 20
562.21481420733039
 30
0.0
 11
478.19915803809027
 21
565.81652420733008
 31
0.0
  0
POLYLINE
  5
2B3A
  8
AM_0
 66
     1
 10
0.0
 20
0.0
 30
0.0
  0
VERTEX
  5
2B3B
  8
AM_0
 10
369.05953803809052
 20
646.93841420733042
 30
0.0
 42
-0.07005559
  0
VERTEX
  5
2B3C
  8
AM_0
 10
395.42019803809052
 20
626.74107420733014
 30
0.0
 42
-0.27110578
  0
VERTEX
  5
2B3D
  8
AM_0
 10
404.05953803809058
 20
606.85772420733031
 30
0.0
 42
-0.21303172
  0
VERTEX
  5
2B3E
  8
AM_0
 10
384.46909803809052
 20
588.72291420733006
 30
0.0
  0
VERTEX
  5
2B3F
  8
AM_0
 10
369.05953803809052
 20
582.42465420733038
 30
0.0
 42
-1.0
  0
SEQEND
  5
2B40
  8
AM_0
  0
LINE
  5
2B41
  8
AM_0
 10
369.05953803809052
 20
577.71484420733043
 30
0.0
 11
369.05953803809052
 21
662.0648142073303
 31
0.0
  0
POLYLINE
  5
2B42
  8
AM_0
 66
     1
 10
0.0
 20
0.0
 30
0.0
  0
VERTEX
  5
2B43
  8
AM_0
 10
369.05953803809052
 20
599.79803420733026
 30
0.0
 42
0.040443759
  0
VERTEX
  5
2B44
  8
AM_0
 10
380.58771803809049
 20
600.02140420733008
 30
0.0
 42
0.042469384
  0
VERTEX
  5
2B45
  8
AM_0
 10
391.92140803809048
 20
602.13491420733044
 30
0.0
 42
0.022671411
  0
VERTEX
  5
2B46
  8
AM_0
 10
397.40589803809058
 20
603.92585420733008
 30
0.0
  0
VERTEX
  5
2B47
  8
AM_0
 10
402.7115180380905
 20
606.19469420733014
 30
0.0
 42
-1.0
  0
SEQEND
  5
2B48
  8
AM_0
  0
ARC
  5
2B49
  8
AM_0
 10
369.05953803809052
 20
572.77795420733025
 30
0.0
 40
4.0
 50
265.00001000000032
 51
0.0000006832429909
  0
LINE
  5
2B4A
  8
AM_0
 10
373.05953803809052
 20
577.71484420733043
 30
0.0
 11
373.05953803809052
 21
567.8463742073302
 31
0.0
  0
ARC
  5
2B4B
  8
AM_0
 10
368.05953803809052
 20
567.8463742073302
 30
0.0
 40
5.0
 50
265.00001000000032
 51
0.0000006832429909
  0
LINE
  5
2B4C
  8
AM_0
 10
369.05953803809052
 20
577.71484420733043
 30
0.0
 11
373.05953803809052
 21
577.71484420733043
 31
0.0
  0
ARC
  5
2B4D
  8
AM_0
 10
461.51177803809048
 20
603.85735420733045
 30
0.0
 40
8.0
 50
91.500001000001546
 51
164.96420000000299
  0
ARC
  5
2B4E
  8
AM_0
 10
478.0595680380905
 20
608.21484420733043
 30
0.0
 40
4.0
 50
0.0
 51
82.819247000003429
  0
CIRCLE
  5
2B4F
  8
AM_0
 10
464.05956803809022
 20
582.21484420733043
 30
0.0
 40
7.5
  0
LINE
  5
2B50
  8
ﾁｭｳｼﾝｾﾝ1
 10
450.55956803809039
 20
582.21484420733043
 30
0.0
 11
477.5595680380905
 21
582.21484420733043
 31
0.0
  0
LINE
  5
2B51
  8
AM_0
 10
434.0595380380903
 20
572.55941420733041
 30
0.0
 11
434.0595380380903
 21
588.00124420733027
 31
0.0
  0
LINE
  5
2B52
  8
ﾁｭｳｼﾝｾﾝ1
 10
464.05956803809022
 20
595.71484420733043
 30
0.0
 11
464.05956803809022
 21
568.7148442073302
 31
0.0
  0
ARC
  5
2B53
  8
AM_0
 10
446.0595680380905
 20
608.00811420733044
 30
0.0
 40
8.0
 50
271.49999999999608
 51
0.0
  0
LINE
  5
2B54
  8
AM_0
 10
446.26897803809038
 20
600.01083420733028
 30
0.0
 11
445.74541803809052
 21
599.99712420733022
 31
0.0
  0
LINE
  5
2B55
  8
AM_0
 10
482.0595680380905
 20
608.21484420733043
 30
0.0
 11
482.0595680380905
 21
569.81411420733025
 31
0.0
  0
ARC
  5
2B56
  8
AM_0
 10
478.0595680380905
 20
569.81411420733025
 30
0.0
 40
4.0
 50
272.00000000000369
 51
0.0
  0
LINE
  5
2B57
  8
AM_0
 10
471.16427803809057
 20
612.11282420733039
 30
0.0
 11
461.30239803809059
 21
611.85458420733028
 31
0.0
  0
ARC
  5
2B58
  8
AM_0
 10
471.0595680380905
 20
616.11147420733005
 30
0.0
 40
4.0
 50
271.49999999999608
 51
0.0
  0
ARC
  5
2B59
  8
AM_0
 10
479.0595680380905
 20
616.15209420733004
 30
0.0
 40
4.0
 50
180.00001000000091
 51
262.81924999999637
  0
LINE
  5
2B5A
  8
AM_0
 10
486.0595680380905
 20
659.71484420733043
 30
0.0
 11
482.05953803809052
 21
659.71484420733043
 31
0.0
  0
ARC
  5
2B5B
  8
AM_0
 10
478.0595680380905
 20
642.44134420733008
 30
0.0
 40
3.0
 50
120.0000000000005
 51
180.00001000000091
  0
ARC
  5
2B5C
  8
AM_0
 10
479.05953803809052
 20
649.94689420733039
 30
0.0
 40
3.0
 50
300.00001000000083
 51
0.0
  0
LINE
  5
2B5D
  8
AM_0
 10
476.55950803809048
 20
645.03942420733006
 30
0.0
 11
480.55950803809048
 21
647.34887420733025
 31
0.0
  0
LINE
  5
2B5E
  8
AM_0
 10
343.90951803809048
 20
668.36486420733036
 30
0.0
 11
370.20950803809052
 21
668.36486420733036
 31
0.0
  0
LINE
  5
2B5F
  8
ﾁｭｳｼﾝｾﾝ1
 10
339.67983803809022
 20
665.21484420733043
 30
0.0
 11
374.97811803809032
 21
665.21484420733043
 31
0.0
  0
LINE
  5
2B60
  8
AM_0
 10
369.05953803809052
 20
772.00500420733033
 30
0.0
 11
359.05953803809052
 21
772.00500420733033
 31
0.0
  0
LINE
  5
2B61
  8
AM_0
 10
361.9548080380905
 20
776.46673420733032
 30
0.0
 11
369.05947803809062
 21
776.71484420733032
 31
0.0
  0
LINE
  5
2B62
  8
AM_0
 10
369.05953803809052
 20
754.63165420733026
 30
0.0
 11
359.05953803809052
 21
754.63165420733026
 31
0.0
  0
LINE
  5
2B63
  8
AM_0
 10
369.05953803809052
 20
707.49127420733032
 30
0.0
 11
359.05953803809052
 21
707.49127420733032
 31
0.0
  0
LINE
  5
2B64
  8
AM_0
 10
360.32107803809049
 20
784.90246420733035
 30
0.0
 11
368.7109680380903
 21
785.63647420733037
 31
0.0
  0
LINE
  5
2B65
  8
AM_0
 10
324.71090803809051
 20
787.80987420733015
 30
0.0
 11
375.05959803809048
 21
792.21484420733032
 31
0.0
  0
LINE
  5
2B66
  8
AM_0
 10
359.05953803809052
 20
677.17309420733045
 30
0.0
 11
359.05953803809052
 21
773.46856420733025
 31
0.0
  0
LINE
  5
2B67
  8
ﾁｭｳｼﾝｾﾝ1
 10
339.05953803809052
 20
758.71484420733032
 30
0.0
 11
339.05953803809052
 21
785.71484420733032
 31
0.0
  0
ARC
  5
2B68
  8
AM_0
 10
356.05953803809058
 20
691.70623420733034
 30
0.0
 40
3.0
 50
272.00000000000369
 51
0.0
  0
ARC
  5
2B69
  8
AM_0
 10
347.60885803809037
 20
668.48351420733024
 30
0.0
 40
1.0
 50
353.18505000000079
 51
87.999999999996248
  0
ARC
  5
2B6A
  8
AM_0
 10
357.05953803809052
 20
665.21484420733043
 30
0.0
 40
9.0
 50
94.780191999998834
 51
159.51269999999971
  0
LINE
  5
2B6B
  8
AM_0
 10
341.05953803809052
 20
688.18060420733036
 30
0.0
 11
356.16421803809038
 21
688.70806420733027
 31
0.0
  0
LINE
  5
2B6C
  8
AM_0
 10
341.05947803809062
 20
684.71685420733024
 30
0.0
 11
356.16427803809052
 21
685.24432420733024
 31
0.0
  0
LINE
  5
2B6D
  8
AM_0
 10
341.05953803809052
 20
669.71282420733007
 30
0.0
 11
341.05953803809052
 21
688.18060420733036
 31
0.0
  0
LINE
  5
2B6E
  8
AM_0
 10
341.05953803809052
 20
669.71282420733007
 30
0.0
 11
347.64370803809038
 21
669.48290420733042
 31
0.0
  0
ARC
  5
2B6F
  8
AM_0
 10
357.05953803809052
 20
665.21484420733043
 30
0.0
 40
8.0
 50
23.18801899999854
 51
156.8119800000035
  0
ARC
  5
2B70
  8
AM_0
 10
356.05953803809058
 20
677.17309420733045
 30
0.0
 40
3.0
 50
274.78019999999628
 51
0.0
  0
ARC
  5
2B71
  8
AM_0
 10
356.05953803809058
 20
688.24249420733031
 30
0.0
 40
3.0
 50
272.00000000000369
 51
0.0
  0
LINE
  5
2B72
  8
AM_0
 10
339.05947803809062
 20
760.71478420733035
 30
0.0
 11
354.23403803809038
 21
761.24468420733035
 31
0.0
  0
ARC
  5
2B73
  8
AM_0
 10
354.05953803809058
 20
766.24169420733028
 30
0.0
 40
5.0
 50
272.00000000000369
 51
0.0
  0
LINE
  5
2B74
  8
ﾁｭｳｼﾝｾﾝ1
 10
325.55953803809052
 20
772.21484420733032
 30
0.0
 11
352.55953803809052
 21
772.21484420733032
 31
0.0
  0
ARC
  5
2B75
  8
AM_0
 10
325.05953803809058
 20
783.82513420732982
 30
0.0
 40
4.0
 50
95.00000199999856
 51
180.00001000000091
  0
LINE
  5
2B76
  8
AM_0
 10
321.05953803809052
 20
759.75341420733025
 30
0.0
 11
321.05953803809052
 21
783.82513420732982
 31
0.0
  0
ARC
  5
2B77
  8
AM_0
 10
360.05953803809052
 20
787.89105420733017
 30
0.0
 40
3.0
 50
95.00000199999856
 51
275.0
  0
ARC
  5
2B78
  8
AM_0
 10
362.05953803809052
 20
773.46856420733025
 30
0.0
 40
3.0
 50
91.999998000000545
 51
180.00001000000091
  0
POLYLINE
  5
2B79
  8
AM_0
 66
     1
 10
0.0
 20
0.0
 30
0.0
  0
VERTEX
  5
2B7A
  8
AM_0
 10
369.05953803809052
 20
707.49127420733032
 30
0.0
 42
0.070055609
  0
VERTEX
  5
2B7B
  8
AM_0
 10
395.42019803809052
 20
727.68861420733015
 30
0.0
 42
0.27110581
  0
VERTEX
  5
2B7C
  8
AM_0
 10
404.05953803809058
 20
747.57195420733035
 30
0.0
 42
0.21303143
  0
VERTEX
  5
2B7D
  8
AM_0
 10
384.46909803809052
 20
765.70679420733029
 30
0.0
  0
VERTEX
  5
2B7E
  8
AM_0
 10
369.05953803809052
 20
772.00506420733029
 30
0.0
 42
-1.0
  0
SEQEND
  5
2B7F
  8
AM_0
  0
CIRCLE
  5
2B80
  8
AM_0
 10
464.05956803809022
 20
772.21484420733032
 30
0.0
 40
7.5
  0
LINE
  5
2B81
  8
AM_0
 10
369.05953803809052
 20
668.36486420733036
 30
0.0
 11
369.05953803809052
 21
776.71484420733032
 31
0.0
  0
LINE
  5
2B82
  8
AM_0
 10
434.0595380380903
 20
766.42846420733031
 30
0.0
 11
434.0595380380903
 21
781.87029420733018
 31
0.0
  0
LINE
  5
2B83
  8
ﾁｭｳｼﾝｾﾝ1
 10
464.05956803809022
 20
758.71484420733032
 30
0.0
 11
464.05956803809022
 21
785.71484420733032
 31
0.0
  0
LINE
  5
2B84
  8
AM_0
 10
482.0595680380905
 20
746.21484420733032
 30
0.0
 11
482.0595680380905
 21
784.61553420733026
 31
0.0
  0
ARC
  5
2B85
  8
AM_0
 10
446.05953803809052
 20
766.42846420733031
 30
0.0
 40
12.0
 50
180.00001000000091
 51
268.50000000000381
  0
POLYLINE
  5
2B86
  8
AM_0
 66
     1
 10
0.0
 20
0.0
 30
0.0
  0
VERTEX
  5
2B87
  8
AM_0
 10
369.05953803809052
 20
754.63165420733026
 30
0.0
 42
-0.040443759
  0
VERTEX
  5
2B88
  8
AM_0
 10
380.58771803809049
 20
754.40828420733033
 30
0.0
 42
-0.042469384
  0
VERTEX
  5
2B89
  8
AM_0
 10
391.92140803809048
 20
752.29476420733033
 30
0.0
 42
-0.022671411
  0
VERTEX
  5
2B8A
  8
AM_0
 10
397.40589803809058
 20
750.50382420733035
 30
0.0
  0
VERTEX
  5
2B8B
  8
AM_0
 10
402.7115180380905
 20
748.23499420733026
 30
0.0
 42
-1.0
  0
SEQEND
  5
2B8C
  8
AM_0
  0
LINE
  5
2B8D
  8
AM_0
 10
482.05953803809052
 20
677.2148442073302
 30
0.0
 11
482.05953803809052
 21
704.48278420733027
 31
0.0
  0
ARC
  5
2B8E
  8
AM_0
 10
499.05953803809052
 20
677.2148442073302
 30
0.0
 40
4.9999924
 50
90.00000299999769
 51
270.0
  0
LINE
  5
2B8F
  8
AM_0
 10
499.0595680380905
 20
672.21484420733043
 30
0.0
 11
499.0595680380905
 21
682.21484420733043
 31
0.0
  0
LINE
  5
2B90
  8
AM_0
 10
486.0595680380905
 20
694.71484420733032
 30
0.0
 11
482.05953803809052
 21
694.71484420733032
 31
0.0
  0
ARC
  5
2B91
  8
AM_0
 10
478.0595680380905
 20
711.98834420733033
 30
0.0
 40
3.0
 50
179.9999899999988
 51
240.00000999999969
  0
ARC
  5
2B92
  8
AM_0
 10
479.05953803809052
 20
704.48278420733027
 30
0.0
 40
3.0
 50
0.0
 51
60.000002000001302
  0
LINE
  5
2B93
  8
AM_0
 10
476.55956803809022
 20
709.39025420733026
 30
0.0
 11
480.55953803809052
 21
707.08086420733025
 31
0.0
  0
LINE
  5
2B94
  8
AM_0
 10
471.16424803809059
 20
742.31683420733032
 30
0.0
 11
461.30236803809021
 21
742.57507420733032
 31
0.0
  0
ARC
  5
2B95
  8
AM_0
 10
461.51177803809048
 20
750.57232420733033
 30
0.0
 40
8.0
 50
195.0357999999969
 51
268.50000000000381
  0
ARC
  5
2B96
  8
AM_0
 10
446.0595680380905
 20
746.42156420733033
 30
0.0
 40
8.0
 50
0.0
 51
88.499997000000647
  0
LINE
  5
2B97
  8
AM_0
 10
446.26894803809029
 20
754.41882420733032
 30
0.0
 11
445.74541803809052
 21
754.43255420733033
 31
0.0
  0
ARC
  5
2B98
  8
AM_0
 10
478.0595680380905
 20
746.21484420733032
 30
0.0
 40
4.0
 50
277.18075000000363
 51
0.0
  0
ARC
  5
2B99
  8
AM_0
 10
471.0595680380905
 20
738.31823420733031
 30
0.0
 40
4.0
 50
0.0
 51
88.499997000000647
  0
ARC
  5
2B9A
  8
AM_0
 10
479.0595680380905
 20
738.27758420733028
 30
0.0
 40
4.0
 50
97.180758000000822
 51
180.00001000000091
  0
ARC
  5
2B9B
  8
AM_0
 10
442.05953803809052
 20
781.87029420733018
 30
0.0
 40
8.0
 50
87.999999999996248
 51
180.00001000000091
  0
LINE
  5
2B9C
  8
AM_0
 10
375.05953803809058
 20
792.21478420733035
 30
0.0
 11
478.19915803809027
 21
788.61309420732982
 31
0.0
  0
ARC
  5
2B9D
  8
AM_0
 10
369.05953803809052
 20
781.65173420733038
 30
0.0
 40
4.0
 50
0.0
 51
95.00000199999856
  0
LINE
  5
2B9E
  8
AM_0
 10
373.05953803809052
 20
776.71484420733032
 30
0.0
 11
373.05953803809052
 21
786.58331420733032
 31
0.0
  0
LINE
  5
2B9F
  8
AM_0
 10
369.05953803809052
 20
776.71484420733032
 30
0.0
 11
373.05953803809052
 21
776.71484420733032
 31
0.0
  0
ARC
  5
2BA0
  8
AM_0
 10
368.05953803809052
 20
786.58331420733032
 30
0.0
 40
5.0
 50
0.0
 51
95.00000199999856
  0
LINE
  5
2BA1
  8
ﾁｭｳｼﾝｾﾝ1
 10
450.55956803809039
 20
772.21484420733032
 30
0.0
 11
477.5595680380905
 21
772.21484420733032
 31
0.0
  0
ARC
  5
2BA2
  8
AM_0
 10
478.0595680380905
 20
784.61553420733026
 30
0.0
 40
4.0
 50
0.0
 51
87.999999999996248
  0
LINE
  5
2BA3
  8
AM_0
 10
544.05953803809052
 20
661.21484420733043
 30
0.0
 11
544.05953803809052
 21
693.21484420733032
 31
0.0
  0
LINE
  5
2BA4
  8
AM_0
 10
338.05953803809052
 20
591.21484420733043
 30
0.0
 11
326.05953803809052
 21
591.21484420733043
 31
0.0
  0
ARC
  5
2BA5
  8
AM_0
 10
326.05953803809052
 20
593.21484420733043
 30
0.0
 40
2.0
 50
180.0
 51
270.0
  0
LINE
  5
2BA6
  8
AM_0
 10
338.05953803809052
 20
591.21484420733043
 30
0.0
 11
339.05953803809052
 21
592.21484420733043
 31
0.0
  0
LINE
  5
2BA7
  8
AM_0
 10
321.55953803809052
 20
601.15822020733026
 30
0.0
 11
265.34090503809063
 21
633.6160632073304
 31
0.0
  0
LINE
  5
2BA8
  8
AM_0
 10
324.05953803809052
 20
586.96816285637703
 30
0.0
 11
324.05953803809052
 21
767.46152555828348
 31
0.0
  0
ARC
  5
2BA9
  8
AM_0
 10
319.05953803809052
 20
596.82809320733043
 30
0.0
 40
5.0
 50
0.0
 51
59.999999999999439
  0
LINE
  5
2BAA
  8
AM_0
 10
321.55953803809052
 20
753.27146820733026
 30
0.0
 11
265.34090503809063
 21
720.81362520733035
 31
0.0
  0
LINE
  5
2BAB
  8
AM_0
 10
231.2197920380903
 20
716.21484420733032
 30
0.0
 11
231.2197920380903
 21
638.21484420733043
 31
0.0
  0
LINE
  5
2BAC
  8
AM_0
 10
263.5491500380906
 20
717.21484420733032
 30
0.0
 11
263.5491500380906
 21
637.21484420733043
 31
0.0
  0
ARC
  5
2BAD
  8
AM_0
 10
224.55953803809041
 20
641.36954520733025
 30
0.0
 40
2.0
 50
180.0
 51
239.99999999999949
  0
LINE
  5
2BAE
  8
AM_0
 10
233.2884180380907
 20
635.17873620732996
 30
0.0
 11
261.48052403809061
 21
634.68664120733035
 31
0.0
  0
LINE
  5
2BAF
  8
AM_0
 10
223.55953803809041
 20
639.63749420732995
 30
0.0
 11
229.42803703809039
 21
636.24931420733026
 31
0.0
  0
ARC
  5
2BB0
  8
AM_0
 10
233.42803703809039
 20
643.17751820733042
 30
0.0
 40
8.0
 50
239.99999999999949
 51
268.99999999999812
  0
ARC
  5
2BB1
  8
AM_0
 10
261.34090503809063
 20
626.68785920733035
 30
0.0
 40
8.0
 50
59.999999999999439
 51
88.999999999998224
  0
ARC
  5
2BB2
  8
AM_0
 10
224.55953803809041
 20
713.06014320733016
 30
0.0
 40
2.0
 50
120.0000000000005
 51
180.0
  0
LINE
  5
2BB3
  8
AM_0
 10
181.55953803809041
 20
665.21484420733043
 30
0.0
 11
217.55953803809041
 21
665.21484420733043
 31
0.0
  0
LINE
  5
2BB4
  8
AM_0
 10
181.55953803809041
 20
689.21484420733032
 30
0.0
 11
217.55953803809041
 21
689.21484420733032
 31
0.0
  0
LINE
  5
2BB5
  8
AM_0
 10
181.55953803809041
 20
689.21484420733032
 30
0.0
 11
181.55953803809041
 21
665.21484420733043
 31
0.0
  0
LINE
  5
2BB6
  8
AM_0
 10
209.55953803809041
 20
673.21484420733009
 30
0.0
 11
209.55953803809041
 21
681.2148442073302
 31
0.0
  0
LINE
  5
2BB7
  8
AM_0
 10
220.55953803809041
 20
652.2148442073302
 30
0.0
 11
220.55953803809041
 21
702.2148442073302
 31
0.0
  0
LINE
  5
2BB8
  8
AM_0
 10
222.55953803809041
 20
641.36954520733025
 30
0.0
 11
222.55953803809041
 21
713.06014320733016
 31
0.0
  0
LINE
  5
2BB9
  8
AM_0
 10
217.55953803809041
 20
689.7148442073302
 30
0.0
 11
217.55953803809041
 21
664.7148442073302
 31
0.0
  0
LINE
  5
2BBA
  8
AM_0
 10
220.55953803809041
 20
652.2148442073302
 30
0.0
 11
222.55953803809041
 21
650.21484420733043
 31
0.0
  0
LINE
  5
2BBB
  8
AM_0
 10
217.55953803809041
 20
664.7148442073302
 30
0.0
 11
220.55953803809041
 21
664.7148442073302
 31
0.0
  0
LINE
  5
2BBC
  8
AM_0
 10
217.55953803809041
 20
689.7148442073302
 30
0.0
 11
220.55953803809041
 21
689.7148442073302
 31
0.0
  0
LINE
  5
2BBD
  8
AM_0
 10
220.55953803809041
 20
702.2148442073302
 30
0.0
 11
222.55953803809041
 21
704.21484420733032
 31
0.0
  0
LINE
  5
2BBE
  8
AM_0
 10
233.2884180380907
 20
719.25095220733033
 30
0.0
 11
261.48052403809061
 21
719.74304720733005
 31
0.0
  0
LINE
  5
2BBF
  8
AM_0
 10
223.55953803809041
 20
714.79219420733034
 30
0.0
 11
229.42803703809039
 21
718.18037420733026
 31
0.0
  0
ARC
  5
2BC0
  8
AM_0
 10
233.42803703809039
 20
711.25217020733032
 30
0.0
 40
8.0
 50
91.000000000001705
 51
120.0000000000005
  0
ARC
  5
2BC1
  8
AM_0
 10
261.34090503809063
 20
727.74182920733028
 30
0.0
 40
8.0
 50
271.00000000000171
 51
300.00000000000051
  0
ARC
  5
2BC2
  8
AM_0
 10
319.05953803809052
 20
757.60159520733032
 30
0.0
 40
5.0
 50
300.00000000000051
 51
0.0
  0
LINE
  5
2BC3
  8
AM_0
 10
338.05953803809052
 20
695.94509392829775
 30
0.0
 11
338.05953803809052
 21
658.48459448636265
 31
0.0
  0
LINE
  5
2BC4
  8
AM_0
 10
324.05953803809052
 20
692.21484420733032
 30
0.0
 11
338.05953803809052
 21
692.21484420733032
 31
0.0
  0
LINE
  5
2BC5
  8
AM_0
 10
324.05953803809052
 20
695.94509392829775
 30
0.0
 11
338.05953803809052
 21
695.94509392829775
 31
0.0
  0
LINE
  5
2BC6
  8
AM_0
 10
324.05953803809052
 20
662.21484420733043
 30
0.0
 11
338.05953803809052
 21
662.21484420733043
 31
0.0
  0
LINE
  5
2BC7
  8
AM_0
 10
324.05953803809052
 20
658.48459448636265
 30
0.0
 11
338.05953803809052
 21
658.48459448636265
 31
0.0
  0
ARC
  5
2BC8
  8
AM_0
 10
339.05953803809052
 20
772.21484420733032
 30
0.0
 40
7.5
 50
262.33774433923418
 51
201.53744136927381
  0
LINE
  5
2BC9
  8
AM_0
 10
338.05953803809052
 20
763.21484420733032
 30
0.0
 11
326.05953803809052
 21
763.21484420733032
 31
0.0
  0
ARC
  5
2BCA
  8
AM_0
 10
326.05953803809052
 20
761.21484420733032
 30
0.0
 40
2.0
 50
90.000000000000057
 51
180.0
  0
LINE
  5
2BCB
  8
AM_0
 10
338.05953803809052
 20
763.21484420733032
 30
0.0
 11
339.05953803809052
 21
762.21484420733032
 31
0.0
  0
LINE
  5
2BCC
  8
AM_0
 10
326.05953803809052
 20
769.46152555828371
 30
0.0
 11
336.05953803809052
 21
769.46152555828371
 31
0.0
  0
LINE
  5
2BCD
  8
AM_0
 10
338.05953803809052
 20
763.21484420733032
 30
0.0
 11
338.05953803809052
 21
767.46152555828348
 31
0.0
  0
ARC
  5
2BCE
  8
AM_0
 10
336.05953803809052
 20
767.46152555828348
 30
0.0
 40
2.0
 50
0.0
 51
90.0
1001
GENIUS_GENODEF_13
1002
{
1000
HIER
1070
     0
1002
}
1002
{
1000
MANEDIT
1070
     0
1002
}
1002
{
1000
NOSEL
1070
     0
1002
}
1002
{
1000
BEHIND
1070
     0
1002
}
1002
{
1000
OTHER
1070
     0
1002
}
1002
{
1000
REACTOR
1002
}
1001
GENIUS_GENOBJ-N-FIL_13
1002
{
1000
OWNER
1000
GEN
1002
}
  0
ARC
  5
2BCF
  8
AM_0
 10
326.05953803809052
 20
767.46152555828348
 30
0.0
 40
2.0
 50
90.0
 51
180.0
1001
GENIUS_GENOBJ-N-FIL_13
1002
{
1000
OWNER
1000
GEN
1002
}
1001
GENIUS_GENODEF_13
1002
{
1000
HIER
1070
     0
1002
}
1002
{
1000
MANEDIT
1070
     0
1002
}
1002
{
1000
NOSEL
1070
     0
1002
}
1002
{
1000
BEHIND
1070
     0
1002
}
1002
{
1000
OTHER
1070
     0
1002
}
1002
{
1000
REACTOR
1002
}
  0
ARC
  5
2BD0
  8
AM_0
 10
339.05953803809052
 20
582.21484420733043
 30
0.0
 40
7.5
 50
158.46255863072599
 51
97.662255660765695
  0
ARC
  5
2BD1
  8
AM_0
 10
336.05953803809052
 20
586.96816285637703
 30
0.0
 40
2.0
 50
270.0
 51
0.0
1001
GENIUS_GENODEF_13
1002
{
1000
HIER
1070
     0
1002
}
1002
{
1000
MANEDIT
1070
     0
1002
}
1002
{
1000
NOSEL
1070
     0
1002
}
1002
{
1000
BEHIND
1070
     0
1002
}
1002
{
1000
OTHER
1070
     0
1002
}
1002
{
1000
REACTOR
1002
}
1001
GENIUS_GENOBJ-N-FIL_13
1002
{
1000
OWNER
1000
GEN
1002
}
  0
LINE
  5
2BD2
  8
AM_0
 10
326.05953803809052
 20
584.96816285637703
 30
0.0
 11
336.05953803809052
 21
584.96816285637703
 31
0.0
  0
LINE
  5
2BD3
  8
AM_0
 10
338.05953803809052
 20
591.21484420732986
 30
0.0
 11
338.05953803809052
 21
586.96816285637703
 31
0.0
  0
ARC
  5
2BD4
  8
AM_0
 10
326.05953803809052
 20
586.96816285637703
 30
0.0
 40
2.0
 50
180.0
 51
270.0
1001
GENIUS_GENOBJ-N-FIL_13
1002
{
1000
OWNER
1000
GEN
1002
}
1001
GENIUS_GENODEF_13
1002
{
1000
HIER
1070
     0
1002
}
1002
{
1000
MANEDIT
1070
     0
1002
}
1002
{
1000
NOSEL
1070
     0
1002
}
1002
{
1000
BEHIND
1070
     0
1002
}
1002
{
1000
OTHER
1070
     0
1002
}
1002
{
1000
REACTOR
1002
}
  0
LINE
  5
2BD5
  8
AM_0
 10
181.55953803809041
 20
681.2148442073302
 30
0.0
 11
209.55953803809041
 21
681.2148442073302
 31
0.0
  0
LINE
  5
2BD6
  8
AM_0
 10
181.55953803809041
 20
673.21484420733009
 30
0.0
 11
209.55953803809041
 21
673.21484420733009
 31
0.0
  0
ARC
  5
2BD7
  8
AM_0
 10
209.55953803809041
 20
677.2148442073302
 30
0.0
 40
4.0
 50
270.0
 51
90.0
  0
ARC
  5
2BD8
  8
AM_0
 10
325.05953803809058
 20
759.75341420733025
 30
0.0
 40
4.0
 50
180.00001000000091
 51
251.39302487199711
  0
ARC
  5
2BD9
  8
AM_0
 10
325.05953803809058
 20
594.67627420733004
 30
0.0
 40
4.0
 50
108.6069751280029
 51
179.9999899999988
  0
TEXT
  5
2DBF
  8
AM_0
 10
654.03990076286345
 20
669.36336868588808
 30
0.0
 40
15.0
  1
VX22-003G~VX22-020G
  0
ENDSEC
  0
EOF
