  0
SECTION
  2
HEADER
  9
$ACADVER
  1
AC1009
  9
$INSBASE
 10
0.0
 20
0.0
 30
0.0
  9
$EXTMIN
 10
275.61806088385401
 20
305.0903762428029
 30
-0.0000000000112498
  9
$EXTMAX
 10
1170.975192228186
 20
1003.7899134667121
 30
0.0000000000002956
  9
$LIMMIN
 10
0.0
 20
0.0
  9
$LIMMAX
 10
1422.5
 20
925.0
  9
$ORTHOMODE
 70
     0
  9
$REGENMODE
 70
     1
  9
$FILLMODE
 70
     1
  9
$QTEXTMODE
 70
     0
  9
$MIRRTEXT
 70
     1
  9
$DRAGMODE
 70
     2
  9
$LTSCALE
 40
5.0
  9
$OSMODE
 70
   551
  9
$ATTMODE
 70
     1
  9
$TEXTSIZE
 40
2.5
  9
$TRACEWID
 40
1.0
  9
$TEXTSTYLE
  7
STANDARD
  9
$CLAYER
  8
AM_0
  9
$CELTYPE
  6
BYLAYER
  9
$CECOLOR
 62
   256
  9
$DIMSCALE
 40
1.0
  9
$DIMASZ
 40
2.5
  9
$DIMEXO
 40
1.0
  9
$DIMDLI
 40
8.0
  9
$DIMRND
 40
0.0
  9
$DIMDLE
 40
0.0
  9
$DIMEXE
 40
0.6
  9
$DIMTP
 40
0.1
  9
$DIMTM
 40
0.1
  9
$DIMTXT
 40
2.5
  9
$DIMCEN
 40
0.0
  9
$DIMTSZ
 40
0.0
  9
$DIMTOL
 70
     0
  9
$DIMLIM
 70
     0
  9
$DIMTIH
 70
     0
  9
$DIMTOH
 70
     0
  9
$DIMSE1
 70
     0
  9
$DIMSE2
 70
     0
  9
$DIMTAD
 70
     1
  9
$DIMZIN
 70
     8
  9
$DIMBLK
  1

  9
$DIMASO
 70
     1
  9
$DIMSHO
 70
     1
  9
$DIMPOST
  1

  9
$DIMAPOST
  1
"
  9
$DIMALT
 70
     0
  9
$DIMALTD
 70
     2
  9
$DIMALTF
 40
0.0393701
  9
$DIMLFAC
 40
1.0
  9
$DIMTOFL
 70
     1
  9
$DIMTVP
 40
0.0
  9
$DIMTIX
 70
     0
  9
$DIMSOXD
 70
     0
  9
$DIMSAH
 70
     0
  9
$DIMBLK1
  1

  9
$DIMBLK2
  1

  9
$DIMSTYLE
  2
AM_ISO
  9
$DIMCLRD
 70
   256
  9
$DIMCLRE
 70
   256
  9
$DIMCLRT
 70
     4
  9
$DIMTFAC
 40
0.71
  9
$DIMGAP
 40
0.8
  9
$LUNITS
 70
     2
  9
$LUPREC
 70
     2
  9
$SKETCHINC
 40
1.0
  9
$FILLETRAD
 40
4.0
  9
$AUNITS
 70
     0
  9
$AUPREC
 70
     0
  9
$MENU
  1
.
  9
$ELEVATION
 40
0.0
  9
$PELEVATION
 40
0.0
  9
$THICKNESS
 40
0.0
  9
$LIMCHECK
 70
     0
  9
$BLIPMODE
 70
     0
  9
$CHAMFERA
 40
10.0
  9
$CHAMFERB
 40
5.0
  9
$SKPOLY
 70
     0
  9
$TDCREATE
 40
2452066.6231886572
  9
$TDUPDATE
 40
2458541.420003565
  9
$TDINDWG
 40
0.0967044792
  9
$TDUSRTIMER
 40
0.0967042824
  9
$USRTIMER
 70
     1
  9
$ANGBASE
 50
0.0
  9
$ANGDIR
 70
     0
  9
$PDMODE
 70
     0
  9
$PDSIZE
 40
0.0
  9
$PLINEWID
 40
0.0
  9
$COORDS
 70
     1
  9
$SPLFRAME
 70
     0
  9
$SPLINETYPE
 70
     6
  9
$SPLINESEGS
 70
     8
  9
$ATTDIA
 70
     1
  9
$ATTREQ
 70
     1
  9
$HANDLING
 70
     1
  9
$HANDSEED
  5
2C4E
  9
$SURFTAB1
 70
     6
  9
$SURFTAB2
 70
     6
  9
$SURFTYPE
 70
     6
  9
$SURFU
 70
     6
  9
$SURFV
 70
     6
  9
$UCSNAME
  2

  9
$UCSORG
 10
0.0
 20
0.0
 30
0.0
  9
$UCSXDIR
 10
1.0
 20
0.0
 30
0.0
  9
$UCSYDIR
 10
0.0
 20
1.0
 30
0.0
  9
$PUCSNAME
  2

  9
$PUCSORG
 10
0.0
 20
0.0
 30
0.0
  9
$PUCSXDIR
 10
1.0
 20
0.0
 30
0.0
  9
$PUCSYDIR
 10
0.0
 20
1.0
 30
0.0
  9
$USERI1
 70
     0
  9
$USERI2
 70
     0
  9
$USERI3
 70
     0
  9
$USERI4
 70
     0
  9
$USERI5
 70
     0
  9
$USERR1
 40
0.0
  9
$USERR2
 40
0.0
  9
$USERR3
 40
0.0
  9
$USERR4
 40
0.0
  9
$USERR5
 40
0.0
  9
$WORLDVIEW
 70
     1
  9
$SHADEDGE
 70
     3
  9
$SHADEDIF
 70
    70
  9
$TILEMODE
 70
     1
  9
$MAXACTVP
 70
    64
  9
$PLIMCHECK
 70
     0
  9
$PEXTMIN
 10
1.0000000000000000E+020
 20
1.0000000000000000E+020
 30
1.0000000000000000E+020
  9
$PEXTMAX
 10
-1.0000000000000000E+020
 20
-1.0000000000000000E+020
 30
-1.0000000000000000E+020
  9
$PLIMMIN
 10
0.0
 20
0.0
  9
$PLIMMAX
 10
420.0
 20
297.0
  9
$UNITMODE
 70
     0
  9
$VISRETAIN
 70
     1
  9
$PLINEGEN
 70
     0
  9
$PSLTSCALE
 70
     1
  0
ENDSEC
  0
SECTION
  2
TABLES
  0
TABLE
  2
VPORT
 70
     1
  0
VPORT
  2
*ACTIVE
 70
     0
 10
0.0
 20
0.0
 11
1.0
 21
1.0
 12
723.29662655602044
 22
654.44014485475725
 13
0.0
 23
0.0
 14
12.5
 24
12.5
 15
50.0
 25
50.0
 16
0.0
 26
0.0
 36
1.0
 17
0.0
 27
0.0
 37
0.0
 40
703.49610155267715
 41
1.7571592210767459
 42
50.0
 43
0.0
 44
0.0
 50
0.0
 51
0.0
 71
     0
 72
   100
 73
     1
 74
     3
 75
     0
 76
     0
 77
     0
 78
     0
  0
ENDTAB
  0
TABLE
  2
LTYPE
 70
    26
  0
LTYPE
  2
CONTINUOUS
 70
     0
  3
Solid line
 72
    65
 73
     0
 40
0.0
  0
LTYPE
  2
AM_ISO02W050
 70
     0
  3
__ __ __ __ __ __ __ __ __ __ __ __ __ __ __
 72
    65
 73
     2
 40
7.5
 49
6.0
 49
-1.5
  0
LTYPE
  2
AM_ISO08W050
 70
     0
  3
____ . ____ . ____ . ____ . ____ . ____ . ____
 72
    65
 73
     4
 40
18.0
 49
12.0
 49
-1.5
 49
3.0
 49
-1.5
  0
LTYPE
  2
AM_ISO09W050
 70
     0
  3
_____ . . _____ . . _____ . . ____ .. ____
 72
    65
 73
     6
 40
22.5
 49
12.0
 49
-1.5
 49
3.0
 49
-1.5
 49
3.0
 49
-1.5
  0
LTYPE
  2
AMCONSTR
 70
     0
  3
_______________________
 72
    65
 73
     2
 40
9999.0
 49
9999.0
 49
0.0
  0
LTYPE
  2
AM_ISO08W050X2
 70
     0
  3
__ . __ . __ . __ . __ . __
 72
    65
 73
     4
 40
9.0
 49
6.0
 49
-0.75
 49
1.5
 49
-0.75
  0
LTYPE
  2
AM_ISO02W050X2
 70
     0
  3
 _ _ _ _ _ _ _ _ _ _ _ _
 72
    65
 73
     2
 40
3.75
 49
3.0
 49
-0.75
  0
LTYPE
  2
AMZIGZAG
 70
     0
  3
/\/-/\/-/\/-/\/-/\/-/\/
 72
    65
 73
     2
 40
11.000099999999991
 49
0.0001
 49
-11.0
  0
LTYPE
  2
ACISOWELD
 70
     0
  3
_ _ _ _ _
 72
    65
 73
     2
 40
2.0
 49
2.0
 49
-1.0
  0
LTYPE
  2
ACISOTGB
 70
     0
  3
__ . . __ . .
 72
    65
 73
     6
 40
9.0
 49
4.0
 49
-1.0
 49
1.0
 49
-1.0
 49
1.0
 49
-1.0
  0
LTYPE
  2
ACISOTGL
 70
     0
  3
_ _ _ _ _
 72
    65
 73
     2
 40
3.0
 49
2.0
 49
-1.0
  0
LTYPE
  2
CENTER
 70
     0
  3
__ . __
 72
    65
 73
     4
 40
7.0
 49
4.0
 49
-1.0
 49
1.0
 49
-1.0
  0
LTYPE
  2
PHANTOM2
 70
     0
  3
Phantom (.5x) ___ _ _ ___ _ _ ___ _ _ ___ _ _
 72
    65
 73
     6
 40
31.75
 49
15.875
 49
-3.174999999999998
 49
3.174999999999998
 49
-3.174999999999998
 49
3.174999999999998
 49
-3.174999999999998
  0
LTYPE
  2
ACANSTGBM
 70
     0
  3
__ . . __ . .
 72
    65
 73
     6
 40
9.0
 49
4.0
 49
-1.0
 49
1.0
 49
-1.0
 49
1.0
 49
-1.0
  0
LTYPE
  2
ACANSTGLM
 70
     0
  3
_ _ _ _ _
 72
    65
 73
     2
 40
3.0
 49
2.0
 49
-1.0
  0
LTYPE
  2
GEN3B
 70
     0
  3
 - - - - -
 72
    65
 73
     2
 40
1.0
 49
0.5
 49
-0.5
  0
LTYPE
  2
GEN7A
 70
     0
  3
__ . __ . __
 72
    65
 73
     4
 40
7.375
 49
4.75
 49
-0.875
 49
0.875
 49
-0.875
  0
LTYPE
  2
ACJISTGB
 70
     0
  3
__ . . __ . .
 72
    65
 73
     6
 40
9.0
 49
4.0
 49
-1.0
 49
1.0
 49
-1.0
 49
1.0
 49
-1.0
  0
LTYPE
  2
ACJISTGL
 70
     0
  3
_ _ _ _ _
 72
    65
 73
     2
 40
3.0
 49
2.0
 49
-1.0
  0
LTYPE
  2
HIDDEN
 70
     0
  3
Hidden __ __ __ __ __ __ __ __ __ __ __ __ __ _
 72
    65
 73
     2
 40
0.375
 49
0.25
 49
-0.125
  0
LTYPE
  2
CENTER2
 70
     0
  3
Center (.5x) ___ _ ___ _ ___ _ ___ _ ___ _ ___
 72
    65
 73
     4
 40
1.125
 49
0.75
 49
-0.125
 49
0.125
 49
-0.125
  0
LTYPE
  2
HIDDEN2
 70
     0
  3
Hidden (.5x) _ _ _ _ _ _ _ _ _ _ _ _ _ _ _ _ _
 72
    65
 73
     2
 40
0.1875
 49
0.125
 49
-0.0625
  0
LTYPE
  2
AMZIGZAG2
 70
     0
  3
/\/-/\/-/\/-/\/-/\/-/\/
 72
    65
 73
     2
 40
0.4401
 49
0.0001
 49
-0.4400000000000002
  0
LTYPE
  2
ACANSTGB
 70
     0
  3
__ . . __ . .
 72
    65
 73
     6
 40
0.35433070866
 49
0.15748031496
 49
-0.03937007874
 49
0.03937007874
 49
-0.03937007874
 49
0.03937007874
 49
-0.03937007874
  0
LTYPE
  2
ACANSTGL
 70
     0
  3
_ _ _ _ _
 72
    65
 73
     2
 40
0.11811023622
 49
0.07874015748
 49
-0.03937007874
  0
ENDTAB
  0
TABLE
  2
LAYER
 70
     6
  0
LAYER
  2
0
 70
     0
 62
     7
  6
CONTINUOUS
  0
LAYER
  2
AM_0
 70
     0
 62
     7
  6
CONTINUOUS
  0
LAYER
  2
AM_5
 70
     0
 62
     2
  6
CONTINUOUS
  0
LAYER
  2
DEFPOINTS
 70
     0
 62
     7
  6
CONTINUOUS
  0
LAYER
  2
ｶｸﾚｾﾝ2
 70
     0
 62
     3
  6
GEN3B
  0
LAYER
  2
ﾁｭｳｼﾝｾﾝ1
 70
     0
 62
     1
  6
GEN7A
  0
ENDTAB
  0
TABLE
  2
STYLE
 70
     9
  0
STYLE
  2
STANDARD
 70
     0
 40
0.0
 41
0.8299999999999999
 50
0.0
 71
     0
 42
2.5
  3
txt.shx
  4
bigfont.shx
  0
STYLE
  2
ANNOTATIVE
 70
     0
 40
0.0
 41
1.0
 50
0.0
 71
     0
 42
0.2
  3
txt
  4

  0
STYLE
  2

 70
     1
 40
0.0
 41
1.0
 50
0.0
 71
     0
 42
2.5
  3
ltypeshp.shx
  4

  0
STYLE
  2
ACISOTS
 70
     0
 40
1.0
 41
1.0
 50
0.0
 71
     0
 42
2.5
  3
isocp.shx
  4
extfont.shx
  0
STYLE
  2
ACISOGDT
 70
     0
 40
0.0
 41
1.0
 50
0.0
 71
     0
 42
2.5
  3
amgdt.shx
  4

  0
STYLE
  2
ACANSTS
 70
     0
 40
1.0
 41
1.0
 50
0.0
 71
     0
 42
2.5
  3
romans.shx
  4
bigfont.shx
  0
STYLE
  2
ACANSGDT
 70
     0
 40
0.0
 41
1.0
 50
0.0
 71
     0
 42
2.5
  3
amgdt.shx
  4

  0
STYLE
  2
ACJISTS
 70
     0
 40
1.0
 41
1.0
 50
0.0
 71
     0
 42
2.5
  3
isocp.shx
  4
bigfont.shx
  0
STYLE
  2
ACJISGDT
 70
     0
 40
0.0
 41
1.0
 50
0.0
 71
     0
 42
2.5
  3
amgdt.shx
  4

  0
ENDTAB
  0
TABLE
  2
VIEW
 70
     6
  0
VIEW
  2
AM_VIEW1
 70
     0
 40
462.5
 10
416.07965009208078
 20
693.75
 41
832.15930018416213
 11
0.0
 21
0.0
 31
1.0
 12
0.0
 22
0.0
 32
0.0
 42
50.0
 43
0.0
 44
0.0
 50
0.0
 71
     0
  0
VIEW
  2
AM_VIEW2
 70
     0
 40
462.5
 10
1006.420349907918
 20
693.75
 41
832.15930018416213
 11
0.0
 21
0.0
 31
1.0
 12
0.0
 22
0.0
 32
0.0
 42
50.0
 43
0.0
 44
0.0
 50
0.0
 71
     0
  0
VIEW
  2
AM_VIEW3
 70
     0
 40
462.5
 10
416.07965009208078
 20
231.25
 41
832.15930018416213
 11
0.0
 21
0.0
 31
1.0
 12
0.0
 22
0.0
 32
0.0
 42
50.0
 43
0.0
 44
0.0
 50
0.0
 71
     0
  0
VIEW
  2
AM_VIEW4
 70
     0
 40
462.5
 10
1006.420349907918
 20
231.25
 41
832.15930018416213
 11
0.0
 21
0.0
 31
1.0
 12
0.0
 22
0.0
 32
0.0
 42
50.0
 43
0.0
 44
0.0
 50
0.0
 71
     0
  0
VIEW
  2
AM_VIEW5
 70
     0
 40
462.5
 10
711.24999999999966
 20
462.5
 41
832.15930018416179
 11
0.0
 21
0.0
 31
1.0
 12
0.0
 22
0.0
 32
0.0
 42
50.0
 43
0.0
 44
0.0
 50
0.0
 71
     0
  0
VIEW
  2
AM_VIEW6
 70
     0
 40
924.99075000000005
 10
711.24999999999966
 20
462.5
 41
1664.3019571823199
 11
0.0
 21
0.0
 31
1.0
 12
0.0
 22
0.0
 32
0.0
 42
50.0
 43
0.0
 44
0.0
 50
0.0
 71
     0
  0
ENDTAB
  0
TABLE
  2
UCS
 70
     0
  0
ENDTAB
  0
TABLE
  2
APPID
 70
    95
  0
APPID
  2
ACAD
 70
     0
  0
APPID
  2
ACADANNOTATIVE
 70
     0
  0
APPID
  2
MCAD_NO_VIS
 70
     0
  0
APPID
  2
ACAD_TEMP_GRAPHIC
 70
     0
  0
APPID
  2
ACATTRIBSERVICES
 70
     0
  0
APPID
  2
GENIUS_GENREC_14
 70
     0
  0
APPID
  2
GENIUS_GENOBJ-N-REC_13
 70
     0
  0
APPID
  2
GENIUS_GENODEF_13
 70
     0
  0
APPID
  2
GENIUS_GENOLIS_13
 70
     0
  0
APPID
  2
GENIUS_GENOBJ-N-TIT_13
 70
     0
  0
APPID
  2
GENIUS_GENOENT_13
 70
     0
  0
APPID
  2
GENIUS_GENTITLE_13
 70
     0
  0
APPID
  2
GENIUS_GENOREF_13
 70
     0
  0
APPID
  2
GENIUS_GENSCREG_15
 70
     0
  0
APPID
  2
GENIUS_GENOBJ-N-SDF_13
 70
     0
  0
APPID
  2
GENIUS_GENFIL_13
 70
     0
  0
APPID
  2
GENIUS_GENOBJ-N-CHA_13
 70
     0
  0
APPID
  2
GENIUS_GENDTOL_13
 70
     0
  0
APPID
  2
GENIUS_GENOBJ-N-FIL_13
 70
     0
  0
APPID
  2
AD_DRAW
 70
     0
  0
APPID
  2
DESIGNERASSEMBLIES
 70
     0
  0
APPID
  2
ASURF_PCURVE_APPNAME
 70
     0
  0
APPID
  2
GENIUS_GE3SECT_13
 70
     0
  0
APPID
  2
GENIUS_GENCFG_13
 70
     0
  0
APPID
  2
GENIUS_GE3CFG0_13
 70
     0
  0
APPID
  2
GENIUS_GENCFG0_13
 70
     0
  0
APPID
  2
GENIUS_GENCFG1_13
 70
     0
  0
APPID
  2
GENIUS_GENCFG2_13
 70
     0
  0
APPID
  2
GENIUS_GENCFG3_13
 70
     0
  0
APPID
  2
GENIUS_GENCFG4_13
 70
     0
  0
APPID
  2
GENIUS_GEVCFG0_13
 70
     0
  0
APPID
  2
GENIUS_GENHINW_13
 70
     0
  0
APPID
  2
GENIUS_FIRSTVISTXT_14
 70
     0
  0
APPID
  2
GENIUS_GENOBJ-N-LEADER_13
 70
     0
  0
APPID
  2
GEV_VCCNULL_SWITCH_OFF
 70
     0
  0
APPID
  2
GENIUS_GEFCFG0_13
 70
     0
  0
APPID
  2
GENIUS_GENZVEED_13
 70
     0
  0
APPID
  2
GENIUS_GENSCREG_13
 70
     0
  0
APPID
  2
GENIUS_DUMCFG0_13
 70
     0
  0
APPID
  2
GEVID936201362
 70
     0
  0
APPID
  2
GEVDC
 70
     0
  0
APPID
  2
GEVCON
 70
     0
  0
APPID
  2
VCC
 70
     0
  0
APPID
  2
GEVPT
 70
     0
  0
APPID
  2
GEVIT
 70
     0
  0
APPID
  2
GENBH
 70
     0
  0
APPID
  2
GEVMK
 70
     0
  0
APPID
  2
GENIUS_GENBH_13
 70
     0
  0
APPID
  2
GENIUS_GENOBJ-NBEHI-BHF_13
 70
     0
  0
APPID
  2
GENIUS_GENOBJ-NBEHI-BHB_13
 70
     0
  0
APPID
  2
GENIUS_GENOBJ-F-DESC_13
 70
     0
  0
APPID
  2
GENIUS_GEFDESC_14
 70
     0
  0
APPID
  2
GENIUS_GENOBJ-F-PART_13
 70
     0
  0
APPID
  2
GENIUS_GEFSTDP_13
 70
     0
  0
APPID
  2
GENIUS_GEFPARTINS_13
 70
     0
  0
APPID
  2
GENIUS_GENTRA_14
 70
     0
  0
APPID
  2
GENIUS_GENINF13_13
 70
     0
  0
APPID
  2
GENIUS_GENOBJ-N-INFOPT_13
 70
     0
  0
APPID
  2
GENIUS_GENOBJ-N-RSSYM_13
 70
     0
  0
APPID
  2
GENIUS_GENSYMENT_13
 70
     0
  0
APPID
  2
GENIUS_GENSCSYM_13
 70
     0
  0
APPID
  2
GENIUS_GEFINFNAM_13
 70
     0
  0
APPID
  2
GENIUS_GENOBJ-N-CEN_13
 70
     0
  0
APPID
  2
GENIUS_GENOBJ-N-CRS_13
 70
     0
  0
APPID
  2
GENIUS_GENOBJ-N-CRC_13
 70
     0
  0
APPID
  2
GENIUS_GENCRC_14
 70
     0
  0
APPID
  2
GEVID942827039
 70
     0
  0
APPID
  2
GEVID942827040
 70
     0
  0
APPID
  2
GEVID942827041
 70
     0
  0
APPID
  2
GENIUS_GENOBJ-F-SCPASSM_13
 70
     0
  0
APPID
  2
GENIUS_GENDIMSH_14
 70
     0
  0
APPID
  2
GEVID942827042
 70
     0
  0
APPID
  2
GEVID946020473
 70
     0
  0
APPID
  2
GEVID946020474
 70
     0
  0
APPID
  2
GEVID946020475
 70
     0
  0
APPID
  2
GENIUS_GENOBJ-N-HTC_13
 70
     0
  0
APPID
  2
GENIUS_GENHATCH_13
 70
     0
  0
APPID
  2
GEVID948854295
 70
     0
  0
APPID
  2
GEVID939402019
 70
     0
  0
APPID
  2
GEVID952919491
 70
     0
  0
APPID
  2
GEVID952919492
 70
     0
  0
APPID
  2
GENIUS_GEFWELD_13
 70
     0
  0
APPID
  2
GENIUS_GENOBJ-F-WELS_13
 70
     0
  0
APPID
  2
GEVID952919493
 70
     0
  0
APPID
  2
GENIUS_GENOBJ-N-RSBK_13
 70
     0
  0
APPID
  2
GENIUS_GENOBJ-N-LIB_13
 70
     0
  0
APPID
  2
GENIUS_GENSCALE_13
 70
     0
  0
APPID
  2
GEVID986376691
 70
     0
  0
APPID
  2
DCO15
 70
     0
  0
APPID
  2
ACAD_DSTYLE_DIMBREAK
 70
     0
  0
APPID
  2
ACAD_DSTYLE_DIMJAG
 70
     0
  0
APPID
  2
ACAD_NAV_VCDISPLAY
 70
     0
  0
APPID
  2
ACADANNOPO
 70
     0
  0
APPID
  2
ACAD_EXEMPT_FROM_CAD_STANDARDS
 70
     0
  0
APPID
  2
ACAD_MLEADERVER
 70
     0
  0
ENDTAB
  0
TABLE
  2
DIMSTYLE
 70
    22
  0
DIMSTYLE
  2
STANDARD
 70
     0
  3

  4

  5

  6

  7

 40
1.0
 41
0.18
 42
0.0625
 43
0.38
 44
0.18
 45
0.0
 46
0.0
 47
0.0
 48
0.0
140
0.18
141
0.09
142
0.0
143
25.399999999999999
144
1.0
145
0.0
146
1.0
147
0.09
 71
     0
 72
     0
 73
     1
 74
     1
 75
     0
 76
     0
 77
     0
 78
     0
170
     0
171
     2
172
     0
173
     0
174
     0
175
     0
176
     0
177
     0
178
     0
  0
DIMSTYLE
  2
ANNOTATIVE
 70
     0
  3

  4

  5

  6

  7

 40
1.0
 41
0.18
 42
0.0625
 43
0.38
 44
0.18
 45
0.0
 46
0.0
 47
0.0
 48
0.0
140
0.18
141
0.09
142
0.0
143
25.399999999999999
144
1.0
145
0.0
146
1.0
147
0.09
 71
     0
 72
     0
 73
     1
 74
     1
 75
     0
 76
     0
 77
     0
 78
     0
170
     0
171
     2
172
     0
173
     0
174
     0
175
     0
176
     0
177
     0
178
     0
  0
DIMSTYLE
  2
AM_ISO
 70
     0
  3

  4
"
  5

  6

  7

 40
1.0
 41
2.5
 42
1.0
 43
8.0
 44
0.6
 45
0.0
 46
0.0
 47
0.1
 48
0.1
140
2.5
141
0.0
142
0.0
143
0.0393701
144
1.0
145
0.0
146
0.71
147
0.8
 71
     0
 72
     0
 73
     0
 74
     0
 75
     0
 76
     0
 77
     1
 78
     8
170
     0
171
     2
172
     1
173
     0
174
     0
175
     0
176
   256
177
   256
178
     4
  0
DIMSTYLE
  2
AM_ISO$3
 70
     0
  3

  4
"
  5

  6

  7

 40
1.0
 41
2.5
 42
1.0
 43
8.0
 44
0.6
 45
0.0
 46
0.0
 47
0.1
 48
0.1
140
2.5
141
0.0
142
0.0
143
0.0393701
144
1.0
145
0.0
146
0.71
147
0.8
 71
     0
 72
     0
 73
     0
 74
     1
 75
     0
 76
     0
 77
     1
 78
     8
170
     0
171
     2
172
     0
173
     0
174
     0
175
     0
176
   256
177
   256
178
     4
  0
DIMSTYLE
  2
AM_ISO$4
 70
     0
  3

  4
"
  5

  6

  7

 40
1.0
 41
2.5
 42
1.0
 43
8.0
 44
0.6
 45
0.0
 46
0.0
 47
0.1
 48
0.1
140
2.5
141
0.0
142
0.0
143
0.0393701
144
1.0
145
0.0
146
0.71
147
0.8
 71
     0
 72
     0
 73
     0
 74
     1
 75
     0
 76
     0
 77
     1
 78
     8
170
     0
171
     2
172
     0
173
     0
174
     0
175
     0
176
   256
177
   256
178
     4
  0
DIMSTYLE
  2
AM_ISO$6
 70
     0
  3

  4
"
  5

  6

  7

 40
1.0
 41
2.5
 42
1.0
 43
8.0
 44
0.6
 45
0.0
 46
0.0
 47
0.1
 48
0.1
140
2.5
141
0.0
142
0.0
143
0.0393701
144
1.0
145
0.0
146
0.71
147
0.8
 71
     0
 72
     0
 73
     0
 74
     0
 75
     0
 76
     0
 77
     0
 78
     8
170
     0
171
     2
172
     1
173
     0
174
     0
175
     0
176
   256
177
   256
178
     4
  0
DIMSTYLE
  2
AM_ISO$7
 70
     0
  3

  4
"
  5

  6

  7

 40
1.0
 41
2.5
 42
1.0
 43
8.0
 44
0.6
 45
0.0
 46
0.0
 47
0.1
 48
0.1
140
2.5
141
0.0
142
0.0
143
0.0393701
144
1.0
145
0.0
146
0.71
147
0.8
 71
     0
 72
     0
 73
     0
 74
     0
 75
     0
 76
     0
 77
     1
 78
     8
170
     0
171
     2
172
     1
173
     0
174
     0
175
     0
176
   256
177
   256
178
     4
  0
DIMSTYLE
  2
AM_ISO$SF
 70
     0
  3

  4
"
  5

  6

  7

 40
1.0
 41
2.5
 42
1.0
 43
10.0
 44
1.0
 45
0.0
 46
0.0
 47
0.1
 48
0.1
140
3.5
141
0.0
142
0.0
143
0.0393701
144
1.0
145
0.0
146
0.71
147
1.5
 71
     0
 72
     0
 73
     0
 74
     0
 75
     1
 76
     1
 77
     1
 78
     8
170
     0
171
     2
172
     1
173
     0
174
     0
175
     0
176
   256
177
   256
178
     2
  0
DIMSTYLE
  2
AM_ISO$SH
 70
     0
  3

  4
"
  5

  6

  7

 40
1.0
 41
2.5
 42
1.0
 43
10.0
 44
1.0
 45
0.0
 46
0.0
 47
0.1
 48
0.1
140
3.5
141
0.0
142
0.0
143
0.0393701
144
2.0
145
0.0
146
0.71
147
1.5
 71
     0
 72
     0
 73
     0
 74
     0
 75
     1
 76
     1
 77
     1
 78
     8
170
     0
171
     2
172
     1
173
     1
174
     0
175
     0
176
   256
177
   256
178
     2
  0
DIMSTYLE
  2
AM_JIS
 70
     0
  3

  4
"
  5

  6

  7

 40
1.0
 41
2.5
 42
1.0
 43
7.0
 44
1.0
 45
0.0
 46
0.0
 47
0.1
 48
0.1000000001
140
2.5
141
0.0
142
0.0
143
0.0393701
144
1.0
145
0.0
146
0.71
147
1.0
 71
     0
 72
     0
 73
     0
 74
     0
 75
     0
 76
     0
 77
     3
 78
     8
170
     0
171
     2
172
     1
173
     0
174
     0
175
     0
176
   256
177
   256
178
     4
  0
DIMSTYLE
  2
AM_JIS$3
 70
     0
  3

  4
"
  5

  6

  7

 40
1.0
 41
2.5
 42
1.0
 43
7.0
 44
1.0
 45
0.0
 46
0.0
 47
0.1
 48
0.1000000001
140
2.5
141
0.0
142
0.0
143
0.0393701
144
1.0
145
0.0
146
0.71
147
1.0
 71
     0
 72
     0
 73
     0
 74
     1
 75
     0
 76
     0
 77
     3
 78
     8
170
     0
171
     2
172
     0
173
     0
174
     0
175
     0
176
   256
177
   256
178
     4
  0
DIMSTYLE
  2
AM_JIS$4
 70
     0
  3

  4
"
  5

  6

  7

 40
1.0
 41
2.5
 42
1.0
 43
7.0
 44
1.0
 45
0.0
 46
0.0
 47
0.1
 48
0.1000000001
140
2.5
141
0.0
142
0.0
143
0.0393701
144
1.0
145
0.0
146
0.71
147
1.0
 71
     0
 72
     0
 73
     0
 74
     0
 75
     0
 76
     0
 77
     3
 78
     8
170
     0
171
     2
172
     0
173
     0
174
     0
175
     0
176
   256
177
   256
178
     4
  0
DIMSTYLE
  2
AM_JIS$6
 70
     0
  3

  4
"
  5

  6

  7

 40
1.0
 41
2.5
 42
1.0
 43
7.0
 44
1.0
 45
0.0
 46
0.0
 47
0.1
 48
0.1000000001
140
2.5
141
0.0
142
0.0
143
0.0393701
144
1.0
145
0.0
146
0.71
147
1.0
 71
     0
 72
     0
 73
     0
 74
     0
 75
     0
 76
     0
 77
     0
 78
     8
170
     0
171
     2
172
     1
173
     0
174
     0
175
     0
176
   256
177
   256
178
     4
  0
DIMSTYLE
  2
AM_JIS$7
 70
     0
  3

  4
"
  5

  6

  7

 40
1.0
 41
2.5
 42
1.0
 43
7.0
 44
1.0
 45
0.0
 46
0.0
 47
0.1
 48
0.1000000001
140
2.5
141
0.0
142
0.0
143
0.0393701
144
1.0
145
0.0
146
0.71
147
1.0
 71
     0
 72
     0
 73
     0
 74
     0
 75
     0
 76
     0
 77
     3
 78
     8
170
     0
171
     2
172
     1
173
     0
174
     0
175
     0
176
   256
177
   256
178
     4
  0
DIMSTYLE
  2
AM_JIS$SF
 70
     0
  3

  4
"
  5

  6

  7

 40
1.0
 41
2.5
 42
1.0
 43
10.0
 44
1.0
 45
0.0
 46
0.0
 47
0.1
 48
0.1
140
3.5
141
0.0
142
0.0
143
0.0393701
144
1.0
145
0.0
146
0.71
147
1.5
 71
     0
 72
     0
 73
     0
 74
     0
 75
     1
 76
     1
 77
     3
 78
     8
170
     0
171
     2
172
     1
173
     0
174
     0
175
     0
176
   256
177
   256
178
     4
  0
DIMSTYLE
  2
AM_JIS$SH
 70
     0
  3

  4
"
  5

  6

  7

 40
1.0
 41
2.5
 42
1.0
 43
10.0
 44
1.0
 45
0.0
 46
0.0
 47
0.1
 48
0.1
140
3.5
141
0.0
142
0.0
143
0.0393701
144
1.0
145
0.0
146
0.71
147
1.5
 71
     0
 72
     0
 73
     0
 74
     0
 75
     1
 76
     0
 77
     3
 78
     8
170
     0
171
     2
172
     1
173
     1
174
     0
175
     0
176
   256
177
   256
178
     4
  0
DIMSTYLE
  2
AM_ANSI
 70
     0
  3

  4
mm
  5

  6

  7

 40
1.0
 41
0.1
 42
0.05
 43
0.5
 44
0.1
 45
0.0
 46
0.0
 47
0.1
 48
0.1
140
0.12
141
0.0
142
0.0
143
25.399999999999999
144
1.0
145
0.0
146
0.71
147
0.06
 71
     0
 72
     0
 73
     1
 74
     1
 75
     0
 76
     0
 77
     0
 78
     7
170
     0
171
     2
172
     0
173
     0
174
     0
175
     0
176
   256
177
   256
178
     2
  0
DIMSTYLE
  2
AM_ANSI$3
 70
     0
  3

  4
mm
  5

  6

  7

 40
1.0
 41
0.1
 42
0.05
 43
0.5
 44
0.1
 45
0.0
 46
0.0
 47
0.1
 48
0.1
140
0.12
141
0.0
142
0.0
143
25.399999999999999
144
1.0
145
0.0
146
0.71
147
0.06
 71
     0
 72
     0
 73
     1
 74
     1
 75
     0
 76
     0
 77
     0
 78
     7
170
     0
171
     2
172
     0
173
     0
174
     0
175
     0
176
   256
177
   256
178
     2
  0
DIMSTYLE
  2
AM_ANSI$4
 70
     0
  3

  4
mm
  5

  6

  7

 40
1.0
 41
0.1
 42
0.05
 43
0.5
 44
0.1
 45
0.0
 46
0.0
 47
0.1
 48
0.1
140
0.12
141
0.0
142
0.0
143
25.399999999999999
144
1.0
145
0.0
146
0.71
147
0.06
 71
     0
 72
     0
 73
     1
 74
     1
 75
     0
 76
     0
 77
     0
 78
     7
170
     0
171
     2
172
     0
173
     0
174
     0
175
     0
176
   256
177
   256
178
     2
  0
DIMSTYLE
  2
AM_ANSI$7
 70
     0
  3

  4
mm
  5

  6

  7

 40
1.0
 41
0.1
 42
0.05
 43
0.5
 44
0.1
 45
0.0
 46
0.0
 47
0.1
 48
0.1
140
0.24
141
0.0
142
0.0
143
25.399999999999999
144
1.0
145
0.0
146
0.71
147
0.06
 71
     0
 72
     0
 73
     1
 74
     1
 75
     0
 76
     0
 77
     0
 78
     7
170
     0
171
     2
172
     0
173
     0
174
     0
175
     0
176
   256
177
   256
178
     2
  0
DIMSTYLE
  2
AM_ANSI$SF
 70
     0
  3

  4
mm
  5

  6

  7

 40
1.0
 41
0.1
 42
0.05
 43
0.5
 44
0.1
 45
0.0
 46
0.0
 47
0.1
 48
0.1
140
0.12
141
0.0
142
0.0
143
25.399999999999999
144
1.0
145
0.0
146
0.71
147
0.06
 71
     0
 72
     0
 73
     1
 74
     1
 75
     1
 76
     1
 77
     0
 78
     7
170
     0
171
     2
172
     0
173
     0
174
     0
175
     0
176
   256
177
   256
178
     2
  0
DIMSTYLE
  2
AM_ANSI$SH
 70
     0
  3

  4
mm
  5

  6

  7

 40
1.0
 41
0.1
 42
0.05
 43
0.5
 44
0.1
 45
0.0
 46
0.0
 47
0.1
 48
0.1
140
0.12
141
0.0
142
0.0
143
25.399999999999999
144
1.0
145
0.0
146
0.71
147
0.06
 71
     0
 72
     0
 73
     1
 74
     1
 75
     1
 76
     1
 77
     0
 78
     7
170
     0
171
     2
172
     0
173
     1
174
     0
175
     0
176
   256
177
   256
178
     2
  0
ENDTAB
  0
ENDSEC
  0
SECTION
  2
BLOCKS
  0
BLOCK
  8
0
  2
$MODEL_SPACE
 70
     0
 10
0.0
 20
0.0
 30
0.0
  3
$MODEL_SPACE
  1

  0
ENDBLK
  5
2AC0
  8
0
  0
BLOCK
 67
     1
  8
0
  2
$PAPER_SPACE
 70
     0
 10
0.0
 20
0.0
 30
0.0
  3
$PAPER_SPACE
  1

  0
ENDBLK
  5
2ABC
 67
     1
  8
0
  0
BLOCK
  8
0
  2
GENAXEH
 70
     0
 10
0.0
 20
0.0
 30
0.0
  3
GENAXEH
  1

  0
LINE
  5
2815
  8
0
 10
-1.0
 20
0.0
 30
0.0
 11
1.0
 21
0.0
 31
0.0
  0
ENDBLK
  5
2816
  8
0
  0
BLOCK
  8
0
  2
_OPEN30
 70
     0
 10
0.0
 20
0.0
 30
0.0
  3
_OPEN30
  1

  0
LINE
  5
2819
  8
0
 62
     0
 10
-1.0
 20
0.26794919
 30
0.0
 11
0.0
 21
0.0
 31
0.0
  0
LINE
  5
281A
  8
0
 62
     0
 10
0.0
 20
0.0
 30
0.0
 11
-1.0
 21
-0.26794919
 31
0.0
  0
LINE
  5
281B
  8
0
 62
     0
 10
0.0
 20
0.0
 30
0.0
 11
-1.0
 21
0.0
 31
0.0
  0
ENDBLK
  5
281C
  8
0
  0
BLOCK
  8
0
  2
_NONE
 70
     0
 10
0.0
 20
0.0
 30
0.0
  3
_NONE
  1

  0
ENDBLK
  5
281F
  8
0
  0
BLOCK
  8
0
  2
*U5
 70
     1
 10
0.0
 20
0.0
 30
0.0
  3
*U5
  1

  0
TEXT
  5
2822
  8
AM_0
 62
     4
 10
1191.102534187615
 20
375.34877419846651
 30
0.0
 40
12.5
  1
175
 50
90.0
 41
0.8299999999999999
  0
TEXT
  5
2823
  8
AM_0
 62
     3
 10
1179.2692008542811
 20
403.01544086513292
 30
0.0
 40
8.875
  1
 0
 50
90.0
 41
0.8299999999999999
  0
TEXT
  5
2824
  8
AM_0
 62
     3
 10
1191.102534187615
 20
403.01544086513292
 30
0.0
 40
8.875
  1
-0.5
 50
90.0
 41
0.8299999999999999
  0
ENDBLK
  5
2825
  8
0
  0
BLOCK
  8
0
  2
_ACMFILLEDHALF
 70
     0
 10
0.0
 20
0.0
 30
0.0
  3
_ACMFILLEDHALF
  1

  0
TRACE
  5
2BB8
  8
AM_0
 62
     0
 10
-0.8
 20
0.0
 30
0.0
 11
-1.0
 21
0.166666666
 31
0.0
 12
0.0
 22
0.0
 32
0.0
 13
0.0
 23
0.0
 33
0.0
  0
LINE
  5
2BB9
  8
AM_0
 62
     0
 10
-1.0
 20
0.0
 30
0.0
 11
-0.8
 21
0.0
 31
0.0
  0
ENDBLK
  5
2BB7
  8
0
  0
ENDSEC
  0
SECTION
  2
ENTITIES
  0
LINE
  5
2826
  8
AM_0
 10
471.87087737035301
 20
370.666030865133
 30
0.0
 11
471.87087737035301
 21
579.11761586513285
 31
0.0
  0
LINE
  5
2827
  8
AM_0
 10
492.26757737035268
 20
469.60518086513292
 30
0.0
 11
504.40622737035272
 21
455.69178586513289
 31
0.0
  0
LINE
  5
2828
  8
AM_0
 10
541.8708773703529
 20
521.29048086513285
 30
0.0
 11
541.8708773703529
 21
345.11766086513308
 31
0.0
  0
LINE
  5
2829
  8
AM_0
 10
583.8708773703529
 20
487.11763086513292
 30
0.0
 11
583.8708773703529
 21
340.86363086513279
 31
0.0
  0
LINE
  5
282A
  8
AM_0
 10
561.8708773703529
 20
390.71550086513292
 30
0.0
 11
561.8708773703529
 21
562.96306586513265
 31
0.0
  0
LINE
  5
282B
  8
AM_0
 10
589.87092737035289
 20
487.11763086513292
 30
0.0
 11
589.87092737035289
 21
453.36027586513291
 31
0.0
  0
LINE
  5
282C
  8
AM_0
 10
458.87087737035279
 20
353.89183086513287
 30
0.0
 11
458.87087737035279
 21
576.73226586513294
 31
0.0
  0
LINE
  5
282D
  8
AM_0
 10
427.87087737035267
 20
365.11763086513292
 30
0.0
 11
427.87087737035267
 21
546.11763086513292
 31
0.0
  0
LINE
  5
282E
  8
AM_0
 10
324.3708773703529
 20
424.11763086513292
 30
0.0
 11
324.3708773703529
 21
474.11763086513292
 31
0.0
  0
LINE
  5
282F
  8
AM_0
 10
326.3708773703529
 20
413.2723318651328
 30
0.0
 11
326.3708773703529
 21
484.96292986513282
 31
0.0
  0
LINE
  5
2830
  8
AM_0
 10
335.0311313703528
 20
488.11763086513292
 30
0.0
 11
335.0311313703528
 21
410.11763086513292
 31
0.0
  0
LINE
  5
2831
  8
AM_0
 10
285.37087737035279
 20
461.11763086513292
 30
0.0
 11
285.37087737035279
 21
464.11763086513292
 31
0.0
  0
LINE
  5
2832
  8
AM_0
 10
313.37087737035279
 20
461.11763086513292
 30
0.0
 11
313.37087737035279
 21
464.11763086513292
 31
0.0
  0
LINE
  5
2833
  8
AM_0
 10
367.36048937035281
 20
489.11763086513292
 30
0.0
 11
367.36048937035281
 21
409.11763086513292
 31
0.0
  0
LINE
  5
2834
  8
AM_0
 10
397.87087737035279
 20
312.11762586513282
 30
0.0
 11
589.87092737035289
 21
312.11762586513282
 31
0.0
  0
LINE
  5
2835
  8
AM_0
 10
397.87087737035279
 20
333.11766086513308
 30
0.0
 11
397.87087737035279
 21
312.11762586513282
 31
0.0
  0
LINE
  5
2836
  8
ﾁｭｳｼﾝｾﾝ1
 10
418.87087737035279
 20
341.62553086513287
 30
0.0
 11
418.87087737035279
 21
307.22599586513292
 31
0.0
  0
LINE
  5
2837
  8
ｶｸﾚｾﾝ2
 10
428.37087737035267
 20
337.11762586513282
 30
0.0
 11
428.37087737035267
 21
312.11762586513282
 31
0.0
  0
LINE
  5
2838
  8
ｶｸﾚｾﾝ2
 10
409.37087737035301
 20
337.11762586513282
 30
0.0
 11
409.37087737035301
 21
312.11762586513282
 31
0.0
  0
LINE
  5
2839
  8
AM_0
 10
425.37087737035267
 20
373.06100686513292
 30
0.0
 11
369.15224437035278
 21
405.51884986513289
 31
0.0
  0
LINE
  5
283A
  8
ﾁｭｳｼﾝｾﾝ1
 10
275.6754481993857
 20
449.11763086513292
 30
0.0
 11
478.46642737035268
 21
449.11763086513292
 31
0.0
  0
LINE
  5
283B
  8
AM_0
 10
321.37087737035279
 20
461.61763086513292
 30
0.0
 11
324.3708773703529
 21
461.61763086513292
 31
0.0
  0
LINE
  5
283C
  8
AM_0
 10
321.37087737035279
 20
436.61763086513292
 30
0.0
 11
324.3708773703529
 21
436.61763086513292
 31
0.0
  0
LINE
  5
283D
  8
AM_0
 10
285.37087737035279
 20
437.11763086513292
 30
0.0
 11
321.37087737035279
 21
437.11763086513292
 31
0.0
  0
LINE
  5
283E
  8
AM_0
 10
285.37087737035279
 20
461.11763086513292
 30
0.0
 11
321.37087737035279
 21
461.11763086513292
 31
0.0
  0
LINE
  5
283F
  8
AM_0
 10
285.37087737035279
 20
461.11763086513292
 30
0.0
 11
285.37087737035279
 21
437.11763086513292
 31
0.0
  0
LINE
  5
2840
  8
AM_0
 10
321.37087737035279
 20
461.61763086513292
 30
0.0
 11
321.37087737035279
 21
436.61763086513292
 31
0.0
  0
LINE
  5
2841
  8
AM_0
 10
337.09975737035307
 20
407.08152286513291
 30
0.0
 11
365.2918633703527
 21
406.58942786513279
 31
0.0
  0
LINE
  5
2842
  8
AM_0
 10
327.37087737035279
 20
411.5402808651329
 30
0.0
 11
333.23937637035289
 21
408.15210086513281
 31
0.0
  0
ARC
  5
2843
  8
AM_0
 10
337.23937637035277
 20
415.0803048651328
 30
0.0
 40
8.0
 50
239.9999999999998
 51
268.99999999999812
  0
ARC
  5
2844
  8
AM_0
 10
328.3708773703529
 20
413.2723318651328
 30
0.0
 40
2.0
 50
180.0
 51
239.9999999999998
  0
LINE
  5
2845
  8
AM_0
 10
324.3708773703529
 20
424.11763086513292
 30
0.0
 11
326.3708773703529
 21
422.11763086513292
 31
0.0
  0
ARC
  5
2846
  8
AM_0
 10
365.15224437035278
 20
398.59064586513279
 30
0.0
 40
8.0
 50
59.999999999999851
 51
88.999999999998224
  0
LINE
  5
2847
  8
AM_0
 10
476.87087737035279
 20
422.92955086513291
 30
0.0
 11
476.87087737035279
 21
377.11763086513292
 31
0.0
  0
LINE
  5
2848
  8
AM_0
 10
441.87087737035267
 20
423.37072486513279
 30
0.0
 11
441.87087737035267
 21
389.19873086513292
 31
0.0
  0
LINE
  5
2849
  8
AM_0
 10
439.87087737035267
 20
387.19873086513292
 30
0.0
 11
429.87087737035279
 21
387.19873086513292
 31
0.0
  0
LINE
  5
284A
  8
AM_0
 10
441.87087737035267
 20
363.11763086513292
 30
0.0
 11
429.87087737035279
 21
363.11763086513292
 31
0.0
  0
LINE
  5
284B
  8
AM_0
 10
401.87087737035279
 20
337.11762586513282
 30
0.0
 11
441.94962737035269
 21
337.11762586513282
 31
0.0
  0
ARC
  5
284C
  8
AM_0
 10
401.87087737035279
 20
333.11766086513308
 30
0.0
 40
4.000000049999997
 50
90.000003000000007
 51
180.00001
  0
ARC
  5
284D
  8
AM_0
 10
422.87087737035279
 20
368.73087986513292
 30
0.0
 40
5.0
 50
0.0
 51
59.999999999999851
  0
ARC
  5
284E
  8
AM_0
 10
429.87087737035279
 20
365.11763086513292
 30
0.0
 40
2.0
 50
180.0
 51
270.0
  0
ARC
  5
284F
  8
AM_0
 10
429.87087737035279
 20
389.19873086513292
 30
0.0
 40
2.0
 50
180.0
 51
270.0
  0
LINE
  5
2850
  8
AM_0
 10
475.822927370353
 20
375.76548586513292
 30
0.0
 11
448.27287737035272
 21
340.21708586513301
 31
0.0
  0
ARC
  5
2851
  8
AM_0
 10
441.94962737035269
 20
345.11766086513308
 30
0.0
 40
8.0
 50
270.0
 51
322.22431999999992
  0
LINE
  5
2852
  8
AM_0
 10
442.87087737035279
 20
365.6176608651329
 30
0.0
 11
455.97557737035271
 21
365.16001586513289
 31
0.0
  0
LINE
  5
2853
  8
AM_0
 10
441.87087737035267
 20
363.11763086513292
 30
0.0
 11
442.87087737035279
 21
364.11763086513292
 31
0.0
  0
ARC
  5
2854
  8
AM_0
 10
455.87087737035279
 20
362.16184586513299
 30
0.0
 40
3.0000000500000001
 50
0.0
 51
88.0
  0
ARC
  5
2855
  8
AM_0
 10
439.87087737035267
 20
389.19873086513292
 30
0.0
 40
2.0
 50
270.0
 51
0.0
  0
ARC
  5
2856
  8
AM_0
 10
471.87087737035301
 20
378.82832086513292
 30
0.0
 40
5.0
 50
322.22431999999992
 51
0.0
  0
LINE
  5
2857
  8
AM_0
 10
429.87087737035279
 20
413.17949286513289
 30
0.0
 11
439.87087737035267
 21
413.17949286513289
 31
0.0
  0
LINE
  5
2858
  8
AM_0
 10
428.87087737035267
 20
423.37072486513279
 30
0.0
 11
440.87087737035267
 21
423.37072486513279
 31
0.0
  0
ARC
  5
2859
  8
AM_0
 10
429.87087737035279
 20
415.17949286513277
 30
0.0
 40
2.0
 50
180.0
 51
270.0
  0
LINE
  5
285A
  8
AM_0
 10
486.87087737035279
 20
429.50730586513282
 30
0.0
 11
486.87087737035279
 21
422.92955086513291
 31
0.0
  0
LINE
  5
285B
  8
AM_0
 10
444.87092737035272
 20
418.00721586513282
 30
0.0
 11
444.87092737035272
 21
393.26469086513282
 31
0.0
  0
LINE
  5
285C
  8
AM_0
 10
444.87092737035272
 20
406.25508086513281
 30
0.0
 11
458.87087737035279
 21
406.25508086513281
 31
0.0
  0
LINE
  5
285D
  8
AM_0
 10
444.87092737035272
 20
393.26469086513282
 30
0.0
 11
458.87087737035279
 21
393.26469086513282
 31
0.0
  0
LINE
  5
285E
  8
AM_0
 10
444.87092737035272
 20
418.00721586513282
 30
0.0
 11
458.87087737035279
 21
418.00721586513282
 31
0.0
  0
ARC
  5
285F
  8
AM_0
 10
439.87087737035267
 20
415.17949286513277
 30
0.0
 40
2.0
 50
270.0
 51
0.0
  0
LINE
  5
2860
  8
AM_0
 10
476.87087737035279
 20
422.92955086513291
 30
0.0
 11
486.87087737035279
 21
422.92955086513291
 31
0.0
  0
LINE
  5
2861
  8
AM_0
 10
458.87087737035279
 20
434.10585086513282
 30
0.0
 11
471.87087737035301
 21
434.10585086513282
 31
0.0
  0
LINE
  5
2862
  8
AM_0
 10
471.87087737035301
 20
432.5073408651329
 30
0.0
 11
483.87087737035279
 21
432.5073408651329
 31
0.0
  0
ARC
  5
2863
  8
AM_0
 10
483.87087737035279
 20
429.50730586513282
 30
0.0
 40
3.0000000500000001
 50
0.0
 51
90.000003000000007
  0
LINE
  5
2864
  8
AM_0
 10
589.87092737035289
 20
333.11766086513308
 30
0.0
 11
589.87092737035289
 21
312.11762586513282
 31
0.0
  0
LINE
  5
2865
  8
ﾁｭｳｼﾝｾﾝ1
 10
568.87087737035279
 20
341.62553086513287
 30
0.0
 11
568.87087737035279
 21
307.22599586513292
 31
0.0
  0
LINE
  5
2866
  8
ｶｸﾚｾﾝ2
 10
559.3708773703529
 20
337.11762586513282
 30
0.0
 11
559.3708773703529
 21
312.11762586513282
 31
0.0
  0
LINE
  5
2867
  8
ｶｸﾚｾﾝ2
 10
578.3708773703529
 20
337.11762586513282
 30
0.0
 11
578.3708773703529
 21
312.11762586513282
 31
0.0
  0
ARC
  5
2868
  8
AM_0
 10
553.8708773703529
 20
390.71550086513292
 30
0.0
 40
8.0
 50
270.0
 51
0.0
  0
ARC
  5
2869
  8
AM_0
 10
549.87092737035289
 20
345.11766086513308
 30
0.0
 40
8.0
 50
180.00001
 51
270.0
  0
LINE
  5
286A
  8
AM_0
 10
549.87092737035289
 20
337.11762586513282
 30
0.0
 11
585.87087737035267
 21
337.11762586513282
 31
0.0
  0
ARC
  5
286B
  8
AM_0
 10
585.87087737035267
 20
333.11766086513308
 30
0.0
 40
4.000000049999997
 50
0.0
 51
90.000003000000007
  0
ARC
  5
286C
  8
AM_0
 10
587.87087737035301
 20
340.86363086513279
 30
0.0
 40
4.000000049999997
 50
179.99998999999991
 51
255.52249
  0
LINE
  5
286D
  8
AM_0
 10
553.8708773703529
 20
382.71550086513292
 30
0.0
 11
545.354177370353
 21
382.71550086513292
 31
0.0
  0
LINE
  5
286E
  8
AM_0
 10
491.37087737035267
 20
461.60545086513292
 30
0.0
 11
491.37087737035267
 21
434.49330086513282
 31
0.0
  0
ARC
  5
286F
  8
AM_0
 10
496.87087737035301
 20
449.11763086513292
 30
0.0
 40
10.0
 50
306.82303999999999
 51
41.102821999999989
  0
LINE
  5
2870
  8
AM_0
 10
489.6285273703528
 20
431.20274086513291
 30
0.0
 11
502.864377370353
 21
441.11271586513283
 31
0.0
  0
LINE
  5
2871
  8
AM_0
 10
584.74952737035301
 20
446.99632086513287
 30
0.0
 11
588.99222737035291
 21
451.2389658651328
 31
0.0
  0
ARC
  5
2872
  8
AM_0
 10
586.87087737035301
 20
444.87501586513281
 30
0.0
 40
3.0000000500000001
 50
135.0
 51
180.00001
  0
ARC
  5
2873
  8
AM_0
 10
586.87087737035301
 20
453.36027586513291
 30
0.0
 40
3.0000000500000001
 50
315.0
 51
0.0
  0
LINE
  5
2874
  8
AM_0
 10
471.87087737035301
 20
571.70091586513286
 30
0.0
 11
490.56237737035292
 21
571.70091586513286
 31
0.0
  0
LINE
  5
2875
  8
AM_0
 10
488.23727737035279
 20
543.51141586513279
 30
0.0
 11
500.03867737035267
 21
547.45281586513295
 31
0.0
  0
LINE
  5
2876
  8
AM_0
 10
488.80112737035279
 20
573.24021586513277
 30
0.0
 11
554.15007737035285
 21
570.95816586513286
 31
0.0
  0
LINE
  5
2877
  8
ﾁｭｳｼﾝｾﾝ1
 10
447.71852737035272
 20
487.11763086513292
 30
0.0
 11
671.81527737035265
 21
487.11763086513292
 31
0.0
  0
CIRCLE
  5
2878
  8
AM_0
 10
455.87087737035279
 20
599.61761586513285
 30
0.0
 40
12.5
  0
ARC
  5
2879
  8
AM_0
 10
455.87087737035279
 20
599.61761586513285
 30
0.0
 40
20.500000499999992
 50
304.61363999999992
 51
235.38634999999999
  0
LINE
  5
287A
  8
AM_0
 10
425.37087737035267
 20
525.17425486513275
 30
0.0
 11
369.15224437035278
 21
492.7164118651329
 31
0.0
  0
LINE
  5
287B
  8
AM_0
 10
285.37087737035279
 20
464.11763086513292
 30
0.0
 11
313.37087737035279
 21
464.11763086513292
 31
0.0
  0
LINE
  5
287C
  8
AM_0
 10
337.09975737035307
 20
491.15373886513282
 30
0.0
 11
365.2918633703527
 21
491.64583386513277
 31
0.0
  0
LINE
  5
287D
  8
AM_0
 10
324.3708773703529
 20
474.11763086513292
 30
0.0
 11
326.3708773703529
 21
476.11763086513292
 31
0.0
  0
ARC
  5
287E
  8
AM_0
 10
337.23937637035277
 20
483.15495686513287
 30
0.0
 40
8.0
 50
91.000000000001776
 51
120.0000000000001
  0
LINE
  5
287F
  8
AM_0
 10
327.37087737035279
 20
486.69498086513278
 30
0.0
 11
333.23937637035289
 21
490.08316086513292
 31
0.0
  0
ARC
  5
2880
  8
AM_0
 10
328.3708773703529
 20
484.96292986513282
 30
0.0
 40
2.0
 50
120.0000000000001
 51
180.0
  0
ARC
  5
2881
  8
AM_0
 10
365.15224437035278
 20
499.64461586513289
 30
0.0
 40
8.0
 50
271.00000000000171
 51
300.0
  0
LINE
  5
2882
  8
AM_0
 10
486.87087737035279
 20
467.12941086513291
 30
0.0
 11
486.87087737035279
 21
550.44186586513308
 31
0.0
  0
ARC
  5
2883
  8
AM_0
 10
455.87087737035279
 20
536.07346586513279
 30
0.0
 40
3.0000000500000001
 50
272.0
 51
0.0
  0
LINE
  5
2884
  8
AM_0
 10
444.87092737035272
 20
532.68746586513294
 30
0.0
 11
444.87092737035272
 21
577.11761586513285
 31
0.0
  0
LINE
  5
2885
  8
AM_0
 10
441.87087737035267
 20
533.05318786513294
 30
0.0
 11
441.87087737035267
 21
546.11763086513292
 31
0.0
  0
LINE
  5
2886
  8
AM_0
 10
441.87087737035267
 20
535.11763086513292
 30
0.0
 11
442.87087737035279
 21
534.11763086513292
 31
0.0
  0
LINE
  5
2887
  8
AM_0
 10
440.87087737035267
 20
533.05318786513294
 30
0.0
 11
428.87087737035267
 21
533.05318786513294
 31
0.0
  0
ARC
  5
2888
  8
AM_0
 10
422.87087737035279
 20
529.50438186513293
 30
0.0
 40
5.0
 50
300.0
 51
0.0
  0
LINE
  5
2889
  8
AM_0
 10
442.87087737035279
 20
534.11763086513292
 30
0.0
 11
442.87087737035279
 21
364.11763086513292
 31
0.0
  0
LINE
  5
288A
  8
AM_0
 10
458.87087737035279
 20
464.12941086513291
 30
0.0
 11
471.87087737035301
 21
464.12941086513291
 31
0.0
  0
LINE
  5
288B
  8
AM_0
 10
471.87087737035301
 20
464.12941086513291
 30
0.0
 11
483.87087737035279
 21
464.12941086513291
 31
0.0
  0
ARC
  5
288C
  8
AM_0
 10
483.87087737035279
 20
467.12941086513291
 30
0.0
 40
3.0000000500000001
 50
270.0
 51
0.0
  0
LINE
  5
288D
  8
AM_0
 10
444.87082737035291
 20
532.68746586513294
 30
0.0
 11
455.97547737035268
 21
533.07526586513291
 31
0.0
  0
LINE
  5
288E
  8
AM_0
 10
442.87077737035281
 20
532.61761586513285
 30
0.0
 11
444.87082737035291
 21
532.68746586513294
 31
0.0
  0
LINE
  5
288F
  8
AM_0
 10
442.87087737035279
 20
532.61761786513296
 30
0.0
 11
444.87088737035282
 21
532.68745786513296
 31
0.0
  0
LINE
  5
2890
  8
AM_0
 10
429.87087737035279
 20
548.11763086513281
 30
0.0
 11
439.87087737035267
 21
548.11763086513281
 31
0.0
  0
ARC
  5
2891
  8
AM_0
 10
429.87087737035279
 20
546.11763086513292
 30
0.0
 40
2.0
 50
90.0
 51
180.0
  0
LINE
  5
2892
  8
AM_0
 10
458.87087737035279
 20
553.44186586513285
 30
0.0
 11
471.87087737035301
 21
553.44186586513285
 31
0.0
  0
LINE
  5
2893
  8
AM_0
 10
460.12687737035282
 20
570.36121586513286
 30
0.0
 11
486.87087737035279
 21
570.36121586513286
 31
0.0
  0
ARC
  5
2894
  8
AM_0
 10
439.87087737035267
 20
546.11763086513292
 30
0.0
 40
2.0
 50
0.0
 51
90.0
  0
ARC
  5
2895
  8
AM_0
 10
483.87087737035279
 20
550.44186586513308
 30
0.0
 40
3.0000000500000001
 50
0.0
 51
90.000003000000007
  0
LINE
  5
2896
  8
AM_0
 10
471.87087737035301
 20
553.44186586513285
 30
0.0
 11
483.87087737035279
 21
553.44186586513285
 31
0.0
  0
LINE
  5
2897
  8
AM_0
 10
455.8708273703528
 20
587.11766586513295
 30
0.0
 11
463.3742273703528
 21
585.73226586513294
 31
0.0
  0
LINE
  5
2898
  8
AM_0
 10
458.87087737035279
 20
571.70091586513286
 30
0.0
 11
471.87087737035301
 21
571.70091586513286
 31
0.0
  0
LINE
  5
2899
  8
AM_0
 10
460.80097737035271
 20
578.73106586513302
 30
0.0
 11
471.87077737035293
 21
579.11766586513295
 31
0.0
  0
LINE
  5
289A
  8
AM_0
 10
448.05372737035287
 20
585.61766586513295
 30
0.0
 11
463.687977370353
 21
585.61766586513295
 31
0.0
  0
LINE
  5
289B
  8
AM_0
 10
445.87082737035269
 20
578.61761586513285
 30
0.0
 11
447.5830273703528
 21
585.00771586513304
 31
0.0
  0
LINE
  5
289C
  8
AM_0
 10
445.54802737035271
 20
578.61766586513295
 30
0.0
 11
460.2034773703528
 21
578.61766586513295
 31
0.0
  0
ARC
  5
289D
  8
AM_0
 10
446.87087737035301
 20
577.11761586513285
 30
0.0
 40
2.0000000500000001
 50
131.4096199999999
 51
180.00001
  0
ARC
  5
289E
  8
AM_0
 10
441.95387737035281
 20
579.45416586513295
 30
0.0
 40
4.000000049999997
 50
347.92932999999999
 51
55.386358999999992
  0
ARC
  5
289F
  8
AM_0
 10
460.87087737035267
 20
576.73226586513294
 30
0.0
 40
2.0000000500000001
 50
91.999997999999948
 51
180.00001
  0
ARC
  5
28A0
  8
AM_0
 10
448.54902737035269
 20
584.7488658651331
 30
0.0
 40
1.0
 50
100.4607199999999
 51
164.99999
  0
LINE
  5
28A1
  8
AM_0
 10
448.36752737035278
 20
585.73226586513294
 30
0.0
 11
455.870927370353
 21
587.11761586513285
 31
0.0
  0
LINE
  5
28A2
  8
AM_0
 10
471.87087737035301
 20
579.11761586513285
 30
0.0
 11
484.94072737035282
 21
578.66126586513303
 31
0.0
  0
LINE
  5
28A3
  8
AM_0
 10
469.87092737035272
 20
579.11761586513285
 30
0.0
 11
471.87087737035301
 21
579.11761586513285
 31
0.0
  0
ARC
  5
28A4
  8
AM_0
 10
469.78782737035289
 20
579.45416586513295
 30
0.0
 40
4.000000049999997
 50
124.61365000000001
 51
187.86822000000001
  0
ARC
  5
28A5
  8
AM_0
 10
463.19277737035281
 20
584.7488658651331
 30
0.0
 40
1.0
 50
15.0
 51
79.539281000000003
  0
LINE
  5
28A6
  8
AM_0
 10
465.79372737035271
 20
578.90531586513293
 30
0.0
 11
464.15862737035309
 21
585.00766586513294
 31
0.0
  0
LINE
  5
28A7
  8
AM_0
 10
486.87087737035279
 20
571.70091586513286
 30
0.0
 11
486.87087737035279
 21
576.66246586513296
 31
0.0
  0
ARC
  5
28A8
  8
AM_0
 10
484.87092737035272
 20
576.66246586513296
 30
0.0
 40
2.0000000500000001
 50
0.0
 51
88.0
  0
ARC
  5
28A9
  8
AM_0
 10
488.87087737035279
 20
575.23901586513296
 30
0.0
 40
2.0000000500000001
 50
179.99998999999991
 51
268.00000999999992
  0
LINE
  5
28AA
  8
AM_0
 10
593.87087737035279
 20
466.11763086513292
 30
0.0
 11
663.8708773703529
 21
466.11763086513292
 31
0.0
  0
LINE
  5
28AB
  8
AM_0
 10
593.87087737035279
 20
508.1176608651329
 30
0.0
 11
663.8708773703529
 21
508.1176608651329
 31
0.0
  0
LINE
  5
28AC
  8
AM_0
 10
583.8708773703529
 20
487.11763086513292
 30
0.0
 11
583.8708773703529
 21
544.11761586513285
 31
0.0
  0
ARC
  5
28AD
  8
AM_0
 10
586.87087737035301
 20
535.36026586513276
 30
0.0
 40
3.0000000500000001
 50
179.99998999999991
 51
225.0
  0
ARC
  5
28AE
  8
AM_0
 10
551.87087737035279
 20
521.29048086513285
 30
0.0
 40
10.0
 50
90.000003000000007
 51
180.00001
  0
ARC
  5
28AF
  8
AM_0
 10
490.0069273703528
 20
467.63292086513292
 30
0.0
 40
3.0000000500000001
 50
41.102821999999989
 51
90.000003000000007
  0
LINE
  5
28B0
  8
AM_0
 10
593.87087737035279
 20
464.61763086513292
 30
0.0
 11
593.87087737035279
 21
509.61763086513292
 31
0.0
  0
LINE
  5
28B1
  8
AM_0
 10
589.87092737035289
 20
487.11763086513292
 30
0.0
 11
589.87092737035289
 21
526.87501586513292
 31
0.0
  0
LINE
  5
28B2
  8
AM_0
 10
589.87092737035289
 20
464.61763086513292
 30
0.0
 11
593.87087737035279
 21
464.61763086513292
 31
0.0
  0
LINE
  5
28B3
  8
AM_0
 10
556.92917737035282
 20
531.290465865133
 30
0.0
 11
551.87087737035279
 21
531.290465865133
 31
0.0
  0
LINE
  5
28B4
  8
AM_0
 10
589.87092737035289
 20
509.61763086513292
 30
0.0
 11
593.87087737035279
 21
509.61763086513292
 31
0.0
  0
LINE
  5
28B5
  8
AM_0
 10
584.74947737035279
 20
533.23901586513296
 30
0.0
 11
588.99217737035281
 21
528.99631586513306
 31
0.0
  0
ARC
  5
28B6
  8
AM_0
 10
586.87087737035301
 20
526.87501586513292
 30
0.0
 40
3.0000000500000001
 50
0.0
 51
45.00000099999999
  0
LINE
  5
28B7
  8
AM_0
 10
492.06992737035279
 20
571.29461586513287
 30
0.0
 11
501.89597737035268
 21
565.58356586513275
 31
0.0
  0
LINE
  5
28B8
  8
AM_0
 10
491.37087737035267
 20
548.59331586513292
 30
0.0
 11
491.37087737035267
 21
569.76651586513299
 31
0.0
  0
ARC
  5
28B9
  8
AM_0
 10
496.87087737035301
 20
556.93781586513285
 30
0.0
 40
10.0
 50
288.46821
 51
59.833878000000013
  0
ARC
  5
28BA
  8
AM_0
 10
490.88322737035259
 20
547.55796586513293
 30
0.0
 40
3.0000000500000001
 50
270.0
 51
288.46821999999992
  0
ARC
  5
28BB
  8
AM_0
 10
490.56237737035292
 20
568.70096586513273
 30
0.0
 40
3.0000000500000001
 50
59.833878000000013
 51
90.000003000000007
  0
ARC
  5
28BC
  8
AM_0
 10
553.8708773703529
 20
562.96306586513265
 30
0.0
 40
8.0
 50
0.0
 51
88.0
  0
LINE
  5
28BD
  8
AM_0
 10
569.87092737035289
 20
547.11761586513308
 30
0.0
 11
580.8708773703529
 21
547.11761586513308
 31
0.0
  0
ARC
  5
28BE
  8
AM_0
 10
569.87092737035289
 20
555.11766586513295
 30
0.0
 40
8.0
 50
180.00001
 51
270.0
  0
ARC
  5
28BF
  8
AM_0
 10
580.8708773703529
 20
544.11761586513285
 30
0.0
 40
3.0000000500000001
 50
0.0
 51
90.000003000000007
  0
LINE
  5
28C0
  8
AM_0
 10
607.87087737035301
 20
511.11763086513292
 30
0.0
 11
663.8708773703529
 21
511.11763086513292
 31
0.0
  0
LINE
  5
28C1
  8
AM_0
 10
607.87087737035301
 20
511.11763086513292
 30
0.0
 11
607.87087737035301
 21
508.1176608651329
 31
0.0
  0
LINE
  5
28C2
  8
AM_0
 10
663.8708773703529
 20
466.11763086513292
 30
0.0
 11
663.8708773703529
 21
511.11763086513292
 31
0.0
  0
LINE
  5
28C3
  8
ﾁｭｳｼﾝｾﾝ1
 10
970.22688976603149
 20
628.75336018891255
 30
0.0
 11
970.22688976603149
 21
311.14805586513307
 31
0.0
  0
LINE
  5
28C4
  8
AM_0
 10
1107.297969766031
 20
456.18870586513287
 30
0.0
 11
1093.9580947660311
 21
469.52858086513288
 31
0.0
  0
LINE
  5
28C5
  8
AM_0
 10
833.15582476603106
 20
456.18870586513287
 30
0.0
 11
846.49572476603134
 21
469.52861086513292
 31
0.0
  0
LINE
  5
28C6
  8
AM_0
 10
846.68192476603122
 20
464.50923086513308
 30
0.0
 11
830.26522476603134
 21
332.73576086513287
 31
0.0
  0
LINE
  5
28C7
  8
AM_0
 10
876.22688976603138
 20
530.75246586513276
 30
0.0
 11
876.22688976603138
 21
415.10777086513292
 31
0.0
  0
LINE
  5
28C8
  8
AM_0
 10
1093.7718447660311
 20
464.50923086513308
 30
0.0
 11
1110.1885297660299
 21
332.73579086513308
 31
0.0
  0
LINE
  5
28C9
  8
AM_0
 10
1064.2268897660299
 20
530.75246586513276
 30
0.0
 11
1064.2268897660299
 21
411.50300586513288
 31
0.0
  0
CIRCLE
  5
28CA
  8
AM_0
 10
970.22688976603149
 20
487.11763086513292
 30
0.0
 40
41.000000499999992
  0
ARC
  5
28CB
  8
AM_0
 10
970.22688976603149
 20
459.11763086513292
 30
0.0
 40
88.0
 50
0.0
 51
186.52497999999991
  0
LINE
  5
28CC
  8
AM_0
 10
903.22688976603138
 20
332.11762586513288
 30
0.0
 11
1037.226889766031
 21
332.11762586513288
 31
0.0
  0
LINE
  5
28CD
  8
AM_0
 10
899.87242976603113
 20
326.84831086513282
 30
0.0
 11
1040.58135476603
 21
326.84831086513282
 31
0.0
  0
LINE
  5
28CE
  8
ﾁｭｳｼﾝｾﾝ1
 10
825.96137476603133
 20
449.11763086513292
 30
0.0
 11
1114.08135476603
 21
449.11763086513292
 31
0.0
  0
LINE
  5
28CF
  8
AM_0
 10
889.22685976603134
 20
317.11762586513288
 30
0.0
 11
1051.592674766031
 21
317.11762586513288
 31
0.0
  0
LINE
  5
28D0
  8
ﾁｭｳｼﾝｾﾝ1
 10
855.22692476603095
 20
341.62553086513282
 30
0.0
 11
855.22692476603095
 21
307.22599586513292
 31
0.0
  0
LINE
  5
28D1
  8
AM_0
 10
830.22692476603095
 20
332.11762586513288
 30
0.0
 11
830.22692476603095
 21
312.11762586513282
 31
0.0
  0
LINE
  5
28D2
  8
AM_0
 10
881.52690976603162
 20
333.11766086513308
 30
0.0
 11
881.52690976603162
 21
312.11762586513282
 31
0.0
  0
LINE
  5
28D3
  8
ｶｸﾚｾﾝ2
 10
864.72687476603119
 20
337.11762586513282
 30
0.0
 11
864.72687476603119
 21
312.11762586513282
 31
0.0
  0
LINE
  5
28D4
  8
ｶｸﾚｾﾝ2
 10
845.72692476603152
 20
337.11762586513282
 30
0.0
 11
845.72692476603152
 21
312.11762586513282
 31
0.0
  0
ARC
  5
28D5
  8
AM_0
 10
887.24870976603131
 20
324.95347586513287
 30
0.0
 40
8.0
 50
279.48829999999998
 51
357.00554
  0
LINE
  5
28D6
  8
AM_0
 10
830.22692476603095
 20
312.11762586513282
 30
0.0
 11
885.22688976603138
 21
312.11762586513282
 31
0.0
  0
LINE
  5
28D7
  8
AM_0
 10
885.22688976603138
 20
313.11765586513292
 30
0.0
 11
885.22688976603138
 21
312.11762586513282
 31
0.0
  0
ARC
  5
28D8
  8
AM_0
 10
889.22685976603134
 20
313.11765586513292
 30
0.0
 40
4.000000049999997
 50
99.488295999999963
 51
180.00001
  0
LINE
  5
28D9
  8
AM_0
 10
882.22688976603149
 20
449.11763086513292
 30
0.0
 11
882.22688976603149
 21
345.11766086513308
 31
0.0
  0
ARC
  5
28DA
  8
AM_0
 10
970.22688976603149
 20
415.10777086513292
 30
0.0
 40
93.999994999999984
 50
179.99998999999991
 51
200.58195999999981
  0
ARC
  5
28DB
  8
AM_0
 10
877.52687476603137
 20
333.11766086513308
 30
0.0
 40
4.000000049999997
 50
0.0
 51
90.000003000000007
  0
ARC
  5
28DC
  8
AM_0
 10
874.22685976603134
 20
345.11766086513308
 30
0.0
 40
8.0
 50
270.0
 51
0.0
  0
LINE
  5
28DD
  8
AM_0
 10
835.22692476603129
 20
337.11762586513282
 30
0.0
 11
877.52687476603137
 21
337.11762586513282
 31
0.0
  0
ARC
  5
28DE
  8
AM_0
 10
835.22692476603129
 20
332.11762586513288
 30
0.0
 40
5.0
 50
90.000003000000007
 51
180.00001
  0
ARC
  5
28DF
  8
AM_0
 10
903.22688976603138
 20
324.11762586513288
 30
0.0
 40
8.0
 50
90.000003000000007
 51
177.00553999999991
  0
ARC
  5
28E0
  8
AM_0
 10
899.87242976603113
 20
321.84831086513287
 30
0.0
 40
5.0
 50
90.000003000000007
 51
166.18078
  0
ARC
  5
28E1
  8
AM_0
 10
840.22692476603095
 20
449.11763086513292
 30
0.0
 40
10.0
 50
135.0
 51
225.0
  0
LINE
  5
28E2
  8
AM_0
 10
833.15582476603106
 20
442.04658586513278
 30
0.0
 11
840.96677476603122
 21
434.23561086513291
 31
0.0
  0
ARC
  5
28E3
  8
AM_0
 10
970.22688976603149
 20
449.11763086513292
 30
0.0
 40
130.0
 50
187.37550999999999
 51
189.62446
  0
ARC
  5
28E4
  8
AM_0
 10
837.43127476603149
 20
430.70005586513292
 30
0.0
 40
5.0
 50
352.89852000000002
 51
45.00000099999999
  0
ARC
  5
28E5
  8
AM_0
 10
836.34387476603138
 20
431.78746086513291
 30
0.0
 40
5.0
 50
7.3755080999999967
 51
45.00000099999999
  0
LINE
  5
28E6
  8
ﾁｭｳｼﾝｾﾝ1
 10
1085.22689476603
 20
340.96778586513301
 30
0.0
 11
1085.22689476603
 21
305.14210086513282
 31
0.0
  0
LINE
  5
28E7
  8
AM_0
 10
1058.926874766031
 20
333.11766086513308
 30
0.0
 11
1058.926874766031
 21
312.11762586513282
 31
0.0
  0
LINE
  5
28E8
  8
AM_0
 10
1110.22689476603
 20
332.11762586513288
 30
0.0
 11
1110.22689476603
 21
312.11762586513282
 31
0.0
  0
ARC
  5
28E9
  8
AM_0
 10
1053.20503976603
 20
324.95347586513287
 30
0.0
 40
8.0
 50
182.99446
 51
260.51170000000002
  0
LINE
  5
28EA
  8
ｶｸﾚｾﾝ2
 10
1094.72689476603
 20
337.11762586513282
 30
0.0
 11
1094.72689476603
 21
312.11762586513282
 31
0.0
  0
LINE
  5
28EB
  8
ｶｸﾚｾﾝ2
 10
1075.72689476603
 20
337.11762586513282
 30
0.0
 11
1075.72689476603
 21
312.11762586513282
 31
0.0
  0
LINE
  5
28EC
  8
AM_0
 10
1055.226889766031
 20
312.11762586513282
 30
0.0
 11
1110.22689476603
 21
312.11762586513282
 31
0.0
  0
LINE
  5
28ED
  8
AM_0
 10
1055.226889766031
 20
313.11765586513292
 30
0.0
 11
1055.226889766031
 21
312.11762586513282
 31
0.0
  0
ARC
  5
28EE
  8
AM_0
 10
1051.226889766031
 20
313.11765586513292
 30
0.0
 40
4.000000049999997
 50
0.0
 51
80.511701999999985
  0
ARC
  5
28EF
  8
AM_0
 10
1037.226889766031
 20
324.11762586513288
 30
0.0
 40
8.0
 50
2.9944643999999991
 51
90.000003000000007
  0
ARC
  5
28F0
  8
AM_0
 10
1040.58135476603
 20
321.84831086513287
 30
0.0
 40
5.0
 50
13.819217
 51
90.000003000000007
  0
LINE
  5
28F1
  8
AM_0
 10
1058.226889766031
 20
459.11763086513292
 30
0.0
 11
1058.226889766031
 21
345.11766086513308
 31
0.0
  0
ARC
  5
28F2
  8
AM_0
 10
970.22688976603149
 20
415.10777086513292
 30
0.0
 40
93.999994999999984
 50
339.95001999999982
 51
20.049976000000001
  0
LINE
  5
28F3
  8
AM_0
 10
1066.2268897660299
 20
337.11762586513282
 30
0.0
 11
1105.22689476603
 21
337.11762586513282
 31
0.0
  0
ARC
  5
28F4
  8
AM_0
 10
1062.9268747660301
 20
333.11766086513308
 30
0.0
 40
4.000000049999997
 50
90.000003000000007
 51
180.00001
  0
ARC
  5
28F5
  8
AM_0
 10
1066.2268897660299
 20
345.11766086513308
 30
0.0
 40
8.0
 50
180.00001
 51
270.0
  0
ARC
  5
28F6
  8
AM_0
 10
1063.226889766031
 20
381.16667086513291
 30
0.0
 40
5.0
 50
159.95003
 51
180.00001
  0
ARC
  5
28F7
  8
AM_0
 10
1105.22689476603
 20
332.11762586513288
 30
0.0
 40
5.0
 50
0.0
 51
90.000003000000007
  0
ARC
  5
28F8
  8
AM_0
 10
1104.109919766031
 20
431.78746086513291
 30
0.0
 40
5.0
 50
135.0
 51
172.62448999999989
  0
LINE
  5
28F9
  8
AM_0
 10
1107.297969766031
 20
442.04658586513278
 30
0.0
 11
1099.4869947660311
 21
434.23558086513287
 31
0.0
  0
ARC
  5
28FA
  8
AM_0
 10
1063.226889766031
 20
449.04890586513289
 30
0.0
 40
5.0
 50
179.99998999999991
 51
200.04997
  0
ARC
  5
28FB
  8
AM_0
 10
970.22688976603149
 20
449.11763086513292
 30
0.0
 40
130.0
 50
350.37554999999998
 51
352.62448999999998
  0
ARC
  5
28FC
  8
AM_0
 10
1103.022514766031
 20
430.70005586513292
 30
0.0
 40
5.0
 50
135.0
 51
187.1014899999999
  0
ARC
  5
28FD
  8
AM_0
 10
1100.22689476603
 20
449.11763086513292
 30
0.0
 40
10.0
 50
315.0
 51
45.00000099999999
  0
LINE
  5
28FE
  8
ﾁｭｳｼﾝｾﾝ1
 10
897.71977246561073
 20
487.11763086513292
 30
0.0
 11
1042.734006539813
 21
487.11763086513292
 31
0.0
  0
ARC
  5
28FF
  8
AM_0
 10
970.22688976603149
 20
449.11763086513292
 30
0.0
 40
130.0
 50
67.375506000000001
 51
112.62448999999999
  0
ARC
  5
2900
  8
AM_0
 10
970.22688976603149
 20
449.11763086513292
 30
0.0
 40
124.5
 50
7.1014839000000007
 51
172.89851999999991
  0
ARC
  5
2901
  8
AM_0
 10
970.22688976603149
 20
449.11763086513292
 30
0.0
 40
130.0
 50
127.3754999999999
 51
172.62448999999989
  0
ARC
  5
2902
  8
AM_0
 10
842.96017476603095
 20
473.06413086513271
 30
0.0
 40
5.0
 50
315.0
 51
349.34381999999982
  0
ARC
  5
2903
  8
AM_0
 10
836.34387476603138
 20
466.44780086513282
 30
0.0
 40
5.0
 50
315.0
 51
352.62448999999998
  0
LINE
  5
2904
  8
AM_0
 10
907.81511476603146
 20
571.360215865133
 30
0.0
 11
926.03773976603111
 21
566.47746586513301
 31
0.0
  0
ARC
  5
2905
  8
AM_0
 10
905.22688976603149
 20
561.70091586513286
 30
0.0
 40
10.0
 50
74.999999000000003
 51
164.99999
  0
LINE
  5
2906
  8
AM_0
 10
895.56767976603135
 20
564.28916586513265
 30
0.0
 11
890.68492976603113
 21
546.06651586513306
 31
0.0
  0
ARC
  5
2907
  8
AM_0
 10
888.27699976603139
 20
556.39866586513278
 30
0.0
 40
5.0
 50
307.37551000000002
 51
345.0
  0
ARC
  5
2908
  8
AM_0
 10
885.85524476603132
 20
547.36056586513291
 30
0.0
 40
5.0
 50
310.65618000000001
 51
345.0
  0
ARC
  5
2909
  8
AM_0
 10
918.29375476603138
 20
573.72881586513301
 30
0.0
 40
5.0
 50
255.0
 51
292.62448999999998
  0
ARC
  5
290A
  8
AM_0
 10
927.33180976603114
 20
571.30706586513293
 30
0.0
 40
5.0
 50
255.0
 51
289.34381999999982
  0
LINE
  5
290B
  8
AM_0
 10
966.22688976603149
 20
616.11766586513295
 30
0.0
 11
966.22688976603149
 21
582.61766586513295
 31
0.0
  0
LINE
  5
290C
  8
AM_0
 10
974.22685976603111
 20
616.11766586513295
 30
0.0
 11
974.22685976603111
 21
582.61766586513295
 31
0.0
  0
ARC
  5
290D
  8
AM_0
 10
1035.226889766031
 20
561.70091586513286
 30
0.0
 40
10.0
 50
15.0
 51
104.9999999999998
  0
ARC
  5
290E
  8
AM_0
 10
970.22688976603149
 20
487.11763086513292
 30
0.0
 40
20.9999985
 50
106.60155
 51
73.398452000000006
  0
CIRCLE
  5
290F
  8
AM_5
 10
970.22688976603149
 20
487.11763086513292
 30
0.0
 40
5.0
  0
CIRCLE
  5
2910
  8
AM_0
 10
970.22688976603149
 20
487.11763086513292
 30
0.0
 40
3.5000000500000001
  0
LINE
  5
2911
  8
AM_0
 10
964.22685976603111
 20
511.11763086513292
 30
0.0
 11
976.22688976603138
 21
511.11763086513292
 31
0.0
  0
LINE
  5
2912
  8
AM_0
 10
964.22685976603111
 20
503.11766086513279
 30
0.0
 11
976.22688976603138
 21
503.11766086513279
 31
0.0
  0
LINE
  5
2913
  8
AM_0
 10
964.22685976603111
 20
511.11763086513292
 30
0.0
 11
964.22685976603111
 21
503.11766086513279
 31
0.0
  0
LINE
  5
2914
  8
AM_0
 10
976.22688976603138
 20
511.11763086513292
 30
0.0
 11
976.22688976603138
 21
503.11766086513279
 31
0.0
  0
LINE
  5
2915
  8
AM_0
 10
960.25835476603118
 20
578.73491586513296
 30
0.0
 11
961.93913976603164
 21
585.00771586513304
 31
0.0
  0
LINE
  5
2916
  8
AM_0
 10
974.22685976603111
 20
586.37911586513303
 30
0.0
 11
977.73027976603112
 21
585.73226586513294
 31
0.0
  0
ARC
  5
2917
  8
AM_0
 10
976.22688976603138
 20
582.61766586513295
 30
0.0
 40
2.0000000500000001
 50
179.99998999999991
 51
270.0
  0
ARC
  5
2918
  8
AM_0
 10
962.90504976603142
 20
584.7488658651331
 30
0.0
 40
1.0
 50
100.4607199999999
 51
164.99999
  0
LINE
  5
2919
  8
AM_0
 10
966.22688976603149
 20
586.37906586513293
 30
0.0
 11
962.72347476603113
 21
585.73226586513294
 31
0.0
  0
ARC
  5
291A
  8
AM_0
 10
964.22685976603111
 20
582.61766586513295
 30
0.0
 40
2.0000000500000001
 50
270.0
 51
0.0
  0
ARC
  5
291B
  8
AM_0
 10
977.54875976603125
 20
584.7488658651331
 30
0.0
 40
1.0
 50
15.0
 51
79.539281000000003
  0
LINE
  5
291C
  8
AM_0
 10
980.19548976603119
 20
578.73486586513275
 30
0.0
 11
978.51469976603164
 21
585.00771586513304
 31
0.0
  0
LINE
  5
291D
  8
AM_0
 10
1032.638694766031
 20
571.36016586513301
 30
0.0
 11
1014.41606976603
 21
566.4774158651328
 31
0.0
  0
ARC
  5
291E
  8
AM_0
 10
1013.121969766031
 20
571.30706586513293
 30
0.0
 40
5.0
 50
250.65617999999989
 51
285.0
  0
ARC
  5
291F
  8
AM_0
 10
1022.160029766031
 20
573.72881586513301
 30
0.0
 40
5.0
 50
247.37550999999991
 51
285.0
  0
ARC
  5
2920
  8
AM_0
 10
970.22688976603149
 20
449.11763086513292
 30
0.0
 40
130.0
 50
7.3755071999999986
 51
52.624493999999991
  0
ARC
  5
2921
  8
AM_0
 10
1104.109919766031
 20
466.44780086513282
 30
0.0
 40
5.0
 50
187.37550999999999
 51
225.0
  0
ARC
  5
2922
  8
AM_0
 10
1097.493614766031
 20
473.06413086513271
 30
0.0
 40
5.0
 50
190.65618000000001
 51
225.0
  0
LINE
  5
2923
  8
AM_0
 10
1044.886164766031
 20
564.28911586513289
 30
0.0
 11
1049.7688847660311
 21
546.06651586513306
 31
0.0
  0
ARC
  5
2924
  8
AM_0
 10
1052.17677976603
 20
556.39866586513278
 30
0.0
 40
5.0
 50
195.00001
 51
232.62450000000001
  0
ARC
  5
2925
  8
AM_0
 10
1054.5985347660301
 20
547.36056586513291
 30
0.0
 40
5.0
 50
195.00001
 51
229.34381999999991
  0
ARC
  5
2926
  8
AM_0
 10
970.22688976603149
 20
616.11766586513295
 30
0.0
 40
4.000000049999997
 50
359.99998999999991
 51
179.99998999999991
  0
LINE
  5
2927
  8
AM_0
 10
427.87087737035267
 20
773.52791048461927
 30
0.0
 11
427.87087737035267
 21
954.0212731865256
 31
0.0
  0
LINE
  5
2928
  8
AM_0
 10
441.87087737035267
 20
882.50484155654033
 30
0.0
 11
441.87087737035267
 21
867.77453194029192
 31
0.0
  0
LINE
  5
2929
  8
AM_0
 10
427.87087737035267
 20
845.04434211460512
 30
0.0
 11
441.87087737035267
 21
845.04434211460512
 31
0.0
  0
LINE
  5
292A
  8
AM_0
 10
427.87087737035267
 20
848.77459183557255
 30
0.0
 11
441.87087737035267
 21
848.77459183557255
 31
0.0
  0
LINE
  5
292B
  8
AM_0
 10
427.87087737035267
 20
882.50484155654033
 30
0.0
 11
441.87087737035267
 21
882.50484155654033
 31
0.0
  0
LINE
  5
292C
  8
AM_0
 10
427.87087737035267
 20
878.77459183557244
 30
0.0
 11
441.87087737035267
 21
878.77459183557244
 31
0.0
  0
LINE
  5
292D
  8
AM_0
 10
441.87087737035267
 20
777.77459183557255
 30
0.0
 11
441.87087737035267
 21
773.52791048461927
 31
0.0
  0
ARC
  5
292E
  8
AM_0
 10
439.87087737035267
 20
773.52791048461927
 30
0.0
 40
2.0
 50
270.0
 51
0.0
1001
GENIUS_GENODEF_13
1002
{
1000
HIER
1070
     0
1002
}
1002
{
1000
MANEDIT
1070
     0
1002
}
1002
{
1000
NOSEL
1070
     0
1002
}
1002
{
1000
BEHIND
1070
     0
1002
}
1002
{
1000
OTHER
1070
     0
1002
}
1002
{
1000
REACTOR
1002
}
1001
GENIUS_GENOBJ-N-FIL_13
1002
{
1000
OWNER
1000
GEN
1002
}
  0
LINE
  5
292F
  8
AM_0
 10
429.87087737035279
 20
771.52791048461904
 30
0.0
 11
439.87087737035267
 21
771.52791048461904
 31
0.0
  0
LINE
  5
2930
  8
AM_0
 10
441.87087737035267
 20
777.77459183557255
 30
0.0
 11
429.87087737035279
 21
777.77459183557255
 31
0.0
  0
LINE
  5
2931
  8
AM_0
 10
441.87087737035267
 20
777.77459183557255
 30
0.0
 11
442.87087737035279
 21
778.77459183557255
 31
0.0
  0
ARC
  5
2932
  8
AM_0
 10
429.87087737035279
 20
773.52791048461927
 30
0.0
 40
2.0
 50
180.0
 51
270.0
1001
GENIUS_GENOBJ-N-FIL_13
1002
{
1000
OWNER
1000
GEN
1002
}
1001
GENIUS_GENODEF_13
1002
{
1000
HIER
1070
     0
1002
}
1002
{
1000
MANEDIT
1070
     0
1002
}
1002
{
1000
NOSEL
1070
     0
1002
}
1002
{
1000
BEHIND
1070
     0
1002
}
1002
{
1000
OTHER
1070
     0
1002
}
1002
{
1000
REACTOR
1002
}
  0
ARC
  5
2933
  8
AM_0
 10
429.87087737035279
 20
779.77459183557255
 30
0.0
 40
2.0
 50
180.0
 51
270.0
  0
ARC
  5
2934
  8
AM_0
 10
422.87087737035279
 20
783.38784083557255
 30
0.0
 40
5.0
 50
0.0
 51
59.999999999999119
  0
LINE
  5
2935
  8
AM_0
 10
425.37087737035267
 20
787.71796783557261
 30
0.0
 11
369.15224437035278
 21
820.17581083557263
 31
0.0
  0
LINE
  5
2936
  8
AM_0
 10
425.37087737035267
 20
939.83121583557295
 30
0.0
 11
369.15224437035278
 21
907.37337283557235
 31
0.0
  0
LINE
  5
2937
  8
AM_0
 10
324.3708773703529
 20
838.77459183557255
 30
0.0
 11
324.3708773703529
 21
888.77459183557255
 31
0.0
  0
LINE
  5
2938
  8
AM_0
 10
321.37087737035279
 20
876.27459183557255
 30
0.0
 11
321.37087737035279
 21
851.27459183557255
 31
0.0
  0
LINE
  5
2939
  8
AM_0
 10
285.37087737035279
 20
875.77459183557266
 30
0.0
 11
285.37087737035279
 21
851.77459183557266
 31
0.0
  0
LINE
  5
293A
  8
AM_0
 10
313.37087737035279
 20
859.77459183557255
 30
0.0
 11
313.37087737035279
 21
867.77459183557232
 31
0.0
  0
ARC
  5
293B
  8
AM_0
 10
313.37087737035279
 20
863.77459183557255
 30
0.0
 40
4.0
 50
270.0
 51
90.0
  0
LINE
  5
293C
  8
AM_0
 10
326.3708773703529
 20
827.9292928355726
 30
0.0
 11
326.3708773703529
 21
899.61989083557285
 31
0.0
  0
LINE
  5
293D
  8
AM_0
 10
335.0311313703528
 20
902.77459183557255
 30
0.0
 11
335.0311313703528
 21
824.77459183557266
 31
0.0
  0
LINE
  5
293E
  8
AM_0
 10
367.36048937035281
 20
903.77459183557244
 30
0.0
 11
367.36048937035281
 21
823.77459183557255
 31
0.0
  0
LINE
  5
293F
  8
AM_0
 10
285.37087737035279
 20
851.77459183557266
 30
0.0
 11
321.37087737035279
 21
851.77459183557266
 31
0.0
  0
LINE
  5
2940
  8
AM_0
 10
285.37087737035279
 20
859.77459183557255
 30
0.0
 11
313.37087737035279
 21
859.77459183557255
 31
0.0
  0
LINE
  5
2941
  8
AM_0
 10
337.09975737035307
 20
821.73848383557265
 30
0.0
 11
365.2918633703527
 21
821.24638883557259
 31
0.0
  0
LINE
  5
2942
  8
AM_0
 10
327.37087737035279
 20
826.19724183557275
 30
0.0
 11
333.23937637035289
 21
822.80906183557249
 31
0.0
  0
ARC
  5
2943
  8
AM_0
 10
328.3708773703529
 20
827.9292928355726
 30
0.0
 40
2.0
 50
180.0
 51
239.99999999999909
  0
ARC
  5
2944
  8
AM_0
 10
337.23937637035277
 20
829.73726583557243
 30
0.0
 40
8.0
 50
239.99999999999909
 51
268.99999999999812
  0
ARC
  5
2945
  8
AM_0
 10
365.15224437035278
 20
813.24760683557247
 30
0.0
 40
8.0
 50
59.999999999999119
 51
88.999999999998224
  0
LINE
  5
2946
  8
AM_0
 10
324.3708773703529
 20
838.77459183557255
 30
0.0
 11
326.3708773703529
 21
836.77459183557255
 31
0.0
  0
LINE
  5
2947
  8
AM_0
 10
321.37087737035279
 20
851.27459183557255
 30
0.0
 11
324.3708773703529
 21
851.27459183557255
 31
0.0
  0
LINE
  5
2948
  8
AM_0
 10
285.37087737035279
 20
875.77459183557266
 30
0.0
 11
321.37087737035279
 21
875.77459183557266
 31
0.0
  0
LINE
  5
2949
  8
AM_0
 10
285.37087737035279
 20
867.77459183557232
 30
0.0
 11
313.37087737035279
 21
867.77459183557232
 31
0.0
  0
LINE
  5
294A
  8
AM_0
 10
327.37087737035279
 20
901.35194183557269
 30
0.0
 11
333.23937637035289
 21
904.74012183557284
 31
0.0
  0
LINE
  5
294B
  8
AM_0
 10
321.37087737035279
 20
876.27459183557255
 30
0.0
 11
324.3708773703529
 21
876.27459183557255
 31
0.0
  0
LINE
  5
294C
  8
AM_0
 10
324.3708773703529
 20
888.77459183557255
 30
0.0
 11
326.3708773703529
 21
890.77459183557266
 31
0.0
  0
ARC
  5
294D
  8
AM_0
 10
328.3708773703529
 20
899.61989083557285
 30
0.0
 40
2.0
 50
120.0000000000008
 51
180.0
  0
LINE
  5
294E
  8
AM_0
 10
337.09975737035307
 20
905.81069983557268
 30
0.0
 11
365.2918633703527
 21
906.30279483557285
 31
0.0
  0
ARC
  5
294F
  8
AM_0
 10
337.23937637035277
 20
897.81191783557256
 30
0.0
 40
8.0
 50
91.000000000001776
 51
120.0000000000008
  0
ARC
  5
2950
  8
AM_0
 10
365.15224437035278
 20
914.30157683557252
 30
0.0
 40
8.0
 50
271.00000000000171
 51
300.00000000000068
  0
ARC
  5
2951
  8
AM_0
 10
422.87087737035279
 20
944.16134283557255
 30
0.0
 40
5.0
 50
300.00000000000068
 51
0.0
  0
ARC
  5
2952
  8
AM_0
 10
429.87087737035279
 20
954.0212731865256
 30
0.0
 40
2.0
 50
90.0
 51
180.0
1001
GENIUS_GENOBJ-N-FIL_13
1002
{
1000
OWNER
1000
GEN
1002
}
1001
GENIUS_GENODEF_13
1002
{
1000
HIER
1070
     0
1002
}
1002
{
1000
MANEDIT
1070
     0
1002
}
1002
{
1000
NOSEL
1070
     0
1002
}
1002
{
1000
BEHIND
1070
     0
1002
}
1002
{
1000
OTHER
1070
     0
1002
}
1002
{
1000
REACTOR
1002
}
  0
LINE
  5
2953
  8
AM_0
 10
441.87087737035267
 20
949.77459183557266
 30
0.0
 11
429.87087737035279
 21
949.77459183557266
 31
0.0
  0
LINE
  5
2954
  8
AM_0
 10
429.87087737035279
 20
956.02127318652583
 30
0.0
 11
439.87087737035267
 21
956.02127318652583
 31
0.0
  0
ARC
  5
2955
  8
AM_0
 10
429.87087737035279
 20
947.77459183557255
 30
0.0
 40
2.0
 50
90.0
 51
180.0
  0
LINE
  5
2956
  8
AM_0
 10
441.87087737035267
 20
949.77459183557266
 30
0.0
 11
442.87087737035279
 21
948.77459183557255
 31
0.0
  0
ARC
  5
2957
  8
AM_0
 10
439.87087737035267
 20
954.0212731865256
 30
0.0
 40
2.0
 50
0.0
 51
90.0
1001
GENIUS_GENODEF_13
1002
{
1000
HIER
1070
     0
1002
}
1002
{
1000
MANEDIT
1070
     0
1002
}
1002
{
1000
NOSEL
1070
     0
1002
}
1002
{
1000
BEHIND
1070
     0
1002
}
1002
{
1000
OTHER
1070
     0
1002
}
1002
{
1000
REACTOR
1002
}
1001
GENIUS_GENOBJ-N-FIL_13
1002
{
1000
OWNER
1000
GEN
1002
}
  0
LINE
  5
2958
  8
AM_0
 10
441.87087737035267
 20
949.77459183557266
 30
0.0
 11
441.87087737035267
 21
954.0212731865256
 31
0.0
  0
LINE
  5
295A
  8
ﾁｭｳｼﾝｾﾝ1
 10
275.6754481993857
 20
863.774591940292
 30
0.0
 11
675.38484737035265
 21
863.774591940292
 31
0.0
  0
ARC
  5
295B
  8
AM_0
 10
453.87080737035279
 20
847.9000819402919
 30
0.0
 40
5.0
 50
0.0
 51
82.818802999995938
  0
LINE
  5
295C
  8
AM_0
 10
442.87087737035279
 20
778.77459183557255
 30
0.0
 11
442.87087737035279
 21
859.77459194029188
 31
0.0
  0
LINE
  5
295D
  8
AM_0
 10
486.87087737035267
 20
814.21008194029207
 30
0.0
 11
486.87087737035267
 21
913.33911194029201
 31
0.0
  0
LINE
  5
295E
  8
AM_0
 10
561.8708773703529
 20
772.774591940292
 30
0.0
 11
561.8708773703529
 21
954.774591940292
 31
0.0
  0
LINE
  5
295F
  8
AM_0
 10
589.87087737035267
 20
903.5319819402921
 30
0.0
 11
589.87087737035267
 21
830.0172119402921
 31
0.0
  0
LINE
  5
2960
  8
AM_0
 10
471.87087737035279
 20
724.03662194029209
 30
0.0
 11
471.87087737035279
 21
859.77459194029188
 31
0.0
  0
LINE
  5
2961
  8
AM_0
 10
583.8708773703529
 20
949.65521194029202
 30
0.0
 11
583.8708773703529
 21
777.89404194029203
 31
0.0
  0
LINE
  5
2962
  8
AM_0
 10
663.8708773703529
 20
842.77459194029188
 30
0.0
 11
663.8708773703529
 21
884.77459194029188
 31
0.0
  0
LINE
  5
2963
  8
AM_0
 10
593.87087737035279
 20
841.27459194029188
 30
0.0
 11
593.87087737035279
 21
886.274591940292
 31
0.0
  0
LINE
  5
2964
  8
AM_0
 10
458.87080737035279
 20
727.5648119402922
 30
0.0
 11
458.87080737035279
 21
854.23516194029185
 31
0.0
  0
LINE
  5
2965
  8
AM_0
 10
515.96120737035267
 20
740.60046194029201
 30
0.0
 11
534.15004737035269
 21
741.23565194029163
 31
0.0
  0
LINE
  5
2966
  8
AM_0
 10
476.87080737035268
 20
723.774591940292
 30
0.0
 11
586.01039737035285
 21
727.58587194029178
 31
0.0
  0
LINE
  5
2967
  8
AM_0
 10
401.66151737035273
 20
727.71618194029202
 30
0.0
 11
476.87087737035279
 21
723.774591940292
 31
0.0
  0
LINE
  5
2968
  8
AM_0
 10
401.52224787233672
 20
772.18235823714565
 30
0.0
 11
427.87087737035267
 21
774.48760810680164
 31
0.0
  0
LINE
  5
2969
  8
AM_0
 10
397.87087737035279
 20
731.71069194029189
 30
0.0
 11
397.87087737035279
 21
768.197580015825
 31
0.0
  0
ARC
  5
296A
  8
AM_0
 10
401.87087737035279
 20
731.71069194029189
 30
0.0
 40
4.0
 50
180.00001000000091
 51
266.99999000000008
  0
CIRCLE
  5
296B
  8
AM_0
 10
418.87087737035279
 20
748.774591940292
 30
0.0
 40
9.5
  0
POLYLINE
  5
296C
  8
AM_0
 66
     1
 10
0.0
 20
0.0
 30
0.0
  0
VERTEX
  5
296D
  8
AM_0
 10
491.80056737035272
 20
784.0431019402921
 30
0.0
 42
0.110757
  0
VERTEX
  5
296E
  8
AM_0
 10
504.68151737035271
 20
793.95084194029209
 30
0.0
 42
0.2037583
  0
VERTEX
  5
296F
  8
AM_0
 10
506.939237370353
 20
801.61631194029201
 30
0.0
  0
VERTEX
  5
2970
  8
AM_0
 10
492.16943737035291
 20
820.5314319402919
 30
0.0
 42
-1.0
  0
SEQEND
  5
2971
  8
AM_0
  0
LINE
  5
2972
  8
AM_0
 10
486.87087737035267
 20
737.09942194029202
 30
0.0
 11
486.87087737035267
 21
784.20880194029201
 31
0.0
  0
LINE
  5
2973
  8
AM_0
 10
471.87080737035279
 20
734.64422194029203
 30
0.0
 11
484.94069737035272
 21
735.10064194029201
 31
0.0
  0
LINE
  5
2974
  8
AM_0
 10
460.80110737035278
 20
735.03082194029184
 30
0.0
 11
471.87093737035292
 21
734.64422194029203
 31
0.0
  0
ARC
  5
2975
  8
AM_0
 10
450.87087737035279
 20
738.06463194029163
 30
0.0
 40
5.0
 50
180.00001000000091
 51
277.13983000000007
  0
ARC
  5
2976
  8
AM_0
 10
460.87087737035267
 20
737.02966194029204
 30
0.0
 40
2.0
 50
179.9999899999988
 51
268.00000999999861
  0
LINE
  5
2977
  8
AM_0
 10
458.87087737035279
 20
734.02764194029203
 30
0.0
 11
451.49233737035291
 21
733.10339194029189
 31
0.0
  0
LINE
  5
2978
  8
AM_0
 10
445.87087737035267
 20
726.37939194029195
 30
0.0
 11
445.87087737035267
 21
734.22814194029206
 31
0.0
  0
ARC
  5
2979
  8
AM_0
 10
461.87080737035279
 20
727.5648119402922
 30
0.0
 40
3.0
 50
180.00001000000091
 51
266.99999000000008
  0
LINE
  5
297A
  8
AM_0
 10
455.01045737035281
 20
776.99060194029187
 30
0.0
 11
444.87099737035271
 21
777.34466194029199
 31
0.0
  0
LINE
  5
297B
  8
AM_0
 10
455.01039737035268
 20
779.35070194029208
 30
0.0
 11
442.87093737035292
 21
779.77465194029185
 31
0.0
  0
LINE
  5
297C
  8
AM_0
 10
444.87093737035281
 20
779.7047119402921
 30
0.0
 11
444.87093737035281
 21
777.34460194029202
 31
0.0
  0
ARC
  5
297D
  8
AM_0
 10
454.87080737035291
 20
775.35314194029206
 30
0.0
 40
4.0
 50
0.0
 51
87.999999999996248
  0
ARC
  5
297E
  8
AM_0
 10
454.87080737035291
 20
772.99304194029185
 30
0.0
 40
4.0
 50
0.0
 51
87.999999999996248
  0
LINE
  5
297F
  8
AM_0
 10
488.80110737035301
 20
741.21514194029203
 30
0.0
 11
513.40407737035275
 21
742.07434194029202
 31
0.0
  0
LINE
  5
2980
  8
AM_0
 10
499.68727737035272
 20
727.61120194029195
 30
0.0
 11
509.05446737035282
 21
737.48797194029203
 31
0.0
  0
ARC
  5
2981
  8
AM_0
 10
484.87087737035279
 20
737.09942194029202
 30
0.0
 40
2.0
 50
272.00000000000369
 51
0.0
  0
LINE
  5
2982
  8
AM_0
 10
491.37087737035267
 20
727.53747194029211
 30
0.0
 11
491.37087737035267
 21
739.56982194029206
 31
0.0
  0
ARC
  5
2983
  8
AM_0
 10
492.431537370353
 20
734.49255194029195
 30
0.0
 40
10.0
 50
272.00000000000369
 51
316.51703999999847
  0
ARC
  5
2984
  8
AM_0
 10
488.87087737035279
 20
739.21636194029202
 30
0.0
 40
2.0
 50
91.999998000000545
 51
180.00001000000091
  0
ARC
  5
2985
  8
AM_0
 10
516.31020737035294
 20
730.60656194029207
 30
0.0
 40
10.0
 50
91.999998000000545
 51
136.5170399999985
  0
ARC
  5
2986
  8
AM_0
 10
490.8989473703528
 20
785.8283619402921
 30
0.0
 40
2.0
 50
270.0
 51
296.80019999999712
  0
LINE
  5
2987
  8
AM_0
 10
458.87080737035279
 20
812.21008194029196
 30
0.0
 11
484.87087737035279
 21
812.21008194029196
 31
0.0
  0
LINE
  5
2988
  8
AM_0
 10
458.87080737035279
 20
786.20880194029201
 30
0.0
 11
484.87087737035279
 21
786.20880194029201
 31
0.0
  0
LINE
  5
2989
  8
AM_0
 10
491.37087737035267
 20
786.20880194029201
 30
0.0
 11
491.37087737035267
 21
812.21008194029196
 31
0.0
  0
ARC
  5
298A
  8
AM_0
 10
484.87087737035279
 20
784.20880194029201
 30
0.0
 40
2.0
 50
0.0
 51
90.00000299999769
  0
ARC
  5
298B
  8
AM_0
 10
484.87087737035279
 20
814.21008194029207
 30
0.0
 40
2.0
 50
270.0
 51
0.0
  0
ARC
  5
298C
  8
AM_0
 10
490.42049737035268
 20
818.0939919402922
 30
0.0
 40
3.0
 50
54.348324000004709
 51
90.00000299999769
  0
LINE
  5
298D
  8
AM_0
 10
593.87087737035279
 20
842.77459194029188
 30
0.0
 11
663.8708773703529
 21
842.77459194029188
 31
0.0
  0
ARC
  5
298E
  8
AM_0
 10
553.8708773703529
 20
772.774591940292
 30
0.0
 40
8.0
 50
270.0
 51
0.0
  0
CIRCLE
  5
298F
  8
AM_0
 10
568.87087737035279
 20
748.774591940292
 30
0.0
 40
9.5
  0
LINE
  5
2990
  8
AM_0
 10
541.8708773703529
 20
754.77459194029188
 30
0.0
 11
541.8708773703529
 21
749.23077194029202
 31
0.0
  0
ARC
  5
2991
  8
AM_0
 10
533.8708773703529
 20
749.23077194029202
 30
0.0
 40
8.0
 50
272.00000000000369
 51
0.0
  0
LINE
  5
2992
  8
AM_0
 10
541.8708773703529
 20
731.22210194029208
 30
0.0
 11
541.8708773703529
 21
749.23077194029202
 31
0.0
  0
ARC
  5
2993
  8
AM_0
 10
546.8708773703529
 20
731.22210194029208
 30
0.0
 40
5.0
 50
180.00001000000091
 51
271.99999000000139
  0
ARC
  5
2994
  8
AM_0
 10
551.87087737035279
 20
754.77459194029188
 30
0.0
 40
10.0
 50
90.00000299999769
 51
180.00001000000091
  0
LINE
  5
2995
  8
AM_0
 10
551.87087737035279
 20
764.774591940292
 30
0.0
 11
553.8708773703529
 21
764.774591940292
 31
0.0
  0
LINE
  5
2996
  8
AM_0
 10
589.87087737035267
 20
731.58337194029195
 30
0.0
 11
589.87087737035267
 21
770.9658219402919
 31
0.0
  0
ARC
  5
2997
  8
AM_0
 10
585.87087737035267
 20
731.58337194029195
 30
0.0
 40
4.0
 50
272.00000000000369
 51
0.0
  0
ARC
  5
2998
  8
AM_0
 10
578.8708773703529
 20
782.573851940292
 30
0.0
 40
5.0
 50
272.00000000000369
 51
0.0
  0
LINE
  5
2999
  8
AM_0
 10
569.19588737035303
 20
777.23290194029209
 30
0.0
 11
579.04530737035282
 21
777.57684194029196
 31
0.0
  0
ARC
  5
299A
  8
AM_0
 10
569.47505737035306
 20
769.23779194029203
 30
0.0
 40
8.0
 50
91.999998000000545
 51
167.22924999999881
  0
ARC
  5
299B
  8
AM_0
 10
585.87087737035267
 20
770.9658219402919
 30
0.0
 40
4.0
 50
0.0
 51
81.786789000000198
  0
ARC
  5
299C
  8
AM_0
 10
586.8708773703529
 20
777.89404194029203
 30
0.0
 40
3.0
 50
180.00001000000091
 51
261.78677999999701
  0
ARC
  5
299D
  8
AM_0
 10
586.8708773703529
 20
830.0172119402921
 30
0.0
 40
3.0
 50
315.0
 51
0.0
  0
ARC
  5
299E
  8
AM_0
 10
586.8708773703529
 20
830.0172119402921
 30
0.0
 40
3.0
 50
315.0
 51
0.0
  0
ARC
  5
299F
  8
AM_0
 10
586.8708773703529
 20
821.5319819402921
 30
0.0
 40
3.0
 50
135.0
 51
180.00001000000091
  0
ARC
  5
29A0
  8
AM_0
 10
586.8708773703529
 20
821.5319819402921
 30
0.0
 40
3.0
 50
135.0
 51
180.00001000000091
  0
LINE
  5
29A1
  8
AM_0
 10
584.74965737035291
 20
823.65325194029208
 30
0.0
 11
588.99233737035286
 21
827.89593194029203
 31
0.0
  0
LINE
  5
29A2
  8
AM_0
 10
589.87093737035275
 20
841.27459194029188
 30
0.0
 11
593.87087737035279
 21
841.27459194029188
 31
0.0
  0
LINE
  5
29A3
  8
AM_0
 10
515.96126737035274
 20
986.94873194029208
 30
0.0
 11
534.15010737035266
 21
986.31353194029191
 31
0.0
  0
LINE
  5
29A4
  8
AM_0
 10
476.87093737035269
 20
1003.774591940292
 30
0.0
 11
586.01051737035266
 21
999.96337194029195
 31
0.0
  0
CIRCLE
  5
29A5
  8
AM_0
 10
418.87087737035279
 20
978.77459194029211
 30
0.0
 40
9.5
  0
LINE
  5
29A6
  8
AM_0
 10
458.87080737035279
 20
873.31402194029215
 30
0.0
 11
458.87080737035279
 21
999.98437194029191
 31
0.0
  0
LINE
  5
29A7
  8
AM_0
 10
471.87087737035279
 20
867.77453194029192
 30
0.0
 11
471.87087737035279
 21
1003.512571940292
 31
0.0
  0
LINE
  5
29A8
  8
AM_0
 10
486.87087737035267
 20
990.44976194029209
 30
0.0
 11
486.87087737035267
 21
943.34039194029197
 31
0.0
  0
LINE
  5
29A9
  8
AM_0
 10
397.87087737035279
 20
995.83850194029208
 30
0.0
 11
397.87087737035279
 21
959.35163067745032
 31
0.0
  0
LINE
  5
29AA
  8
AM_0
 10
439.37093737035269
 20
867.77453194029192
 30
0.0
 11
472.37093737035281
 21
867.77453194029192
 31
0.0
  0
LINE
  5
29AB
  8
AM_0
 10
439.37093737035269
 20
859.77459194029188
 30
0.0
 11
472.37093737035281
 21
859.77459194029188
 31
0.0
  0
LINE
  5
29AC
  8
AM_0
 10
401.5222451669049
 20
955.36685269282964
 30
0.0
 11
427.87087737035267
 21
953.06158456035587
 31
0.0
  0
ARC
  5
29AD
  8
AM_0
 10
439.37093737035269
 20
863.774591940292
 30
0.0
 40
3.9999962
 50
90.00000299999769
 51
270.0
  0
POLYLINE
  5
29AE
  8
AM_0
 66
     1
 10
0.0
 20
0.0
 30
0.0
  0
VERTEX
  5
29AF
  8
AM_0
 10
491.80056737035272
 20
943.50608194029201
 30
0.0
 42
-0.110757
  0
VERTEX
  5
29B0
  8
AM_0
 10
504.68151737035271
 20
933.59834194029202
 30
0.0
 42
-0.2037583
  0
VERTEX
  5
29B1
  8
AM_0
 10
506.939237370353
 20
925.9328719402921
 30
0.0
  0
VERTEX
  5
29B2
  8
AM_0
 10
492.16943737035291
 20
907.0177519402921
 30
0.0
 42
-1.0
  0
SEQEND
  5
29B3
  8
AM_0
  0
LINE
  5
29B4
  8
AM_0
 10
442.87087737035279
 20
867.77453194029192
 30
0.0
 11
442.87087737035279
 21
948.77459183557255
 31
0.0
  0
ARC
  5
29B5
  8
AM_0
 10
455.87093737035281
 20
863.774591940292
 30
0.0
 40
10.0
 50
203.5782699999985
 51
336.4217200000013
  0
ARC
  5
29B6
  8
AM_0
 10
455.87093737035281
 20
863.774591940292
 30
0.0
 40
10.0
 50
23.57803699999776
 51
156.42196000000081
  0
ARC
  5
29B7
  8
AM_0
 10
455.87093737035281
 20
863.774591940292
 30
0.0
 40
11.0
 50
201.32377999999761
 51
262.81880000000041
  0
ARC
  5
29B8
  8
AM_0
 10
455.87093737035281
 20
863.774591940292
 30
0.0
 40
11.0
 50
97.181195000004124
 51
158.67647999999841
  0
ARC
  5
29B9
  8
AM_0
 10
453.87080737035279
 20
879.6491019402921
 30
0.0
 40
5.0
 50
277.18119999999942
 51
0.0
  0
ARC
  5
29BA
  8
AM_0
 10
472.37093737035281
 20
863.774591940292
 30
0.0
 40
3.9999962
 50
270.0
 51
90.00000299999769
  0
ARC
  5
29BB
  8
AM_0
 10
490.42049737035268
 20
909.455201940292
 30
0.0
 40
3.0
 50
270.0
 51
305.65166999999718
  0
LINE
  5
29BC
  8
AM_0
 10
458.87080737035279
 20
941.34039194029197
 30
0.0
 11
484.87087737035279
 21
941.34039194029197
 31
0.0
  0
LINE
  5
29BD
  8
AM_0
 10
458.87080737035279
 20
915.33911194029201
 30
0.0
 11
484.87087737035279
 21
915.33911194029201
 31
0.0
  0
LINE
  5
29BE
  8
AM_0
 10
455.01045737035281
 20
950.5585919402921
 30
0.0
 11
444.87093737035281
 21
950.2045219402919
 31
0.0
  0
LINE
  5
29BF
  8
AM_0
 10
455.01039737035268
 20
948.1985419402921
 30
0.0
 11
442.87087737035279
 21
947.774591940292
 31
0.0
  0
LINE
  5
29C0
  8
AM_0
 10
444.87093737035281
 20
947.84442194029202
 30
0.0
 11
444.87093737035281
 21
950.20458194029209
 31
0.0
  0
ARC
  5
29C1
  8
AM_0
 10
454.87080737035291
 20
952.19610194029212
 30
0.0
 40
4.0
 50
272.00000000000369
 51
0.0
  0
ARC
  5
29C2
  8
AM_0
 10
454.87080737035291
 20
954.55621194029209
 30
0.0
 40
4.0
 50
272.00000000000369
 51
0.0
  0
LINE
  5
29C3
  8
AM_0
 10
491.37087737035267
 20
941.34039194029197
 30
0.0
 11
491.37087737035267
 21
915.33911194029201
 31
0.0
  0
ARC
  5
29C4
  8
AM_0
 10
484.87087737035279
 20
913.33911194029201
 30
0.0
 40
2.0
 50
0.0
 51
90.00000299999769
  0
ARC
  5
29C5
  8
AM_0
 10
490.8989473703528
 20
941.72082194029213
 30
0.0
 40
2.0
 50
63.199809000002318
 51
90.00000299999769
  0
ARC
  5
29C6
  8
AM_0
 10
484.87087737035279
 20
943.34039194029197
 30
0.0
 40
2.0
 50
270.0
 51
0.0
  0
LINE
  5
29C7
  8
AM_0
 10
401.66145737035271
 20
999.83300194029209
 30
0.0
 11
476.87080737035268
 21
1003.774591940292
 31
0.0
  0
ARC
  5
29C8
  8
AM_0
 10
401.87087737035279
 20
995.83850194029208
 30
0.0
 40
4.0
 50
92.999999000001679
 51
180.00001000000091
  0
LINE
  5
29C9
  8
AM_0
 10
471.87087737035279
 20
992.9049619402922
 30
0.0
 11
484.9407573703528
 21
992.4485419402921
 31
0.0
  0
LINE
  5
29CA
  8
AM_0
 10
460.80110737035278
 20
992.5183719402919
 30
0.0
 11
471.87087737035279
 21
992.9049619402922
 31
0.0
  0
ARC
  5
29CB
  8
AM_0
 10
450.87087737035279
 20
989.48455194029202
 30
0.0
 40
5.0
 50
82.860167000000104
 51
180.00001000000091
  0
LINE
  5
29CC
  8
AM_0
 10
445.87087737035267
 20
1001.169791940291
 30
0.0
 11
445.87087737035267
 21
993.32104194029205
 31
0.0
  0
LINE
  5
29CD
  8
AM_0
 10
458.87080737035279
 20
993.5215419402922
 30
0.0
 11
451.49233737035291
 21
994.44580194029209
 31
0.0
  0
ARC
  5
29CE
  8
AM_0
 10
460.87087737035267
 20
990.519591940292
 30
0.0
 40
2.0
 50
91.999998000000545
 51
180.00001000000091
  0
ARC
  5
29CF
  8
AM_0
 10
461.87080737035279
 20
999.98437194029191
 30
0.0
 40
3.0
 50
92.999999000001679
 51
180.00001000000091
  0
LINE
  5
29D0
  8
AM_0
 10
488.80110737035301
 20
986.3340419402922
 30
0.0
 11
513.40413737035294
 21
985.47485194029207
 31
0.0
  0
LINE
  5
29D1
  8
AM_0
 10
499.68733737035279
 20
999.93798194029193
 30
0.0
 11
509.05440737035292
 21
990.06127194029204
 31
0.0
  0
LINE
  5
29D2
  8
AM_0
 10
491.37087737035267
 20
988.05444194029189
 30
0.0
 11
491.37087737035267
 21
1000.007931940291
 31
0.0
  0
ARC
  5
29D3
  8
AM_0
 10
488.87087737035279
 20
988.33282194029209
 30
0.0
 40
2.0
 50
180.00001000000091
 51
267.99999999999631
  0
ARC
  5
29D4
  8
AM_0
 10
484.87087737035279
 20
990.44976194029209
 30
0.0
 40
2.0
 50
0.0
 51
87.999999999996248
  0
ARC
  5
29D5
  8
AM_0
 10
492.431537370353
 20
993.05657194029197
 30
0.0
 40
10.0
 50
43.482964999999631
 51
87.999999999996248
  0
ARC
  5
29D6
  8
AM_0
 10
516.31020737035294
 20
996.94262194029216
 30
0.0
 40
10.0
 50
223.48296000000141
 51
267.99999999999631
  0
CIRCLE
  5
29D7
  8
AM_0
 10
568.87087737035279
 20
978.77459194029211
 30
0.0
 40
9.5
  0
LINE
  5
29D8
  8
AM_0
 10
541.8708773703529
 20
972.774591940292
 30
0.0
 11
541.8708773703529
 21
978.31842194029207
 31
0.0
  0
LINE
  5
29D9
  8
ﾁｭｳｼﾝｾﾝ1
 10
568.87087737035279
 20
998.27459194029188
 30
0.0
 11
568.87087737035279
 21
959.274591940292
 31
0.0
  0
LINE
  5
29DA
  8
AM_0
 10
589.87087737035267
 20
995.9658219402919
 30
0.0
 11
589.87087737035267
 21
956.58337194029195
 31
0.0
  0
LINE
  5
29DB
  8
AM_0
 10
593.87087737035279
 20
884.77459194029188
 30
0.0
 11
663.8708773703529
 21
884.77459194029188
 31
0.0
  0
LINE
  5
29DC
  8
AM_0
 10
589.87093737035275
 20
886.274591940292
 30
0.0
 11
593.87087737035279
 21
886.274591940292
 31
0.0
  0
ARC
  5
29DD
  8
AM_0
 10
586.8708773703529
 20
903.5319819402921
 30
0.0
 40
3.0
 50
0.0
 51
44.999998000001611
  0
ARC
  5
29DE
  8
AM_0
 10
586.8708773703529
 20
903.5319819402921
 30
0.0
 40
3.0
 50
0.0
 51
45.000001000003799
  0
ARC
  5
29DF
  8
AM_0
 10
586.8708773703529
 20
912.0172119402921
 30
0.0
 40
3.0
 50
180.00001000000091
 51
225.0
  0
ARC
  5
29E0
  8
AM_0
 10
586.8708773703529
 20
912.0172119402921
 30
0.0
 40
3.0
 50
179.9999899999988
 51
225.0
  0
LINE
  5
29E1
  8
AM_0
 10
584.74965737035291
 20
909.89593194029203
 30
0.0
 11
588.99233737035286
 21
905.65325194029208
 31
0.0
  0
ARC
  5
29E2
  8
AM_0
 10
553.8708773703529
 20
954.774591940292
 30
0.0
 40
8.0
 50
0.0
 51
90.00000299999769
  0
ARC
  5
29E3
  8
AM_0
 10
551.87087737035279
 20
972.774591940292
 30
0.0
 40
10.0
 50
180.00001000000091
 51
270.0
  0
LINE
  5
29E4
  8
AM_0
 10
551.87087737035279
 20
962.774591940292
 30
0.0
 11
553.8708773703529
 21
962.774591940292
 31
0.0
  0
ARC
  5
29E5
  8
AM_0
 10
578.8708773703529
 20
944.9753419402922
 30
0.0
 40
5.0
 50
0.0
 51
87.999999999996248
  0
LINE
  5
29E6
  8
AM_0
 10
569.195947370353
 20
950.31628194029201
 30
0.0
 11
579.04543737035306
 21
949.97235194029201
 31
0.0
  0
ARC
  5
29E7
  8
AM_0
 10
569.47505737035306
 20
958.31140194029194
 30
0.0
 40
8.0
 50
192.7707500000011
 51
267.99999999999631
  0
ARC
  5
29E8
  8
AM_0
 10
585.87087737035267
 20
956.58337194029195
 30
0.0
 40
4.0
 50
278.2132199999964
 51
0.0
  0
ARC
  5
29E9
  8
AM_0
 10
586.8708773703529
 20
949.65521194029202
 30
0.0
 40
3.0
 50
98.213209000002095
 51
180.00001000000091
  0
LINE
  5
29EA
  8
AM_0
 10
607.8708773703529
 20
869.77459194029188
 30
0.0
 11
663.8708773703529
 21
869.77459194029188
 31
0.0
  0
LINE
  5
29EB
  8
AM_0
 10
607.8708773703529
 20
857.774591940292
 30
0.0
 11
663.8708773703529
 21
857.774591940292
 31
0.0
  0
ARC
  5
29EC
  8
AM_0
 10
607.8708773703529
 20
863.774591940292
 30
0.0
 40
6.0000037999999991
 50
90.00000299999769
 51
270.0
  0
LINE
  5
29ED
  8
AM_0
 10
607.8708773703529
 20
869.77459194029188
 30
0.0
 11
607.8708773703529
 21
857.774591940292
 31
0.0
  0
LINE
  5
29EE
  8
ﾁｭｳｼﾝｾﾝ1
 10
549.3708773703529
 20
978.77459194029211
 30
0.0
 11
588.3708773703529
 21
978.77459194029211
 31
0.0
  0
ARC
  5
29EF
  8
AM_0
 10
533.8708773703529
 20
978.31842194029207
 30
0.0
 40
8.0
 50
0.0
 51
87.999999999996248
  0
LINE
  5
29F0
  8
AM_0
 10
541.8708773703529
 20
996.32708194029203
 30
0.0
 11
541.8708773703529
 21
978.31842194029207
 31
0.0
  0
ARC
  5
29F1
  8
AM_0
 10
546.8708773703529
 20
996.32708194029203
 30
0.0
 40
5.0
 50
87.999999999996248
 51
180.00001000000091
  0
ARC
  5
29F2
  8
AM_0
 10
585.87087737035267
 20
995.9658219402919
 30
0.0
 40
4.0
 50
0.0
 51
87.999999999996248
  0
ARC
  5
29F3
  8
AM_0
 10
401.87087737035279
 20
768.197580015825
 30
0.0
 40
4.0
 50
95.00009384988816
 51
180.0
1001
GENIUS_GENOBJ-N-FIL_13
1002
{
1000
OWNER
1000
GEN
1002
}
1001
GENIUS_GENODEF_13
1002
{
1000
HIER
1070
     0
1002
}
1002
{
1000
MANEDIT
1070
     0
1002
}
1002
{
1000
NOSEL
1070
     0
1002
}
1002
{
1000
BEHIND
1070
     0
1002
}
1002
{
1000
OTHER
1070
     0
1002
}
1002
{
1000
REACTOR
1002
}
  0
ARC
  5
29F4
  8
AM_0
 10
401.87087737035279
 20
959.35163067745032
 30
0.0
 40
4.0
 50
180.0
 51
264.99986724962071
1001
GENIUS_GENODEF_13
1002
{
1000
HIER
1070
     0
1002
}
1002
{
1000
MANEDIT
1070
     0
1002
}
1002
{
1000
NOSEL
1070
     0
1002
}
1002
{
1000
BEHIND
1070
     0
1002
}
1002
{
1000
OTHER
1070
     0
1002
}
1002
{
1000
REACTOR
1002
}
1001
GENIUS_GENOBJ-N-FIL_13
1002
{
1000
OWNER
1000
GEN
1002
}
  0
LINE
  5
29F5
  8
AM_0
 10
441.87087737035267
 20
775.71247250354816
 30
0.0
 11
455.64440365323952
 21
776.91752264365971
 31
0.0
  0
LINE
  5
29F6
  8
AM_0
 10
441.87087737035267
 20
951.83671058566813
 30
0.0
 11
455.644121778341
 21
950.63167568407016
 31
0.0
  0
LINE
  5
29F7
  8
AM_0
 10
441.87087737035267
 20
859.77459194029188
 30
0.0
 11
441.87087737035267
 21
845.04434211460512
 31
0.0
  0
LINE
  5
29F8
  8
ﾁｭｳｼﾝｾﾝ1
 10
418.87087737035279
 20
998.27459194029188
 30
0.0
 11
418.87087737035279
 21
959.274591940292
 31
0.0
  0
LINE
  5
29F9
  8
ﾁｭｳｼﾝｾﾝ1
 10
399.37087737035279
 20
978.77459194029211
 30
0.0
 11
438.37087737035279
 21
978.77459194029211
 31
0.0
  0
LINE
  5
29FA
  8
ﾁｭｳｼﾝｾﾝ1
 10
418.87087737035279
 20
768.27459194029177
 30
0.0
 11
418.87087737035279
 21
729.274591940292
 31
0.0
  0
LINE
  5
29FB
  8
ﾁｭｳｼﾝｾﾝ1
 10
399.37087737035279
 20
748.774591940292
 30
0.0
 11
438.37087737035279
 21
748.774591940292
 31
0.0
  0
LINE
  5
29FC
  8
ﾁｭｳｼﾝｾﾝ1
 10
568.87087737035279
 20
768.27459194029177
 30
0.0
 11
568.87087737035279
 21
729.274591940292
 31
0.0
  0
LINE
  5
29FD
  8
ﾁｭｳｼﾝｾﾝ1
 10
549.3708773703529
 20
748.774591940292
 30
0.0
 11
588.3708773703529
 21
748.774591940292
 31
0.0
  0
TEXT
  5
2BDF
  8
AM_0
 10
794.27772155390403
 20
894.97580724913519
 30
0.0
 40
20.0
  1
VX22-025G~VX22-030G
  0
ENDSEC
  0
EOF
