  0
SECTION
  2
HEADER
  9
$ACADVER
  1
AC1009
  9
$INSBASE
 10
0.0
 20
0.0
 30
0.0
  9
$EXTMIN
 10
257.60239008651388
 20
302.30107976579262
 30
-0.0000000000112498
  9
$EXTMAX
 10
1166.6340667348511
 20
1016.03736425892
 30
0.0000000000002956
  9
$LIMMIN
 10
0.0
 20
0.0
  9
$LIMMAX
 10
1422.5
 20
925.0
  9
$ORTHOMODE
 70
     0
  9
$REGENMODE
 70
     1
  9
$FILLMODE
 70
     1
  9
$QTEXTMODE
 70
     0
  9
$MIRRTEXT
 70
     1
  9
$DRAGMODE
 70
     2
  9
$LTSCALE
 40
5.0
  9
$OSMODE
 70
   551
  9
$ATTMODE
 70
     1
  9
$TEXTSIZE
 40
2.5
  9
$TRACEWID
 40
1.0
  9
$TEXTSTYLE
  7
STANDARD
  9
$CLAYER
  8
AM_0
  9
$CELTYPE
  6
BYLAYER
  9
$CECOLOR
 62
   256
  9
$DIMSCALE
 40
1.0
  9
$DIMASZ
 40
2.5
  9
$DIMEXO
 40
1.0
  9
$DIMDLI
 40
8.0
  9
$DIMRND
 40
0.0
  9
$DIMDLE
 40
0.0
  9
$DIMEXE
 40
0.6
  9
$DIMTP
 40
0.1
  9
$DIMTM
 40
0.1
  9
$DIMTXT
 40
2.5
  9
$DIMCEN
 40
0.0
  9
$DIMTSZ
 40
0.0
  9
$DIMTOL
 70
     0
  9
$DIMLIM
 70
     0
  9
$DIMTIH
 70
     0
  9
$DIMTOH
 70
     0
  9
$DIMSE1
 70
     0
  9
$DIMSE2
 70
     0
  9
$DIMTAD
 70
     1
  9
$DIMZIN
 70
     8
  9
$DIMBLK
  1

  9
$DIMASO
 70
     1
  9
$DIMSHO
 70
     1
  9
$DIMPOST
  1

  9
$DIMAPOST
  1
"
  9
$DIMALT
 70
     0
  9
$DIMALTD
 70
     2
  9
$DIMALTF
 40
0.0393701
  9
$DIMLFAC
 40
1.0
  9
$DIMTOFL
 70
     1
  9
$DIMTVP
 40
0.0
  9
$DIMTIX
 70
     0
  9
$DIMSOXD
 70
     0
  9
$DIMSAH
 70
     0
  9
$DIMBLK1
  1

  9
$DIMBLK2
  1

  9
$DIMSTYLE
  2
AM_ISO
  9
$DIMCLRD
 70
   256
  9
$DIMCLRE
 70
   256
  9
$DIMCLRT
 70
     4
  9
$DIMTFAC
 40
0.71
  9
$DIMGAP
 40
0.8
  9
$LUNITS
 70
     2
  9
$LUPREC
 70
     2
  9
$SKETCHINC
 40
1.0
  9
$FILLETRAD
 40
4.0
  9
$AUNITS
 70
     0
  9
$AUPREC
 70
     0
  9
$MENU
  1
.
  9
$ELEVATION
 40
0.0
  9
$PELEVATION
 40
0.0
  9
$THICKNESS
 40
0.0
  9
$LIMCHECK
 70
     0
  9
$BLIPMODE
 70
     0
  9
$CHAMFERA
 40
10.0
  9
$CHAMFERB
 40
5.0
  9
$SKPOLY
 70
     0
  9
$TDCREATE
 40
2452066.639319838
  9
$TDUPDATE
 40
2458541.4205166441
  9
$TDINDWG
 40
0.1007521991
  9
$TDUSRTIMER
 40
0.1007521759
  9
$USRTIMER
 70
     1
  9
$ANGBASE
 50
0.0
  9
$ANGDIR
 70
     0
  9
$PDMODE
 70
     0
  9
$PDSIZE
 40
0.0
  9
$PLINEWID
 40
0.0
  9
$COORDS
 70
     1
  9
$SPLFRAME
 70
     0
  9
$SPLINETYPE
 70
     6
  9
$SPLINESEGS
 70
     8
  9
$ATTDIA
 70
     1
  9
$ATTREQ
 70
     1
  9
$HANDLING
 70
     1
  9
$HANDSEED
  5
2C98
  9
$SURFTAB1
 70
     6
  9
$SURFTAB2
 70
     6
  9
$SURFTYPE
 70
     6
  9
$SURFU
 70
     6
  9
$SURFV
 70
     6
  9
$UCSNAME
  2

  9
$UCSORG
 10
0.0
 20
0.0
 30
0.0
  9
$UCSXDIR
 10
1.0
 20
0.0
 30
0.0
  9
$UCSYDIR
 10
0.0
 20
1.0
 30
0.0
  9
$PUCSNAME
  2

  9
$PUCSORG
 10
0.0
 20
0.0
 30
0.0
  9
$PUCSXDIR
 10
1.0
 20
0.0
 30
0.0
  9
$PUCSYDIR
 10
0.0
 20
1.0
 30
0.0
  9
$USERI1
 70
     0
  9
$USERI2
 70
     0
  9
$USERI3
 70
     0
  9
$USERI4
 70
     0
  9
$USERI5
 70
     0
  9
$USERR1
 40
0.0
  9
$USERR2
 40
0.0
  9
$USERR3
 40
0.0
  9
$USERR4
 40
0.0
  9
$USERR5
 40
0.0
  9
$WORLDVIEW
 70
     1
  9
$SHADEDGE
 70
     3
  9
$SHADEDIF
 70
    70
  9
$TILEMODE
 70
     1
  9
$MAXACTVP
 70
    64
  9
$PLIMCHECK
 70
     0
  9
$PEXTMIN
 10
1.0000000000000000E+020
 20
1.0000000000000000E+020
 30
1.0000000000000000E+020
  9
$PEXTMAX
 10
-1.0000000000000000E+020
 20
-1.0000000000000000E+020
 30
-1.0000000000000000E+020
  9
$PLIMMIN
 10
0.0
 20
0.0
  9
$PLIMMAX
 10
420.0
 20
297.0
  9
$UNITMODE
 70
     0
  9
$VISRETAIN
 70
     1
  9
$PLINEGEN
 70
     0
  9
$PSLTSCALE
 70
     1
  0
ENDSEC
  0
SECTION
  2
TABLES
  0
TABLE
  2
VPORT
 70
     1
  0
VPORT
  2
*ACTIVE
 70
     0
 10
0.0
 20
0.0
 11
1.0
 21
1.0
 12
712.11822841068249
 22
659.16922201235627
 13
0.0
 23
0.0
 14
12.5
 24
12.5
 15
50.0
 25
50.0
 16
0.0
 26
0.0
 36
1.0
 17
0.0
 27
0.0
 37
0.0
 40
718.63607591985397
 41
1.7571592210767459
 42
50.0
 43
0.0
 44
0.0
 50
0.0
 51
0.0
 71
     0
 72
   100
 73
     1
 74
     3
 75
     0
 76
     0
 77
     0
 78
     0
  0
ENDTAB
  0
TABLE
  2
LTYPE
 70
    26
  0
LTYPE
  2
CONTINUOUS
 70
     0
  3
Solid line
 72
    65
 73
     0
 40
0.0
  0
LTYPE
  2
AM_ISO02W050
 70
     0
  3
__ __ __ __ __ __ __ __ __ __ __ __ __ __ __
 72
    65
 73
     2
 40
7.5
 49
6.0
 49
-1.5
  0
LTYPE
  2
AM_ISO08W050
 70
     0
  3
____ . ____ . ____ . ____ . ____ . ____ . ____
 72
    65
 73
     4
 40
18.0
 49
12.0
 49
-1.5
 49
3.0
 49
-1.5
  0
LTYPE
  2
AM_ISO09W050
 70
     0
  3
_____ . . _____ . . _____ . . ____ .. ____
 72
    65
 73
     6
 40
22.5
 49
12.0
 49
-1.5
 49
3.0
 49
-1.5
 49
3.0
 49
-1.5
  0
LTYPE
  2
AMCONSTR
 70
     0
  3
_______________________
 72
    65
 73
     2
 40
9999.0
 49
9999.0
 49
0.0
  0
LTYPE
  2
AM_ISO08W050X2
 70
     0
  3
__ . __ . __ . __ . __ . __
 72
    65
 73
     4
 40
9.0
 49
6.0
 49
-0.75
 49
1.5
 49
-0.75
  0
LTYPE
  2
AM_ISO02W050X2
 70
     0
  3
 _ _ _ _ _ _ _ _ _ _ _ _
 72
    65
 73
     2
 40
3.75
 49
3.0
 49
-0.75
  0
LTYPE
  2
AMZIGZAG
 70
     0
  3
/\/-/\/-/\/-/\/-/\/-/\/
 72
    65
 73
     2
 40
11.000099999999991
 49
0.0001
 49
-11.0
  0
LTYPE
  2
ACISOWELD
 70
     0
  3
_ _ _ _ _
 72
    65
 73
     2
 40
2.0
 49
2.0
 49
-1.0
  0
LTYPE
  2
ACISOTGB
 70
     0
  3
__ . . __ . .
 72
    65
 73
     6
 40
9.0
 49
4.0
 49
-1.0
 49
1.0
 49
-1.0
 49
1.0
 49
-1.0
  0
LTYPE
  2
ACISOTGL
 70
     0
  3
_ _ _ _ _
 72
    65
 73
     2
 40
3.0
 49
2.0
 49
-1.0
  0
LTYPE
  2
CENTER
 70
     0
  3
__ . __
 72
    65
 73
     4
 40
7.0
 49
4.0
 49
-1.0
 49
1.0
 49
-1.0
  0
LTYPE
  2
PHANTOM2
 70
     0
  3
Phantom (.5x) ___ _ _ ___ _ _ ___ _ _ ___ _ _
 72
    65
 73
     6
 40
31.75
 49
15.875
 49
-3.174999999999998
 49
3.174999999999998
 49
-3.174999999999998
 49
3.174999999999998
 49
-3.174999999999998
  0
LTYPE
  2
ACANSTGBM
 70
     0
  3
__ . . __ . .
 72
    65
 73
     6
 40
9.0
 49
4.0
 49
-1.0
 49
1.0
 49
-1.0
 49
1.0
 49
-1.0
  0
LTYPE
  2
ACANSTGLM
 70
     0
  3
_ _ _ _ _
 72
    65
 73
     2
 40
3.0
 49
2.0
 49
-1.0
  0
LTYPE
  2
GEN3B
 70
     0
  3
 - - - - -
 72
    65
 73
     2
 40
1.0
 49
0.5
 49
-0.5
  0
LTYPE
  2
GEN7A
 70
     0
  3
__ . __ . __
 72
    65
 73
     4
 40
7.375
 49
4.75
 49
-0.875
 49
0.875
 49
-0.875
  0
LTYPE
  2
ACJISTGB
 70
     0
  3
__ . . __ . .
 72
    65
 73
     6
 40
9.0
 49
4.0
 49
-1.0
 49
1.0
 49
-1.0
 49
1.0
 49
-1.0
  0
LTYPE
  2
ACJISTGL
 70
     0
  3
_ _ _ _ _
 72
    65
 73
     2
 40
3.0
 49
2.0
 49
-1.0
  0
LTYPE
  2
HIDDEN
 70
     0
  3
Hidden __ __ __ __ __ __ __ __ __ __ __ __ __ _
 72
    65
 73
     2
 40
0.375
 49
0.25
 49
-0.125
  0
LTYPE
  2
CENTER2
 70
     0
  3
Center (.5x) ___ _ ___ _ ___ _ ___ _ ___ _ ___
 72
    65
 73
     4
 40
1.125
 49
0.75
 49
-0.125
 49
0.125
 49
-0.125
  0
LTYPE
  2
HIDDEN2
 70
     0
  3
Hidden (.5x) _ _ _ _ _ _ _ _ _ _ _ _ _ _ _ _ _
 72
    65
 73
     2
 40
0.1875
 49
0.125
 49
-0.0625
  0
LTYPE
  2
AMZIGZAG2
 70
     0
  3
/\/-/\/-/\/-/\/-/\/-/\/
 72
    65
 73
     2
 40
0.4401
 49
0.0001
 49
-0.4400000000000002
  0
LTYPE
  2
ACANSTGB
 70
     0
  3
__ . . __ . .
 72
    65
 73
     6
 40
0.35433070866
 49
0.15748031496
 49
-0.03937007874
 49
0.03937007874
 49
-0.03937007874
 49
0.03937007874
 49
-0.03937007874
  0
LTYPE
  2
ACANSTGL
 70
     0
  3
_ _ _ _ _
 72
    65
 73
     2
 40
0.11811023622
 49
0.07874015748
 49
-0.03937007874
  0
ENDTAB
  0
TABLE
  2
LAYER
 70
     6
  0
LAYER
  2
0
 70
     0
 62
     7
  6
CONTINUOUS
  0
LAYER
  2
AM_0
 70
     0
 62
     7
  6
CONTINUOUS
  0
LAYER
  2
AM_5
 70
     0
 62
     2
  6
CONTINUOUS
  0
LAYER
  2
DEFPOINTS
 70
     0
 62
     7
  6
CONTINUOUS
  0
LAYER
  2
ｶｸﾚｾﾝ2
 70
     0
 62
     3
  6
GEN3B
  0
LAYER
  2
ﾁｭｳｼﾝｾﾝ1
 70
     0
 62
     1
  6
GEN7A
  0
ENDTAB
  0
TABLE
  2
STYLE
 70
     9
  0
STYLE
  2
STANDARD
 70
     0
 40
0.0
 41
0.8299999999999999
 50
0.0
 71
     0
 42
2.5
  3
txt.shx
  4
bigfont.shx
  0
STYLE
  2
ANNOTATIVE
 70
     0
 40
0.0
 41
1.0
 50
0.0
 71
     0
 42
0.2
  3
txt
  4

  0
STYLE
  2

 70
     1
 40
0.0
 41
1.0
 50
0.0
 71
     0
 42
2.5
  3
ltypeshp.shx
  4

  0
STYLE
  2
ACISOTS
 70
     0
 40
1.0
 41
1.0
 50
0.0
 71
     0
 42
2.5
  3
isocp.shx
  4
extfont.shx
  0
STYLE
  2
ACISOGDT
 70
     0
 40
0.0
 41
1.0
 50
0.0
 71
     0
 42
2.5
  3
amgdt.shx
  4

  0
STYLE
  2
ACANSTS
 70
     0
 40
1.0
 41
1.0
 50
0.0
 71
     0
 42
2.5
  3
romans.shx
  4
bigfont.shx
  0
STYLE
  2
ACANSGDT
 70
     0
 40
0.0
 41
1.0
 50
0.0
 71
     0
 42
2.5
  3
amgdt.shx
  4

  0
STYLE
  2
ACJISTS
 70
     0
 40
1.0
 41
1.0
 50
0.0
 71
     0
 42
2.5
  3
isocp.shx
  4
bigfont.shx
  0
STYLE
  2
ACJISGDT
 70
     0
 40
0.0
 41
1.0
 50
0.0
 71
     0
 42
2.5
  3
amgdt.shx
  4

  0
ENDTAB
  0
TABLE
  2
VIEW
 70
     6
  0
VIEW
  2
AM_VIEW1
 70
     0
 40
462.5
 10
416.07965009208078
 20
693.75
 41
832.15930018416213
 11
0.0
 21
0.0
 31
1.0
 12
0.0
 22
0.0
 32
0.0
 42
50.0
 43
0.0
 44
0.0
 50
0.0
 71
     0
  0
VIEW
  2
AM_VIEW2
 70
     0
 40
462.5
 10
1006.420349907918
 20
693.75
 41
832.15930018416213
 11
0.0
 21
0.0
 31
1.0
 12
0.0
 22
0.0
 32
0.0
 42
50.0
 43
0.0
 44
0.0
 50
0.0
 71
     0
  0
VIEW
  2
AM_VIEW3
 70
     0
 40
462.5
 10
416.07965009208078
 20
231.25
 41
832.15930018416213
 11
0.0
 21
0.0
 31
1.0
 12
0.0
 22
0.0
 32
0.0
 42
50.0
 43
0.0
 44
0.0
 50
0.0
 71
     0
  0
VIEW
  2
AM_VIEW4
 70
     0
 40
462.5
 10
1006.420349907918
 20
231.25
 41
832.15930018416213
 11
0.0
 21
0.0
 31
1.0
 12
0.0
 22
0.0
 32
0.0
 42
50.0
 43
0.0
 44
0.0
 50
0.0
 71
     0
  0
VIEW
  2
AM_VIEW5
 70
     0
 40
462.5
 10
711.24999999999966
 20
462.5
 41
832.15930018416179
 11
0.0
 21
0.0
 31
1.0
 12
0.0
 22
0.0
 32
0.0
 42
50.0
 43
0.0
 44
0.0
 50
0.0
 71
     0
  0
VIEW
  2
AM_VIEW6
 70
     0
 40
924.99075000000005
 10
711.24999999999966
 20
462.5
 41
1664.3019571823199
 11
0.0
 21
0.0
 31
1.0
 12
0.0
 22
0.0
 32
0.0
 42
50.0
 43
0.0
 44
0.0
 50
0.0
 71
     0
  0
ENDTAB
  0
TABLE
  2
UCS
 70
     0
  0
ENDTAB
  0
TABLE
  2
APPID
 70
    95
  0
APPID
  2
ACAD
 70
     0
  0
APPID
  2
ACADANNOTATIVE
 70
     0
  0
APPID
  2
MCAD_NO_VIS
 70
     0
  0
APPID
  2
ACAD_TEMP_GRAPHIC
 70
     0
  0
APPID
  2
ACATTRIBSERVICES
 70
     0
  0
APPID
  2
GENIUS_GENREC_14
 70
     0
  0
APPID
  2
GENIUS_GENOBJ-N-REC_13
 70
     0
  0
APPID
  2
GENIUS_GENODEF_13
 70
     0
  0
APPID
  2
GENIUS_GENOLIS_13
 70
     0
  0
APPID
  2
GENIUS_GENOBJ-N-TIT_13
 70
     0
  0
APPID
  2
GENIUS_GENOENT_13
 70
     0
  0
APPID
  2
GENIUS_GENTITLE_13
 70
     0
  0
APPID
  2
GENIUS_GENOREF_13
 70
     0
  0
APPID
  2
GENIUS_GENSCREG_15
 70
     0
  0
APPID
  2
GENIUS_GENOBJ-N-SDF_13
 70
     0
  0
APPID
  2
GENIUS_GENFIL_13
 70
     0
  0
APPID
  2
GENIUS_GENOBJ-N-CHA_13
 70
     0
  0
APPID
  2
GENIUS_GENDTOL_13
 70
     0
  0
APPID
  2
GENIUS_GENOBJ-N-FIL_13
 70
     0
  0
APPID
  2
AD_DRAW
 70
     0
  0
APPID
  2
DESIGNERASSEMBLIES
 70
     0
  0
APPID
  2
ASURF_PCURVE_APPNAME
 70
     0
  0
APPID
  2
GENIUS_GE3SECT_13
 70
     0
  0
APPID
  2
GENIUS_GENCFG_13
 70
     0
  0
APPID
  2
GENIUS_GE3CFG0_13
 70
     0
  0
APPID
  2
GENIUS_GENCFG0_13
 70
     0
  0
APPID
  2
GENIUS_GENCFG1_13
 70
     0
  0
APPID
  2
GENIUS_GENCFG2_13
 70
     0
  0
APPID
  2
GENIUS_GENCFG3_13
 70
     0
  0
APPID
  2
GENIUS_GENCFG4_13
 70
     0
  0
APPID
  2
GENIUS_GEVCFG0_13
 70
     0
  0
APPID
  2
GENIUS_GENHINW_13
 70
     0
  0
APPID
  2
GENIUS_FIRSTVISTXT_14
 70
     0
  0
APPID
  2
GENIUS_GENOBJ-N-LEADER_13
 70
     0
  0
APPID
  2
GEV_VCCNULL_SWITCH_OFF
 70
     0
  0
APPID
  2
GENIUS_GEFCFG0_13
 70
     0
  0
APPID
  2
GENIUS_GENZVEED_13
 70
     0
  0
APPID
  2
GENIUS_GENSCREG_13
 70
     0
  0
APPID
  2
GENIUS_DUMCFG0_13
 70
     0
  0
APPID
  2
GEVID936201362
 70
     0
  0
APPID
  2
GEVDC
 70
     0
  0
APPID
  2
GEVCON
 70
     0
  0
APPID
  2
VCC
 70
     0
  0
APPID
  2
GEVPT
 70
     0
  0
APPID
  2
GEVIT
 70
     0
  0
APPID
  2
GENBH
 70
     0
  0
APPID
  2
GEVMK
 70
     0
  0
APPID
  2
GENIUS_GENBH_13
 70
     0
  0
APPID
  2
GENIUS_GENOBJ-NBEHI-BHF_13
 70
     0
  0
APPID
  2
GENIUS_GENOBJ-NBEHI-BHB_13
 70
     0
  0
APPID
  2
GENIUS_GENOBJ-F-DESC_13
 70
     0
  0
APPID
  2
GENIUS_GEFDESC_14
 70
     0
  0
APPID
  2
GENIUS_GENOBJ-F-PART_13
 70
     0
  0
APPID
  2
GENIUS_GEFSTDP_13
 70
     0
  0
APPID
  2
GENIUS_GEFPARTINS_13
 70
     0
  0
APPID
  2
GENIUS_GENTRA_14
 70
     0
  0
APPID
  2
GENIUS_GENINF13_13
 70
     0
  0
APPID
  2
GENIUS_GENOBJ-N-INFOPT_13
 70
     0
  0
APPID
  2
GENIUS_GENOBJ-N-RSSYM_13
 70
     0
  0
APPID
  2
GENIUS_GENSYMENT_13
 70
     0
  0
APPID
  2
GENIUS_GENSCSYM_13
 70
     0
  0
APPID
  2
GENIUS_GEFINFNAM_13
 70
     0
  0
APPID
  2
GENIUS_GENOBJ-N-CEN_13
 70
     0
  0
APPID
  2
GENIUS_GENOBJ-N-CRS_13
 70
     0
  0
APPID
  2
GENIUS_GENOBJ-N-CRC_13
 70
     0
  0
APPID
  2
GENIUS_GENCRC_14
 70
     0
  0
APPID
  2
GEVID942827039
 70
     0
  0
APPID
  2
GEVID942827040
 70
     0
  0
APPID
  2
GEVID942827041
 70
     0
  0
APPID
  2
GENIUS_GENOBJ-F-SCPASSM_13
 70
     0
  0
APPID
  2
GENIUS_GENDIMSH_14
 70
     0
  0
APPID
  2
GEVID942827042
 70
     0
  0
APPID
  2
GEVID946020473
 70
     0
  0
APPID
  2
GEVID946020474
 70
     0
  0
APPID
  2
GEVID946020475
 70
     0
  0
APPID
  2
GENIUS_GENOBJ-N-HTC_13
 70
     0
  0
APPID
  2
GENIUS_GENHATCH_13
 70
     0
  0
APPID
  2
GEVID948854295
 70
     0
  0
APPID
  2
GEVID939402019
 70
     0
  0
APPID
  2
GEVID952919491
 70
     0
  0
APPID
  2
GEVID952919492
 70
     0
  0
APPID
  2
GENIUS_GEFWELD_13
 70
     0
  0
APPID
  2
GENIUS_GENOBJ-F-WELS_13
 70
     0
  0
APPID
  2
GEVID952919493
 70
     0
  0
APPID
  2
GENIUS_GENOBJ-N-RSBK_13
 70
     0
  0
APPID
  2
GENIUS_GENOBJ-N-LIB_13
 70
     0
  0
APPID
  2
GENIUS_GENSCALE_13
 70
     0
  0
APPID
  2
GEVID986376691
 70
     0
  0
APPID
  2
DCO15
 70
     0
  0
APPID
  2
ACAD_DSTYLE_DIMBREAK
 70
     0
  0
APPID
  2
ACAD_DSTYLE_DIMJAG
 70
     0
  0
APPID
  2
ACAD_NAV_VCDISPLAY
 70
     0
  0
APPID
  2
ACADANNOPO
 70
     0
  0
APPID
  2
ACAD_EXEMPT_FROM_CAD_STANDARDS
 70
     0
  0
APPID
  2
ACAD_MLEADERVER
 70
     0
  0
ENDTAB
  0
TABLE
  2
DIMSTYLE
 70
    22
  0
DIMSTYLE
  2
STANDARD
 70
     0
  3

  4

  5

  6

  7

 40
1.0
 41
0.18
 42
0.0625
 43
0.38
 44
0.18
 45
0.0
 46
0.0
 47
0.0
 48
0.0
140
0.18
141
0.09
142
0.0
143
25.399999999999999
144
1.0
145
0.0
146
1.0
147
0.09
 71
     0
 72
     0
 73
     1
 74
     1
 75
     0
 76
     0
 77
     0
 78
     0
170
     0
171
     2
172
     0
173
     0
174
     0
175
     0
176
     0
177
     0
178
     0
  0
DIMSTYLE
  2
ANNOTATIVE
 70
     0
  3

  4

  5

  6

  7

 40
1.0
 41
0.18
 42
0.0625
 43
0.38
 44
0.18
 45
0.0
 46
0.0
 47
0.0
 48
0.0
140
0.18
141
0.09
142
0.0
143
25.399999999999999
144
1.0
145
0.0
146
1.0
147
0.09
 71
     0
 72
     0
 73
     1
 74
     1
 75
     0
 76
     0
 77
     0
 78
     0
170
     0
171
     2
172
     0
173
     0
174
     0
175
     0
176
     0
177
     0
178
     0
  0
DIMSTYLE
  2
AM_ISO
 70
     0
  3

  4
"
  5

  6

  7

 40
1.0
 41
2.5
 42
1.0
 43
8.0
 44
0.6
 45
0.0
 46
0.0
 47
0.1
 48
0.1
140
2.5
141
0.0
142
0.0
143
0.0393701
144
1.0
145
0.0
146
0.71
147
0.8
 71
     0
 72
     0
 73
     0
 74
     0
 75
     0
 76
     0
 77
     1
 78
     8
170
     0
171
     2
172
     1
173
     0
174
     0
175
     0
176
   256
177
   256
178
     4
  0
DIMSTYLE
  2
AM_ISO$3
 70
     0
  3

  4
"
  5

  6

  7

 40
1.0
 41
2.5
 42
1.0
 43
8.0
 44
0.6
 45
0.0
 46
0.0
 47
0.1
 48
0.1
140
2.5
141
0.0
142
0.0
143
0.0393701
144
1.0
145
0.0
146
0.71
147
0.8
 71
     0
 72
     0
 73
     0
 74
     1
 75
     0
 76
     0
 77
     1
 78
     8
170
     0
171
     2
172
     0
173
     0
174
     0
175
     0
176
   256
177
   256
178
     4
  0
DIMSTYLE
  2
AM_ISO$4
 70
     0
  3

  4
"
  5

  6

  7

 40
1.0
 41
2.5
 42
1.0
 43
8.0
 44
0.6
 45
0.0
 46
0.0
 47
0.1
 48
0.1
140
2.5
141
0.0
142
0.0
143
0.0393701
144
1.0
145
0.0
146
0.71
147
0.8
 71
     0
 72
     0
 73
     0
 74
     1
 75
     0
 76
     0
 77
     1
 78
     8
170
     0
171
     2
172
     0
173
     0
174
     0
175
     0
176
   256
177
   256
178
     4
  0
DIMSTYLE
  2
AM_ISO$6
 70
     0
  3

  4
"
  5

  6

  7

 40
1.0
 41
2.5
 42
1.0
 43
8.0
 44
0.6
 45
0.0
 46
0.0
 47
0.1
 48
0.1
140
2.5
141
0.0
142
0.0
143
0.0393701
144
1.0
145
0.0
146
0.71
147
0.8
 71
     0
 72
     0
 73
     0
 74
     0
 75
     0
 76
     0
 77
     0
 78
     8
170
     0
171
     2
172
     1
173
     0
174
     0
175
     0
176
   256
177
   256
178
     4
  0
DIMSTYLE
  2
AM_ISO$7
 70
     0
  3

  4
"
  5

  6

  7

 40
1.0
 41
2.5
 42
1.0
 43
8.0
 44
0.6
 45
0.0
 46
0.0
 47
0.1
 48
0.1
140
2.5
141
0.0
142
0.0
143
0.0393701
144
1.0
145
0.0
146
0.71
147
0.8
 71
     0
 72
     0
 73
     0
 74
     0
 75
     0
 76
     0
 77
     1
 78
     8
170
     0
171
     2
172
     1
173
     0
174
     0
175
     0
176
   256
177
   256
178
     4
  0
DIMSTYLE
  2
AM_ISO$SF
 70
     0
  3

  4
"
  5

  6

  7

 40
1.0
 41
2.5
 42
1.0
 43
10.0
 44
1.0
 45
0.0
 46
0.0
 47
0.1
 48
0.1
140
3.5
141
0.0
142
0.0
143
0.0393701
144
1.0
145
0.0
146
0.71
147
1.5
 71
     0
 72
     0
 73
     0
 74
     0
 75
     1
 76
     1
 77
     1
 78
     8
170
     0
171
     2
172
     1
173
     0
174
     0
175
     0
176
   256
177
   256
178
     2
  0
DIMSTYLE
  2
AM_ISO$SH
 70
     0
  3

  4
"
  5

  6

  7

 40
1.0
 41
2.5
 42
1.0
 43
10.0
 44
1.0
 45
0.0
 46
0.0
 47
0.1
 48
0.1
140
3.5
141
0.0
142
0.0
143
0.0393701
144
2.0
145
0.0
146
0.71
147
1.5
 71
     0
 72
     0
 73
     0
 74
     0
 75
     1
 76
     1
 77
     1
 78
     8
170
     0
171
     2
172
     1
173
     1
174
     0
175
     0
176
   256
177
   256
178
     2
  0
DIMSTYLE
  2
AM_JIS
 70
     0
  3

  4
"
  5

  6

  7

 40
1.0
 41
2.5
 42
1.0
 43
7.0
 44
1.0
 45
0.0
 46
0.0
 47
0.1
 48
0.1000000001
140
2.5
141
0.0
142
0.0
143
0.0393701
144
1.0
145
0.0
146
0.71
147
1.0
 71
     0
 72
     0
 73
     0
 74
     0
 75
     0
 76
     0
 77
     3
 78
     8
170
     0
171
     2
172
     1
173
     0
174
     0
175
     0
176
   256
177
   256
178
     4
  0
DIMSTYLE
  2
AM_JIS$3
 70
     0
  3

  4
"
  5

  6

  7

 40
1.0
 41
2.5
 42
1.0
 43
7.0
 44
1.0
 45
0.0
 46
0.0
 47
0.1
 48
0.1000000001
140
2.5
141
0.0
142
0.0
143
0.0393701
144
1.0
145
0.0
146
0.71
147
1.0
 71
     0
 72
     0
 73
     0
 74
     1
 75
     0
 76
     0
 77
     3
 78
     8
170
     0
171
     2
172
     0
173
     0
174
     0
175
     0
176
   256
177
   256
178
     4
  0
DIMSTYLE
  2
AM_JIS$4
 70
     0
  3

  4
"
  5

  6

  7

 40
1.0
 41
2.5
 42
1.0
 43
7.0
 44
1.0
 45
0.0
 46
0.0
 47
0.1
 48
0.1000000001
140
2.5
141
0.0
142
0.0
143
0.0393701
144
1.0
145
0.0
146
0.71
147
1.0
 71
     0
 72
     0
 73
     0
 74
     0
 75
     0
 76
     0
 77
     3
 78
     8
170
     0
171
     2
172
     0
173
     0
174
     0
175
     0
176
   256
177
   256
178
     4
  0
DIMSTYLE
  2
AM_JIS$6
 70
     0
  3

  4
"
  5

  6

  7

 40
1.0
 41
2.5
 42
1.0
 43
7.0
 44
1.0
 45
0.0
 46
0.0
 47
0.1
 48
0.1000000001
140
2.5
141
0.0
142
0.0
143
0.0393701
144
1.0
145
0.0
146
0.71
147
1.0
 71
     0
 72
     0
 73
     0
 74
     0
 75
     0
 76
     0
 77
     0
 78
     8
170
     0
171
     2
172
     1
173
     0
174
     0
175
     0
176
   256
177
   256
178
     4
  0
DIMSTYLE
  2
AM_JIS$7
 70
     0
  3

  4
"
  5

  6

  7

 40
1.0
 41
2.5
 42
1.0
 43
7.0
 44
1.0
 45
0.0
 46
0.0
 47
0.1
 48
0.1000000001
140
2.5
141
0.0
142
0.0
143
0.0393701
144
1.0
145
0.0
146
0.71
147
1.0
 71
     0
 72
     0
 73
     0
 74
     0
 75
     0
 76
     0
 77
     3
 78
     8
170
     0
171
     2
172
     1
173
     0
174
     0
175
     0
176
   256
177
   256
178
     4
  0
DIMSTYLE
  2
AM_JIS$SF
 70
     0
  3

  4
"
  5

  6

  7

 40
1.0
 41
2.5
 42
1.0
 43
10.0
 44
1.0
 45
0.0
 46
0.0
 47
0.1
 48
0.1
140
3.5
141
0.0
142
0.0
143
0.0393701
144
1.0
145
0.0
146
0.71
147
1.5
 71
     0
 72
     0
 73
     0
 74
     0
 75
     1
 76
     1
 77
     3
 78
     8
170
     0
171
     2
172
     1
173
     0
174
     0
175
     0
176
   256
177
   256
178
     4
  0
DIMSTYLE
  2
AM_JIS$SH
 70
     0
  3

  4
"
  5

  6

  7

 40
1.0
 41
2.5
 42
1.0
 43
10.0
 44
1.0
 45
0.0
 46
0.0
 47
0.1
 48
0.1
140
3.5
141
0.0
142
0.0
143
0.0393701
144
1.0
145
0.0
146
0.71
147
1.5
 71
     0
 72
     0
 73
     0
 74
     0
 75
     1
 76
     0
 77
     3
 78
     8
170
     0
171
     2
172
     1
173
     1
174
     0
175
     0
176
   256
177
   256
178
     4
  0
DIMSTYLE
  2
AM_ANSI
 70
     0
  3

  4
mm
  5

  6

  7

 40
1.0
 41
0.1
 42
0.05
 43
0.5
 44
0.1
 45
0.0
 46
0.0
 47
0.1
 48
0.1
140
0.12
141
0.0
142
0.0
143
25.399999999999999
144
1.0
145
0.0
146
0.71
147
0.06
 71
     0
 72
     0
 73
     1
 74
     1
 75
     0
 76
     0
 77
     0
 78
     7
170
     0
171
     2
172
     0
173
     0
174
     0
175
     0
176
   256
177
   256
178
     2
  0
DIMSTYLE
  2
AM_ANSI$3
 70
     0
  3

  4
mm
  5

  6

  7

 40
1.0
 41
0.1
 42
0.05
 43
0.5
 44
0.1
 45
0.0
 46
0.0
 47
0.1
 48
0.1
140
0.12
141
0.0
142
0.0
143
25.399999999999999
144
1.0
145
0.0
146
0.71
147
0.06
 71
     0
 72
     0
 73
     1
 74
     1
 75
     0
 76
     0
 77
     0
 78
     7
170
     0
171
     2
172
     0
173
     0
174
     0
175
     0
176
   256
177
   256
178
     2
  0
DIMSTYLE
  2
AM_ANSI$4
 70
     0
  3

  4
mm
  5

  6

  7

 40
1.0
 41
0.1
 42
0.05
 43
0.5
 44
0.1
 45
0.0
 46
0.0
 47
0.1
 48
0.1
140
0.12
141
0.0
142
0.0
143
25.399999999999999
144
1.0
145
0.0
146
0.71
147
0.06
 71
     0
 72
     0
 73
     1
 74
     1
 75
     0
 76
     0
 77
     0
 78
     7
170
     0
171
     2
172
     0
173
     0
174
     0
175
     0
176
   256
177
   256
178
     2
  0
DIMSTYLE
  2
AM_ANSI$7
 70
     0
  3

  4
mm
  5

  6

  7

 40
1.0
 41
0.1
 42
0.05
 43
0.5
 44
0.1
 45
0.0
 46
0.0
 47
0.1
 48
0.1
140
0.24
141
0.0
142
0.0
143
25.399999999999999
144
1.0
145
0.0
146
0.71
147
0.06
 71
     0
 72
     0
 73
     1
 74
     1
 75
     0
 76
     0
 77
     0
 78
     7
170
     0
171
     2
172
     0
173
     0
174
     0
175
     0
176
   256
177
   256
178
     2
  0
DIMSTYLE
  2
AM_ANSI$SF
 70
     0
  3

  4
mm
  5

  6

  7

 40
1.0
 41
0.1
 42
0.05
 43
0.5
 44
0.1
 45
0.0
 46
0.0
 47
0.1
 48
0.1
140
0.12
141
0.0
142
0.0
143
25.399999999999999
144
1.0
145
0.0
146
0.71
147
0.06
 71
     0
 72
     0
 73
     1
 74
     1
 75
     1
 76
     1
 77
     0
 78
     7
170
     0
171
     2
172
     0
173
     0
174
     0
175
     0
176
   256
177
   256
178
     2
  0
DIMSTYLE
  2
AM_ANSI$SH
 70
     0
  3

  4
mm
  5

  6

  7

 40
1.0
 41
0.1
 42
0.05
 43
0.5
 44
0.1
 45
0.0
 46
0.0
 47
0.1
 48
0.1
140
0.12
141
0.0
142
0.0
143
25.399999999999999
144
1.0
145
0.0
146
0.71
147
0.06
 71
     0
 72
     0
 73
     1
 74
     1
 75
     1
 76
     1
 77
     0
 78
     7
170
     0
171
     2
172
     0
173
     1
174
     0
175
     0
176
   256
177
   256
178
     2
  0
ENDTAB
  0
ENDSEC
  0
SECTION
  2
BLOCKS
  0
BLOCK
  8
0
  2
$MODEL_SPACE
 70
     0
 10
0.0
 20
0.0
 30
0.0
  3
$MODEL_SPACE
  1

  0
ENDBLK
  5
2B0A
  8
0
  0
BLOCK
 67
     1
  8
0
  2
$PAPER_SPACE
 70
     0
 10
0.0
 20
0.0
 30
0.0
  3
$PAPER_SPACE
  1

  0
ENDBLK
  5
2B06
 67
     1
  8
0
  0
BLOCK
  8
0
  2
GENAXEH
 70
     0
 10
0.0
 20
0.0
 30
0.0
  3
GENAXEH
  1

  0
LINE
  5
2850
  8
0
 10
-1.0
 20
0.0
 30
0.0
 11
1.0
 21
0.0
 31
0.0
  0
ENDBLK
  5
2851
  8
0
  0
BLOCK
  8
0
  2
_OPEN30
 70
     0
 10
0.0
 20
0.0
 30
0.0
  3
_OPEN30
  1

  0
LINE
  5
2854
  8
0
 62
     0
 10
-1.0
 20
0.26794919
 30
0.0
 11
0.0
 21
0.0
 31
0.0
  0
LINE
  5
2855
  8
0
 62
     0
 10
0.0
 20
0.0
 30
0.0
 11
-1.0
 21
-0.26794919
 31
0.0
  0
LINE
  5
2856
  8
0
 62
     0
 10
0.0
 20
0.0
 30
0.0
 11
-1.0
 21
0.0
 31
0.0
  0
ENDBLK
  5
2857
  8
0
  0
BLOCK
  8
0
  2
_NONE
 70
     0
 10
0.0
 20
0.0
 30
0.0
  3
_NONE
  1

  0
ENDBLK
  5
285A
  8
0
  0
BLOCK
  8
0
  2
*U5
 70
     1
 10
0.0
 20
0.0
 30
0.0
  3
*U5
  1

  0
TEXT
  5
285D
  8
AM_0
 62
     4
 10
1206.6849531448299
 20
372.50817353806877
 30
0.0
 40
12.5
  1
175
 50
90.0
 41
0.8299999999999999
  0
TEXT
  5
285E
  8
AM_0
 62
     3
 10
1194.851619811496
 20
400.17484020473569
 30
0.0
 40
8.875
  1
 0
 50
90.0
 41
0.8299999999999999
  0
TEXT
  5
285F
  8
AM_0
 62
     3
 10
1206.6849531448299
 20
400.17484020473569
 30
0.0
 40
8.875
  1
-0.5
 50
90.0
 41
0.8299999999999999
  0
ENDBLK
  5
2860
  8
0
  0
BLOCK
  8
0
  2
_ACMFILLEDHALF
 70
     0
 10
0.0
 20
0.0
 30
0.0
  3
_ACMFILLEDHALF
  1

  0
TRACE
  5
2C02
  8
AM_0
 62
     0
 10
-0.8
 20
0.0
 30
0.0
 11
-1.0
 21
0.166666666
 31
0.0
 12
0.0
 22
0.0
 32
0.0
 13
0.0
 23
0.0
 33
0.0
  0
LINE
  5
2C03
  8
AM_0
 62
     0
 10
-1.0
 20
0.0
 30
0.0
 11
-0.8
 21
0.0
 31
0.0
  0
ENDBLK
  5
2C01
  8
0
  0
ENDSEC
  0
SECTION
  2
ENTITIES
  0
ARC
  5
2861
  8
AM_0
 10
499.10710034815651
 20
464.28881020473523
 30
0.0
 40
3.0000000500000001
 50
270.0
 51
0.0
  0
LINE
  5
2862
  8
AM_0
 10
507.5038003481568
 20
466.76457520473542
 30
0.0
 11
519.64250034815632
 21
452.85118520473537
 31
0.0
  0
LINE
  5
2863
  8
AM_0
 10
304.60710034815651
 20
421.27703020473552
 30
0.0
 11
304.60710034815651
 21
471.27703020473552
 31
0.0
  0
LINE
  5
2864
  8
AM_0
 10
474.10710034815651
 20
351.05122520473537
 30
0.0
 11
474.10710034815651
 21
573.89172520473562
 31
0.0
  0
LINE
  5
2865
  8
AM_0
 10
460.10715034815661
 20
334.8294552047355
 30
0.0
 11
460.10715034815661
 21
544.89637520473536
 31
0.0
  0
LINE
  5
2866
  8
AM_0
 10
605.10715034815655
 20
484.27703020473541
 30
0.0
 11
605.10715034815655
 21
450.51967520473528
 31
0.0
  0
LINE
  5
2867
  8
AM_0
 10
577.10710034815645
 20
387.87489520473542
 30
0.0
 11
577.10710034815645
 21
560.12242520473535
 31
0.0
  0
LINE
  5
2868
  8
AM_0
 10
599.10710034815645
 20
484.27703020473541
 30
0.0
 11
599.10710034815645
 21
338.02303020473551
 31
0.0
  0
LINE
  5
2869
  8
AM_0
 10
557.10710034815656
 20
518.44987520473535
 30
0.0
 11
557.10710034815656
 21
342.27705520473529
 31
0.0
  0
LINE
  5
286A
  8
AM_0
 10
487.10710034815628
 20
367.82543020473543
 30
0.0
 11
487.10710034815628
 21
576.27702520473554
 31
0.0
  0
LINE
  5
286B
  8
AM_0
 10
609.10710034815645
 20
461.77703020473541
 30
0.0
 11
609.10710034815645
 21
506.77703020473558
 31
0.0
  0
LINE
  5
286C
  8
AM_0
 10
347.59671234815659
 20
486.27703020473541
 30
0.0
 11
347.59671234815659
 21
406.2770302047353
 31
0.0
  0
LINE
  5
286D
  8
AM_0
 10
315.26735434815618
 20
485.2770302047353
 30
0.0
 11
315.26735434815618
 21
407.27703020473541
 31
0.0
  0
LINE
  5
286E
  8
AM_0
 10
306.60710034815651
 20
410.43173120473551
 30
0.0
 11
306.60710034815651
 21
482.12232920473542
 31
0.0
  0
LINE
  5
286F
  8
AM_0
 10
408.10710034815628
 20
362.27703020473541
 30
0.0
 11
408.10710034815628
 21
543.27703020473575
 31
0.0
  0
LINE
  5
2870
  8
AM_0
 10
265.60710034815639
 20
458.27703020473552
 30
0.0
 11
301.60710034815639
 21
458.27703020473552
 31
0.0
  0
LINE
  5
2871
  8
AM_0
 10
265.60710034815639
 20
434.27703020473541
 30
0.0
 11
301.60710034815639
 21
434.27703020473541
 31
0.0
  0
LINE
  5
2872
  8
AM_0
 10
265.60710034815639
 20
461.27703020473541
 30
0.0
 11
293.60710034815651
 21
461.27703020473541
 31
0.0
  0
LINE
  5
2873
  8
ﾁｭｳｼﾝｾﾝ1
 10
257.65653819910227
 20
446.27703020473552
 30
0.0
 11
456.82468512224278
 21
446.27703020473552
 31
0.0
  0
LINE
  5
2874
  8
AM_0
 10
265.60710034815639
 20
458.27703020473552
 30
0.0
 11
265.60710034815639
 21
434.27703020473541
 31
0.0
  0
LINE
  5
2875
  8
AM_0
 10
265.60710034815639
 20
458.27703020473552
 30
0.0
 11
265.60710034815639
 21
461.27703020473541
 31
0.0
  0
LINE
  5
2876
  8
AM_0
 10
413.10705034815658
 20
309.27702520473542
 30
0.0
 11
605.10715034815655
 21
309.27702520473542
 31
0.0
  0
LINE
  5
2877
  8
AM_0
 10
491.05915034815661
 20
372.92485520473542
 30
0.0
 11
463.50920034815681
 21
337.37642020473533
 31
0.0
  0
LINE
  5
2878
  8
AM_0
 10
487.10710034815628
 20
429.66673520473552
 30
0.0
 11
499.10710034815651
 21
429.66673520473552
 31
0.0
  0
LINE
  5
2879
  8
AM_0
 10
487.10710034815628
 20
461.28881020473551
 30
0.0
 11
499.10710034815651
 21
461.28881020473551
 31
0.0
  0
LINE
  5
287A
  8
ｶｸﾚｾﾝ2
 10
443.60710034815651
 20
334.27702520473542
 30
0.0
 11
443.60710034815651
 21
309.27702520473542
 31
0.0
  0
LINE
  5
287B
  8
ｶｸﾚｾﾝ2
 10
424.60710034815628
 20
334.27702520473542
 30
0.0
 11
424.60710034815628
 21
309.27702520473542
 31
0.0
  0
LINE
  5
287C
  8
AM_0
 10
413.10705034815658
 20
330.27705520473518
 30
0.0
 11
413.10705034815658
 21
309.27702520473542
 31
0.0
  0
LINE
  5
287D
  8
ﾁｭｳｼﾝｾﾝ1
 10
434.10710034815651
 20
338.78493020473547
 30
0.0
 11
434.10710034815651
 21
304.38539520473552
 31
0.0
  0
LINE
  5
287E
  8
AM_0
 10
405.60710034815651
 20
370.22040620473541
 30
0.0
 11
349.38846734815672
 21
402.67824920473538
 31
0.0
  0
LINE
  5
287F
  8
AM_0
 10
317.33598034815668
 20
404.24092220473528
 30
0.0
 11
345.52808634815648
 21
403.74882720473551
 31
0.0
  0
LINE
  5
2880
  8
AM_0
 10
307.60710034815651
 20
408.69968020473527
 30
0.0
 11
313.47559934815649
 21
405.31150020473558
 31
0.0
  0
ARC
  5
2881
  8
AM_0
 10
317.47559934815632
 20
412.23970420473557
 30
0.0
 40
8.0
 50
239.9999999999998
 51
268.99999999999812
  0
LINE
  5
2882
  8
AM_0
 10
304.60710034815651
 20
421.27703020473552
 30
0.0
 11
306.60710034815651
 21
419.27703020473541
 31
0.0
  0
ARC
  5
2883
  8
AM_0
 10
308.60710034815651
 20
410.43173120473551
 30
0.0
 40
2.0
 50
180.0
 51
239.9999999999998
  0
LINE
  5
2884
  8
AM_0
 10
293.60710034815651
 20
458.27703020473552
 30
0.0
 11
293.60710034815651
 21
461.27703020473541
 31
0.0
  0
LINE
  5
2885
  8
AM_0
 10
301.60710034815639
 20
458.77703020473552
 30
0.0
 11
301.60710034815639
 21
433.77703020473552
 31
0.0
  0
LINE
  5
2886
  8
AM_0
 10
301.60710034815639
 20
433.77703020473552
 30
0.0
 11
304.60710034815651
 21
433.77703020473552
 31
0.0
  0
LINE
  5
2887
  8
AM_0
 10
301.60710034815639
 20
458.77703020473552
 30
0.0
 11
304.60710034815651
 21
458.77703020473552
 31
0.0
  0
ARC
  5
2888
  8
AM_0
 10
345.38846734815672
 20
395.7500452047355
 30
0.0
 40
8.0
 50
59.999999999999851
 51
88.999999999998224
  0
ARC
  5
2889
  8
AM_0
 10
455.10715034815661
 20
385.42409020473542
 30
0.0
 40
5.0
 50
0.0
 51
90.000003000000007
  0
LINE
  5
288A
  8
AM_0
 10
422.10710034815651
 20
420.5301242047355
 30
0.0
 11
422.10710034815651
 21
386.35813020473552
 31
0.0
  0
LINE
  5
288B
  8
AM_0
 10
423.10710034815651
 20
362.77705520473518
 30
0.0
 11
456.24665034815661
 21
361.61980020473538
 31
0.0
  0
LINE
  5
288C
  8
AM_0
 10
417.10705034815658
 20
334.27702520473542
 30
0.0
 11
457.18580034815648
 21
334.27702520473542
 31
0.0
  0
ARC
  5
288D
  8
AM_0
 10
417.10705034815658
 20
330.27705520473518
 30
0.0
 40
4.000000049999997
 50
90.000003000000007
 51
180.00001
  0
ARC
  5
288E
  8
AM_0
 10
403.10710034815651
 20
365.89027920473558
 30
0.0
 40
5.0
 50
0.0
 51
59.999999999999851
  0
LINE
  5
288F
  8
AM_0
 10
422.10710034815651
 20
360.27703020473541
 30
0.0
 11
410.10710034815651
 21
360.27703020473541
 31
0.0
  0
ARC
  5
2890
  8
AM_0
 10
410.10710034815651
 20
362.27703020473541
 30
0.0
 40
2.0
 50
180.0
 51
270.0
  0
LINE
  5
2891
  8
AM_0
 10
422.10710034815651
 20
360.27703020473541
 30
0.0
 11
423.10710034815651
 21
361.27703020473541
 31
0.0
  0
LINE
  5
2892
  8
AM_0
 10
420.10710034815651
 20
384.3581302047354
 30
0.0
 11
410.10710034815651
 21
384.3581302047354
 31
0.0
  0
ARC
  5
2893
  8
AM_0
 10
410.10710034815651
 20
386.35813020473552
 30
0.0
 40
2.0
 50
180.0
 51
270.0
  0
ARC
  5
2894
  8
AM_0
 10
420.10710034815651
 20
386.35813020473552
 30
0.0
 40
2.0
 50
270.0
 51
0.0
  0
ARC
  5
2895
  8
AM_0
 10
457.18580034815648
 20
342.27705520473529
 30
0.0
 40
8.0
 50
270.0
 51
322.22431999999992
  0
ARC
  5
2896
  8
AM_0
 10
456.10710034815651
 20
357.6222102047355
 30
0.0
 40
4.000000049999997
 50
0.0
 51
88.0
  0
LINE
  5
2897
  8
AM_0
 10
425.10715034815672
 20
415.16661520473531
 30
0.0
 11
455.10715034815661
 21
415.16661520473531
 31
0.0
  0
LINE
  5
2898
  8
AM_0
 10
425.10715034815672
 20
390.42409020473542
 30
0.0
 11
455.10715034815661
 21
390.42409020473542
 31
0.0
  0
LINE
  5
2899
  8
AM_0
 10
425.10715034815672
 20
403.41448020473553
 30
0.0
 11
460.10715034815661
 21
403.41448020473553
 31
0.0
  0
LINE
  5
289A
  8
AM_0
 10
425.10715034815672
 20
390.42409020473542
 30
0.0
 11
425.10715034815672
 21
415.16661520473531
 31
0.0
  0
LINE
  5
289B
  8
AM_0
 10
409.10710034815628
 20
420.5301242047355
 30
0.0
 11
421.10710034815628
 21
420.5301242047355
 31
0.0
  0
LINE
  5
289C
  8
AM_0
 10
410.10710034815651
 20
410.33889220473537
 30
0.0
 11
420.10710034815651
 21
410.33889220473537
 31
0.0
  0
ARC
  5
289D
  8
AM_0
 10
410.10710034815651
 20
412.33889220473537
 30
0.0
 40
2.0
 50
180.0
 51
270.0
  0
ARC
  5
289E
  8
AM_0
 10
420.10710034815651
 20
412.33889220473537
 30
0.0
 40
2.0
 50
270.0
 51
0.0
  0
ARC
  5
289F
  8
AM_0
 10
455.10715034815661
 20
420.16661520473542
 30
0.0
 40
5.0
 50
270.0
 51
0.0
  0
LINE
  5
28A0
  8
AM_0
 10
474.10710034815651
 20
431.26525020473542
 30
0.0
 11
487.10710034815628
 21
431.26525020473542
 31
0.0
  0
LINE
  5
28A1
  8
AM_0
 10
474.10710034815651
 20
461.28881020473551
 30
0.0
 11
487.10710034815628
 21
461.28881020473551
 31
0.0
  0
LINE
  5
28A2
  8
AM_0
 10
605.10715034815655
 20
330.27705520473518
 30
0.0
 11
605.10715034815655
 21
309.27702520473542
 31
0.0
  0
LINE
  5
28A3
  8
ｶｸﾚｾﾝ2
 10
574.60710034815645
 20
334.27702520473542
 30
0.0
 11
574.60710034815645
 21
309.27702520473542
 31
0.0
  0
LINE
  5
28A4
  8
ｶｸﾚｾﾝ2
 10
593.60710034815645
 20
334.27702520473542
 30
0.0
 11
593.60710034815645
 21
309.27702520473542
 31
0.0
  0
LINE
  5
28A5
  8
ﾁｭｳｼﾝｾﾝ1
 10
584.10710034815645
 20
338.78493020473547
 30
0.0
 11
584.10710034815645
 21
304.38539520473552
 31
0.0
  0
LINE
  5
28A6
  8
AM_0
 10
599.98580034815666
 20
444.15566020473551
 30
0.0
 11
604.22850034815644
 21
448.39830520473538
 31
0.0
  0
LINE
  5
28A7
  8
AM_0
 10
565.10715034815655
 20
334.27702520473542
 30
0.0
 11
601.10710034815645
 21
334.27702520473542
 31
0.0
  0
ARC
  5
28A8
  8
AM_0
 10
603.10710034815645
 20
338.02303020473551
 30
0.0
 40
4.000000049999997
 50
179.99998999999991
 51
255.52249
  0
LINE
  5
28A9
  8
AM_0
 10
492.10710034815628
 20
420.0889502047354
 30
0.0
 11
492.10710034815628
 21
374.27702520473542
 31
0.0
  0
ARC
  5
28AA
  8
AM_0
 10
487.10710034815628
 20
375.98772020473541
 30
0.0
 40
5.0
 50
322.22431999999992
 51
0.0
  0
ARC
  5
28AB
  8
AM_0
 10
565.10715034815655
 20
342.27705520473529
 30
0.0
 40
8.0
 50
180.00001
 51
270.0
  0
ARC
  5
28AC
  8
AM_0
 10
569.10710034815656
 20
387.87489520473542
 30
0.0
 40
8.0
 50
270.0
 51
0.0
  0
LINE
  5
28AD
  8
AM_0
 10
569.10710034815656
 20
379.87489520473542
 30
0.0
 11
560.59035034815679
 21
379.87489520473542
 31
0.0
  0
LINE
  5
28AE
  8
AM_0
 10
502.10710034815651
 20
426.66670520473519
 30
0.0
 11
502.10710034815651
 21
420.0889502047354
 31
0.0
  0
LINE
  5
28AF
  8
AM_0
 10
492.10710034815628
 20
420.0889502047354
 30
0.0
 11
502.10710034815651
 21
420.0889502047354
 31
0.0
  0
LINE
  5
28B0
  8
AM_0
 10
504.86475034815652
 20
428.36211020473542
 30
0.0
 11
518.10055034815616
 21
438.27208520473539
 31
0.0
  0
LINE
  5
28B1
  8
AM_0
 10
506.60710034815668
 20
458.76485020473541
 30
0.0
 11
506.60710034815668
 21
431.65270020473542
 31
0.0
  0
ARC
  5
28B2
  8
AM_0
 10
499.10710034815651
 20
426.66670520473519
 30
0.0
 40
3.0000000500000001
 50
0.0
 51
90.000003000000007
  0
ARC
  5
28B3
  8
AM_0
 10
512.10710034815645
 20
446.27703020473552
 30
0.0
 40
10.0
 50
306.82303999999999
 51
41.102821999999989
  0
ARC
  5
28B4
  8
AM_0
 10
602.10710034815656
 20
442.03441520473552
 30
0.0
 40
3.0000000500000001
 50
135.0
 51
180.00001
  0
ARC
  5
28B5
  8
AM_0
 10
601.10710034815645
 20
330.27705520473518
 30
0.0
 40
4.000000049999997
 50
0.0
 51
90.000003000000007
  0
LINE
  5
28B6
  8
AM_0
 10
605.10715034815655
 20
461.77703020473541
 30
0.0
 11
609.10710034815645
 21
461.77703020473541
 31
0.0
  0
ARC
  5
28B7
  8
AM_0
 10
602.10710034815656
 20
450.51967520473528
 30
0.0
 40
3.0000000500000001
 50
315.0
 51
0.0
  0
LINE
  5
28B8
  8
ﾁｭｳｼﾝｾﾝ1
 10
434.47284779580559
 20
484.27703020473541
 30
0.0
 11
687.05150034815676
 21
484.27703020473541
 31
0.0
  0
LINE
  5
28B9
  8
AM_0
 10
487.10710034815628
 20
550.60132520473553
 30
0.0
 11
499.10710034815651
 21
550.60132520473553
 31
0.0
  0
ARC
  5
28BA
  8
AM_0
 10
471.10710034815628
 20
596.77702520473554
 30
0.0
 40
20.500000499999992
 50
304.61363999999992
 51
235.38634999999999
  0
LINE
  5
28BB
  8
AM_0
 10
475.36305034815661
 20
567.52057520473545
 30
0.0
 11
502.10710034815651
 21
567.52057520473545
 31
0.0
  0
LINE
  5
28BC
  8
AM_0
 10
487.10710034815628
 20
568.86032520473555
 30
0.0
 11
505.79855034815671
 21
568.86032520473555
 31
0.0
  0
LINE
  5
28BD
  8
AM_0
 10
487.10715034815661
 20
576.27702520473554
 30
0.0
 11
500.17690034815678
 21
575.82062520473539
 31
0.0
  0
CIRCLE
  5
28BE
  8
AM_0
 10
471.10710034815628
 20
596.77702520473554
 30
0.0
 40
12.5
  0
LINE
  5
28BF
  8
AM_0
 10
405.60710034815651
 20
522.33365420473558
 30
0.0
 11
349.38846734815672
 21
489.8758112047355
 31
0.0
  0
LINE
  5
28C0
  8
AM_0
 10
317.33598034815668
 20
488.31313820473542
 30
0.0
 11
345.52808634815648
 21
488.80523320473537
 31
0.0
  0
LINE
  5
28C1
  8
AM_0
 10
304.60710034815651
 20
471.27703020473552
 30
0.0
 11
306.60710034815651
 21
473.27703020473541
 31
0.0
  0
LINE
  5
28C2
  8
AM_0
 10
307.60710034815651
 20
483.85438020473538
 30
0.0
 11
313.47559934815649
 21
487.2425602047353
 31
0.0
  0
ARC
  5
28C3
  8
AM_0
 10
308.60710034815651
 20
482.12232920473542
 30
0.0
 40
2.0
 50
120.0000000000001
 51
180.0
  0
ARC
  5
28C4
  8
AM_0
 10
317.47559934815632
 20
480.3143562047353
 30
0.0
 40
8.0
 50
91.000000000001705
 51
120.0000000000001
  0
ARC
  5
28C5
  8
AM_0
 10
345.38846734815672
 20
496.80401520473538
 30
0.0
 40
8.0
 50
271.00000000000171
 51
300.0
  0
ARC
  5
28C6
  8
AM_0
 10
456.10710034815651
 20
534.93187520473543
 30
0.0
 40
4.000000049999997
 50
272.0
 51
0.0
  0
LINE
  5
28C7
  8
AM_0
 10
425.10715034815672
 20
529.84687520473528
 30
0.0
 11
425.10715034815672
 21
540.77702520473554
 31
0.0
  0
LINE
  5
28C8
  8
AM_0
 10
422.10710034815651
 20
530.21258720473577
 30
0.0
 11
422.10710034815651
 21
543.27703020473575
 31
0.0
  0
LINE
  5
28C9
  8
AM_0
 10
425.10700034815648
 20
529.84687520473528
 30
0.0
 11
456.24665034815661
 21
530.93427520473551
 31
0.0
  0
LINE
  5
28CA
  8
AM_0
 10
423.10710034815651
 20
531.27703020473575
 30
0.0
 11
423.10710034815651
 21
361.27703020473541
 31
0.0
  0
ARC
  5
28CB
  8
AM_0
 10
403.10710034815651
 20
526.66378120473553
 30
0.0
 40
5.0
 50
300.0
 51
0.0
  0
LINE
  5
28CC
  8
AM_0
 10
421.10710034815628
 20
530.21258720473577
 30
0.0
 11
409.10710034815628
 21
530.21258720473577
 31
0.0
  0
LINE
  5
28CD
  8
AM_0
 10
423.10710034815651
 20
529.77697520473555
 30
0.0
 11
425.10700034815648
 21
529.84687520473528
 31
0.0
  0
LINE
  5
28CE
  8
AM_0
 10
422.10710034815651
 20
532.27703020473575
 30
0.0
 11
423.10710034815651
 21
531.27703020473575
 31
0.0
  0
LINE
  5
28CF
  8
AM_0
 10
425.10700034815648
 20
540.77697520473544
 30
0.0
 11
457.21175034815673
 21
541.89812520473538
 31
0.0
  0
LINE
  5
28D0
  8
AM_0
 10
410.10710034815651
 20
545.27703020473575
 30
0.0
 11
420.10710034815651
 21
545.27703020473575
 31
0.0
  0
ARC
  5
28D1
  8
AM_0
 10
410.10710034815651
 20
543.27703020473575
 30
0.0
 40
2.0
 50
90.0
 51
180.0
  0
ARC
  5
28D2
  8
AM_0
 10
420.10710034815651
 20
543.27703020473575
 30
0.0
 40
2.0
 50
0.0
 51
90.0
  0
LINE
  5
28D3
  8
AM_0
 10
460.10715034815661
 20
544.89637520473536
 30
0.0
 11
460.10715034815661
 21
574.27702520473554
 31
0.0
  0
ARC
  5
28D4
  8
AM_0
 10
463.10710034815628
 20
560.40162520473541
 30
0.0
 40
3.0000000500000001
 50
100.0
 51
180.00001
  0
ARC
  5
28D5
  8
AM_0
 10
457.10710034815662
 20
544.89637520473536
 30
0.0
 40
3.0000000500000001
 50
272.0
 51
0.0
  0
LINE
  5
28D6
  8
AM_0
 10
474.10710034815651
 20
550.60132520473553
 30
0.0
 11
487.10710034815628
 21
550.60132520473553
 31
0.0
  0
LINE
  5
28D7
  8
AM_0
 10
474.10710034815651
 20
568.86032520473555
 30
0.0
 11
487.10710034815628
 21
568.86032520473555
 31
0.0
  0
LINE
  5
28D8
  8
AM_0
 10
462.58615034815671
 20
563.35607520473559
 30
0.0
 11
471.62800034815632
 21
564.95042520473544
 31
0.0
  0
ARC
  5
28D9
  8
AM_0
 10
471.10710034815628
 20
567.9047752047353
 30
0.0
 40
3.0000000500000001
 50
280.0
 51
0.0
  0
LINE
  5
28DA
  8
AM_0
 10
460.78420034815662
 20
575.77702520473554
 30
0.0
 11
475.43965034815648
 21
575.77702520473554
 31
0.0
  0
ARC
  5
28DB
  8
AM_0
 10
457.19010034815648
 20
576.61352520473542
 30
0.0
 40
4.000000049999997
 50
347.92932999999999
 51
55.386358999999992
  0
LINE
  5
28DC
  8
AM_0
 10
461.10710034815662
 20
575.77697520473544
 30
0.0
 11
462.81930034815667
 21
582.16712520473561
 31
0.0
  0
ARC
  5
28DD
  8
AM_0
 10
462.10710034815628
 20
574.27702520473554
 30
0.0
 40
2.0000000500000001
 50
131.4096199999999
 51
180.00001
  0
LINE
  5
28DE
  8
AM_0
 10
463.28995034815648
 20
582.77702520473554
 30
0.0
 11
478.92415034815667
 21
582.77702520473554
 31
0.0
  0
LINE
  5
28DF
  8
AM_0
 10
471.10710034815628
 20
584.27702520473554
 30
0.0
 11
478.61050034815668
 21
582.89167520473552
 31
0.0
  0
ARC
  5
28E0
  8
AM_0
 10
476.10710034815651
 20
573.89172520473562
 30
0.0
 40
2.0000000500000001
 50
91.999997999999948
 51
180.00001
  0
LINE
  5
28E1
  8
AM_0
 10
463.60370034815668
 20
582.89167520473552
 30
0.0
 11
471.10715034815672
 21
584.27697520473544
 31
0.0
  0
ARC
  5
28E2
  8
AM_0
 10
463.78525034815669
 20
581.90827520473545
 30
0.0
 40
1.0
 50
100.4607199999999
 51
164.99999
  0
ARC
  5
28E3
  8
AM_0
 10
485.02400034815668
 20
576.61352520473542
 30
0.0
 40
4.000000049999997
 50
124.61365000000001
 51
187.86822000000001
  0
LINE
  5
28E4
  8
AM_0
 10
476.03725034815659
 20
575.89042520473527
 30
0.0
 11
487.10700034815682
 21
576.27702520473554
 31
0.0
  0
ARC
  5
28E5
  8
AM_0
 10
478.42900034815671
 20
581.90827520473545
 30
0.0
 40
1.0
 50
15.0
 51
79.539281000000003
  0
LINE
  5
28E6
  8
AM_0
 10
481.02995034815672
 20
576.06472520473551
 30
0.0
 11
479.39480034815659
 21
582.16712520473561
 31
0.0
  0
LINE
  5
28E7
  8
AM_0
 10
485.10715034815661
 20
576.27702520473554
 30
0.0
 11
487.10710034815628
 21
576.27702520473554
 31
0.0
  0
LINE
  5
28E8
  8
AM_0
 10
599.98575034815667
 20
530.39837520473543
 30
0.0
 11
604.22850034815644
 21
526.15567520473519
 31
0.0
  0
LINE
  5
28E9
  8
AM_0
 10
599.10710034815645
 20
484.27703020473541
 30
0.0
 11
599.10710034815645
 21
541.27702520473554
 31
0.0
  0
LINE
  5
28EA
  8
AM_0
 10
502.10710034815651
 20
464.28881020473523
 30
0.0
 11
502.10710034815651
 21
547.60132520473553
 31
0.0
  0
ARC
  5
28EB
  8
AM_0
 10
505.24310034815647
 20
464.7923202047354
 30
0.0
 40
3.0000000500000001
 50
41.102821999999989
 51
90.000003000000007
  0
ARC
  5
28EC
  8
AM_0
 10
567.10710034815645
 20
518.44987520473535
 30
0.0
 40
10.0
 50
90.000003000000007
 51
180.00001
  0
LINE
  5
28ED
  8
AM_0
 10
572.16535034815661
 20
528.44987520473535
 30
0.0
 11
567.10710034815645
 21
528.44987520473535
 31
0.0
  0
ARC
  5
28EE
  8
AM_0
 10
602.10710034815656
 20
532.51962520473535
 30
0.0
 40
3.0000000500000001
 50
179.99998999999991
 51
225.0
  0
LINE
  5
28EF
  8
AM_0
 10
504.0373003481568
 20
570.39957520473536
 30
0.0
 11
569.38625034815675
 21
568.11752520473544
 31
0.0
  0
ARC
  5
28F0
  8
AM_0
 10
504.10710034815628
 20
572.39837520473554
 30
0.0
 40
2.0000000500000001
 50
179.99998999999991
 51
268.00000999999992
  0
LINE
  5
28F1
  8
AM_0
 10
502.10710034815651
 20
568.86032520473555
 30
0.0
 11
502.10710034815651
 21
573.82182520473543
 31
0.0
  0
LINE
  5
28F2
  8
AM_0
 10
507.30610034815658
 20
568.45402520473544
 30
0.0
 11
517.13215034815687
 21
562.74292520473546
 31
0.0
  0
ARC
  5
28F3
  8
AM_0
 10
512.10710034815645
 20
554.09722520473542
 30
0.0
 40
10.0
 50
288.46821
 51
59.833878000000013
  0
LINE
  5
28F4
  8
AM_0
 10
506.60710034815668
 20
545.75267520473517
 30
0.0
 11
506.60710034815668
 21
566.92587520473558
 31
0.0
  0
ARC
  5
28F5
  8
AM_0
 10
499.10710034815651
 20
547.60132520473553
 30
0.0
 40
3.0000000500000001
 50
0.0
 51
90.000003000000007
  0
LINE
  5
28F6
  8
AM_0
 10
503.47355034815678
 20
540.67087520473547
 30
0.0
 11
515.27485034815663
 21
544.61222520473552
 31
0.0
  0
ARC
  5
28F7
  8
AM_0
 10
506.11940034815689
 20
544.71732520473552
 30
0.0
 40
3.0000000500000001
 50
270.0
 51
288.46821999999992
  0
ARC
  5
28F8
  8
AM_0
 10
505.79855034815671
 20
565.86032520473555
 30
0.0
 40
3.0000000500000001
 50
59.833878000000013
 51
90.000003000000007
  0
ARC
  5
28F9
  8
AM_0
 10
500.10715034815672
 20
573.82182520473543
 30
0.0
 40
2.0000000500000001
 50
0.0
 51
88.0
  0
ARC
  5
28FA
  8
AM_0
 10
569.10710034815656
 20
560.12242520473535
 30
0.0
 40
8.0
 50
0.0
 51
88.0
  0
LINE
  5
28FB
  8
AM_0
 10
585.10715034815655
 20
544.27702520473554
 30
0.0
 11
596.10710034815645
 21
544.27702520473554
 31
0.0
  0
ARC
  5
28FC
  8
AM_0
 10
585.10715034815655
 20
552.27702520473554
 30
0.0
 40
8.0
 50
180.00001
 51
270.0
  0
ARC
  5
28FD
  8
AM_0
 10
596.10710034815645
 20
541.27702520473554
 30
0.0
 40
3.0000000500000001
 50
0.0
 51
90.000003000000007
  0
LINE
  5
28FE
  8
AM_0
 10
609.10710034815645
 20
505.27706020473528
 30
0.0
 11
679.10710034815645
 21
505.27706020473528
 31
0.0
  0
LINE
  5
28FF
  8
AM_0
 10
623.10710034815656
 20
508.27703020473552
 30
0.0
 11
679.10710034815645
 21
508.27703020473552
 31
0.0
  0
LINE
  5
2900
  8
AM_0
 10
609.10710034815645
 20
463.27703020473541
 30
0.0
 11
679.10710034815645
 21
463.27703020473541
 31
0.0
  0
LINE
  5
2901
  8
AM_0
 10
605.10715034815655
 20
484.27703020473541
 30
0.0
 11
605.10715034815655
 21
524.03442520473527
 31
0.0
  0
LINE
  5
2902
  8
AM_0
 10
605.10715034815655
 20
506.77703020473558
 30
0.0
 11
609.10710034815645
 21
506.77703020473558
 31
0.0
  0
LINE
  5
2903
  8
AM_0
 10
623.10710034815656
 20
508.27703020473552
 30
0.0
 11
623.10710034815656
 21
505.27706020473528
 31
0.0
  0
ARC
  5
2904
  8
AM_0
 10
602.10710034815656
 20
524.03442520473527
 30
0.0
 40
3.0000000500000001
 50
0.0
 51
45.00000099999999
  0
LINE
  5
2905
  8
AM_0
 10
679.10710034815645
 20
463.27703020473541
 30
0.0
 11
679.10710034815645
 21
508.27703020473552
 31
0.0
  0
LINE
  5
2906
  8
AM_0
 10
1123.6032772507119
 20
453.34810520473542
 30
0.0
 11
1110.263417250711
 21
466.68798020473542
 31
0.0
  0
ARC
  5
2907
  8
AM_0
 10
1120.415242250712
 20
463.60720020473542
 30
0.0
 40
5.0
 50
187.37550999999999
 51
225.0
  0
ARC
  5
2908
  8
AM_0
 10
852.64920225071262
 20
463.60720020473542
 30
0.0
 40
5.0
 50
315.0
 51
352.62448999999998
  0
LINE
  5
2909
  8
AM_0
 10
849.46115225071242
 20
453.34807520473538
 30
0.0
 11
862.8010522507127
 21
466.6879502047355
 31
0.0
  0
ARC
  5
290A
  8
AM_0
 10
986.53221725071307
 20
456.2770302047353
 30
0.0
 40
88.0
 50
0.0
 51
186.52497999999991
  0
CIRCLE
  5
290B
  8
AM_0
 10
986.53221725071307
 20
484.27703020473541
 30
0.0
 40
41.000000499999992
  0
ARC
  5
290C
  8
AM_0
 10
986.53221725071307
 20
446.27703020473552
 30
0.0
 40
124.5
 50
7.1014839000000007
 51
172.89851999999991
  0
LINE
  5
290D
  8
AM_0
 10
1080.5322172507131
 20
527.91187520473545
 30
0.0
 11
1080.5322172507131
 21
408.66240520473542
 31
0.0
  0
LINE
  5
290E
  8
AM_0
 10
892.53221225071229
 20
527.91187520473545
 30
0.0
 11
892.53221225071229
 21
412.26717020473541
 31
0.0
  0
LINE
  5
290F
  8
ﾁｭｳｼﾝｾﾝ1
 10
986.53221725071307
 20
622.40698837385639
 30
0.0
 11
986.53221725071307
 21
308.30745020473552
 31
0.0
  0
LINE
  5
2910
  8
AM_0
 10
905.53221225071275
 20
314.27702520473548
 30
0.0
 11
1067.898002250713
 21
314.27702520473548
 31
0.0
  0
LINE
  5
2911
  8
ﾁｭｳｼﾝｾﾝ1
 10
842.26665225071247
 20
446.27703020473552
 30
0.0
 11
1130.386692250712
 21
446.27703020473552
 31
0.0
  0
LINE
  5
2912
  8
AM_0
 10
916.17775225071284
 20
324.00771020473547
 30
0.0
 11
1056.886677250711
 21
324.00771020473547
 31
0.0
  0
LINE
  5
2913
  8
AM_0
 10
919.53221225071275
 20
329.27702520473542
 30
0.0
 11
1053.532187250712
 21
329.27702520473542
 31
0.0
  0
LINE
  5
2914
  8
AM_0
 10
897.83223225071231
 20
330.27705520473518
 30
0.0
 11
897.83223225071231
 21
309.27702520473542
 31
0.0
  0
LINE
  5
2915
  8
ｶｸﾚｾﾝ2
 10
881.0322422507129
 20
334.27702520473542
 30
0.0
 11
881.0322422507129
 21
309.27702520473542
 31
0.0
  0
ARC
  5
2916
  8
AM_0
 10
903.55406225071272
 20
322.11287020473549
 30
0.0
 40
8.0
 50
279.48829999999998
 51
357.00554
  0
LINE
  5
2917
  8
ｶｸﾚｾﾝ2
 10
862.03220225071243
 20
334.27702520473542
 30
0.0
 11
862.03220225071243
 21
309.27702520473542
 31
0.0
  0
LINE
  5
2918
  8
AM_0
 10
846.532202250713
 20
329.27702520473542
 30
0.0
 11
846.532202250713
 21
309.27702520473542
 31
0.0
  0
LINE
  5
2919
  8
ﾁｭｳｼﾝｾﾝ1
 10
871.532202250713
 20
338.78493020473547
 30
0.0
 11
871.532202250713
 21
304.38539520473552
 31
0.0
  0
LINE
  5
291A
  8
AM_0
 10
846.532202250713
 20
309.27702520473542
 30
0.0
 11
901.53221225071275
 21
309.27702520473542
 31
0.0
  0
ARC
  5
291B
  8
AM_0
 10
905.53221225071275
 20
310.27705520473518
 30
0.0
 40
4.000000049999997
 50
99.488295999999963
 51
180.00001
  0
LINE
  5
291C
  8
AM_0
 10
901.53221225071275
 20
310.27705520473518
 30
0.0
 11
901.53221225071275
 21
309.27702520473542
 31
0.0
  0
ARC
  5
291D
  8
AM_0
 10
986.53221725071307
 20
412.26717020473541
 30
0.0
 40
93.999994999999984
 50
179.99998999999991
 51
200.58195999999981
  0
LINE
  5
291E
  8
AM_0
 10
898.5322422507129
 20
446.27703020473552
 30
0.0
 11
898.5322422507129
 21
342.27705520473529
 31
0.0
  0
LINE
  5
291F
  8
AM_0
 10
862.98730225071245
 20
461.66863020473522
 30
0.0
 11
846.57055225071269
 21
329.89519020473529
 31
0.0
  0
LINE
  5
2920
  8
AM_0
 10
851.53220225071288
 20
334.27702520473542
 30
0.0
 11
893.83223225071288
 21
334.27702520473542
 31
0.0
  0
ARC
  5
2921
  8
AM_0
 10
851.53220225071288
 20
329.27702520473542
 30
0.0
 40
5.0
 50
90.000003000000007
 51
180.00001
  0
ARC
  5
2922
  8
AM_0
 10
890.53221225071263
 20
342.27705520473529
 30
0.0
 40
8.0
 50
270.0
 51
0.0
  0
ARC
  5
2923
  8
AM_0
 10
893.83223225071288
 20
330.27705520473518
 30
0.0
 40
4.000000049999997
 50
0.0
 51
90.000003000000007
  0
ARC
  5
2924
  8
AM_0
 10
916.17775225071284
 20
319.00771020473547
 30
0.0
 40
5.0
 50
90.000003000000007
 51
166.18078
  0
ARC
  5
2925
  8
AM_0
 10
919.53221225071275
 20
321.27702520473542
 30
0.0
 40
8.0
 50
90.000003000000007
 51
177.00553999999991
  0
ARC
  5
2926
  8
AM_0
 10
986.53221725071307
 20
446.27703020473552
 30
0.0
 40
130.0
 50
187.37550999999999
 51
189.62446
  0
LINE
  5
2927
  8
AM_0
 10
849.46115225071242
 20
439.20592020473538
 30
0.0
 11
857.27215225071245
 21
431.3949802047353
 31
0.0
  0
ARC
  5
2928
  8
AM_0
 10
856.532202250713
 20
446.27703020473552
 30
0.0
 40
10.0
 50
135.0
 51
225.0
  0
ARC
  5
2929
  8
AM_0
 10
852.64920225071262
 20
428.94686020473551
 30
0.0
 40
5.0
 50
7.3755080999999967
 51
45.00000099999999
  0
ARC
  5
292A
  8
AM_0
 10
853.73660225071296
 20
427.85945520473541
 30
0.0
 40
5.0
 50
352.89852000000002
 51
45.00000099999999
  0
LINE
  5
292B
  8
ｶｸﾚｾﾝ2
 10
1111.0322172507119
 20
334.27702520473542
 30
0.0
 11
1111.0322172507119
 21
309.27702520473542
 31
0.0
  0
LINE
  5
292C
  8
AM_0
 10
1126.532232250712
 20
329.27702520473542
 30
0.0
 11
1126.532232250712
 21
309.27702520473542
 31
0.0
  0
LINE
  5
292D
  8
ｶｸﾚｾﾝ2
 10
1092.0322172507131
 20
334.27702520473542
 30
0.0
 11
1092.0322172507131
 21
309.27702520473542
 31
0.0
  0
LINE
  5
292E
  8
AM_0
 10
1075.232227250711
 20
330.27705520473518
 30
0.0
 11
1075.232227250711
 21
309.27702520473542
 31
0.0
  0
ARC
  5
292F
  8
AM_0
 10
1069.510397250712
 20
322.11287020473549
 30
0.0
 40
8.0
 50
182.99446
 51
260.51170000000002
  0
LINE
  5
2930
  8
ﾁｭｳｼﾝｾﾝ1
 10
1101.5322172507131
 20
338.12718520473533
 30
0.0
 11
1101.5322172507131
 21
302.30150020473548
 31
0.0
  0
LINE
  5
2931
  8
AM_0
 10
1071.5322172507131
 20
309.27702520473542
 30
0.0
 11
1126.532232250712
 21
309.27702520473542
 31
0.0
  0
ARC
  5
2932
  8
AM_0
 10
1067.5322172507131
 20
310.27705520473518
 30
0.0
 40
4.000000049999997
 50
0.0
 51
80.511701999999985
  0
LINE
  5
2933
  8
AM_0
 10
1071.5322172507131
 20
310.27705520473518
 30
0.0
 11
1071.5322172507131
 21
309.27702520473542
 31
0.0
  0
ARC
  5
2934
  8
AM_0
 10
986.53221725071307
 20
412.26717020473541
 30
0.0
 40
93.999994999999984
 50
339.95001999999982
 51
20.049976000000001
  0
LINE
  5
2935
  8
AM_0
 10
1074.5322172507131
 20
456.2770302047353
 30
0.0
 11
1074.5322172507131
 21
342.27705520473529
 31
0.0
  0
LINE
  5
2936
  8
AM_0
 10
1110.0771672507119
 20
461.66863020473522
 30
0.0
 11
1126.493872250712
 21
329.89519020473529
 31
0.0
  0
LINE
  5
2937
  8
AM_0
 10
1082.5322172507131
 20
334.27702520473542
 30
0.0
 11
1121.5322322507111
 21
334.27702520473542
 31
0.0
  0
ARC
  5
2938
  8
AM_0
 10
1056.886677250711
 20
319.00771020473547
 30
0.0
 40
5.0
 50
13.819217
 51
90.000003000000007
  0
ARC
  5
2939
  8
AM_0
 10
1053.532187250712
 20
321.27702520473542
 30
0.0
 40
8.0
 50
2.9944643999999991
 51
90.000003000000007
  0
ARC
  5
293A
  8
AM_0
 10
1082.5322172507131
 20
342.27705520473529
 30
0.0
 40
8.0
 50
180.00001
 51
270.0
  0
ARC
  5
293B
  8
AM_0
 10
1079.232227250711
 20
330.27705520473518
 30
0.0
 40
4.000000049999997
 50
90.000003000000007
 51
180.00001
  0
ARC
  5
293C
  8
AM_0
 10
1079.5322172507131
 20
378.32607020473529
 30
0.0
 40
5.0
 50
159.95003
 51
180.00001
  0
ARC
  5
293D
  8
AM_0
 10
1121.5322322507111
 20
329.27702520473542
 30
0.0
 40
5.0
 50
0.0
 51
90.000003000000007
  0
ARC
  5
293E
  8
AM_0
 10
1079.5322172507131
 20
446.20830520473538
 30
0.0
 40
5.0
 50
179.99998999999991
 51
200.04997
  0
ARC
  5
293F
  8
AM_0
 10
986.53221725071307
 20
446.27703020473552
 30
0.0
 40
130.0
 50
350.37554999999998
 51
352.62448999999998
  0
ARC
  5
2940
  8
AM_0
 10
1116.5322172507131
 20
446.27703020473552
 30
0.0
 40
10.0
 50
315.0
 51
45.00000099999999
  0
ARC
  5
2941
  8
AM_0
 10
1119.327842250711
 20
427.85945520473541
 30
0.0
 40
5.0
 50
135.0
 51
187.1014899999999
  0
LINE
  5
2942
  8
AM_0
 10
1123.6032772507119
 20
439.20598520473538
 30
0.0
 11
1115.7923172507119
 21
431.39501020473551
 31
0.0
  0
ARC
  5
2943
  8
AM_0
 10
1120.415242250712
 20
428.94686020473551
 30
0.0
 40
5.0
 50
135.0
 51
172.62448999999989
  0
LINE
  5
2944
  8
AM_0
 10
924.12044225071236
 20
568.51957520473547
 30
0.0
 11
942.34306725071269
 21
563.63682520473515
 31
0.0
  0
ARC
  5
2945
  8
AM_0
 10
934.59907725071298
 20
570.88822520473559
 30
0.0
 40
5.0
 50
255.0
 51
292.62448999999998
  0
ARC
  5
2946
  8
AM_0
 10
986.53221725071307
 20
446.27703020473552
 30
0.0
 40
130.0
 50
127.3754999999999
 51
172.62448999999989
  0
ARC
  5
2947
  8
AM_0
 10
859.26550225071253
 20
470.22353020473543
 30
0.0
 40
5.0
 50
315.0
 51
349.34381999999982
  0
ARC
  5
2948
  8
AM_0
 10
921.53221225071275
 20
558.86032520473555
 30
0.0
 40
10.0
 50
74.999999000000003
 51
164.99999
  0
ARC
  5
2949
  8
AM_0
 10
902.16057225071302
 20
544.5199252047355
 30
0.0
 40
5.0
 50
310.65618000000001
 51
345.0
  0
LINE
  5
294A
  8
AM_0
 10
911.87300225071272
 20
561.44852520473535
 30
0.0
 11
906.99025225071284
 21
543.22587520473553
 31
0.0
  0
ARC
  5
294B
  8
AM_0
 10
904.58235225071314
 20
553.55802520473537
 30
0.0
 40
5.0
 50
307.37551000000002
 51
345.0
  0
LINE
  5
294C
  8
AM_0
 10
990.53221725071262
 20
613.27702520473554
 30
0.0
 11
990.53221725071262
 21
579.77702520473554
 31
0.0
  0
LINE
  5
294D
  8
AM_0
 10
982.53221725071262
 20
613.27702520473554
 30
0.0
 11
982.53221725071262
 21
579.77702520473554
 31
0.0
  0
LINE
  5
294E
  8
AM_0
 10
1048.944052250712
 20
568.51957520473547
 30
0.0
 11
1030.7214222507121
 21
563.63682520473515
 31
0.0
  0
LINE
  5
294F
  8
ﾁｭｳｼﾝｾﾝ1
 10
914.02509495029199
 20
484.27703020473558
 30
0.0
 11
1059.039304024494
 21
484.27703020473541
 31
0.0
  0
LINE
  5
2950
  8
AM_0
 10
980.53221725071273
 20
500.27706020473551
 30
0.0
 11
992.53221725071307
 21
500.27706020473551
 31
0.0
  0
LINE
  5
2951
  8
AM_0
 10
980.53221725071273
 20
508.27703020473552
 30
0.0
 11
992.53221725071307
 21
508.27703020473552
 31
0.0
  0
CIRCLE
  5
2952
  8
AM_0
 10
986.53221725071307
 20
484.27703020473541
 30
0.0
 40
3.5000000500000001
  0
CIRCLE
  5
2953
  8
AM_5
 10
986.53221725071307
 20
484.27703020473541
 30
0.0
 40
5.0
  0
ARC
  5
2954
  8
AM_0
 10
986.53221725071307
 20
484.27703020473541
 30
0.0
 40
20.9999985
 50
106.60155
 51
73.398452000000006
  0
LINE
  5
2955
  8
AM_0
 10
980.53221725071273
 20
508.27703020473552
 30
0.0
 11
980.53221725071273
 21
500.27706020473551
 31
0.0
  0
LINE
  5
2956
  8
AM_0
 10
992.53221725071307
 20
508.27703020473552
 30
0.0
 11
992.53221725071307
 21
500.27706020473551
 31
0.0
  0
ARC
  5
2957
  8
AM_0
 10
986.53221725071307
 20
446.27703020473552
 30
0.0
 40
130.0
 50
67.375506000000001
 51
112.62448999999999
  0
ARC
  5
2958
  8
AM_0
 10
943.63713225071274
 20
568.46647520473562
 30
0.0
 40
5.0
 50
255.0
 51
289.34381999999982
  0
ARC
  5
2959
  8
AM_0
 10
980.53221725071273
 20
579.77702520473554
 30
0.0
 40
2.0000000500000001
 50
270.0
 51
0.0
  0
LINE
  5
295A
  8
AM_0
 10
982.53221725071262
 20
583.53852520473538
 30
0.0
 11
979.02879725071284
 21
582.89167520473552
 31
0.0
  0
ARC
  5
295B
  8
AM_0
 10
979.21037725071244
 20
581.90827520473545
 30
0.0
 40
1.0
 50
100.4607199999999
 51
164.99999
  0
LINE
  5
295C
  8
AM_0
 10
976.56367725071232
 20
575.89422520473545
 30
0.0
 11
978.24446225071301
 21
582.16712520473561
 31
0.0
  0
ARC
  5
295D
  8
AM_0
 10
1029.427327250713
 20
568.46647520473562
 30
0.0
 40
5.0
 50
250.65617999999989
 51
285.0
  0
ARC
  5
295E
  8
AM_0
 10
1038.4653522507131
 20
570.88822520473559
 30
0.0
 40
5.0
 50
247.37550999999991
 51
285.0
  0
LINE
  5
295F
  8
AM_0
 10
996.50081225071301
 20
575.89427520473521
 30
0.0
 11
994.82002725071288
 21
582.16712520473561
 31
0.0
  0
ARC
  5
2960
  8
AM_0
 10
992.53221725071307
 20
579.77702520473554
 30
0.0
 40
2.0000000500000001
 50
179.99998999999991
 51
270.0
  0
LINE
  5
2961
  8
AM_0
 10
990.53221725071262
 20
583.53852520473538
 30
0.0
 11
994.03563225071275
 21
582.89167520473552
 31
0.0
  0
ARC
  5
2962
  8
AM_0
 10
993.85408225071274
 20
581.90827520473545
 30
0.0
 40
1.0
 50
15.0
 51
79.539281000000003
  0
ARC
  5
2963
  8
AM_0
 10
986.53221725071307
 20
446.27703020473552
 30
0.0
 40
130.0
 50
7.3755071999999986
 51
52.624493999999991
  0
ARC
  5
2964
  8
AM_0
 10
1113.798942250711
 20
470.22353020473543
 30
0.0
 40
5.0
 50
190.65618000000001
 51
225.0
  0
ARC
  5
2965
  8
AM_0
 10
1051.5322172507131
 20
558.86032520473555
 30
0.0
 40
10.0
 50
15.0
 51
104.9999999999998
  0
LINE
  5
2966
  8
AM_0
 10
1061.191487250712
 20
561.44847520473525
 30
0.0
 11
1066.074207250711
 21
543.22587520473553
 31
0.0
  0
ARC
  5
2967
  8
AM_0
 10
1070.903857250712
 20
544.5199252047355
 30
0.0
 40
5.0
 50
195.00001
 51
229.34381999999991
  0
ARC
  5
2968
  8
AM_0
 10
1068.482107250712
 20
553.55802520473537
 30
0.0
 40
5.0
 50
195.00001
 51
232.62450000000001
  0
ARC
  5
2969
  8
AM_0
 10
986.53221725071307
 20
613.27702520473554
 30
0.0
 40
4.000000049999997
 50
359.99998999999991
 51
179.99998999999991
  0
LINE
  5
296A
  8
AM_0
 10
408.10713034815632
 20
785.77517444039825
 30
0.0
 11
408.10713034815632
 21
966.26853714230504
 31
0.0
  0
LINE
  5
296B
  8
AM_0
 10
422.10713034815632
 20
894.75210551231908
 30
0.0
 11
422.10713034815632
 21
857.29160607038386
 31
0.0
  0
LINE
  5
296C
  8
AM_0
 10
408.10713034815632
 20
857.29160607038386
 30
0.0
 11
422.10713034815632
 21
857.29160607038386
 31
0.0
  0
LINE
  5
296D
  8
AM_0
 10
408.10713034815632
 20
861.02185579135153
 30
0.0
 11
422.1071303481566
 21
861.02185579135153
 31
0.0
  0
LINE
  5
296E
  8
AM_0
 10
408.10713034815632
 20
894.75210551231908
 30
0.0
 11
422.10713034815632
 21
894.75210551231908
 31
0.0
  0
LINE
  5
296F
  8
AM_0
 10
408.10713034815632
 20
891.0218557913513
 30
0.0
 11
422.1071303481566
 21
891.0218557913513
 31
0.0
  0
LINE
  5
2970
  8
AM_0
 10
422.1071303481566
 20
790.02185579135153
 30
0.0
 11
422.10713034815632
 21
785.77517444039825
 31
0.0
  0
ARC
  5
2971
  8
AM_0
 10
420.10713034815637
 20
785.77517444039825
 30
0.0
 40
2.0
 50
270.0
 51
0.0
1001
GENIUS_GENODEF_13
1002
{
1000
HIER
1070
     0
1002
}
1002
{
1000
MANEDIT
1070
     0
1002
}
1002
{
1000
NOSEL
1070
     0
1002
}
1002
{
1000
BEHIND
1070
     0
1002
}
1002
{
1000
OTHER
1070
     0
1002
}
1002
{
1000
REACTOR
1002
}
1001
GENIUS_GENOBJ-N-FIL_13
1002
{
1000
OWNER
1000
GEN
1002
}
  0
LINE
  5
2972
  8
AM_0
 10
410.10713034815649
 20
783.77517444039825
 30
0.0
 11
420.10713034815637
 21
783.77517444039825
 31
0.0
  0
LINE
  5
2973
  8
AM_0
 10
422.10713034815632
 20
790.02185579135153
 30
0.0
 11
410.10713034815649
 21
790.02185579135153
 31
0.0
  0
LINE
  5
2974
  8
AM_0
 10
422.10713034815632
 20
790.02185579135153
 30
0.0
 11
423.10713034815649
 21
791.02185579135153
 31
0.0
  0
ARC
  5
2975
  8
AM_0
 10
410.10713034815649
 20
785.77517444039825
 30
0.0
 40
2.0
 50
180.0
 51
270.0
1001
GENIUS_GENOBJ-N-FIL_13
1002
{
1000
OWNER
1000
GEN
1002
}
1001
GENIUS_GENODEF_13
1002
{
1000
HIER
1070
     0
1002
}
1002
{
1000
MANEDIT
1070
     0
1002
}
1002
{
1000
NOSEL
1070
     0
1002
}
1002
{
1000
BEHIND
1070
     0
1002
}
1002
{
1000
OTHER
1070
     0
1002
}
1002
{
1000
REACTOR
1002
}
  0
ARC
  5
2976
  8
AM_0
 10
410.10713034815649
 20
792.02185579135153
 30
0.0
 40
2.0
 50
180.0
 51
270.0
  0
ARC
  5
2977
  8
AM_0
 10
403.10713034815649
 20
795.63510479135152
 30
0.0
 40
5.0
 50
0.0
 51
59.999999999999439
  0
LINE
  5
2978
  8
AM_0
 10
405.60713034815632
 20
799.9652317913517
 30
0.0
 11
349.38849734815659
 21
832.42307479135161
 31
0.0
  0
LINE
  5
2979
  8
AM_0
 10
405.60713034815632
 20
952.07847979135136
 30
0.0
 11
349.38849734815659
 21
919.62063679135156
 31
0.0
  0
LINE
  5
297A
  8
AM_0
 10
304.60713034815637
 20
851.02185579135119
 30
0.0
 11
304.60713034815637
 21
901.02185579135164
 31
0.0
  0
LINE
  5
297B
  8
AM_0
 10
301.60713034815637
 20
888.52185579135164
 30
0.0
 11
301.60713034815637
 21
863.52185579135164
 31
0.0
  0
LINE
  5
297C
  8
AM_0
 10
265.60713034815649
 20
888.02185579135153
 30
0.0
 11
265.60713034815649
 21
864.02185579135153
 31
0.0
  0
LINE
  5
297D
  8
AM_0
 10
293.60713034815637
 20
872.02185579135153
 30
0.0
 11
293.60713034815637
 21
880.02185579135153
 31
0.0
  0
ARC
  5
297E
  8
AM_0
 10
293.60713034815637
 20
876.02185579135164
 30
0.0
 40
4.0
 50
270.0
 51
90.0
  0
LINE
  5
297F
  8
AM_0
 10
306.60713034815637
 20
840.17655679135123
 30
0.0
 11
306.60713034815637
 21
911.8671547913516
 31
0.0
  0
LINE
  5
2980
  8
AM_0
 10
315.26738434815638
 20
915.02185579135164
 30
0.0
 11
315.26738434815638
 21
837.02185579135153
 31
0.0
  0
LINE
  5
2981
  8
AM_0
 10
347.59674234815668
 20
916.0218557913513
 30
0.0
 11
347.59674234815668
 21
836.02185579135153
 31
0.0
  0
LINE
  5
2982
  8
AM_0
 10
265.60713034815649
 20
864.02185579135153
 30
0.0
 11
301.60713034815637
 21
864.02185579135153
 31
0.0
  0
LINE
  5
2983
  8
AM_0
 10
265.60713034815649
 20
872.02185579135153
 30
0.0
 11
293.60713034815637
 21
872.02185579135153
 31
0.0
  0
LINE
  5
2984
  8
AM_0
 10
317.33601034815661
 20
833.98574779135151
 30
0.0
 11
345.52811634815652
 21
833.49365279135122
 31
0.0
  0
LINE
  5
2985
  8
AM_0
 10
307.60713034815637
 20
838.4445057913515
 30
0.0
 11
313.4756293481563
 21
835.05632579135136
 31
0.0
  0
ARC
  5
2986
  8
AM_0
 10
308.60713034815637
 20
840.17655679135123
 30
0.0
 40
2.0
 50
180.0
 51
239.99999999999949
  0
ARC
  5
2987
  8
AM_0
 10
317.4756293481563
 20
841.98452979135163
 30
0.0
 40
8.0
 50
239.99999999999949
 51
268.99999999999812
  0
ARC
  5
2988
  8
AM_0
 10
345.38849734815648
 20
825.49487079135133
 30
0.0
 40
8.0
 50
59.999999999999439
 51
88.999999999998224
  0
LINE
  5
2989
  8
AM_0
 10
304.60713034815637
 20
851.02185579135119
 30
0.0
 11
306.60713034815637
 21
849.0218557913513
 31
0.0
  0
LINE
  5
298A
  8
AM_0
 10
301.60713034815637
 20
863.52185579135164
 30
0.0
 11
304.60713034815637
 21
863.52185579135164
 31
0.0
  0
LINE
  5
298B
  8
AM_0
 10
265.60713034815649
 20
888.02185579135153
 30
0.0
 11
301.60713034815637
 21
888.02185579135153
 31
0.0
  0
LINE
  5
298C
  8
AM_0
 10
265.60713034815649
 20
880.02185579135153
 30
0.0
 11
293.60713034815637
 21
880.02185579135153
 31
0.0
  0
LINE
  5
298D
  8
AM_0
 10
307.60713034815637
 20
913.59920579135166
 30
0.0
 11
313.4756293481563
 21
916.98738579135124
 31
0.0
  0
LINE
  5
298E
  8
AM_0
 10
301.60713034815637
 20
888.52185579135164
 30
0.0
 11
304.60713034815637
 21
888.52185579135164
 31
0.0
  0
LINE
  5
298F
  8
AM_0
 10
304.60713034815637
 20
901.02185579135164
 30
0.0
 11
306.60713034815637
 21
903.02185579135153
 31
0.0
  0
ARC
  5
2990
  8
AM_0
 10
308.60713034815637
 20
911.8671547913516
 30
0.0
 40
2.0
 50
120.0000000000005
 51
180.0
  0
LINE
  5
2991
  8
AM_0
 10
317.33601034815661
 20
918.05796379135165
 30
0.0
 11
345.52811634815652
 21
918.5500587913516
 31
0.0
  0
ARC
  5
2992
  8
AM_0
 10
317.4756293481563
 20
910.05918179135165
 30
0.0
 40
8.0
 50
91.000000000001776
 51
120.0000000000005
  0
ARC
  5
2993
  8
AM_0
 10
345.38849734815648
 20
926.54884079135149
 30
0.0
 40
8.0
 50
271.00000000000171
 51
299.99999999999972
  0
ARC
  5
2994
  8
AM_0
 10
403.10713034815649
 20
956.40860679135164
 30
0.0
 40
5.0
 50
299.99999999999972
 51
0.0
  0
ARC
  5
2995
  8
AM_0
 10
410.10713034815649
 20
966.26853714230504
 30
0.0
 40
2.0
 50
90.0
 51
180.0
1001
GENIUS_GENOBJ-N-FIL_13
1002
{
1000
OWNER
1000
GEN
1002
}
1001
GENIUS_GENODEF_13
1002
{
1000
HIER
1070
     0
1002
}
1002
{
1000
MANEDIT
1070
     0
1002
}
1002
{
1000
NOSEL
1070
     0
1002
}
1002
{
1000
BEHIND
1070
     0
1002
}
1002
{
1000
OTHER
1070
     0
1002
}
1002
{
1000
REACTOR
1002
}
  0
LINE
  5
2996
  8
AM_0
 10
422.10713034815632
 20
962.02185579135153
 30
0.0
 11
410.10713034815649
 21
962.02185579135153
 31
0.0
  0
LINE
  5
2997
  8
AM_0
 10
410.10713034815649
 20
968.26853714230435
 30
0.0
 11
420.10713034815637
 21
968.26853714230435
 31
0.0
  0
ARC
  5
2998
  8
AM_0
 10
410.10713034815649
 20
960.02185579135164
 30
0.0
 40
2.0
 50
90.0
 51
180.0
  0
LINE
  5
2999
  8
AM_0
 10
422.10713034815632
 20
962.02185579135153
 30
0.0
 11
423.10713034815649
 21
961.02185579135153
 31
0.0
  0
ARC
  5
299A
  8
AM_0
 10
420.10713034815637
 20
966.26853714230504
 30
0.0
 40
2.0
 50
0.0
 51
90.0
1001
GENIUS_GENODEF_13
1002
{
1000
HIER
1070
     0
1002
}
1002
{
1000
MANEDIT
1070
     0
1002
}
1002
{
1000
NOSEL
1070
     0
1002
}
1002
{
1000
BEHIND
1070
     0
1002
}
1002
{
1000
OTHER
1070
     0
1002
}
1002
{
1000
REACTOR
1002
}
1001
GENIUS_GENOBJ-N-FIL_13
1002
{
1000
OWNER
1000
GEN
1002
}
  0
LINE
  5
299B
  8
AM_0
 10
422.1071303481566
 20
962.02185579135153
 30
0.0
 11
422.10713034815632
 21
966.26853714230504
 31
0.0
  0
LINE
  5
299D
  8
AM_0
 10
623.10713034815649
 20
882.02179579135134
 30
0.0
 11
679.10710034815645
 21
882.02179579135134
 31
0.0
  0
LINE
  5
299E
  8
AM_0
 10
623.10713034815649
 20
870.02179579135145
 30
0.0
 11
679.10710034815645
 21
870.02179579135145
 31
0.0
  0
LINE
  5
299F
  8
AM_0
 10
609.10713034815615
 20
855.02185579135153
 30
0.0
 11
679.10710034815645
 21
855.02185579135153
 31
0.0
  0
LINE
  5
29A0
  8
AM_0
 10
609.10713034815615
 20
897.02185579135153
 30
0.0
 11
679.10710034815645
 21
897.02185579135153
 31
0.0
  0
LINE
  5
29A1
  8
ﾁｭｳｼﾝｾﾝ1
 10
257.6565381991021
 20
876.02185579135119
 30
0.0
 11
690.62107034815642
 21
876.02185579135164
 31
0.0
  0
ARC
  5
29A2
  8
AM_0
 10
456.10713034815649
 20
859.97107579135161
 30
0.0
 40
4.0
 50
0.0
 51
87.999999999996248
  0
LINE
  5
29A3
  8
AM_0
 10
423.10713034815649
 20
791.02185579135153
 30
0.0
 11
423.10713034815649
 21
961.02185579135153
 31
0.0
  0
LINE
  5
29A4
  8
AM_0
 10
502.10713034815649
 20
826.45728579135152
 30
0.0
 11
502.10713034815649
 21
925.58637579135132
 31
0.0
  0
LINE
  5
29A5
  8
AM_0
 10
577.10713034815649
 20
785.02185579135153
 30
0.0
 11
577.10713034815649
 21
967.02185579135119
 31
0.0
  0
LINE
  5
29A6
  8
AM_0
 10
605.10713034815615
 20
915.77918579135167
 30
0.0
 11
605.10713034815615
 21
842.26447579135163
 31
0.0
  0
LINE
  5
29A7
  8
AM_0
 10
487.10713034815637
 20
736.28382579135132
 30
0.0
 11
487.10713034815637
 21
872.02179579135134
 31
0.0
  0
LINE
  5
29A8
  8
AM_0
 10
599.10713034815649
 20
961.90241579135204
 30
0.0
 11
599.10713034815649
 21
790.14124579135159
 31
0.0
  0
LINE
  5
29A9
  8
AM_0
 10
609.10713034815615
 20
853.5218557913513
 30
0.0
 11
609.10713034815615
 21
898.52185579135153
 31
0.0
  0
LINE
  5
29AA
  8
AM_0
 10
474.10700034815648
 20
739.81201579135166
 30
0.0
 11
474.10700034815648
 21
866.48242579135149
 31
0.0
  0
LINE
  5
29AB
  8
AM_0
 10
460.10713034815649
 20
761.91382579135131
 30
0.0
 11
460.10713034815649
 21
872.02179579135134
 31
0.0
  0
POLYLINE
  5
29AC
  8
AM_0
 66
     1
 10
0.0
 20
0.0
 30
0.0
  0
VERTEX
  5
29AD
  8
AM_0
 10
507.0368203481566
 20
796.29030579135133
 30
0.0
 42
0.11075717
  0
VERTEX
  5
29AE
  8
AM_0
 10
519.91776034815632
 20
806.19808579135122
 30
0.0
 42
0.20375769
  0
VERTEX
  5
29AF
  8
AM_0
 10
522.17549034815636
 20
813.86355579135125
 30
0.0
  0
VERTEX
  5
29B0
  8
AM_0
 10
507.40569034815661
 20
832.77870579135106
 30
0.0
 42
-1.0
  0
SEQEND
  5
29B1
  8
AM_0
  0
ARC
  5
29B2
  8
AM_0
 10
507.66779034815659
 20
746.73981579135159
 30
0.0
 40
10.0
 50
272.00000000000369
 51
316.51703999999847
  0
LINE
  5
29B3
  8
AM_0
 10
504.03736034815643
 20
753.46234579135137
 30
0.0
 11
528.64033034815657
 21
754.32154579135135
 31
0.0
  0
LINE
  5
29B4
  8
AM_0
 10
492.10706034815649
 20
736.02179579135134
 30
0.0
 11
601.24665034815655
 21
739.83307579135135
 31
0.0
  0
CIRCLE
  5
29B5
  8
AM_0
 10
434.10713034815632
 20
761.02185579135153
 30
0.0
 40
9.5
  0
LINE
  5
29B6
  8
AM_0
 10
456.24671034815651
 20
788.50446579135166
 30
0.0
 11
425.10719034815662
 21
789.59192579135163
 31
0.0
  0
LINE
  5
29B7
  8
AM_0
 10
456.24665034815661
 20
790.86457579135163
 30
0.0
 11
423.10713034815649
 21
792.02179579135134
 31
0.0
  0
LINE
  5
29B8
  8
AM_0
 10
416.89771034815652
 20
739.96338579135136
 30
0.0
 11
492.10706034815649
 21
736.02185579135153
 31
0.0
  0
LINE
  5
29B9
  8
AM_0
 10
421.89516006839051
 20
784.87909982321526
 30
0.0
 11
457.98841034815649
 21
788.03687579135135
 31
0.0
  0
LINE
  5
29BA
  8
AM_0
 10
413.10713034815632
 20
743.95789579135135
 30
0.0
 11
413.10713034815632
 21
780.44489579135131
 31
0.0
  0
ARC
  5
29BB
  8
AM_0
 10
417.10713034815632
 20
743.95789579135135
 30
0.0
 40
4.0
 50
180.00001000000091
 51
266.99999000000008
  0
ARC
  5
29BC
  8
AM_0
 10
417.10713034815632
 20
780.44489579135131
 30
0.0
 40
4.0
 50
123.6363835348315
 51
180.00001000000091
  0
LINE
  5
29BD
  8
AM_0
 10
425.10713034815632
 20
791.95197579135163
 30
0.0
 11
425.10713034815632
 21
789.59186579135121
 31
0.0
  0
LINE
  5
29BE
  8
AM_0
 10
502.10713034815649
 20
749.34668579135132
 30
0.0
 11
502.10713034815649
 21
796.45606579135165
 31
0.0
  0
ARC
  5
29BF
  8
AM_0
 10
471.10713034815632
 20
754.39411579135162
 30
0.0
 40
3.0
 50
0.0
 51
79.999998000001099
  0
LINE
  5
29C0
  8
AM_0
 10
474.10706034815632
 20
746.27484579135159
 30
0.0
 11
466.72852034815651
 21
745.35059579135134
 31
0.0
  0
ARC
  5
29C1
  8
AM_0
 10
466.10713034815637
 20
750.31189579135162
 30
0.0
 40
5.0
 50
180.00001000000091
 51
277.13983000000007
  0
ARC
  5
29C2
  8
AM_0
 10
463.10713034815632
 20
761.89722579135162
 30
0.0
 40
3.0
 50
179.9999899999988
 51
260.00000000000119
  0
LINE
  5
29C3
  8
AM_0
 10
462.58613034815647
 20
758.94281579135134
 30
0.0
 11
471.62806034815651
 21
757.34845579135151
 31
0.0
  0
ARC
  5
29C4
  8
AM_0
 10
456.10713034815649
 20
784.50684579135134
 30
0.0
 40
4.0
 50
0.0
 51
87.999999999996248
  0
ARC
  5
29C5
  8
AM_0
 10
456.10713034815649
 20
786.86701579135126
 30
0.0
 40
4.0
 50
0.0
 51
87.999999999996248
  0
LINE
  5
29C6
  8
AM_0
 10
487.10706034815621
 20
746.89148579135133
 30
0.0
 11
500.17695034815659
 21
747.34790579135131
 31
0.0
  0
ARC
  5
29C7
  8
AM_0
 10
476.10713034815632
 20
749.27686579135161
 30
0.0
 40
2.0
 50
179.9999899999988
 51
268.00000999999861
  0
LINE
  5
29C8
  8
AM_0
 10
476.03730034815652
 20
747.27808579135126
 30
0.0
 11
487.10713034815637
 21
746.89148579135133
 31
0.0
  0
ARC
  5
29C9
  8
AM_0
 10
477.10700034815648
 20
739.81201579135166
 30
0.0
 40
3.0
 50
180.00001000000091
 51
266.99999000000008
  0
ARC
  5
29CA
  8
AM_0
 10
500.10713034815632
 20
749.34668579135132
 30
0.0
 40
2.0
 50
272.00000000000369
 51
0.0
  0
LINE
  5
29CB
  8
AM_0
 10
506.60713034815649
 20
739.78467579135133
 30
0.0
 11
506.60713034815649
 21
751.81702579135163
 31
0.0
  0
ARC
  5
29CC
  8
AM_0
 10
504.10713034815632
 20
751.46363579135152
 30
0.0
 40
2.0
 50
91.999998000000545
 51
180.00001000000091
  0
ARC
  5
29CD
  8
AM_0
 10
506.13520034815662
 20
798.07556579135132
 30
0.0
 40
2.0
 50
270.0
 51
296.80019999999712
  0
LINE
  5
29CE
  8
AM_0
 10
474.10700034815648
 20
824.45728579135164
 30
0.0
 11
500.10713034815632
 21
824.45728579135164
 31
0.0
  0
LINE
  5
29CF
  8
AM_0
 10
474.10700034815648
 20
798.45606579135165
 30
0.0
 11
500.10713034815632
 21
798.45606579135165
 31
0.0
  0
LINE
  5
29D0
  8
AM_0
 10
506.60713034815649
 20
798.45606579135165
 30
0.0
 11
506.60713034815649
 21
824.45728579135164
 31
0.0
  0
ARC
  5
29D1
  8
AM_0
 10
500.10713034815632
 20
796.45606579135165
 30
0.0
 40
2.0
 50
0.0
 51
90.00000299999769
  0
ARC
  5
29D2
  8
AM_0
 10
500.10713034815632
 20
826.45728579135152
 30
0.0
 40
2.0
 50
270.0
 51
0.0
  0
ARC
  5
29D3
  8
AM_0
 10
505.65669034815659
 20
830.34125579135161
 30
0.0
 40
3.0
 50
54.348324000004709
 51
90.00000299999769
  0
ARC
  5
29D4
  8
AM_0
 10
594.10713034815649
 20
794.82105579135134
 30
0.0
 40
5.0
 50
272.00000000000369
 51
0.0
  0
LINE
  5
29D5
  8
ﾁｭｳｼﾝｾﾝ1
 10
566.60713034815626
 20
761.02185579135153
 30
0.0
 11
601.60713034815649
 21
761.02185579135153
 31
0.0
  0
ARC
  5
29D6
  8
AM_0
 10
549.10713034815649
 20
761.47803579135132
 30
0.0
 40
8.0
 50
272.00000000000369
 51
0.0
  0
LINE
  5
29D7
  8
AM_0
 10
531.19746034815648
 20
752.84772579135131
 30
0.0
 11
549.38630034815651
 21
753.48291579135162
 31
0.0
  0
LINE
  5
29D8
  8
AM_0
 10
514.92353034815665
 20
739.85840579135152
 30
0.0
 11
524.29072034815636
 21
749.73517579135159
 31
0.0
  0
ARC
  5
29D9
  8
AM_0
 10
531.54646034815664
 20
742.85376579135163
 30
0.0
 40
10.0
 50
91.999998000000545
 51
136.5170399999985
  0
CIRCLE
  5
29DA
  8
AM_0
 10
584.10713034815615
 20
761.02185579135153
 30
0.0
 40
9.5
  0
LINE
  5
29DB
  8
AM_0
 10
557.10713034815649
 20
767.02185579135153
 30
0.0
 11
557.10713034815649
 21
761.47803579135132
 31
0.0
  0
LINE
  5
29DC
  8
ﾁｭｳｼﾝｾﾝ1
 10
584.10713034815615
 20
743.52185579135153
 30
0.0
 11
584.10713034815615
 21
778.52185579135153
 31
0.0
  0
LINE
  5
29DD
  8
AM_0
 10
557.10713034815649
 20
743.46936579135127
 30
0.0
 11
557.10713034815649
 21
761.47803579135132
 31
0.0
  0
ARC
  5
29DE
  8
AM_0
 10
562.10713034815637
 20
743.46936579135127
 30
0.0
 40
5.0
 50
180.00001000000091
 51
271.99999000000139
  0
ARC
  5
29DF
  8
AM_0
 10
569.10713034815649
 20
785.02185579135153
 30
0.0
 40
8.0
 50
270.0
 51
0.0
  0
ARC
  5
29E0
  8
AM_0
 10
567.10713034815615
 20
767.02185579135153
 30
0.0
 40
10.0
 50
90.00000299999769
 51
180.00001000000091
  0
LINE
  5
29E1
  8
AM_0
 10
567.10713034815615
 20
777.02185579135153
 30
0.0
 11
569.10713034815649
 21
777.02185579135153
 31
0.0
  0
ARC
  5
29E2
  8
AM_0
 10
584.71125034815645
 20
781.48499579135159
 30
0.0
 40
8.0
 50
91.999998000000545
 51
167.22924999999881
  0
LINE
  5
29E3
  8
AM_0
 10
584.43214034815674
 20
789.4801757913516
 30
0.0
 11
594.28156034815652
 21
789.8241057913516
 31
0.0
  0
LINE
  5
29E4
  8
AM_0
 10
605.10713034815615
 20
743.8306357913516
 30
0.0
 11
605.10713034815615
 21
783.21302579135136
 31
0.0
  0
ARC
  5
29E5
  8
AM_0
 10
601.10713034815615
 20
743.8306357913516
 30
0.0
 40
4.0
 50
272.00000000000369
 51
0.0
  0
ARC
  5
29E6
  8
AM_0
 10
601.10713034815615
 20
783.21302579135136
 30
0.0
 40
4.0
 50
0.0
 51
81.786789000000198
  0
ARC
  5
29E7
  8
AM_0
 10
602.10713034815649
 20
790.14124579135159
 30
0.0
 40
3.0
 50
180.00001000000091
 51
261.78677999999701
  0
ARC
  5
29E8
  8
AM_0
 10
602.10713034815649
 20
842.26447579135163
 30
0.0
 40
3.0
 50
315.0
 51
0.0
  0
ARC
  5
29E9
  8
AM_0
 10
602.10713034815649
 20
842.26447579135163
 30
0.0
 40
3.0
 50
315.0
 51
0.0
  0
ARC
  5
29EA
  8
AM_0
 10
602.10713034815649
 20
833.77918579135132
 30
0.0
 40
3.0
 50
135.0
 51
180.00001000000091
  0
ARC
  5
29EB
  8
AM_0
 10
602.10713034815649
 20
833.77918579135132
 30
0.0
 40
3.0
 50
135.0
 51
180.00001000000091
  0
LINE
  5
29EC
  8
AM_0
 10
599.98591034815649
 20
835.90052579135158
 30
0.0
 11
604.22852034815651
 21
840.1431357913516
 31
0.0
  0
LINE
  5
29ED
  8
AM_0
 10
605.10713034815615
 20
853.5218557913513
 30
0.0
 11
609.10713034815615
 21
853.5218557913513
 31
0.0
  0
POLYLINE
  5
29EE
  8
AM_0
 66
     1
 10
0.0
 20
0.0
 30
0.0
  0
VERTEX
  5
29EF
  8
AM_0
 10
507.0368203481566
 20
955.75328579135157
 30
0.0
 42
-0.11075703
  0
VERTEX
  5
29F0
  8
AM_0
 10
519.91779034815625
 20
945.84557579135151
 30
0.0
 42
-0.20375918
  0
VERTEX
  5
29F1
  8
AM_0
 10
522.17549034815636
 20
938.1800957913515
 30
0.0
  0
VERTEX
  5
29F2
  8
AM_0
 10
507.40569034815661
 20
919.26495579135167
 30
0.0
 42
-1.0
  0
SEQEND
  5
29F3
  8
AM_0
  0
ARC
  5
29F4
  8
AM_0
 10
507.66779034815659
 20
1005.303845791351
 30
0.0
 40
10.0
 50
43.482964999999631
 51
87.999999999996248
  0
LINE
  5
29F5
  8
AM_0
 10
504.03730034815652
 20
998.58130579135161
 30
0.0
 11
528.64039034815664
 21
997.72211579135171
 31
0.0
  0
LINE
  5
29F6
  8
AM_0
 10
492.10713034815632
 20
1016.021795791351
 30
0.0
 11
601.24671034815651
 21
1012.21057579135
 31
0.0
  0
CIRCLE
  5
29F7
  8
AM_0
 10
434.10713034815632
 20
991.0218557913513
 30
0.0
 40
9.5
  0
ARC
  5
29F8
  8
AM_0
 10
463.10713034815632
 20
990.14636579135174
 30
0.0
 40
3.0
 50
99.999999999998593
 51
180.00001000000091
  0
LINE
  5
29F9
  8
AM_0
 10
474.10700034815648
 20
885.56122579135172
 30
0.0
 11
474.10700034815648
 21
1012.231575791351
 31
0.0
  0
LINE
  5
29FA
  8
AM_0
 10
487.10713034815637
 20
880.02179579135134
 30
0.0
 11
487.10713034815637
 21
1015.759775791351
 31
0.0
  0
LINE
  5
29FB
  8
AM_0
 10
502.10713034815649
 20
1002.69696579135
 30
0.0
 11
502.10713034815649
 21
955.58759579135153
 31
0.0
  0
LINE
  5
29FC
  8
AM_0
 10
413.10713034815632
 20
1008.085765791351
 30
0.0
 11
413.10713034815632
 21
971.59873417718484
 31
0.0
  0
LINE
  5
29FD
  8
AM_0
 10
456.24671034815651
 20
867.43238579135152
 30
0.0
 11
425.10713034815632
 21
868.5197857913513
 31
0.0
  0
LINE
  5
29FE
  8
AM_0
 10
456.24671034815651
 20
863.96869579135159
 30
0.0
 11
425.10719034815662
 21
865.05609579135159
 31
0.0
  0
LINE
  5
29FF
  8
AM_0
 10
456.24677034815659
 20
888.07495579135161
 30
0.0
 11
425.10719034815662
 21
886.98755579135161
 31
0.0
  0
LINE
  5
2A00
  8
AM_0
 10
456.24671034815651
 20
884.61127579135132
 30
0.0
 11
425.10719034815662
 21
883.52381579135135
 31
0.0
  0
LINE
  5
2A01
  8
AM_0
 10
456.24677034815659
 20
963.53919579135152
 30
0.0
 11
425.10719034815662
 21
962.45178579135165
 31
0.0
  0
LINE
  5
2A02
  8
AM_0
 10
456.24671034815651
 20
961.17908579135167
 30
0.0
 11
423.10713034815649
 21
960.02179579135156
 31
0.0
  0
LINE
  5
2A03
  8
AM_0
 10
421.89519036496011
 20
967.16455130307872
 30
0.0
 11
457.98841034815649
 21
964.00678579135115
 31
0.0
  0
LINE
  5
2A04
  8
AM_0
 10
425.10713034815632
 20
865.05609579135159
 30
0.0
 11
425.10713034815632
 21
886.98755579135161
 31
0.0
  0
LINE
  5
2A05
  8
AM_0
 10
425.10713034815632
 20
960.09168579135155
 30
0.0
 11
425.10713034815632
 21
962.45178579135165
 31
0.0
  0
LINE
  5
2A06
  8
AM_0
 10
460.10713034815649
 20
880.02179579135134
 30
0.0
 11
460.10713034815649
 21
990.1629757913513
 31
0.0
  0
ARC
  5
2A07
  8
AM_0
 10
471.10713034815632
 20
876.02185579135164
 30
0.0
 40
10.0
 50
203.5782699999985
 51
336.4217200000013
  0
ARC
  5
2A08
  8
AM_0
 10
471.10713034815632
 20
876.02185579135164
 30
0.0
 40
10.0
 50
23.57803699999776
 51
156.42196000000081
  0
LINE
  5
2A09
  8
AM_0
 10
454.60713034815632
 20
880.02179579135134
 30
0.0
 11
487.60713034815632
 21
880.02179579135134
 31
0.0
  0
LINE
  5
2A0A
  8
AM_0
 10
454.60713034815632
 20
872.02179579135134
 30
0.0
 11
487.60713034815632
 21
872.02179579135134
 31
0.0
  0
ARC
  5
2A0B
  8
AM_0
 10
454.60713034815632
 20
876.02179579135122
 30
0.0
 40
3.9999962
 50
90.00000299999769
 51
270.0
  0
ARC
  5
2A0C
  8
AM_0
 10
456.10713034815649
 20
863.4348257913515
 30
0.0
 40
4.0
 50
0.0
 51
87.999999999996248
  0
ARC
  5
2A0D
  8
AM_0
 10
456.10713034815649
 20
888.60883579135134
 30
0.0
 40
4.0
 50
272.00000000000369
 51
0.0
  0
ARC
  5
2A0E
  8
AM_0
 10
456.10713034815649
 20
892.07251579135163
 30
0.0
 40
4.0
 50
272.00000000000369
 51
0.0
  0
ARC
  5
2A0F
  8
AM_0
 10
487.60713034815632
 20
876.02179579135122
 30
0.0
 40
3.9999962
 50
270.0
 51
90.00000299999769
  0
ARC
  5
2A10
  8
AM_0
 10
505.65669034815659
 20
921.70240579135168
 30
0.0
 40
3.0
 50
270.0
 51
305.65166999999718
  0
ARC
  5
2A11
  8
AM_0
 10
456.10713034815649
 20
967.53675579135154
 30
0.0
 40
4.0
 50
272.00000000000369
 51
0.0
  0
ARC
  5
2A12
  8
AM_0
 10
456.10713034815649
 20
965.17664579135135
 30
0.0
 40
4.0
 50
272.00000000000369
 51
0.0
  0
LINE
  5
2A13
  8
AM_0
 10
474.10700034815648
 20
953.58759579135165
 30
0.0
 11
500.10713034815632
 21
953.58759579135165
 31
0.0
  0
LINE
  5
2A14
  8
AM_0
 10
474.10700034815648
 20
927.58637579135166
 30
0.0
 11
500.10713034815632
 21
927.58637579135166
 31
0.0
  0
LINE
  5
2A15
  8
AM_0
 10
506.60713034815649
 20
953.58759579135165
 30
0.0
 11
506.60713034815649
 21
927.58637579135166
 31
0.0
  0
ARC
  5
2A16
  8
AM_0
 10
500.10713034815632
 20
925.58637579135132
 30
0.0
 40
2.0
 50
0.0
 51
90.00000299999769
  0
ARC
  5
2A17
  8
AM_0
 10
500.10713034815632
 20
955.58759579135153
 30
0.0
 40
2.0
 50
270.0
 51
0.0
  0
ARC
  5
2A18
  8
AM_0
 10
506.13520034815662
 20
953.96802579135135
 30
0.0
 40
2.0
 50
63.199809000002318
 51
90.00000299999769
  0
LINE
  5
2A19
  8
AM_0
 10
416.89771034815652
 20
1012.0802657913511
 30
0.0
 11
492.10706034815649
 21
1016.02185579135
 31
0.0
  0
ARC
  5
2A1A
  8
AM_0
 10
417.10713034815632
 20
1008.085765791351
 30
0.0
 40
4.0
 50
92.999999000001679
 51
180.00001000000091
  0
ARC
  5
2A1B
  8
AM_0
 10
471.10713034815632
 20
997.64954579135133
 30
0.0
 40
3.0
 50
280.00001000000128
 51
0.0
  0
LINE
  5
2A1C
  8
AM_0
 10
474.10706034815632
 20
1005.768805791351
 30
0.0
 11
466.72852034815651
 21
1006.693065791351
 31
0.0
  0
ARC
  5
2A1D
  8
AM_0
 10
466.10713034815637
 20
1001.731815791351
 30
0.0
 40
5.0
 50
82.860167000000104
 51
180.00001000000091
  0
LINE
  5
2A1E
  8
AM_0
 10
462.58619034815661
 20
993.10083579135153
 30
0.0
 11
471.62806034815651
 21
994.69519579135135
 31
0.0
  0
LINE
  5
2A1F
  8
AM_0
 10
487.10706034815621
 20
1005.1521657913499
 30
0.0
 11
500.17695034815659
 21
1004.695745791351
 31
0.0
  0
LINE
  5
2A20
  8
AM_0
 10
476.0373603481566
 20
1004.765635791351
 30
0.0
 11
487.10713034815637
 21
1005.152225791351
 31
0.0
  0
ARC
  5
2A21
  8
AM_0
 10
476.10713034815632
 20
1002.766795791351
 30
0.0
 40
2.0
 50
91.999998000000545
 51
180.00001000000091
  0
ARC
  5
2A22
  8
AM_0
 10
477.10700034815648
 20
1012.231575791351
 30
0.0
 40
3.0
 50
92.999999000001679
 51
180.00001000000091
  0
LINE
  5
2A23
  8
AM_0
 10
506.60713034815649
 20
1000.301705791351
 30
0.0
 11
506.60713034815649
 21
1012.25513579135
 31
0.0
  0
ARC
  5
2A24
  8
AM_0
 10
504.10713034815632
 20
1000.580025791351
 30
0.0
 40
2.0
 50
180.00001000000091
 51
267.99999999999631
  0
ARC
  5
2A25
  8
AM_0
 10
500.10713034815632
 20
1002.69696579135
 30
0.0
 40
2.0
 50
0.0
 51
87.999999999996248
  0
CIRCLE
  5
2A26
  8
AM_0
 10
584.10713034815615
 20
991.0218557913513
 30
0.0
 40
9.5
  0
LINE
  5
2A27
  8
AM_0
 10
557.10713034815649
 20
985.02185579135164
 30
0.0
 11
557.10713034815649
 21
990.5656857913516
 31
0.0
  0
LINE
  5
2A28
  8
AM_0
 10
605.10713034815615
 20
1008.213025791351
 30
0.0
 11
605.10713034815615
 21
968.8306357913516
 31
0.0
  0
ARC
  5
2A29
  8
AM_0
 10
594.10713034815649
 20
957.22260579135161
 30
0.0
 40
5.0
 50
0.0
 51
87.999999999996248
  0
ARC
  5
2A2A
  8
AM_0
 10
569.10713034815649
 20
967.02185579135119
 30
0.0
 40
8.0
 50
0.0
 51
90.00000299999769
  0
ARC
  5
2A2B
  8
AM_0
 10
567.10713034815615
 20
985.02185579135164
 30
0.0
 40
10.0
 50
180.00001000000091
 51
270.0
  0
LINE
  5
2A2C
  8
AM_0
 10
567.10713034815615
 20
975.02185579135119
 30
0.0
 11
569.10713034815649
 21
975.02185579135119
 31
0.0
  0
ARC
  5
2A2D
  8
AM_0
 10
584.71125034815645
 20
970.55866579135136
 30
0.0
 40
8.0
 50
192.7707500000011
 51
267.99999999999631
  0
LINE
  5
2A2E
  8
AM_0
 10
584.43214034815674
 20
962.56354579135154
 30
0.0
 11
594.28163034815645
 21
962.21961579135166
 31
0.0
  0
ARC
  5
2A2F
  8
AM_0
 10
623.10713034815649
 20
876.02179579135122
 30
0.0
 40
6.0000037999999991
 50
90.00000299999769
 51
270.0
  0
LINE
  5
2A30
  8
AM_0
 10
623.10713034815649
 20
882.02179579135134
 30
0.0
 11
623.10713034815649
 21
870.02179579135145
 31
0.0
  0
LINE
  5
2A31
  8
AM_0
 10
605.10713034815615
 20
898.52185579135153
 30
0.0
 11
609.10713034815615
 21
898.52185579135153
 31
0.0
  0
ARC
  5
2A32
  8
AM_0
 10
602.10713034815649
 20
915.77918579135167
 30
0.0
 40
3.0
 50
0.0
 51
44.999998000001611
  0
ARC
  5
2A33
  8
AM_0
 10
602.10713034815649
 20
915.77918579135167
 30
0.0
 40
3.0
 50
0.0
 51
45.000001000003799
  0
ARC
  5
2A34
  8
AM_0
 10
602.10713034815649
 20
924.26447579135174
 30
0.0
 40
3.0
 50
180.00001000000091
 51
225.0
  0
ARC
  5
2A35
  8
AM_0
 10
602.10713034815649
 20
924.26447579135174
 30
0.0
 40
3.0
 50
179.9999899999988
 51
225.0
  0
LINE
  5
2A36
  8
AM_0
 10
599.98585034815676
 20
922.1431357913516
 30
0.0
 11
604.22852034815651
 21
917.90045579135165
 31
0.0
  0
ARC
  5
2A37
  8
AM_0
 10
601.10713034815615
 20
968.8306357913516
 30
0.0
 40
4.0
 50
278.2132199999964
 51
0.0
  0
ARC
  5
2A38
  8
AM_0
 10
602.10713034815649
 20
961.90241579135204
 30
0.0
 40
3.0
 50
98.213209000002095
 51
180.00001000000091
  0
ARC
  5
2A39
  8
AM_0
 10
549.10713034815649
 20
990.5656857913516
 30
0.0
 40
8.0
 50
0.0
 51
87.999999999996248
  0
LINE
  5
2A3A
  8
AM_0
 10
531.19746034815648
 20
999.19593579135164
 30
0.0
 11
549.38630034815651
 21
998.56073579135125
 31
0.0
  0
LINE
  5
2A3B
  8
AM_0
 10
514.92359034815661
 20
1012.185185791351
 30
0.0
 11
524.29066034815628
 21
1002.308475791351
 31
0.0
  0
ARC
  5
2A3C
  8
AM_0
 10
531.54646034815664
 20
1009.189825791351
 30
0.0
 40
10.0
 50
223.48296000000141
 51
267.99999999999631
  0
LINE
  5
2A3D
  8
AM_0
 10
557.10713034815649
 20
1008.574345791351
 30
0.0
 11
557.10713034815649
 21
990.5656857913516
 31
0.0
  0
ARC
  5
2A3E
  8
AM_0
 10
562.10713034815637
 20
1008.574345791351
 30
0.0
 40
5.0
 50
87.999999999996248
 51
180.00001000000091
  0
ARC
  5
2A3F
  8
AM_0
 10
601.10713034815615
 20
1008.213025791351
 30
0.0
 40
4.0
 50
0.0
 51
87.999999999996248
  0
LINE
  5
2A40
  8
AM_0
 10
679.10710034815645
 20
855.02185579135153
 30
0.0
 11
679.10710034815645
 21
897.02185579135153
 31
0.0
  0
ARC
  5
2A41
  8
AM_0
 10
417.10713034815632
 20
971.59873417718484
 30
0.0
 40
4.0
 50
180.0
 51
236.36150604538719
1001
GENIUS_GENODEF_13
1002
{
1000
HIER
1070
     0
1002
}
1002
{
1000
MANEDIT
1070
     0
1002
}
1002
{
1000
NOSEL
1070
     0
1002
}
1002
{
1000
BEHIND
1070
     0
1002
}
1002
{
1000
OTHER
1070
     0
1002
}
1002
{
1000
REACTOR
1002
}
1001
GENIUS_GENOBJ-N-FIL_13
1002
{
1000
OWNER
1000
GEN
1002
}
  0
LINE
  5
2A42
  8
ﾁｭｳｼﾝｾﾝ1
 10
584.10713034815615
 20
973.52185579135153
 30
0.0
 11
584.10713034815615
 21
1008.521855791351
 31
0.0
  0
LINE
  5
2A43
  8
ﾁｭｳｼﾝｾﾝ1
 10
566.60713034815626
 20
991.0218557913513
 30
0.0
 11
601.60713034815649
 21
991.0218557913513
 31
0.0
  0
LINE
  5
2A44
  8
ﾁｭｳｼﾝｾﾝ1
 10
434.10713034815632
 20
973.52185579135153
 30
0.0
 11
434.10713034815632
 21
1008.521855791351
 31
0.0
  0
LINE
  5
2A45
  8
ﾁｭｳｼﾝｾﾝ1
 10
416.60713034815632
 20
991.0218557913513
 30
0.0
 11
451.60713034815649
 21
991.0218557913513
 31
0.0
  0
LINE
  5
2A46
  8
ﾁｭｳｼﾝｾﾝ1
 10
434.10713034815632
 20
743.52185579135153
 30
0.0
 11
434.10713034815632
 21
778.52185579135153
 31
0.0
  0
LINE
  5
2A47
  8
ﾁｭｳｼﾝｾﾝ1
 10
416.60713034815632
 20
761.02185579135153
 30
0.0
 11
451.60713034815649
 21
761.02185579135153
 31
0.0
  0
TEXT
  5
2C29
  8
AM_0
 10
793.22045819043285
 20
888.24193313074215
 30
0.0
 40
20.0
  1
VX22-040G~VX22-050G
  0
ENDSEC
  0
EOF
