  0
SECTION
  2
HEADER
  9
$ACADVER
  1
AC1009
  9
$INSBASE
 10
0.0
 20
0.0
 30
0.0
  9
$EXTMIN
 10
228.19126486916909
 20
287.96931467954943
 30
-0.0000000000112498
  9
$EXTMAX
 10
1191.595538321528
 20
1094.761164509684
 30
0.0000000000002956
  9
$LIMMIN
 10
0.0
 20
0.0
  9
$LIMMAX
 10
1422.5
 20
925.0
  9
$ORTHOMODE
 70
     0
  9
$REGENMODE
 70
     1
  9
$FILLMODE
 70
     1
  9
$QTEXTMODE
 70
     0
  9
$MIRRTEXT
 70
     1
  9
$DRAGMODE
 70
     2
  9
$LTSCALE
 40
5.0
  9
$OSMODE
 70
   551
  9
$ATTMODE
 70
     1
  9
$TEXTSIZE
 40
2.5
  9
$TRACEWID
 40
1.0
  9
$TEXTSTYLE
  7
STANDARD
  9
$CLAYER
  8
AM_0
  9
$CELTYPE
  6
BYLAYER
  9
$CECOLOR
 62
   256
  9
$DIMSCALE
 40
1.0
  9
$DIMASZ
 40
2.5
  9
$DIMEXO
 40
1.0
  9
$DIMDLI
 40
8.0
  9
$DIMRND
 40
0.0
  9
$DIMDLE
 40
0.0
  9
$DIMEXE
 40
0.6
  9
$DIMTP
 40
0.1
  9
$DIMTM
 40
0.1
  9
$DIMTXT
 40
2.5
  9
$DIMCEN
 40
0.0
  9
$DIMTSZ
 40
0.0
  9
$DIMTOL
 70
     0
  9
$DIMLIM
 70
     0
  9
$DIMTIH
 70
     0
  9
$DIMTOH
 70
     0
  9
$DIMSE1
 70
     0
  9
$DIMSE2
 70
     0
  9
$DIMTAD
 70
     1
  9
$DIMZIN
 70
     8
  9
$DIMBLK
  1

  9
$DIMASO
 70
     1
  9
$DIMSHO
 70
     1
  9
$DIMPOST
  1

  9
$DIMAPOST
  1
"
  9
$DIMALT
 70
     0
  9
$DIMALTD
 70
     2
  9
$DIMALTF
 40
0.0393701
  9
$DIMLFAC
 40
1.0
  9
$DIMTOFL
 70
     1
  9
$DIMTVP
 40
0.0
  9
$DIMTIX
 70
     0
  9
$DIMSOXD
 70
     0
  9
$DIMSAH
 70
     0
  9
$DIMBLK1
  1

  9
$DIMBLK2
  1

  9
$DIMSTYLE
  2
AM_ISO
  9
$DIMCLRD
 70
   256
  9
$DIMCLRE
 70
   256
  9
$DIMCLRT
 70
     4
  9
$DIMTFAC
 40
0.71
  9
$DIMGAP
 40
0.8
  9
$LUNITS
 70
     2
  9
$LUPREC
 70
     2
  9
$SKETCHINC
 40
1.0
  9
$FILLETRAD
 40
25.0
  9
$AUNITS
 70
     0
  9
$AUPREC
 70
     0
  9
$MENU
  1
.
  9
$ELEVATION
 40
0.0
  9
$PELEVATION
 40
0.0
  9
$THICKNESS
 40
0.0
  9
$LIMCHECK
 70
     0
  9
$BLIPMODE
 70
     0
  9
$CHAMFERA
 40
10.0
  9
$CHAMFERB
 40
5.0
  9
$SKPOLY
 70
     0
  9
$TDCREATE
 40
2452066.657626227
  9
$TDUPDATE
 40
2458541.4210739238
  9
$TDINDWG
 40
0.1307419097
  9
$TDUSRTIMER
 40
0.1307415278
  9
$USRTIMER
 70
     1
  9
$ANGBASE
 50
0.0
  9
$ANGDIR
 70
     0
  9
$PDMODE
 70
     0
  9
$PDSIZE
 40
0.0
  9
$PLINEWID
 40
0.0
  9
$COORDS
 70
     1
  9
$SPLFRAME
 70
     0
  9
$SPLINETYPE
 70
     6
  9
$SPLINESEGS
 70
     8
  9
$ATTDIA
 70
     1
  9
$ATTREQ
 70
     1
  9
$HANDLING
 70
     1
  9
$HANDSEED
  5
2D9E
  9
$SURFTAB1
 70
     6
  9
$SURFTAB2
 70
     6
  9
$SURFTYPE
 70
     6
  9
$SURFU
 70
     6
  9
$SURFV
 70
     6
  9
$UCSNAME
  2

  9
$UCSORG
 10
0.0
 20
0.0
 30
0.0
  9
$UCSXDIR
 10
1.0
 20
0.0
 30
0.0
  9
$UCSYDIR
 10
0.0
 20
1.0
 30
0.0
  9
$PUCSNAME
  2

  9
$PUCSORG
 10
0.0
 20
0.0
 30
0.0
  9
$PUCSXDIR
 10
1.0
 20
0.0
 30
0.0
  9
$PUCSYDIR
 10
0.0
 20
1.0
 30
0.0
  9
$USERI1
 70
     0
  9
$USERI2
 70
     0
  9
$USERI3
 70
     0
  9
$USERI4
 70
     0
  9
$USERI5
 70
     0
  9
$USERR1
 40
0.0
  9
$USERR2
 40
0.0
  9
$USERR3
 40
0.0
  9
$USERR4
 40
0.0
  9
$USERR5
 40
0.0
  9
$WORLDVIEW
 70
     1
  9
$SHADEDGE
 70
     3
  9
$SHADEDIF
 70
    70
  9
$TILEMODE
 70
     1
  9
$MAXACTVP
 70
    64
  9
$PLIMCHECK
 70
     0
  9
$PEXTMIN
 10
1.0000000000000000E+020
 20
1.0000000000000000E+020
 30
1.0000000000000000E+020
  9
$PEXTMAX
 10
-1.0000000000000000E+020
 20
-1.0000000000000000E+020
 30
-1.0000000000000000E+020
  9
$PLIMMIN
 10
0.0
 20
0.0
  9
$PLIMMAX
 10
420.0
 20
297.0
  9
$UNITMODE
 70
     0
  9
$VISRETAIN
 70
     1
  9
$PLINEGEN
 70
     0
  9
$PSLTSCALE
 70
     1
  0
ENDSEC
  0
SECTION
  2
TABLES
  0
TABLE
  2
VPORT
 70
     1
  0
VPORT
  2
*ACTIVE
 70
     0
 10
0.0
 20
0.0
 11
1.0
 21
1.0
 12
709.89340159534845
 22
691.36523959461692
 13
0.0
 23
0.0
 14
12.5
 24
12.5
 15
50.0
 25
50.0
 16
0.0
 26
0.0
 36
1.0
 17
0.0
 27
0.0
 37
0.0
 40
812.33046664819085
 41
1.757159221076747
 42
50.0
 43
0.0
 44
0.0
 50
0.0
 51
0.0
 71
     0
 72
   100
 73
     1
 74
     3
 75
     0
 76
     0
 77
     0
 78
     0
  0
ENDTAB
  0
TABLE
  2
LTYPE
 70
    27
  0
LTYPE
  2
CONTINUOUS
 70
     0
  3
Solid line
 72
    65
 73
     0
 40
0.0
  0
LTYPE
  2
AM_ISO02W050
 70
     0
  3
__ __ __ __ __ __ __ __ __ __ __ __ __ __ __
 72
    65
 73
     2
 40
7.5
 49
6.0
 49
-1.5
  0
LTYPE
  2
AM_ISO08W050
 70
     0
  3
____ . ____ . ____ . ____ . ____ . ____ . ____
 72
    65
 73
     4
 40
18.0
 49
12.0
 49
-1.5
 49
3.0
 49
-1.5
  0
LTYPE
  2
AM_ISO09W050
 70
     0
  3
_____ . . _____ . . _____ . . ____ .. ____
 72
    65
 73
     6
 40
22.5
 49
12.0
 49
-1.5
 49
3.0
 49
-1.5
 49
3.0
 49
-1.5
  0
LTYPE
  2
AMCONSTR
 70
     0
  3
_______________________
 72
    65
 73
     2
 40
9999.0
 49
9999.0
 49
0.0
  0
LTYPE
  2
AM_ISO08W050X2
 70
     0
  3
__ . __ . __ . __ . __ . __
 72
    65
 73
     4
 40
9.0
 49
6.0
 49
-0.75
 49
1.5
 49
-0.75
  0
LTYPE
  2
AM_ISO02W050X2
 70
     0
  3
 _ _ _ _ _ _ _ _ _ _ _ _
 72
    65
 73
     2
 40
3.75
 49
3.0
 49
-0.75
  0
LTYPE
  2
AMZIGZAG
 70
     0
  3
/\/-/\/-/\/-/\/-/\/-/\/
 72
    65
 73
     2
 40
11.000099999999991
 49
0.0001
 49
-11.0
  0
LTYPE
  2
ACISOWELD
 70
     0
  3
_ _ _ _ _
 72
    65
 73
     2
 40
2.0
 49
2.0
 49
-1.0
  0
LTYPE
  2
ACISOTGB
 70
     0
  3
__ . . __ . .
 72
    65
 73
     6
 40
9.0
 49
4.0
 49
-1.0
 49
1.0
 49
-1.0
 49
1.0
 49
-1.0
  0
LTYPE
  2
ACISOTGL
 70
     0
  3
_ _ _ _ _
 72
    65
 73
     2
 40
3.0
 49
2.0
 49
-1.0
  0
LTYPE
  2
CENTER
 70
     0
  3
__ . __
 72
    65
 73
     4
 40
7.0
 49
4.0
 49
-1.0
 49
1.0
 49
-1.0
  0
LTYPE
  2
PHANTOM2
 70
     0
  3
Phantom (.5x) ___ _ _ ___ _ _ ___ _ _ ___ _ _
 72
    65
 73
     6
 40
31.75
 49
15.875
 49
-3.174999999999998
 49
3.174999999999998
 49
-3.174999999999998
 49
3.174999999999998
 49
-3.174999999999998
  0
LTYPE
  2
ACANSTGBM
 70
     0
  3
__ . . __ . .
 72
    65
 73
     6
 40
9.0
 49
4.0
 49
-1.0
 49
1.0
 49
-1.0
 49
1.0
 49
-1.0
  0
LTYPE
  2
ACANSTGLM
 70
     0
  3
_ _ _ _ _
 72
    65
 73
     2
 40
3.0
 49
2.0
 49
-1.0
  0
LTYPE
  2
GEN7
 70
     0
  3
____ . ____ . ____ . ____ . ____ . ____ . ____
 72
    65
 73
     4
 40
14.25
 49
9.75
 49
-1.5
 49
1.5
 49
-1.5
  0
LTYPE
  2
GEN3B
 70
     0
  3
 - - - - -
 72
    65
 73
     2
 40
1.0
 49
0.5
 49
-0.5
  0
LTYPE
  2
GEN7A
 70
     0
  3
__ . __ . __
 72
    65
 73
     4
 40
7.375
 49
4.75
 49
-0.875
 49
0.875
 49
-0.875
  0
LTYPE
  2
ACJISTGB
 70
     0
  3
__ . . __ . .
 72
    65
 73
     6
 40
9.0
 49
4.0
 49
-1.0
 49
1.0
 49
-1.0
 49
1.0
 49
-1.0
  0
LTYPE
  2
ACJISTGL
 70
     0
  3
_ _ _ _ _
 72
    65
 73
     2
 40
3.0
 49
2.0
 49
-1.0
  0
LTYPE
  2
HIDDEN
 70
     0
  3
Hidden __ __ __ __ __ __ __ __ __ __ __ __ __ _
 72
    65
 73
     2
 40
0.375
 49
0.25
 49
-0.125
  0
LTYPE
  2
CENTER2
 70
     0
  3
Center (.5x) ___ _ ___ _ ___ _ ___ _ ___ _ ___
 72
    65
 73
     4
 40
1.125
 49
0.75
 49
-0.125
 49
0.125
 49
-0.125
  0
LTYPE
  2
HIDDEN2
 70
     0
  3
Hidden (.5x) _ _ _ _ _ _ _ _ _ _ _ _ _ _ _ _ _
 72
    65
 73
     2
 40
0.1875
 49
0.125
 49
-0.0625
  0
LTYPE
  2
AMZIGZAG2
 70
     0
  3
/\/-/\/-/\/-/\/-/\/-/\/
 72
    65
 73
     2
 40
0.4401
 49
0.0001
 49
-0.4400000000000002
  0
LTYPE
  2
ACANSTGB
 70
     0
  3
__ . . __ . .
 72
    65
 73
     6
 40
0.35433070866
 49
0.15748031496
 49
-0.03937007874
 49
0.03937007874
 49
-0.03937007874
 49
0.03937007874
 49
-0.03937007874
  0
LTYPE
  2
ACANSTGL
 70
     0
  3
_ _ _ _ _
 72
    65
 73
     2
 40
0.11811023622
 49
0.07874015748
 49
-0.03937007874
  0
ENDTAB
  0
TABLE
  2
LAYER
 70
    10
  0
LAYER
  2
0
 70
     0
 62
     7
  6
CONTINUOUS
  0
LAYER
  2
AM_0
 70
     0
 62
     7
  6
CONTINUOUS
  0
LAYER
  2
AM_5
 70
     0
 62
     2
  6
CONTINUOUS
  0
LAYER
  2
DEFPOINTS
 70
     0
 62
     7
  6
CONTINUOUS
  0
LAYER
  2
ｶｸﾚｾﾝ2
 70
     0
 62
     3
  6
GEN3B
  0
LAYER
  2
ﾁｭｳｼﾝｾﾝ
 70
     0
 62
     1
  6
GEN7
  0
LAYER
  2
ﾁｭｳｼﾝｾﾝ1
 70
     0
 62
     1
  6
GEN7A
  0
LAYER
  2
GEV_FROZEN
 70
     1
 62
     7
  6
CONTINUOUS
  0
LAYER
  2
BHII
 70
     0
 62
     7
  6
CONTINUOUS
  0
LAYER
  2
CENN
 70
     0
 62
     7
  6
CONTINUOUS
  0
ENDTAB
  0
TABLE
  2
STYLE
 70
     9
  0
STYLE
  2
STANDARD
 70
     0
 40
0.0
 41
0.8299999999999999
 50
0.0
 71
     0
 42
2.5
  3
txt.shx
  4
bigfont.shx
  0
STYLE
  2
ANNOTATIVE
 70
     0
 40
0.0
 41
1.0
 50
0.0
 71
     0
 42
0.2
  3
txt
  4

  0
STYLE
  2

 70
     1
 40
0.0
 41
1.0
 50
0.0
 71
     0
 42
2.5
  3
ltypeshp.shx
  4

  0
STYLE
  2
ACISOTS
 70
     0
 40
1.0
 41
1.0
 50
0.0
 71
     0
 42
2.5
  3
isocp.shx
  4
extfont.shx
  0
STYLE
  2
ACISOGDT
 70
     0
 40
0.0
 41
1.0
 50
0.0
 71
     0
 42
2.5
  3
amgdt.shx
  4

  0
STYLE
  2
ACANSTS
 70
     0
 40
1.0
 41
1.0
 50
0.0
 71
     0
 42
2.5
  3
romans.shx
  4
bigfont.shx
  0
STYLE
  2
ACANSGDT
 70
     0
 40
0.0
 41
1.0
 50
0.0
 71
     0
 42
2.5
  3
amgdt.shx
  4

  0
STYLE
  2
ACJISTS
 70
     0
 40
1.0
 41
1.0
 50
0.0
 71
     0
 42
2.5
  3
isocp.shx
  4
bigfont.shx
  0
STYLE
  2
ACJISGDT
 70
     0
 40
0.0
 41
1.0
 50
0.0
 71
     0
 42
2.5
  3
amgdt.shx
  4

  0
ENDTAB
  0
TABLE
  2
VIEW
 70
     6
  0
VIEW
  2
AM_VIEW1
 70
     0
 40
462.5
 10
416.07965009208078
 20
693.75
 41
832.15930018416213
 11
0.0
 21
0.0
 31
1.0
 12
0.0
 22
0.0
 32
0.0
 42
50.0
 43
0.0
 44
0.0
 50
0.0
 71
     0
  0
VIEW
  2
AM_VIEW2
 70
     0
 40
462.5
 10
1006.420349907918
 20
693.75
 41
832.15930018416213
 11
0.0
 21
0.0
 31
1.0
 12
0.0
 22
0.0
 32
0.0
 42
50.0
 43
0.0
 44
0.0
 50
0.0
 71
     0
  0
VIEW
  2
AM_VIEW3
 70
     0
 40
462.5
 10
416.07965009208078
 20
231.25
 41
832.15930018416213
 11
0.0
 21
0.0
 31
1.0
 12
0.0
 22
0.0
 32
0.0
 42
50.0
 43
0.0
 44
0.0
 50
0.0
 71
     0
  0
VIEW
  2
AM_VIEW4
 70
     0
 40
462.5
 10
1006.420349907918
 20
231.25
 41
832.15930018416213
 11
0.0
 21
0.0
 31
1.0
 12
0.0
 22
0.0
 32
0.0
 42
50.0
 43
0.0
 44
0.0
 50
0.0
 71
     0
  0
VIEW
  2
AM_VIEW5
 70
     0
 40
462.5
 10
711.24999999999966
 20
462.5
 41
832.15930018416179
 11
0.0
 21
0.0
 31
1.0
 12
0.0
 22
0.0
 32
0.0
 42
50.0
 43
0.0
 44
0.0
 50
0.0
 71
     0
  0
VIEW
  2
AM_VIEW6
 70
     0
 40
924.99075000000005
 10
711.24999999999966
 20
462.5
 41
1664.3019571823199
 11
0.0
 21
0.0
 31
1.0
 12
0.0
 22
0.0
 32
0.0
 42
50.0
 43
0.0
 44
0.0
 50
0.0
 71
     0
  0
ENDTAB
  0
TABLE
  2
UCS
 70
     0
  0
ENDTAB
  0
TABLE
  2
APPID
 70
    95
  0
APPID
  2
ACAD
 70
     0
  0
APPID
  2
ACADANNOTATIVE
 70
     0
  0
APPID
  2
MCAD_NO_VIS
 70
     0
  0
APPID
  2
ACAD_TEMP_GRAPHIC
 70
     0
  0
APPID
  2
ACATTRIBSERVICES
 70
     0
  0
APPID
  2
GENIUS_GENREC_14
 70
     0
  0
APPID
  2
GENIUS_GENOBJ-N-REC_13
 70
     0
  0
APPID
  2
GENIUS_GENODEF_13
 70
     0
  0
APPID
  2
GENIUS_GENOLIS_13
 70
     0
  0
APPID
  2
GENIUS_GENOBJ-N-TIT_13
 70
     0
  0
APPID
  2
GENIUS_GENOENT_13
 70
     0
  0
APPID
  2
GENIUS_GENTITLE_13
 70
     0
  0
APPID
  2
GENIUS_GENOREF_13
 70
     0
  0
APPID
  2
GENIUS_GENSCREG_15
 70
     0
  0
APPID
  2
GENIUS_GENOBJ-N-SDF_13
 70
     0
  0
APPID
  2
GENIUS_GENFIL_13
 70
     0
  0
APPID
  2
GENIUS_GENOBJ-N-CHA_13
 70
     0
  0
APPID
  2
GENIUS_GENDTOL_13
 70
     0
  0
APPID
  2
GENIUS_GENOBJ-N-FIL_13
 70
     0
  0
APPID
  2
AD_DRAW
 70
     0
  0
APPID
  2
DESIGNERASSEMBLIES
 70
     0
  0
APPID
  2
ASURF_PCURVE_APPNAME
 70
     0
  0
APPID
  2
GENIUS_GE3SECT_13
 70
     0
  0
APPID
  2
GENIUS_GENCFG_13
 70
     0
  0
APPID
  2
GENIUS_GE3CFG0_13
 70
     0
  0
APPID
  2
GENIUS_GENCFG0_13
 70
     0
  0
APPID
  2
GENIUS_GENCFG1_13
 70
     0
  0
APPID
  2
GENIUS_GENCFG2_13
 70
     0
  0
APPID
  2
GENIUS_GENCFG3_13
 70
     0
  0
APPID
  2
GENIUS_GENCFG4_13
 70
     0
  0
APPID
  2
GENIUS_GEVCFG0_13
 70
     0
  0
APPID
  2
GENIUS_GENHINW_13
 70
     0
  0
APPID
  2
GENIUS_FIRSTVISTXT_14
 70
     0
  0
APPID
  2
GENIUS_GENOBJ-N-LEADER_13
 70
     0
  0
APPID
  2
GEV_VCCNULL_SWITCH_OFF
 70
     0
  0
APPID
  2
GENIUS_GEFCFG0_13
 70
     0
  0
APPID
  2
GENIUS_GENZVEED_13
 70
     0
  0
APPID
  2
GENIUS_GENSCREG_13
 70
     0
  0
APPID
  2
GENIUS_DUMCFG0_13
 70
     0
  0
APPID
  2
GEVID936201362
 70
     0
  0
APPID
  2
GEVDC
 70
     0
  0
APPID
  2
GEVCON
 70
     0
  0
APPID
  2
VCC
 70
     0
  0
APPID
  2
GEVPT
 70
     0
  0
APPID
  2
GEVIT
 70
     0
  0
APPID
  2
GENBH
 70
     0
  0
APPID
  2
GEVMK
 70
     0
  0
APPID
  2
GENIUS_GENBH_13
 70
     0
  0
APPID
  2
GENIUS_GENOBJ-NBEHI-BHF_13
 70
     0
  0
APPID
  2
GENIUS_GENOBJ-NBEHI-BHB_13
 70
     0
  0
APPID
  2
GENIUS_GENOBJ-F-DESC_13
 70
     0
  0
APPID
  2
GENIUS_GEFDESC_14
 70
     0
  0
APPID
  2
GENIUS_GENOBJ-F-PART_13
 70
     0
  0
APPID
  2
GENIUS_GEFSTDP_13
 70
     0
  0
APPID
  2
GENIUS_GEFPARTINS_13
 70
     0
  0
APPID
  2
GENIUS_GENTRA_14
 70
     0
  0
APPID
  2
GENIUS_GENINF13_13
 70
     0
  0
APPID
  2
GENIUS_GENOBJ-N-INFOPT_13
 70
     0
  0
APPID
  2
GENIUS_GENOBJ-N-RSSYM_13
 70
     0
  0
APPID
  2
GENIUS_GENSYMENT_13
 70
     0
  0
APPID
  2
GENIUS_GENSCSYM_13
 70
     0
  0
APPID
  2
GENIUS_GEFINFNAM_13
 70
     0
  0
APPID
  2
GENIUS_GENOBJ-N-CEN_13
 70
     0
  0
APPID
  2
GENIUS_GENOBJ-N-CRS_13
 70
     0
  0
APPID
  2
GENIUS_GENOBJ-N-CRC_13
 70
     0
  0
APPID
  2
GENIUS_GENCRC_14
 70
     0
  0
APPID
  2
GEVID942827039
 70
     0
  0
APPID
  2
GEVID942827040
 70
     0
  0
APPID
  2
GEVID942827041
 70
     0
  0
APPID
  2
GENIUS_GENOBJ-F-SCPASSM_13
 70
     0
  0
APPID
  2
GENIUS_GENDIMSH_14
 70
     0
  0
APPID
  2
GEVID942827042
 70
     0
  0
APPID
  2
GEVID946020473
 70
     0
  0
APPID
  2
GEVID946020474
 70
     0
  0
APPID
  2
GEVID946020475
 70
     0
  0
APPID
  2
GENIUS_GENOBJ-N-HTC_13
 70
     0
  0
APPID
  2
GENIUS_GENHATCH_13
 70
     0
  0
APPID
  2
GEVID948854295
 70
     0
  0
APPID
  2
GEVID939402019
 70
     0
  0
APPID
  2
GEVID952919491
 70
     0
  0
APPID
  2
GEVID952919492
 70
     0
  0
APPID
  2
GENIUS_GEFWELD_13
 70
     0
  0
APPID
  2
GENIUS_GENOBJ-F-WELS_13
 70
     0
  0
APPID
  2
GEVID952919493
 70
     0
  0
APPID
  2
GENIUS_GENOBJ-N-RSBK_13
 70
     0
  0
APPID
  2
GENIUS_GENOBJ-N-LIB_13
 70
     0
  0
APPID
  2
GENIUS_GENSCALE_13
 70
     0
  0
APPID
  2
GEVID986376691
 70
     0
  0
APPID
  2
DCO15
 70
     0
  0
APPID
  2
ACAD_DSTYLE_DIMBREAK
 70
     0
  0
APPID
  2
ACAD_DSTYLE_DIMJAG
 70
     0
  0
APPID
  2
ACAD_NAV_VCDISPLAY
 70
     0
  0
APPID
  2
ACADANNOPO
 70
     0
  0
APPID
  2
ACAD_EXEMPT_FROM_CAD_STANDARDS
 70
     0
  0
APPID
  2
ACAD_MLEADERVER
 70
     0
  0
ENDTAB
  0
TABLE
  2
DIMSTYLE
 70
    22
  0
DIMSTYLE
  2
STANDARD
 70
     0
  3

  4

  5

  6

  7

 40
1.0
 41
0.18
 42
0.0625
 43
0.38
 44
0.18
 45
0.0
 46
0.0
 47
0.0
 48
0.0
140
0.18
141
0.09
142
0.0
143
25.399999999999999
144
1.0
145
0.0
146
1.0
147
0.09
 71
     0
 72
     0
 73
     1
 74
     1
 75
     0
 76
     0
 77
     0
 78
     0
170
     0
171
     2
172
     0
173
     0
174
     0
175
     0
176
     0
177
     0
178
     0
  0
DIMSTYLE
  2
ANNOTATIVE
 70
     0
  3

  4

  5

  6

  7

 40
1.0
 41
0.18
 42
0.0625
 43
0.38
 44
0.18
 45
0.0
 46
0.0
 47
0.0
 48
0.0
140
0.18
141
0.09
142
0.0
143
25.399999999999999
144
1.0
145
0.0
146
1.0
147
0.09
 71
     0
 72
     0
 73
     1
 74
     1
 75
     0
 76
     0
 77
     0
 78
     0
170
     0
171
     2
172
     0
173
     0
174
     0
175
     0
176
     0
177
     0
178
     0
  0
DIMSTYLE
  2
AM_ISO
 70
     0
  3

  4
"
  5

  6

  7

 40
1.0
 41
2.5
 42
1.0
 43
8.0
 44
0.6
 45
0.0
 46
0.0
 47
0.1
 48
0.1
140
2.5
141
0.0
142
0.0
143
0.0393701
144
1.0
145
0.0
146
0.71
147
0.8
 71
     0
 72
     0
 73
     0
 74
     0
 75
     0
 76
     0
 77
     1
 78
     8
170
     0
171
     2
172
     1
173
     0
174
     0
175
     0
176
   256
177
   256
178
     4
  0
DIMSTYLE
  2
AM_ISO$3
 70
     0
  3

  4
"
  5

  6

  7

 40
1.0
 41
2.5
 42
1.0
 43
8.0
 44
0.6
 45
0.0
 46
0.0
 47
0.1
 48
0.1
140
2.5
141
0.0
142
0.0
143
0.0393701
144
1.0
145
0.0
146
0.71
147
0.8
 71
     0
 72
     0
 73
     0
 74
     1
 75
     0
 76
     0
 77
     1
 78
     8
170
     0
171
     2
172
     0
173
     0
174
     0
175
     0
176
   256
177
   256
178
     4
  0
DIMSTYLE
  2
AM_ISO$4
 70
     0
  3

  4
"
  5

  6

  7

 40
1.0
 41
2.5
 42
1.0
 43
8.0
 44
0.6
 45
0.0
 46
0.0
 47
0.1
 48
0.1
140
2.5
141
0.0
142
0.0
143
0.0393701
144
1.0
145
0.0
146
0.71
147
0.8
 71
     0
 72
     0
 73
     0
 74
     1
 75
     0
 76
     0
 77
     1
 78
     8
170
     0
171
     2
172
     0
173
     0
174
     0
175
     0
176
   256
177
   256
178
     4
  0
DIMSTYLE
  2
AM_ISO$6
 70
     0
  3

  4
"
  5

  6

  7

 40
1.0
 41
2.5
 42
1.0
 43
8.0
 44
0.6
 45
0.0
 46
0.0
 47
0.1
 48
0.1
140
2.5
141
0.0
142
0.0
143
0.0393701
144
1.0
145
0.0
146
0.71
147
0.8
 71
     0
 72
     0
 73
     0
 74
     0
 75
     0
 76
     0
 77
     0
 78
     8
170
     0
171
     2
172
     1
173
     0
174
     0
175
     0
176
   256
177
   256
178
     4
  0
DIMSTYLE
  2
AM_ISO$7
 70
     0
  3

  4
"
  5

  6

  7

 40
1.0
 41
2.5
 42
1.0
 43
8.0
 44
0.6
 45
0.0
 46
0.0
 47
0.1
 48
0.1
140
2.5
141
0.0
142
0.0
143
0.0393701
144
1.0
145
0.0
146
0.71
147
0.8
 71
     0
 72
     0
 73
     0
 74
     0
 75
     0
 76
     0
 77
     1
 78
     8
170
     0
171
     2
172
     1
173
     0
174
     0
175
     0
176
   256
177
   256
178
     4
  0
DIMSTYLE
  2
AM_ISO$SF
 70
     0
  3

  4
"
  5

  6

  7

 40
1.0
 41
2.5
 42
1.0
 43
10.0
 44
1.0
 45
0.0
 46
0.0
 47
0.1
 48
0.1
140
3.5
141
0.0
142
0.0
143
0.0393701
144
1.0
145
0.0
146
0.71
147
1.5
 71
     0
 72
     0
 73
     0
 74
     0
 75
     1
 76
     1
 77
     1
 78
     8
170
     0
171
     2
172
     1
173
     0
174
     0
175
     0
176
   256
177
   256
178
     2
  0
DIMSTYLE
  2
AM_ISO$SH
 70
     0
  3

  4
"
  5

  6

  7

 40
1.0
 41
2.5
 42
1.0
 43
10.0
 44
1.0
 45
0.0
 46
0.0
 47
0.1
 48
0.1
140
3.5
141
0.0
142
0.0
143
0.0393701
144
2.0
145
0.0
146
0.71
147
1.5
 71
     0
 72
     0
 73
     0
 74
     0
 75
     1
 76
     1
 77
     1
 78
     8
170
     0
171
     2
172
     1
173
     1
174
     0
175
     0
176
   256
177
   256
178
     2
  0
DIMSTYLE
  2
AM_JIS
 70
     0
  3

  4
"
  5

  6

  7

 40
1.0
 41
2.5
 42
1.0
 43
7.0
 44
1.0
 45
0.0
 46
0.0
 47
0.1
 48
0.1000000001
140
2.5
141
0.0
142
0.0
143
0.0393701
144
1.0
145
0.0
146
0.71
147
1.0
 71
     0
 72
     0
 73
     0
 74
     0
 75
     0
 76
     0
 77
     3
 78
     8
170
     0
171
     2
172
     1
173
     0
174
     0
175
     0
176
   256
177
   256
178
     4
  0
DIMSTYLE
  2
AM_JIS$3
 70
     0
  3

  4
"
  5

  6

  7

 40
1.0
 41
2.5
 42
1.0
 43
7.0
 44
1.0
 45
0.0
 46
0.0
 47
0.1
 48
0.1000000001
140
2.5
141
0.0
142
0.0
143
0.0393701
144
1.0
145
0.0
146
0.71
147
1.0
 71
     0
 72
     0
 73
     0
 74
     1
 75
     0
 76
     0
 77
     3
 78
     8
170
     0
171
     2
172
     0
173
     0
174
     0
175
     0
176
   256
177
   256
178
     4
  0
DIMSTYLE
  2
AM_JIS$4
 70
     0
  3

  4
"
  5

  6

  7

 40
1.0
 41
2.5
 42
1.0
 43
7.0
 44
1.0
 45
0.0
 46
0.0
 47
0.1
 48
0.1000000001
140
2.5
141
0.0
142
0.0
143
0.0393701
144
1.0
145
0.0
146
0.71
147
1.0
 71
     0
 72
     0
 73
     0
 74
     0
 75
     0
 76
     0
 77
     3
 78
     8
170
     0
171
     2
172
     0
173
     0
174
     0
175
     0
176
   256
177
   256
178
     4
  0
DIMSTYLE
  2
AM_JIS$6
 70
     0
  3

  4
"
  5

  6

  7

 40
1.0
 41
2.5
 42
1.0
 43
7.0
 44
1.0
 45
0.0
 46
0.0
 47
0.1
 48
0.1000000001
140
2.5
141
0.0
142
0.0
143
0.0393701
144
1.0
145
0.0
146
0.71
147
1.0
 71
     0
 72
     0
 73
     0
 74
     0
 75
     0
 76
     0
 77
     0
 78
     8
170
     0
171
     2
172
     1
173
     0
174
     0
175
     0
176
   256
177
   256
178
     4
  0
DIMSTYLE
  2
AM_JIS$7
 70
     0
  3

  4
"
  5

  6

  7

 40
1.0
 41
2.5
 42
1.0
 43
7.0
 44
1.0
 45
0.0
 46
0.0
 47
0.1
 48
0.1000000001
140
2.5
141
0.0
142
0.0
143
0.0393701
144
1.0
145
0.0
146
0.71
147
1.0
 71
     0
 72
     0
 73
     0
 74
     0
 75
     0
 76
     0
 77
     3
 78
     8
170
     0
171
     2
172
     1
173
     0
174
     0
175
     0
176
   256
177
   256
178
     4
  0
DIMSTYLE
  2
AM_JIS$SF
 70
     0
  3

  4
"
  5

  6

  7

 40
1.0
 41
2.5
 42
1.0
 43
10.0
 44
1.0
 45
0.0
 46
0.0
 47
0.1
 48
0.1
140
3.5
141
0.0
142
0.0
143
0.0393701
144
1.0
145
0.0
146
0.71
147
1.5
 71
     0
 72
     0
 73
     0
 74
     0
 75
     1
 76
     1
 77
     3
 78
     8
170
     0
171
     2
172
     1
173
     0
174
     0
175
     0
176
   256
177
   256
178
     4
  0
DIMSTYLE
  2
AM_JIS$SH
 70
     0
  3

  4
"
  5

  6

  7

 40
1.0
 41
2.5
 42
1.0
 43
10.0
 44
1.0
 45
0.0
 46
0.0
 47
0.1
 48
0.1
140
3.5
141
0.0
142
0.0
143
0.0393701
144
1.0
145
0.0
146
0.71
147
1.5
 71
     0
 72
     0
 73
     0
 74
     0
 75
     1
 76
     0
 77
     3
 78
     8
170
     0
171
     2
172
     1
173
     1
174
     0
175
     0
176
   256
177
   256
178
     4
  0
DIMSTYLE
  2
AM_ANSI
 70
     0
  3

  4
mm
  5

  6

  7

 40
1.0
 41
0.1
 42
0.05
 43
0.5
 44
0.1
 45
0.0
 46
0.0
 47
0.1
 48
0.1
140
0.12
141
0.0
142
0.0
143
25.399999999999999
144
1.0
145
0.0
146
0.71
147
0.06
 71
     0
 72
     0
 73
     1
 74
     1
 75
     0
 76
     0
 77
     0
 78
     7
170
     0
171
     2
172
     0
173
     0
174
     0
175
     0
176
   256
177
   256
178
     2
  0
DIMSTYLE
  2
AM_ANSI$3
 70
     0
  3

  4
mm
  5

  6

  7

 40
1.0
 41
0.1
 42
0.05
 43
0.5
 44
0.1
 45
0.0
 46
0.0
 47
0.1
 48
0.1
140
0.12
141
0.0
142
0.0
143
25.399999999999999
144
1.0
145
0.0
146
0.71
147
0.06
 71
     0
 72
     0
 73
     1
 74
     1
 75
     0
 76
     0
 77
     0
 78
     7
170
     0
171
     2
172
     0
173
     0
174
     0
175
     0
176
   256
177
   256
178
     2
  0
DIMSTYLE
  2
AM_ANSI$4
 70
     0
  3

  4
mm
  5

  6

  7

 40
1.0
 41
0.1
 42
0.05
 43
0.5
 44
0.1
 45
0.0
 46
0.0
 47
0.1
 48
0.1
140
0.12
141
0.0
142
0.0
143
25.399999999999999
144
1.0
145
0.0
146
0.71
147
0.06
 71
     0
 72
     0
 73
     1
 74
     1
 75
     0
 76
     0
 77
     0
 78
     7
170
     0
171
     2
172
     0
173
     0
174
     0
175
     0
176
   256
177
   256
178
     2
  0
DIMSTYLE
  2
AM_ANSI$7
 70
     0
  3

  4
mm
  5

  6

  7

 40
1.0
 41
0.1
 42
0.05
 43
0.5
 44
0.1
 45
0.0
 46
0.0
 47
0.1
 48
0.1
140
0.24
141
0.0
142
0.0
143
25.399999999999999
144
1.0
145
0.0
146
0.71
147
0.06
 71
     0
 72
     0
 73
     1
 74
     1
 75
     0
 76
     0
 77
     0
 78
     7
170
     0
171
     2
172
     0
173
     0
174
     0
175
     0
176
   256
177
   256
178
     2
  0
DIMSTYLE
  2
AM_ANSI$SF
 70
     0
  3

  4
mm
  5

  6

  7

 40
1.0
 41
0.1
 42
0.05
 43
0.5
 44
0.1
 45
0.0
 46
0.0
 47
0.1
 48
0.1
140
0.12
141
0.0
142
0.0
143
25.399999999999999
144
1.0
145
0.0
146
0.71
147
0.06
 71
     0
 72
     0
 73
     1
 74
     1
 75
     1
 76
     1
 77
     0
 78
     7
170
     0
171
     2
172
     0
173
     0
174
     0
175
     0
176
   256
177
   256
178
     2
  0
DIMSTYLE
  2
AM_ANSI$SH
 70
     0
  3

  4
mm
  5

  6

  7

 40
1.0
 41
0.1
 42
0.05
 43
0.5
 44
0.1
 45
0.0
 46
0.0
 47
0.1
 48
0.1
140
0.12
141
0.0
142
0.0
143
25.399999999999999
144
1.0
145
0.0
146
0.71
147
0.06
 71
     0
 72
     0
 73
     1
 74
     1
 75
     1
 76
     1
 77
     0
 78
     7
170
     0
171
     2
172
     0
173
     1
174
     0
175
     0
176
   256
177
   256
178
     2
  0
ENDTAB
  0
ENDSEC
  0
SECTION
  2
BLOCKS
  0
BLOCK
  8
0
  2
$MODEL_SPACE
 70
     0
 10
0.0
 20
0.0
 30
0.0
  3
$MODEL_SPACE
  1

  0
ENDBLK
  5
2BFD
  8
0
  0
BLOCK
 67
     1
  8
0
  2
$PAPER_SPACE
 70
     0
 10
0.0
 20
0.0
 30
0.0
  3
$PAPER_SPACE
  1

  0
ENDBLK
  5
2BF9
 67
     1
  8
0
  0
BLOCK
  8
0
  2
GENAXEH
 70
     0
 10
0.0
 20
0.0
 30
0.0
  3
GENAXEH
  1

  0
LINE
  5
295E
  8
0
 10
-1.0
 20
0.0
 30
0.0
 11
1.0
 21
0.0
 31
0.0
  0
ENDBLK
  5
295F
  8
0
  0
BLOCK
  8
0
  2
_OPEN30
 70
     0
 10
0.0
 20
0.0
 30
0.0
  3
_OPEN30
  1

  0
LINE
  5
2962
  8
0
 62
     0
 10
-1.0
 20
0.26794919
 30
0.0
 11
0.0
 21
0.0
 31
0.0
  0
LINE
  5
2963
  8
0
 62
     0
 10
0.0
 20
0.0
 30
0.0
 11
-1.0
 21
-0.26794919
 31
0.0
  0
LINE
  5
2964
  8
0
 62
     0
 10
0.0
 20
0.0
 30
0.0
 11
-1.0
 21
0.0
 31
0.0
  0
ENDBLK
  5
2965
  8
0
  0
BLOCK
  8
0
  2
*U4
 70
     1
 10
0.0
 20
0.0
 30
0.0
  3
*U4
  1
*U
  0
LINE
  5
2968
  8
BHII
 10
0.0
 20
7.6999999999999984
 30
0.0
 11
0.0000000000000021
 21
-0.3279404685324049
 31
0.0
  0
LINE
  5
2969
  8
BHII
 10
2.0
 20
7.6999999999999984
 30
0.0
 11
2.0000000000000022
 21
0.3999999999999986
 31
0.0
  0
LINE
  5
296A
  8
BHII
 10
0.0
 20
-7.6999999999999984
 30
0.0
 11
2.0
 21
-7.6999999999999984
 31
0.0
  0
LINE
  5
296B
  8
BHII
 10
2.0
 20
-0.3999999999999999
 30
0.0
 11
0.0000000000000001
 21
-1.127940468532403
 31
0.0
  0
LINE
  5
296C
  8
BHII
 10
2.0000000000000022
 20
0.3999999999999986
 30
0.0
 11
0.0000000000000021
 21
-0.3279404685324049
 31
0.0
  0
LINE
  5
296D
  8
BHII
 10
2.0
 20
-0.3999999999999999
 30
0.0
 11
2.0
 21
-7.6999999999999984
 31
0.0
  0
LINE
  5
296E
  8
BHII
 10
0.0000000000000001
 20
-1.127940468532403
 30
0.0
 11
0.0
 21
-7.6999999999999984
 31
0.0
  0
LINE
  5
296F
  8
CENN
 10
-2.999999999999996
 20
0.0
 30
0.0
 11
5.0
 21
0.0
 31
0.0
  0
LINE
  5
2970
  8
BHII
 10
2.0
 20
7.6999999999999984
 30
0.0
 11
0.0
 21
7.6999999999999984
 31
0.0
  0
ENDBLK
  5
2971
  8
0
  0
BLOCK
  8
0
  2
*U5
 70
     1
 10
0.0
 20
0.0
 30
0.0
  3
*U5
  1
*U
  0
LINE
  5
2974
  8
BHII
 10
0.0
 20
7.6999999999999984
 30
0.0
 11
0.0000000000000021
 21
-0.3279404685324049
 31
0.0
  0
LINE
  5
2975
  8
BHII
 10
2.0
 20
7.6999999999999984
 30
0.0
 11
2.0000000000000022
 21
0.3999999999999986
 31
0.0
  0
LINE
  5
2976
  8
BHII
 10
0.0
 20
-7.6999999999999984
 30
0.0
 11
2.0
 21
-7.6999999999999984
 31
0.0
  0
LINE
  5
2977
  8
BHII
 10
2.0
 20
-0.3999999999999999
 30
0.0
 11
0.0000000000000001
 21
-1.127940468532403
 31
0.0
  0
LINE
  5
2978
  8
BHII
 10
2.0000000000000022
 20
0.3999999999999986
 30
0.0
 11
0.0000000000000021
 21
-0.3279404685324049
 31
0.0
  0
LINE
  5
2979
  8
BHII
 10
2.0
 20
-0.3999999999999999
 30
0.0
 11
2.0
 21
-7.6999999999999984
 31
0.0
  0
LINE
  5
297A
  8
BHII
 10
0.0000000000000001
 20
-1.127940468532403
 30
0.0
 11
0.0
 21
-7.6999999999999984
 31
0.0
  0
LINE
  5
297B
  8
CENN
 10
-2.999999999999996
 20
0.0
 30
0.0
 11
5.0
 21
0.0
 31
0.0
  0
LINE
  5
297C
  8
BHII
 10
2.0
 20
7.6999999999999984
 30
0.0
 11
0.0
 21
7.6999999999999984
 31
0.0
  0
ENDBLK
  5
297D
  8
0
  0
BLOCK
  8
0
  2
_NONE
 70
     0
 10
0.0
 20
0.0
 30
0.0
  3
_NONE
  1

  0
ENDBLK
  5
2980
  8
0
  0
BLOCK
  8
0
  2
*U7
 70
     1
 10
0.0
 20
0.0
 30
0.0
  3
*U7
  1
*U
  0
LINE
  5
2983
  8
BHII
 10
0.0
 20
7.6999999999999984
 30
0.0
 11
0.0000000000000021
 21
-0.3279404685324049
 31
0.0
  0
LINE
  5
2984
  8
BHII
 10
2.0
 20
7.6999999999999984
 30
0.0
 11
2.0000000000000022
 21
0.3999999999999986
 31
0.0
  0
LINE
  5
2985
  8
BHII
 10
0.0
 20
-7.6999999999999984
 30
0.0
 11
2.0
 21
-7.6999999999999984
 31
0.0
  0
LINE
  5
2986
  8
BHII
 10
2.0
 20
-0.3999999999999999
 30
0.0
 11
0.0000000000000001
 21
-1.127940468532403
 31
0.0
  0
LINE
  5
2987
  8
BHII
 10
2.0000000000000022
 20
0.3999999999999986
 30
0.0
 11
0.0000000000000021
 21
-0.3279404685324049
 31
0.0
  0
LINE
  5
2988
  8
BHII
 10
2.0
 20
-0.3999999999999999
 30
0.0
 11
2.0
 21
-7.6999999999999984
 31
0.0
  0
LINE
  5
2989
  8
BHII
 10
0.0000000000000001
 20
-1.127940468532403
 30
0.0
 11
0.0
 21
-7.6999999999999984
 31
0.0
  0
LINE
  5
298A
  8
CENN
 10
-2.999999999999996
 20
0.0
 30
0.0
 11
5.0
 21
0.0
 31
0.0
  0
LINE
  5
298B
  8
BHII
 10
2.0
 20
7.6999999999999984
 30
0.0
 11
0.0
 21
7.6999999999999984
 31
0.0
  0
ENDBLK
  5
298C
  8
0
  0
BLOCK
  8
0
  2
*U8
 70
     1
 10
0.0
 20
0.0
 30
0.0
  3
*U8
  1
*U
  0
LINE
  5
298F
  8
BHII
 10
0.0
 20
7.6999999999999984
 30
0.0
 11
0.0000000000000021
 21
-0.3279404685324049
 31
0.0
  0
LINE
  5
2990
  8
BHII
 10
2.0
 20
7.6999999999999984
 30
0.0
 11
2.0000000000000022
 21
0.3999999999999986
 31
0.0
  0
LINE
  5
2991
  8
BHII
 10
0.0
 20
-7.6999999999999984
 30
0.0
 11
2.0
 21
-7.6999999999999984
 31
0.0
  0
LINE
  5
2992
  8
BHII
 10
2.0
 20
-0.3999999999999999
 30
0.0
 11
0.0000000000000001
 21
-1.127940468532403
 31
0.0
  0
LINE
  5
2993
  8
BHII
 10
2.0000000000000022
 20
0.3999999999999986
 30
0.0
 11
0.0000000000000021
 21
-0.3279404685324049
 31
0.0
  0
LINE
  5
2994
  8
BHII
 10
2.0
 20
-0.3999999999999999
 30
0.0
 11
2.0
 21
-7.6999999999999984
 31
0.0
  0
LINE
  5
2995
  8
BHII
 10
0.0000000000000001
 20
-1.127940468532403
 30
0.0
 11
0.0
 21
-7.6999999999999984
 31
0.0
  0
LINE
  5
2996
  8
CENN
 10
-2.999999999999996
 20
0.0
 30
0.0
 11
5.0
 21
0.0
 31
0.0
  0
LINE
  5
2997
  8
BHII
 10
2.0
 20
7.6999999999999984
 30
0.0
 11
0.0
 21
7.6999999999999984
 31
0.0
  0
ENDBLK
  5
2998
  8
0
  0
BLOCK
  8
0
  2
_ACMFILLEDHALF
 70
     0
 10
0.0
 20
0.0
 30
0.0
  3
_ACMFILLEDHALF
  1

  0
TRACE
  5
2D00
  8
AM_0
 62
     0
 10
-0.8
 20
0.0
 30
0.0
 11
-1.0
 21
0.166666666
 31
0.0
 12
0.0
 22
0.0
 32
0.0
 13
0.0
 23
0.0
 33
0.0
  0
LINE
  5
2D01
  8
AM_0
 62
     0
 10
-1.0
 20
0.0
 30
0.0
 11
-0.8
 21
0.0
 31
0.0
  0
ENDBLK
  5
2CFF
  8
0
  0
ENDSEC
  0
SECTION
  2
ENTITIES
  0
INSERT
  5
2999
  8
GEV_FROZEN
  2
*U4
 10
882.58017630865481
 20
562.23991825369706
 30
0.0
 41
0.1
 42
0.1
 43
0.1
 50
179.9999999999998
1001
GENBH
1002
{
1000
-NOBRK
1002
}
  0
INSERT
  5
299A
  8
GEV_FROZEN
  2
*U5
 10
882.58017630865481
 20
562.23991825369706
 30
0.0
 41
0.1
 42
0.1
 43
0.1
 50
179.9999999999998
1001
GENBH
1002
{
1000
-NOBRK
1002
}
  0
INSERT
  5
299B
  8
GEV_FROZEN
  2
*U7
 10
882.58017630865481
 20
562.23991825369706
 30
0.0
 41
0.1
 42
0.1
 43
0.1
 50
179.9999999999998
1001
GENBH
1002
{
1000
-NOBRK
1002
}
  0
INSERT
  5
299C
  8
GEV_FROZEN
  2
*U8
 10
882.58017630865481
 20
562.23991825369706
 30
0.0
 41
0.1
 42
0.1
 43
0.1
 50
179.9999999999998
1001
GENBH
1002
{
1000
-NOBRK
1002
}
  0
LINE
  5
299D
  8
AM_0
 10
394.04322048714403
 20
533.99828263886729
 30
0.0
 11
394.04322048714403
 21
363.99828263886712
 31
0.0
  0
LINE
  5
299E
  8
AM_0
 10
264.54322048714403
 20
460.99828263886712
 30
0.0
 11
264.54322048714403
 21
463.99828263886712
 31
0.0
  0
LINE
  5
299F
  8
AM_0
 10
236.543220487144
 20
460.99828263886712
 30
0.0
 11
236.543220487144
 21
463.99828263886712
 31
0.0
  0
LINE
  5
29A0
  8
AM_0
 10
275.54322048714403
 20
423.99828263886712
 30
0.0
 11
275.54322048714403
 21
473.99828263886712
 31
0.0
  0
LINE
  5
29A1
  8
AM_0
 10
318.53283248714399
 20
488.99828263886712
 30
0.0
 11
318.53283248714399
 21
408.99828263886718
 31
0.0
  0
LINE
  5
29A2
  8
AM_0
 10
286.20347448714392
 20
487.99828263886718
 30
0.0
 11
286.20347448714392
 21
409.99828263886712
 31
0.0
  0
LINE
  5
29A3
  8
AM_0
 10
277.54322048714403
 20
413.152983638867
 30
0.0
 11
277.54322048714403
 21
484.84358163886708
 31
0.0
  0
LINE
  5
29A4
  8
AM_0
 10
379.04322048714403
 20
364.99828263886712
 30
0.0
 11
379.04322048714403
 21
545.99828263886729
 31
0.0
  0
LINE
  5
29A5
  8
AM_0
 10
604.54322048714403
 20
574.41657263886725
 30
0.0
 11
604.54322048714403
 21
327.65853263886709
 31
0.0
  0
LINE
  5
29A6
  8
AM_0
 10
609.54322048714403
 20
552.06692263886725
 30
0.0
 11
609.54322048714403
 21
435.92968263886689
 31
0.0
  0
LINE
  5
29A7
  8
AM_0
 10
467.54322048714403
 20
486.10427263886731
 30
0.0
 11
467.54322048714403
 21
396.23726763886708
 31
0.0
  0
LINE
  5
29A8
  8
AM_0
 10
577.54322048714403
 20
598.32547263886715
 30
0.0
 11
577.54322048714403
 21
350.30529263886712
 31
0.0
  0
LINE
  5
29A9
  8
AM_0
 10
544.54322048714403
 20
530.95592763886725
 30
0.0
 11
544.54322048714403
 21
333.99828263886712
 31
0.0
  0
LINE
  5
29AA
  8
AM_0
 10
462.54322048714403
 20
615.99827263886709
 30
0.0
 11
462.54322048714403
 21
383.3922026388671
 31
0.0
  0
LINE
  5
29AB
  8
AM_0
 10
432.54322048714403
 20
613.01932263886715
 30
0.0
 11
432.54322048714403
 21
324.13726263886718
 31
0.0
  0
LINE
  5
29AC
  8
AM_0
 10
412.54322048714403
 20
560.69797263886699
 30
0.0
 11
412.54322048714403
 21
349.78572763886729
 31
0.0
  0
LINE
  5
29AD
  8
ﾁｭｳｼﾝｾﾝ
 10
228.22241589597701
 20
448.99828263886712
 30
0.0
 11
459.68591584722481
 21
448.99828263886712
 31
0.0
  0
LINE
  5
29AE
  8
AM_0
 10
236.543220487144
 20
460.99828263886712
 30
0.0
 11
272.54322048714403
 21
460.99828263886712
 31
0.0
  0
LINE
  5
29AF
  8
AM_0
 10
236.543220487144
 20
436.99828263886712
 30
0.0
 11
272.54322048714403
 21
436.99828263886712
 31
0.0
  0
LINE
  5
29B0
  8
AM_0
 10
236.543220487144
 20
460.99828263886712
 30
0.0
 11
236.543220487144
 21
436.99828263886712
 31
0.0
  0
LINE
  5
29B1
  8
AM_0
 10
379.54322048714403
 20
293.99828263886712
 30
0.0
 11
609.54322048714403
 21
293.99828263886712
 31
0.0
  0
LINE
  5
29B2
  8
AM_0
 10
379.54322048714403
 20
318.99828263886712
 30
0.0
 11
379.54322048714403
 21
293.99828263886712
 31
0.0
  0
LINE
  5
29B3
  8
ｶｸﾚｾﾝ2
 10
400.04322048714403
 20
323.99828263886718
 30
0.0
 11
400.04322048714403
 21
293.99828263886712
 31
0.0
  0
LINE
  5
29B4
  8
ｶｸﾚｾﾝ2
 10
419.04322048714403
 20
323.99828263886718
 30
0.0
 11
419.04322048714403
 21
293.99828263886712
 31
0.0
  0
LINE
  5
29B5
  8
ﾁｭｳｼﾝｾﾝ1
 10
409.54322048714403
 20
328.73844282549118
 30
0.0
 11
409.54322048714403
 21
290.99828263886718
 31
0.0
  0
ARC
  5
29B6
  8
AM_0
 10
374.04322048714403
 20
368.61153163886729
 30
0.0
 40
5.0
 50
0.0
 51
59.999999999999851
  0
LINE
  5
29B7
  8
AM_0
 10
376.54322048714403
 20
372.94165863886741
 30
0.0
 11
320.32458748714402
 21
405.39950163886732
 31
0.0
  0
LINE
  5
29B8
  8
AM_0
 10
288.27210048714397
 20
406.96217463886728
 30
0.0
 11
316.464206487144
 21
406.47007963886699
 31
0.0
  0
LINE
  5
29B9
  8
AM_0
 10
278.54322048714403
 20
411.42093263886733
 30
0.0
 11
284.41171948714373
 21
408.03275263886701
 31
0.0
  0
ARC
  5
29BA
  8
AM_0
 10
288.41171948714373
 20
414.960956638867
 30
0.0
 40
8.0
 50
239.9999999999998
 51
268.99999999999812
  0
LINE
  5
29BB
  8
AM_0
 10
275.54322048714403
 20
423.99828263886712
 30
0.0
 11
277.54322048714403
 21
421.99828263886718
 31
0.0
  0
ARC
  5
29BC
  8
AM_0
 10
279.54322048714403
 20
413.152983638867
 30
0.0
 40
2.0
 50
180.0
 51
239.9999999999998
  0
ARC
  5
29BD
  8
AM_0
 10
316.32458748714402
 20
398.47129763886721
 30
0.0
 40
8.0
 50
59.999999999999851
 51
88.999999999998224
  0
LINE
  5
29BE
  8
AM_0
 10
272.54322048714403
 20
461.49828263886712
 30
0.0
 11
272.54322048714403
 21
436.49828263886712
 31
0.0
  0
LINE
  5
29BF
  8
AM_0
 10
272.54322048714403
 20
436.49828263886712
 30
0.0
 11
275.54322048714403
 21
436.49828263886712
 31
0.0
  0
LINE
  5
29C0
  8
AM_0
 10
272.54322048714403
 20
461.49828263886712
 30
0.0
 11
275.54322048714403
 21
461.49828263886712
 31
0.0
  0
LINE
  5
29C1
  8
AM_0
 10
393.04322048714403
 20
423.25137663886721
 30
0.0
 11
393.04322048714403
 21
389.07938263886712
 31
0.0
  0
ARC
  5
29C2
  8
AM_0
 10
398.54327048714401
 20
389.91875763886708
 30
0.0
 40
3.0000000500000001
 50
0.0
 51
90.000003000000007
  0
LINE
  5
29C3
  8
AM_0
 10
435.89527048714399
 20
326.86617263886728
 30
0.0
 11
466.58852048714402
 21
391.97304763886717
 31
0.0
  0
ARC
  5
29C4
  8
AM_0
 10
431.3726204871441
 20
328.99828263886712
 30
0.0
 40
5.0
 50
270.0
 51
334.75947000000002
  0
LINE
  5
29C5
  8
AM_0
 10
384.54322048714403
 20
323.99828263886718
 30
0.0
 11
431.3726204871441
 21
323.99828263886718
 31
0.0
  0
ARC
  5
29C6
  8
AM_0
 10
384.54322048714403
 20
318.99828263886712
 30
0.0
 40
5.0
 50
90.000003000000007
 51
180.00001
  0
ARC
  5
29C7
  8
AM_0
 10
422.54322048714408
 20
339.92598763886718
 30
0.0
 40
10.0
 50
179.99998999999991
 51
224.09222
  0
LINE
  5
29C8
  8
AM_0
 10
424.05072048714391
 20
323.99831263886711
 30
0.0
 11
415.36102048714417
 21
332.9678576388672
 31
0.0
  0
LINE
  5
29C9
  8
AM_0
 10
412.54322048714403
 20
349.78572763886729
 30
0.0
 11
412.54322048714403
 21
339.92598763886718
 31
0.0
  0
LINE
  5
29CA
  8
AM_0
 10
394.04322048714403
 20
365.49828263886712
 30
0.0
 11
407.71777048714409
 21
365.02077763886712
 31
0.0
  0
LINE
  5
29CB
  8
AM_0
 10
404.54322048714403
 20
369.35485263886721
 30
0.0
 11
409.54322048714403
 21
369.35485263886721
 31
0.0
  0
ARC
  5
29CC
  8
AM_0
 10
404.54322048714403
 20
372.35485263886721
 30
0.0
 40
3.0000000500000001
 50
179.99998999999991
 51
270.0
  0
LINE
  5
29CD
  8
AM_0
 10
393.04322048714403
 20
362.99828263886712
 30
0.0
 11
381.04322048714403
 21
362.99828263886712
 31
0.0
  0
ARC
  5
29CE
  8
AM_0
 10
381.04322048714403
 20
364.99828263886712
 30
0.0
 40
2.0
 50
180.0
 51
270.0
  0
LINE
  5
29CF
  8
AM_0
 10
393.04322048714403
 20
362.99828263886712
 30
0.0
 11
394.04322048714403
 21
363.99828263886712
 31
0.0
  0
ARC
  5
29D0
  8
AM_0
 10
391.04322048714403
 20
389.07938263886712
 30
0.0
 40
2.0
 50
270.0
 51
0.0
  0
LINE
  5
29D1
  8
AM_0
 10
391.04322048714403
 20
387.07938263886712
 30
0.0
 11
381.04322048714403
 21
387.07938263886712
 31
0.0
  0
ARC
  5
29D2
  8
AM_0
 10
381.04322048714403
 20
389.07938263886712
 30
0.0
 40
2.0
 50
180.0
 51
270.0
  0
LINE
  5
29D3
  8
AM_0
 10
401.54322048714403
 20
389.91875763886708
 30
0.0
 11
401.54322048714403
 21
372.35485263886721
 31
0.0
  0
ARC
  5
29D4
  8
AM_0
 10
407.54322048714403
 20
360.02379763886711
 30
0.0
 40
5.0
 50
0.0
 51
88.0
  0
ARC
  5
29D5
  8
AM_0
 10
409.54322048714403
 20
366.35485263886721
 30
0.0
 40
3.0000000500000001
 50
0.0
 51
90.000003000000007
  0
LINE
  5
29D6
  8
AM_0
 10
396.04327048714401
 20
417.8878426388672
 30
0.0
 11
412.54322048714403
 21
417.8878426388672
 31
0.0
  0
LINE
  5
29D7
  8
AM_0
 10
396.04327048714401
 20
406.13570263886697
 30
0.0
 11
412.54322048714403
 21
406.13570263886697
 31
0.0
  0
LINE
  5
29D8
  8
AM_0
 10
396.04327048714401
 20
393.14531763886708
 30
0.0
 11
412.54322048714403
 21
393.14531763886708
 31
0.0
  0
LINE
  5
29D9
  8
AM_0
 10
396.04327048714401
 20
417.8878426388672
 30
0.0
 11
396.04327048714401
 21
393.14531763886708
 31
0.0
  0
LINE
  5
29DA
  8
AM_0
 10
380.04322048714408
 20
423.25137663886721
 30
0.0
 11
392.04322048714403
 21
423.25137663886721
 31
0.0
  0
ARC
  5
29DB
  8
AM_0
 10
391.04322048714403
 20
415.06014463886697
 30
0.0
 40
2.0
 50
270.0
 51
0.0
  0
LINE
  5
29DC
  8
AM_0
 10
381.04322048714403
 20
413.0601446388672
 30
0.0
 11
391.04322048714403
 21
413.0601446388672
 31
0.0
  0
ARC
  5
29DD
  8
AM_0
 10
381.04322048714403
 20
415.06014463886697
 30
0.0
 40
2.0
 50
180.0
 51
270.0
  0
ARC
  5
29DE
  8
AM_0
 10
457.54322048714403
 20
396.23726763886708
 30
0.0
 40
10.0
 50
334.75947000000002
 51
0.0
  0
LINE
  5
29DF
  8
ﾁｭｳｼﾝｾﾝ1
 10
579.54322048714403
 20
327.90615263886718
 30
0.0
 11
579.54322048714403
 21
290.99828263886718
 31
0.0
  0
LINE
  5
29E0
  8
AM_0
 10
609.54322048714403
 20
318.99828263886712
 30
0.0
 11
609.54322048714403
 21
293.99828263886712
 31
0.0
  0
LINE
  5
29E1
  8
ｶｸﾚｾﾝ2
 10
589.04322048714403
 20
323.99828263886718
 30
0.0
 11
589.04322048714403
 21
293.99828263886712
 31
0.0
  0
LINE
  5
29E2
  8
ｶｸﾚｾﾝ2
 10
570.04322048714391
 20
323.99828263886718
 30
0.0
 11
570.04322048714391
 21
293.99828263886712
 31
0.0
  0
LINE
  5
29E3
  8
AM_0
 10
554.54322048714403
 20
323.99828263886718
 30
0.0
 11
604.54322048714403
 21
323.99828263886718
 31
0.0
  0
ARC
  5
29E4
  8
AM_0
 10
554.54322048714403
 20
333.99828263886712
 30
0.0
 40
10.0
 50
179.99998999999991
 51
270.0
  0
ARC
  5
29E5
  8
AM_0
 10
567.54322048714403
 20
350.30529263886712
 30
0.0
 40
10.0
 50
270.0
 51
0.0
  0
LINE
  5
29E6
  8
AM_0
 10
544.54322048714403
 20
340.30529263886712
 30
0.0
 11
567.54322048714403
 21
340.30529263886712
 31
0.0
  0
ARC
  5
29E7
  8
AM_0
 10
604.54322048714403
 20
318.99828263886712
 30
0.0
 40
5.0
 50
0.0
 51
90.000003000000007
  0
ARC
  5
29E8
  8
AM_0
 10
609.54322048714403
 20
327.65853263886709
 30
0.0
 40
5.0
 50
179.99998999999991
 51
240.00001
  0
ARC
  5
29E9
  8
AM_0
 10
606.54322048714403
 20
431.89232763886707
 30
0.0
 40
2.0000000500000001
 50
91.999997999999948
 51
180.00001
  0
LINE
  5
29EA
  8
AM_0
 10
606.47342048714404
 20
433.89104763886712
 30
0.0
 11
607.61297048714414
 21
433.93087263886707
 31
0.0
  0
ARC
  5
29EB
  8
AM_0
 10
607.54322048714391
 20
435.92968263886689
 30
0.0
 40
2.0000000500000001
 50
272.0
 51
0.0
  0
LINE
  5
29EC
  8
AM_0
 10
236.543220487144
 20
463.99828263886712
 30
0.0
 11
264.54322048714403
 21
463.99828263886712
 31
0.0
  0
ARC
  5
29ED
  8
AM_0
 10
490.74602048714399
 20
616.01652263886695
 30
0.0
 40
5.0
 50
214.88733999999991
 51
268.0
  0
LINE
  5
29EE
  8
ﾁｭｳｼﾝｾﾝ
 10
423.52604436749101
 20
493.99828763886728
 30
0.0
 11
702.97207048714426
 21
493.99828763886728
 31
0.0
  0
LINE
  5
29EF
  8
AM_0
 10
487.54322048714403
 20
610.29682263886718
 30
0.0
 11
487.54322048714403
 21
486.10427263886731
 31
0.0
  0
LINE
  5
29F0
  8
AM_0
 10
429.54322048714403
 20
613.99832263886731
 30
0.0
 11
429.54322048714403
 21
588.59842263886719
 31
0.0
  0
ARC
  5
29F1
  8
AM_0
 10
374.04322048714403
 20
529.3850336388673
 30
0.0
 40
5.0
 50
300.0
 51
0.0
  0
LINE
  5
29F2
  8
AM_0
 10
376.54322048714403
 20
525.05490663886735
 30
0.0
 11
320.32458748714402
 21
492.5970636388671
 31
0.0
  0
LINE
  5
29F3
  8
AM_0
 10
288.27210048714397
 20
491.03439063886708
 30
0.0
 11
316.464206487144
 21
491.5264856388672
 31
0.0
  0
LINE
  5
29F4
  8
AM_0
 10
275.54322048714403
 20
473.99828263886712
 30
0.0
 11
277.54322048714403
 21
475.99828263886718
 31
0.0
  0
LINE
  5
29F5
  8
AM_0
 10
278.54322048714403
 20
486.57563263886698
 30
0.0
 11
284.41171948714373
 21
489.9638126388673
 31
0.0
  0
ARC
  5
29F6
  8
AM_0
 10
279.54322048714403
 20
484.84358163886708
 30
0.0
 40
2.0
 50
120.0000000000001
 51
180.0
  0
ARC
  5
29F7
  8
AM_0
 10
288.41171948714373
 20
483.03560863886742
 30
0.0
 40
8.0
 50
91.000000000001705
 51
120.0000000000001
  0
ARC
  5
29F8
  8
AM_0
 10
316.32458748714402
 20
499.52526763886709
 30
0.0
 40
8.0
 50
271.00000000000171
 51
300.0
  0
LINE
  5
29F9
  8
AM_0
 10
393.04322048714403
 20
534.99828263886707
 30
0.0
 11
394.04322048714403
 21
533.99828263886729
 31
0.0
  0
LINE
  5
29FA
  8
AM_0
 10
393.04322048714403
 20
532.9338396388672
 30
0.0
 11
393.04322048714403
 21
545.99828263886729
 31
0.0
  0
LINE
  5
29FB
  8
AM_0
 10
396.04327048714401
 20
532.56814263886736
 30
0.0
 11
396.04327048714401
 21
547.99827263886732
 31
0.0
  0
ARC
  5
29FC
  8
AM_0
 10
407.54322048714403
 20
537.97274263886698
 30
0.0
 40
5.0
 50
272.0
 51
0.0
  0
LINE
  5
29FD
  8
AM_0
 10
394.04322048714403
 20
532.49825763886724
 30
0.0
 11
407.71767048714401
 21
532.97579263886723
 31
0.0
  0
LINE
  5
29FE
  8
AM_0
 10
392.04322048714403
 20
532.9338396388672
 30
0.0
 11
380.04322048714408
 21
532.9338396388672
 31
0.0
  0
LINE
  5
29FF
  8
AM_0
 10
467.54322048714403
 20
486.10427263886731
 30
0.0
 11
487.54322048714403
 21
486.10427263886731
 31
0.0
  0
LINE
  5
2A00
  8
AM_0
 10
428.56102048714388
 20
585.62227263886712
 30
0.0
 11
414.50772048714401
 21
566.65022263886715
 31
0.0
  0
LINE
  5
2A01
  8
AM_0
 10
396.04317048714432
 20
547.99827263886732
 30
0.0
 11
409.64797048714399
 21
548.4733726388672
 31
0.0
  0
ARC
  5
2A02
  8
AM_0
 10
391.04322048714403
 20
545.99828263886729
 30
0.0
 40
2.0
 50
0.0
 51
90.0
  0
LINE
  5
2A03
  8
AM_0
 10
381.04322048714403
 20
547.99828263886695
 30
0.0
 11
391.04322048714403
 21
547.99828263886695
 31
0.0
  0
ARC
  5
2A04
  8
AM_0
 10
381.04322048714403
 20
545.99828263886729
 30
0.0
 40
2.0
 50
90.0
 51
180.0
  0
ARC
  5
2A05
  8
AM_0
 10
409.54322048714403
 20
551.47152263886721
 30
0.0
 40
3.0000000500000001
 50
272.0
 51
0.0
  0
ARC
  5
2A06
  8
AM_0
 10
422.54322048714408
 20
560.69797263886699
 30
0.0
 40
10.0
 50
143.47113999999991
 51
180.00001
  0
LINE
  5
2A07
  8
AM_0
 10
431.56102048714411
 20
589.6722726388673
 30
0.0
 11
428.56102048714388
 21
585.62227263886712
 31
0.0
  0
ARC
  5
2A08
  8
AM_0
 10
424.54322048714391
 20
588.59842263886719
 30
0.0
 40
5.0
 50
323.47113999999999
 51
0.0
  0
ARC
  5
2A09
  8
AM_0
 10
427.54322048714408
 20
592.64842263886715
 30
0.0
 40
5.0
 50
323.47113999999999
 51
0.0
  0
LINE
  5
2A0A
  8
AM_0
 10
432.04322048714403
 20
615.99827263886709
 30
0.0
 11
434.2937204871439
 21
624.39717263886723
 31
0.0
  0
ARC
  5
2A0B
  8
AM_0
 10
434.54322048714403
 20
613.01932263886715
 30
0.0
 40
2.0000000500000001
 50
91.999997999999948
 51
180.00001
  0
CIRCLE
  5
2A0C
  8
AM_0
 10
444.54322048714403
 20
641.99827263886732
 30
0.0
 40
15.0
  0
ARC
  5
2A0D
  8
AM_0
 10
444.54322048714403
 20
641.99827263886732
 30
0.0
 40
25.000000499999999
 50
306.46672000000001
 51
233.53328999999999
  0
LINE
  5
2A0E
  8
AM_0
 10
431.54322048714403
 20
615.99827263886709
 30
0.0
 11
462.54322048714403
 21
615.99827263886709
 31
0.0
  0
ARC
  5
2A0F
  8
AM_0
 10
431.54322048714403
 20
613.99832263886731
 30
0.0
 40
2.0000000500000001
 50
90.000003000000007
 51
180.00001
  0
ARC
  5
2A10
  8
AM_0
 10
426.11817048714391
 20
617.06797263886722
 30
0.0
 40
6.0
 50
349.72994999999997
 51
53.533291000000013
  0
LINE
  5
2A11
  8
AM_0
 10
434.4734204871441
 20
615.01802263886725
 30
0.0
 11
462.54322048714403
 21
615.99827263886709
 31
0.0
  0
ARC
  5
2A12
  8
AM_0
 10
435.25967048714438
 20
624.13837263886739
 30
0.0
 40
1.0
 50
101.21329
 51
164.99999
  0
ARC
  5
2A13
  8
AM_0
 10
453.82687048714411
 20
624.13837263886739
 30
0.0
 40
1.0
 50
15.0
 51
78.786709999999999
  0
LINE
  5
2A14
  8
AM_0
 10
434.749170487144
 20
624.99827263886709
 30
0.0
 11
454.33722048714418
 21
624.99827263886709
 31
0.0
  0
LINE
  5
2A15
  8
AM_0
 10
457.04327048714401
 20
615.99827263886709
 30
0.0
 11
454.79277048714391
 21
624.39722263886722
 31
0.0
  0
ARC
  5
2A16
  8
AM_0
 10
462.96822048714409
 20
617.06797263886722
 30
0.0
 40
6.0
 50
126.4666999999999
 51
190.27006
  0
LINE
  5
2A17
  8
AM_0
 10
444.54322048714403
 20
626.99827263886732
 30
0.0
 11
454.02132048714418
 21
625.1192726388673
 31
0.0
  0
LINE
  5
2A18
  8
AM_0
 10
435.06517048714431
 20
625.1192726388673
 30
0.0
 11
444.54322048714403
 21
626.99832263886731
 31
0.0
  0
LINE
  5
2A19
  8
AM_0
 10
462.54322048714403
 20
615.99827263886709
 30
0.0
 11
482.71772048714411
 21
615.29377263886715
 31
0.0
  0
ARC
  5
2A1A
  8
AM_0
 10
482.54322048714391
 20
610.29682263886718
 30
0.0
 40
5.0
 50
34.887349999999998
 51
88.0
  0
ARC
  5
2A1B
  8
AM_0
 10
567.54322048714403
 20
598.32547263886715
 30
0.0
 40
10.0
 50
0.0
 51
88.0
  0
ARC
  5
2A1C
  8
AM_0
 10
599.54322048714403
 20
574.41657263886725
 30
0.0
 40
5.0
 50
0.0
 51
84.999996999999979
  0
ARC
  5
2A1D
  8
AM_0
 10
559.54322048714403
 20
530.95592763886725
 30
0.0
 40
15.0
 50
90.000003000000007
 51
180.00001
  0
LINE
  5
2A1E
  8
AM_0
 10
559.54322048714403
 20
545.95592263886715
 30
0.0
 11
577.54322048714403
 21
545.95592263886715
 31
0.0
  0
ARC
  5
2A1F
  8
AM_0
 10
587.54322048714403
 20
590.52377263886729
 30
0.0
 40
10.0
 50
179.99998999999991
 51
265.0
  0
LINE
  5
2A20
  8
AM_0
 10
586.67162048714397
 20
580.56187263886716
 30
0.0
 11
599.97897048714412
 21
579.39762263886723
 31
0.0
  0
LINE
  5
2A21
  8
AM_0
 10
635.54322048714403
 20
525.49828763886705
 30
0.0
 11
697.54322048714403
 21
525.49828763886705
 31
0.0
  0
LINE
  5
2A22
  8
AM_0
 10
615.54322048714403
 20
466.49828763886723
 30
0.0
 11
697.54322048714403
 21
466.49828763886723
 31
0.0
  0
LINE
  5
2A23
  8
AM_0
 10
615.54322048714403
 20
521.49828763886705
 30
0.0
 11
697.54322048714403
 21
521.49828763886705
 31
0.0
  0
LINE
  5
2A24
  8
AM_0
 10
615.54322048714403
 20
523.99828763886717
 30
0.0
 11
615.54322048714403
 21
463.99828763886711
 31
0.0
  0
LINE
  5
2A25
  8
AM_0
 10
609.54322048714403
 20
463.99828763886711
 30
0.0
 11
615.54322048714403
 21
463.99828763886711
 31
0.0
  0
LINE
  5
2A26
  8
AM_0
 10
609.54322048714403
 20
523.99828763886717
 30
0.0
 11
615.54322048714403
 21
523.99828763886717
 31
0.0
  0
LINE
  5
2A27
  8
AM_0
 10
635.54322048714403
 20
525.49828763886705
 30
0.0
 11
635.54322048714403
 21
521.49828763886705
 31
0.0
  0
LINE
  5
2A28
  8
AM_0
 10
697.54322048714403
 20
525.49828763886705
 30
0.0
 11
697.54322048714403
 21
466.49828763886723
 31
0.0
  0
ARC
  5
2A29
  8
AM_0
 10
607.54322048714391
 20
552.06692263886725
 30
0.0
 40
2.0000000500000001
 50
0.0
 51
88.0
  0
ARC
  5
2A2A
  8
AM_0
 10
606.54322048714403
 20
556.10427263886731
 30
0.0
 40
2.0000000500000001
 50
179.99998999999991
 51
268.00000999999992
  0
LINE
  5
2A2B
  8
AM_0
 10
606.47347048714425
 20
554.10547263886724
 30
0.0
 11
607.61307048714434
 21
554.06572263886721
 31
0.0
  0
LINE
  5
2A2C
  8
AM_0
 10
490.57152048714391
 20
611.01957263886709
 30
0.0
 11
567.89227048714429
 21
608.3194226388672
 31
0.0
  0
LINE
  5
2A2D
  8
AM_0
 10
893.64299048714429
 20
335.9982526388672
 30
0.0
 11
893.64299048714429
 21
478.99828763886723
 31
0.0
  0
LINE
  5
2A2E
  8
ﾁｭｳｼﾝｾﾝ
 10
993.64299048714383
 20
287.99826763886711
 30
0.0
 11
993.64299048714383
 21
671.12596215955989
 31
0.0
  0
LINE
  5
2A2F
  8
AM_0
 10
876.64296048714425
 20
400.9621826388672
 30
0.0
 11
876.64296048714425
 21
544.93207263886734
 31
0.0
  0
LINE
  5
2A30
  8
AM_0
 10
828.64297048714434
 20
323.99828263886718
 30
0.0
 11
866.84034548714374
 21
520.50658763886713
 31
0.0
  0
LINE
  5
2A31
  8
AM_0
 10
1093.642960487143
 20
335.9982526388672
 30
0.0
 11
1093.642960487143
 21
478.99828763886723
 31
0.0
  0
LINE
  5
2A32
  8
AM_0
 10
1110.642960487143
 20
400.9621826388672
 30
0.0
 11
1110.642960487143
 21
544.93207263886734
 31
0.0
  0
LINE
  5
2A33
  8
AM_0
 10
1158.6429654871431
 20
323.99828263886718
 30
0.0
 11
1120.445620487144
 21
520.50658763886713
 31
0.0
  0
ARC
  5
2A34
  8
AM_0
 10
993.64299048714383
 20
493.99828763886728
 30
0.0
 40
60.0
 50
90.000003000000007
 51
270.0
  0
ARC
  5
2A35
  8
AM_0
 10
993.64299048714383
 20
493.99828763886728
 30
0.0
 40
60.0
 50
270.0
 51
90.000003000000007
  0
ARC
  5
2A36
  8
AM_0
 10
1153.642965487144
 20
318.99828263886712
 30
0.0
 40
5.0
 50
0.0
 51
90.000003000000007
  0
LINE
  5
2A37
  8
AM_0
 10
1088.642960487143
 20
293.99828263886712
 30
0.0
 11
1158.6429654871431
 21
293.99828263886712
 31
0.0
  0
ARC
  5
2A38
  8
AM_0
 10
934.63365048714434
 20
319.99828263886718
 30
0.0
 40
10.0
 50
235.0
 51
270.0
  0
LINE
  5
2A39
  8
ﾁｭｳｼﾝｾﾝ
 10
858.6916350291566
 20
448.99828263886712
 30
0.0
 11
1127.889341484582
 21
448.99828263886712
 31
0.0
  0
LINE
  5
2A3A
  8
AM_0
 10
993.64299048714383
 20
300.9982526388672
 30
0.0
 11
903.64299048714429
 21
300.9982526388672
 31
0.0
  0
ARC
  5
2A3B
  8
AM_0
 10
916.83345048714398
 20
308.0465926388672
 30
0.0
 40
10.0
 50
54.999999000000003
 51
135.0
  0
LINE
  5
2A3C
  8
AM_0
 10
828.64297048714434
 20
323.99828263886718
 30
0.0
 11
828.64297048714434
 21
293.99828263886712
 31
0.0
  0
LINE
  5
2A3D
  8
ﾁｭｳｼﾝｾﾝ1
 10
861.14297048714445
 20
328.65953763886711
 30
0.0
 11
861.14297048714445
 21
290.99828263886718
 31
0.0
  0
LINE
  5
2A3E
  8
AM_0
 10
898.64299048714406
 20
318.99828263886712
 30
0.0
 11
898.64299048714406
 21
293.99828263886712
 31
0.0
  0
LINE
  5
2A3F
  8
ｶｸﾚｾﾝ2
 10
870.64296048714414
 20
323.99828263886718
 30
0.0
 11
870.64296048714414
 21
293.99828263886712
 31
0.0
  0
LINE
  5
2A40
  8
ｶｸﾚｾﾝ2
 10
851.64297048714434
 20
323.99828263886718
 30
0.0
 11
851.64297048714434
 21
293.99828263886712
 31
0.0
  0
LINE
  5
2A41
  8
AM_0
 10
898.64299048714406
 20
293.99828263886712
 30
0.0
 11
828.64297048714434
 21
293.99828263886712
 31
0.0
  0
LINE
  5
2A42
  8
AM_0
 10
901.57188548714419
 20
306.92720763886712
 30
0.0
 11
909.76237548714425
 21
315.11769763886718
 31
0.0
  0
ARC
  5
2A43
  8
AM_0
 10
903.64299048714429
 20
295.9982526388672
 30
0.0
 40
5.0
 50
90.000003000000007
 51
180.00001
  0
ARC
  5
2A44
  8
AM_0
 10
908.64299048714395
 20
299.85613263886728
 30
0.0
 40
10.0
 50
135.0
 51
180.00001
  0
LINE
  5
2A45
  8
AM_0
 10
928.89787548714401
 20
311.80675263886712
 30
0.0
 11
922.56920048714437
 21
316.23815263886712
 31
0.0
  0
ARC
  5
2A46
  8
AM_0
 10
993.64299048714383
 20
400.99825263886731
 30
0.0
 40
117.0
 50
179.99998999999991
 51
211.27329999999989
  0
LINE
  5
2A47
  8
AM_0
 10
893.64299048714429
 20
323.99828263886718
 30
0.0
 11
833.64297048714434
 21
323.99828263886718
 31
0.0
  0
ARC
  5
2A48
  8
AM_0
 10
833.64297048714434
 20
318.99828263886712
 30
0.0
 40
5.0
 50
90.000003000000007
 51
180.00001
  0
ARC
  5
2A49
  8
AM_0
 10
881.64296048714414
 20
335.9982526388672
 30
0.0
 40
12.0
 50
270.0
 51
0.0
  0
ARC
  5
2A4A
  8
AM_0
 10
893.64299048714429
 20
318.99828263886712
 30
0.0
 40
5.0
 50
0.0
 51
90.000003000000007
  0
LINE
  5
2A4B
  8
ｶｸﾚｾﾝ2
 10
1135.642960487143
 20
323.99828263886718
 30
0.0
 11
1135.642960487143
 21
293.99828263886712
 31
0.0
  0
LINE
  5
2A4C
  8
ﾁｭｳｼﾝｾﾝ1
 10
1126.1429604871439
 20
328.65953763886711
 30
0.0
 11
1126.1429604871439
 21
290.99828263886718
 31
0.0
  0
LINE
  5
2A4D
  8
AM_0
 10
1088.642960487143
 20
318.99828263886712
 30
0.0
 11
1088.642960487143
 21
293.99828263886712
 31
0.0
  0
ARC
  5
2A4E
  8
AM_0
 10
1070.452470487144
 20
308.0465926388672
 30
0.0
 40
10.0
 50
45.00000099999999
 51
125.0
  0
LINE
  5
2A4F
  8
ｶｸﾚｾﾝ2
 10
1116.642975487144
 20
323.99828263886718
 30
0.0
 11
1116.642975487144
 21
293.99828263886712
 31
0.0
  0
LINE
  5
2A50
  8
AM_0
 10
993.64299048714383
 20
300.9982526388672
 30
0.0
 11
1083.6429604871439
 21
300.9982526388672
 31
0.0
  0
LINE
  5
2A51
  8
AM_0
 10
993.64299048714383
 20
309.99828263886712
 30
0.0
 11
1052.6523004871431
 21
309.99828263886712
 31
0.0
  0
LINE
  5
2A52
  8
AM_0
 10
993.64299048714383
 20
309.99828263886712
 30
0.0
 11
934.63365048714434
 21
309.99828263886712
 31
0.0
  0
LINE
  5
2A53
  8
AM_0
 10
1058.388050487144
 20
311.80678763886721
 30
0.0
 11
1064.716720487143
 21
316.23815263886712
 31
0.0
  0
ARC
  5
2A54
  8
AM_0
 10
1052.6523004871431
 20
319.99828263886718
 30
0.0
 40
10.0
 50
270.0
 51
305.0
  0
ARC
  5
2A55
  8
AM_0
 10
1083.6429604871439
 20
295.9982526388672
 30
0.0
 40
5.0
 50
0.0
 51
90.000003000000007
  0
ARC
  5
2A56
  8
AM_0
 10
1078.6429604871439
 20
299.85613263886728
 30
0.0
 40
10.0
 50
0.0
 51
45.00000099999999
  0
LINE
  5
2A57
  8
AM_0
 10
1085.7140354871431
 20
306.92720763886712
 30
0.0
 11
1077.523545487144
 21
315.11769763886718
 31
0.0
  0
ARC
  5
2A58
  8
AM_0
 10
993.64299048714383
 20
400.99825263886731
 30
0.0
 40
117.0
 50
328.72669999999988
 51
0.0
  0
ARC
  5
2A59
  8
AM_0
 10
1105.6429604871439
 20
335.9982526388672
 30
0.0
 40
12.0
 50
180.00001
 51
270.0
  0
LINE
  5
2A5A
  8
AM_0
 10
1093.642960487143
 20
323.99828263886718
 30
0.0
 11
1153.642965487144
 21
323.99828263886718
 31
0.0
  0
ARC
  5
2A5B
  8
AM_0
 10
1093.642960487143
 20
318.99828263886712
 30
0.0
 40
5.0
 50
90.000003000000007
 51
180.00001
  0
LINE
  5
2A5C
  8
AM_0
 10
1158.6429654871431
 20
323.99828263886718
 30
0.0
 11
1158.6429654871431
 21
293.99828263886712
 31
0.0
  0
LINE
  5
2A5D
  8
ﾁｭｳｼﾝｾﾝ
 10
1073.3122712955251
 20
493.99828763886711
 30
0.0
 11
914.37499623809595
 21
493.99828763886711
 31
0.0
  0
ARC
  5
2A5E
  8
AM_0
 10
993.64299048714383
 20
478.99828763886723
 30
0.0
 40
100.0
 50
90.000003000000007
 51
180.00001
  0
ARC
  5
2A5F
  8
AM_0
 10
993.64299048714383
 20
468.99828763886728
 30
0.0
 40
147.0
 50
90.000003000000007
 51
134.5979599999998
  0
ARC
  5
2A60
  8
AM_0
 10
993.64299048714383
 20
468.99828763886728
 30
0.0
 40
142.0
 50
90.000003000000007
 51
136.44563999999991
  0
ARC
  5
2A61
  8
AM_0
 10
958.13167048714422
 20
502.76137763886732
 30
0.0
 40
93.0
 50
136.44563999999991
 51
169.0
  0
ARC
  5
2A62
  8
AM_0
 10
960.64296048714425
 20
502.46468763886708
 30
0.0
 40
100.0
 50
134.5979599999998
 51
180.00001
  0
LINE
  5
2A63
  8
AM_0
 10
860.64297048714434
 20
502.46468763886708
 30
0.0
 11
860.64297048714434
 21
488.62398763886699
 31
0.0
  0
ARC
  5
2A64
  8
AM_0
 10
886.64296048714414
 20
544.93207263886734
 30
0.0
 40
10.0
 50
149.4639199999998
 51
180.00001
  0
ARC
  5
2A65
  8
AM_0
 10
993.64299048714383
 20
468.99828763886728
 30
0.0
 40
147.0
 50
45.402042999999992
 51
90.000003000000007
  0
ARC
  5
2A66
  8
AM_0
 10
993.64299048714383
 20
468.99828763886728
 30
0.0
 40
142.0
 50
43.554364
 51
90.000003000000007
  0
ARC
  5
2A67
  8
AM_0
 10
993.64299048714383
 20
478.99828763886723
 30
0.0
 40
100.0
 50
0.0
 51
90.000003000000007
  0
LINE
  5
2A68
  8
AM_0
 10
985.64296048714425
 20
515.49828763886705
 30
0.0
 11
1001.642960487144
 21
515.49828763886705
 31
0.0
  0
LINE
  5
2A69
  8
AM_0
 10
985.64296048714425
 20
525.49828763886705
 30
0.0
 11
1001.642960487144
 21
525.49828763886705
 31
0.0
  0
CIRCLE
  5
2A6A
  8
AM_5
 10
993.64299048714383
 20
493.99828763886728
 30
0.0
 40
6.0
  0
ARC
  5
2A6B
  8
AM_0
 10
993.64299048714383
 20
493.99828763886728
 30
0.0
 40
27.500000499999999
 50
106.91239
 51
73.087597000000002
  0
LINE
  5
2A6C
  8
AM_0
 10
985.64296048714425
 20
515.49828763886705
 30
0.0
 11
985.64296048714425
 21
525.49828763886705
 31
0.0
  0
CIRCLE
  5
2A6D
  8
AM_0
 10
993.64299048714383
 20
493.99828763886728
 30
0.0
 40
4.500000049999997
  0
LINE
  5
2A6E
  8
AM_0
 10
1001.642960487144
 20
515.49828763886705
 30
0.0
 11
1001.642960487144
 21
525.49828763886705
 31
0.0
  0
ARC
  5
2A6F
  8
AM_0
 10
1029.1542504871441
 20
502.76137763886732
 30
0.0
 40
93.0
 50
11.0
 51
43.554364
  0
ARC
  5
2A70
  8
AM_0
 10
1026.642960487143
 20
502.46468763886708
 30
0.0
 40
100.0
 50
0.0
 51
45.402042999999992
  0
LINE
  5
2A71
  8
AM_0
 10
1126.6429804871441
 20
502.46468763886708
 30
0.0
 11
1126.6429804871441
 21
488.62398763886699
 31
0.0
  0
ARC
  5
2A72
  8
AM_0
 10
1100.642960487143
 20
544.93207263886734
 30
0.0
 40
10.0
 50
0.0
 51
30.536084999999989
  0
ARC
  5
2A73
  8
AM_0
 10
993.64299048714383
 20
661.99827263886732
 30
0.0
 40
5.0
 50
359.99998999999991
 51
179.99998999999991
  0
LINE
  5
2A74
  8
AM_0
 10
988.64299048714361
 20
661.99827263886732
 30
0.0
 11
988.64299048714361
 21
619.99827263886709
 31
0.0
  0
ARC
  5
2A75
  8
AM_0
 10
984.35939048714397
 20
624.13837263886739
 30
0.0
 40
1.0
 50
101.21329
 51
164.99999
  0
LINE
  5
2A76
  8
AM_0
 10
980.9969354871439
 20
615.45332263886735
 30
0.0
 11
983.39345048714392
 21
624.39717263886723
 31
0.0
  0
ARC
  5
2A77
  8
AM_0
 10
986.64296048714402
 20
619.99827263886709
 30
0.0
 40
2.0000000500000001
 50
270.0
 51
0.0
  0
LINE
  5
2A78
  8
AM_0
 10
984.164900487144
 20
625.1192726388673
 30
0.0
 11
988.64296048714391
 21
626.00702263886717
 31
0.0
  0
LINE
  5
2A79
  8
AM_0
 10
998.64299048714406
 20
661.99827263886732
 30
0.0
 11
998.64299048714406
 21
619.99827263886709
 31
0.0
  0
ARC
  5
2A7A
  8
AM_0
 10
1002.926530487144
 20
624.13837263886739
 30
0.0
 40
1.0
 50
15.0
 51
78.786709999999999
  0
ARC
  5
2A7B
  8
AM_0
 10
1000.642960487144
 20
619.99827263886709
 30
0.0
 40
2.0000000500000001
 50
179.99998999999991
 51
270.0
  0
LINE
  5
2A7C
  8
AM_0
 10
1006.288985487144
 20
615.45332263886735
 30
0.0
 11
1003.892470487144
 21
624.39722263886722
 31
0.0
  0
LINE
  5
2A7D
  8
AM_0
 10
998.64296048714414
 20
626.00702263886717
 30
0.0
 11
1003.1210204871441
 21
625.1192726388673
 31
0.0
  0
LINE
  5
2A7E
  8
AM_0
 10
379.04328048714387
 20
839.49777307639283
 30
0.0
 11
379.04328048714387
 21
1019.9911357782991
 31
0.0
  0
LINE
  5
2A7F
  8
AM_0
 10
393.04328048714387
 20
948.47470414831355
 30
0.0
 11
393.04328048714387
 21
911.01420470637834
 31
0.0
  0
LINE
  5
2A80
  8
AM_0
 10
379.04328048714387
 20
911.01420470637834
 30
0.0
 11
393.04328048714387
 21
911.01420470637834
 31
0.0
  0
LINE
  5
2A81
  8
AM_0
 10
379.04328048714387
 20
914.74445442734543
 30
0.0
 11
393.04328048714387
 21
914.74445442734543
 31
0.0
  0
LINE
  5
2A82
  8
AM_0
 10
379.04328048714387
 20
948.47470414831355
 30
0.0
 11
393.04328048714387
 21
948.47470414831355
 31
0.0
  0
LINE
  5
2A83
  8
AM_0
 10
379.04328048714387
 20
944.744454427346
 30
0.0
 11
393.04328048714387
 21
944.744454427346
 31
0.0
  0
LINE
  5
2A84
  8
AM_0
 10
393.04328048714387
 20
843.74445442734589
 30
0.0
 11
393.04328048714387
 21
839.49777307639283
 31
0.0
  0
ARC
  5
2A85
  8
AM_0
 10
391.04328048714387
 20
839.49777307639283
 30
0.0
 40
2.0
 50
270.0
 51
0.0
1001
GENIUS_GENODEF_13
1002
{
1000
HIER
1070
     0
1002
}
1002
{
1000
MANEDIT
1070
     0
1002
}
1002
{
1000
NOSEL
1070
     0
1002
}
1002
{
1000
BEHIND
1070
     0
1002
}
1002
{
1000
OTHER
1070
     0
1002
}
1002
{
1000
REACTOR
1002
}
1001
GENIUS_GENOBJ-N-FIL_13
1002
{
1000
OWNER
1000
GEN
1002
}
  0
LINE
  5
2A86
  8
AM_0
 10
381.04328048714387
 20
837.49777307639283
 30
0.0
 11
391.04328048714387
 21
837.49777307639283
 31
0.0
  0
LINE
  5
2A87
  8
AM_0
 10
393.04328048714387
 20
843.74445442734623
 30
0.0
 11
381.04328048714387
 21
843.74445442734623
 31
0.0
  0
LINE
  5
2A88
  8
AM_0
 10
393.04328048714387
 20
843.74445442734623
 30
0.0
 11
394.04328048714399
 21
844.744454427346
 31
0.0
  0
ARC
  5
2A89
  8
AM_0
 10
381.04328048714387
 20
839.49777307639283
 30
0.0
 40
2.0
 50
180.0
 51
270.0
1001
GENIUS_GENOBJ-N-FIL_13
1002
{
1000
OWNER
1000
GEN
1002
}
1001
GENIUS_GENODEF_13
1002
{
1000
HIER
1070
     0
1002
}
1002
{
1000
MANEDIT
1070
     0
1002
}
1002
{
1000
NOSEL
1070
     0
1002
}
1002
{
1000
BEHIND
1070
     0
1002
}
1002
{
1000
OTHER
1070
     0
1002
}
1002
{
1000
REACTOR
1002
}
  0
ARC
  5
2A8A
  8
AM_0
 10
381.04328048714387
 20
845.744454427346
 30
0.0
 40
2.0
 50
180.0
 51
270.0
  0
ARC
  5
2A8B
  8
AM_0
 10
374.04328048714387
 20
849.357703427346
 30
0.0
 40
5.0
 50
0.0
 51
59.999999999999439
  0
LINE
  5
2A8C
  8
AM_0
 10
376.54328048714387
 20
853.68783042734572
 30
0.0
 11
320.32464748714398
 21
886.1456734273462
 31
0.0
  0
LINE
  5
2A8D
  8
AM_0
 10
376.54328048714387
 20
1005.8010784273461
 30
0.0
 11
320.32464748714398
 21
973.34323542734592
 31
0.0
  0
LINE
  5
2A8E
  8
AM_0
 10
275.54328048714399
 20
904.744454427346
 30
0.0
 11
275.54328048714399
 21
954.74445442734623
 31
0.0
  0
LINE
  5
2A8F
  8
AM_0
 10
272.54328048714387
 20
942.244454427346
 30
0.0
 11
272.54328048714387
 21
917.244454427346
 31
0.0
  0
LINE
  5
2A90
  8
AM_0
 10
236.5432804871439
 20
941.74445442734589
 30
0.0
 11
236.5432804871439
 21
917.74445442734589
 31
0.0
  0
LINE
  5
2A91
  8
AM_0
 10
264.54328048714387
 20
925.74445442734589
 30
0.0
 11
264.54328048714387
 21
933.74445442734589
 31
0.0
  0
ARC
  5
2A92
  8
AM_0
 10
264.54328048714387
 20
929.744454427346
 30
0.0
 40
4.0
 50
270.0
 51
90.0
  0
LINE
  5
2A93
  8
AM_0
 10
277.54328048714399
 20
893.89915542734616
 30
0.0
 11
277.54328048714399
 21
965.58975342734561
 31
0.0
  0
LINE
  5
2A94
  8
AM_0
 10
286.20353448714383
 20
968.74445442734623
 30
0.0
 11
286.20353448714383
 21
890.74445442734611
 31
0.0
  0
LINE
  5
2A95
  8
AM_0
 10
318.53289248714401
 20
969.74445442734623
 30
0.0
 11
318.53289248714401
 21
889.74445442734611
 31
0.0
  0
LINE
  5
2A96
  8
AM_0
 10
236.5432804871439
 20
917.74445442734589
 30
0.0
 11
272.54328048714387
 21
917.74445442734589
 31
0.0
  0
LINE
  5
2A97
  8
AM_0
 10
236.5432804871439
 20
925.74445442734589
 30
0.0
 11
264.54328048714387
 21
925.74445442734589
 31
0.0
  0
LINE
  5
2A98
  8
AM_0
 10
288.27216048714399
 20
887.70834642734633
 30
0.0
 11
316.46426648714402
 21
887.21625142734615
 31
0.0
  0
LINE
  5
2A99
  8
AM_0
 10
278.54328048714387
 20
892.16710442734632
 30
0.0
 11
284.41177948714392
 21
888.77892442734594
 31
0.0
  0
ARC
  5
2A9A
  8
AM_0
 10
279.54328048714399
 20
893.89915542734616
 30
0.0
 40
2.0
 50
180.0
 51
239.99999999999949
  0
ARC
  5
2A9B
  8
AM_0
 10
288.41177948714392
 20
895.70712842734622
 30
0.0
 40
8.0
 50
239.99999999999949
 51
268.99999999999812
  0
ARC
  5
2A9C
  8
AM_0
 10
316.32464748714398
 20
879.21746942734615
 30
0.0
 40
8.0
 50
59.999999999999439
 51
88.999999999998224
  0
LINE
  5
2A9D
  8
AM_0
 10
275.54328048714399
 20
904.744454427346
 30
0.0
 11
277.54328048714399
 21
902.744454427346
 31
0.0
  0
LINE
  5
2A9E
  8
AM_0
 10
272.54328048714387
 20
917.244454427346
 30
0.0
 11
275.54328048714399
 21
917.244454427346
 31
0.0
  0
LINE
  5
2A9F
  8
AM_0
 10
236.5432804871439
 20
941.74445442734589
 30
0.0
 11
272.54328048714387
 21
941.74445442734589
 31
0.0
  0
LINE
  5
2AA0
  8
AM_0
 10
236.5432804871439
 20
933.74445442734589
 30
0.0
 11
264.54328048714387
 21
933.74445442734589
 31
0.0
  0
LINE
  5
2AA1
  8
AM_0
 10
278.54328048714387
 20
967.32180442734591
 30
0.0
 11
284.41177948714392
 21
970.70998442734549
 31
0.0
  0
LINE
  5
2AA2
  8
AM_0
 10
272.54328048714387
 20
942.244454427346
 30
0.0
 11
275.54328048714399
 21
942.244454427346
 31
0.0
  0
LINE
  5
2AA3
  8
AM_0
 10
275.54328048714399
 20
954.74445442734623
 30
0.0
 11
277.54328048714399
 21
956.74445442734543
 31
0.0
  0
ARC
  5
2AA4
  8
AM_0
 10
279.54328048714399
 20
965.58975342734561
 30
0.0
 40
2.0
 50
120.0000000000005
 51
180.0
  0
LINE
  5
2AA5
  8
AM_0
 10
288.27216048714399
 20
971.7805624273459
 30
0.0
 11
316.46426648714402
 21
972.27265742734562
 31
0.0
  0
ARC
  5
2AA6
  8
AM_0
 10
288.41177948714392
 20
963.78178042734635
 30
0.0
 40
8.0
 50
91.000000000001776
 51
120.0000000000005
  0
ARC
  5
2AA7
  8
AM_0
 10
316.32464748714398
 20
980.27143942734585
 30
0.0
 40
8.0
 50
271.00000000000171
 51
300.00000000000051
  0
ARC
  5
2AA8
  8
AM_0
 10
374.04328048714387
 20
1010.131205427346
 30
0.0
 40
5.0
 50
300.00000000000051
 51
0.0
  0
ARC
  5
2AA9
  8
AM_0
 10
381.04328048714387
 20
1019.9911357782991
 30
0.0
 40
2.0
 50
90.0
 51
180.0
1001
GENIUS_GENOBJ-N-FIL_13
1002
{
1000
OWNER
1000
GEN
1002
}
1001
GENIUS_GENODEF_13
1002
{
1000
HIER
1070
     0
1002
}
1002
{
1000
MANEDIT
1070
     0
1002
}
1002
{
1000
NOSEL
1070
     0
1002
}
1002
{
1000
BEHIND
1070
     0
1002
}
1002
{
1000
OTHER
1070
     0
1002
}
1002
{
1000
REACTOR
1002
}
  0
LINE
  5
2AAA
  8
AM_0
 10
393.04328048714387
 20
1015.744454427345
 30
0.0
 11
381.04328048714387
 21
1015.744454427345
 31
0.0
  0
LINE
  5
2AAB
  8
AM_0
 10
381.04328048714387
 20
1021.9911357782991
 30
0.0
 11
391.04328048714387
 21
1021.9911357782991
 31
0.0
  0
ARC
  5
2AAC
  8
AM_0
 10
381.04328048714387
 20
1013.744454427346
 30
0.0
 40
2.0
 50
90.0
 51
180.0
  0
LINE
  5
2AAD
  8
AM_0
 10
393.04328048714387
 20
1015.744454427345
 30
0.0
 11
394.04328048714399
 21
1014.744454427346
 31
0.0
  0
ARC
  5
2AAE
  8
AM_0
 10
391.04328048714387
 20
1019.9911357782991
 30
0.0
 40
2.0
 50
0.0
 51
90.0
1001
GENIUS_GENODEF_13
1002
{
1000
HIER
1070
     0
1002
}
1002
{
1000
MANEDIT
1070
     0
1002
}
1002
{
1000
NOSEL
1070
     0
1002
}
1002
{
1000
BEHIND
1070
     0
1002
}
1002
{
1000
OTHER
1070
     0
1002
}
1002
{
1000
REACTOR
1002
}
1001
GENIUS_GENOBJ-N-FIL_13
1002
{
1000
OWNER
1000
GEN
1002
}
  0
LINE
  5
2AAF
  8
AM_0
 10
393.04328048714387
 20
1015.744454427345
 30
0.0
 11
393.04328048714387
 21
1019.9911357782991
 31
0.0
  0
LINE
  5
2AB1
  8
AM_0
 10
635.54328048714399
 20
937.744454427346
 30
0.0
 11
697.54322048714403
 21
937.744454427346
 31
0.0
  0
LINE
  5
2AB2
  8
AM_0
 10
635.54328048714399
 20
921.74439442734547
 30
0.0
 11
697.54322048714403
 21
921.74439442734547
 31
0.0
  0
LINE
  5
2AB3
  8
AM_0
 10
615.54322048714403
 20
957.244454427346
 30
0.0
 11
697.54322048714403
 21
957.244454427346
 31
0.0
  0
LINE
  5
2AB4
  8
AM_0
 10
615.54322048714403
 20
902.244454427346
 30
0.0
 11
697.54322048714403
 21
902.244454427346
 31
0.0
  0
LINE
  5
2AB5
  8
ﾁｭｳｼﾝｾﾝ
 10
228.22241589597701
 20
929.744454427346
 30
0.0
 11
708.16047048714404
 21
929.744454427346
 31
0.0
  0
ARC
  5
2AB6
  8
AM_0
 10
407.54322048714391
 20
913.37409442734554
 30
0.0
 40
5.0
 50
0.0
 51
88.000000000002785
  0
LINE
  5
2AB7
  8
AM_0
 10
432.54322048714391
 20
802.62055442734595
 30
0.0
 11
432.54322048714391
 21
919.20886442734593
 31
0.0
  0
LINE
  5
2AB8
  8
AM_0
 10
462.54328048714387
 20
924.74445442734589
 30
0.0
 11
462.54328048714387
 21
796.744454427346
 31
0.0
  0
LINE
  5
2AB9
  8
AM_0
 10
412.54322048714403
 20
823.28876442734588
 30
0.0
 11
412.54322048714403
 21
1036.200144427346
 31
0.0
  0
LINE
  5
2ABA
  8
AM_0
 10
487.54322048714403
 20
797.61743442734576
 30
0.0
 11
487.54322048714403
 21
1061.8714044273461
 31
0.0
  0
LINE
  5
2ABB
  8
AM_0
 10
577.54328048714399
 20
821.62232442734592
 30
0.0
 11
577.54328048714399
 21
1037.866524427345
 31
0.0
  0
LINE
  5
2ABC
  8
AM_0
 10
604.54328048714365
 20
1027.115424427345
 30
0.0
 11
604.54328048714365
 21
832.37348442734594
 31
0.0
  0
LINE
  5
2ABD
  8
AM_0
 10
609.54328048714399
 20
987.81305442734572
 30
0.0
 11
609.54328048714399
 21
871.67584442734574
 31
0.0
  0
LINE
  5
2ABE
  8
AM_0
 10
615.54322048714403
 20
959.74445442734589
 30
0.0
 11
615.54322048714403
 21
899.74445442734589
 31
0.0
  0
LINE
  5
2ABF
  8
AM_0
 10
394.04328048714399
 20
844.744454427346
 30
0.0
 11
394.04328048714399
 21
1014.744454427346
 31
0.0
  0
LINE
  5
2AC0
  8
AM_0
 10
491.68799048714402
 20
801.7621544273461
 30
0.0
 11
541.38324048714401
 21
803.49756442734554
 31
0.0
  0
LINE
  5
2AC1
  8
AM_0
 10
467.54322048714403
 20
764.744454427346
 30
0.0
 11
604.71778048714407
 21
769.53467442734575
 31
0.0
  0
LINE
  5
2AC2
  8
AM_0
 10
467.54328048714399
 20
764.744454427346
 30
0.0
 11
384.36872048714389
 21
767.64893442734592
 31
0.0
  0
ARC
  5
2AC3
  8
AM_0
 10
417.54322048714403
 20
823.28876442734588
 30
0.0
 40
5.0
 50
180.00001000000091
 51
268.00000000000261
  0
CIRCLE
  5
2AC4
  8
AM_0
 10
409.54328048714399
 20
797.244454427346
 30
0.0
 40
9.5
  0
ARC
  5
2AC5
  8
AM_0
 10
407.54322048714391
 20
837.90985442734575
 30
0.0
 40
5.0
 50
0.0
 51
88.000000000002785
  0
ARC
  5
2AC6
  8
AM_0
 10
407.54322048714391
 20
840.26990442734575
 30
0.0
 40
5.0
 50
0.0
 51
88.000000000002785
  0
LINE
  5
2AC7
  8
AM_0
 10
379.54328048714399
 20
772.64594442734574
 30
0.0
 11
379.54328048714399
 21
815.03217442734569
 31
0.0
  0
ARC
  5
2AC8
  8
AM_0
 10
384.54328048714387
 20
772.64594442734574
 30
0.0
 40
5.0
 50
180.00001000000091
 51
268.00000000000261
  0
LINE
  5
2AC9
  8
AM_0
 10
383.67505048714401
 20
819.95618442734553
 30
0.0
 11
412.54322048714403
 21
825.04645442734591
 31
0.0
  0
ARC
  5
2ACA
  8
AM_0
 10
384.54328048714387
 20
815.03217442734569
 30
0.0
 40
5.0
 50
99.999999999998593
 51
180.00001000000091
  0
LINE
  5
2ACB
  8
AM_0
 10
394.04322048714403
 20
845.74439442734592
 30
0.0
 11
407.71772048714388
 21
845.26685442734595
 31
0.0
  0
LINE
  5
2ACC
  8
AM_0
 10
407.71772048714388
 20
842.90680442734561
 30
0.0
 11
396.04328048714399
 21
843.31445442734559
 31
0.0
  0
LINE
  5
2ACD
  8
AM_0
 10
396.04328048714399
 20
843.31452442734576
 30
0.0
 11
396.04328048714399
 21
845.67450442734594
 31
0.0
  0
LINE
  5
2ACE
  8
AM_0
 10
462.54328048714387
 20
796.744454427346
 30
0.0
 11
437.36878048714402
 21
797.62360442734575
 31
0.0
  0
LINE
  5
2ACF
  8
AM_0
 10
438.54328048714399
 20
777.91773442734575
 30
0.0
 11
465.54334048714389
 21
787.46411442734575
 31
0.0
  0
LINE
  5
2AD0
  8
AM_0
 10
435.07959048714389
 20
766.08643442734592
 30
0.0
 11
465.54328048714387
 21
776.85748442734575
 31
0.0
  0
ARC
  5
2AD1
  8
AM_0
 10
437.54328048714387
 20
780.74616442734589
 30
0.0
 40
3.0
 50
180.00001000000091
 51
289.47202999999712
  0
ARC
  5
2AD2
  8
AM_0
 10
437.54322048714403
 20
802.62055442734595
 30
0.0
 40
5.0
 50
180.00001000000091
 51
268.00000000000261
  0
LINE
  5
2AD3
  8
AM_0
 10
427.71778048714401
 20
817.93042442734577
 30
0.0
 11
417.36872048714389
 21
818.29181442734591
 31
0.0
  0
ARC
  5
2AD4
  8
AM_0
 10
427.54322048714403
 20
812.93341442734595
 30
0.0
 40
5.0
 50
0.0
 51
88.000000000002785
  0
LINE
  5
2AD5
  8
AM_0
 10
462.54322048714403
 20
796.74439442734592
 30
0.0
 11
487.54328048714387
 21
797.61743442734576
 31
0.0
  0
LINE
  5
2AD6
  8
AM_0
 10
467.54328048714399
 20
779.68585442734593
 30
0.0
 11
467.54328048714399
 21
796.91901442734593
 31
0.0
  0
ARC
  5
2AD7
  8
AM_0
 10
464.54328048714399
 20
779.68585442734593
 30
0.0
 40
3.0
 50
289.47202000000181
 51
0.0
  0
ARC
  5
2AD8
  8
AM_0
 10
464.54328048714399
 20
790.29254442734555
 30
0.0
 40
3.0
 50
289.47202000000181
 51
0.0
  0
LINE
  5
2AD9
  8
AM_0
 10
487.54328048714387
 20
797.61743442734576
 30
0.0
 11
491.68805048714393
 21
801.76221442734561
 31
0.0
  0
LINE
  5
2ADA
  8
AM_0
 10
585.26410048714399
 20
830.01410442734573
 30
0.0
 11
596.8224504871439
 21
830.41773442734564
 31
0.0
  0
LINE
  5
2ADB
  8
ﾁｭｳｼﾝｾﾝ1
 10
560.04328048714399
 20
797.244454427346
 30
0.0
 11
599.04328048714387
 21
797.244454427346
 31
0.0
  0
ARC
  5
2ADC
  8
AM_0
 10
556.54328048714399
 20
801.15619442734589
 30
0.0
 40
12.0
 50
91.999998000000545
 51
180.00001000000091
  0
ARC
  5
2ADD
  8
AM_0
 10
549.54328048714387
 20
772.61096442734572
 30
0.0
 40
5.0
 50
180.00001000000091
 51
271.99999000000139
  0
ARC
  5
2ADE
  8
AM_0
 10
541.20868048714408
 20
808.49457442734604
 30
0.0
 40
5.0
 50
271.9999999999971
 51
334.42648000000293
  0
LINE
  5
2ADF
  8
AM_0
 10
544.54328048714387
 20
772.61096442734572
 30
0.0
 11
544.54328048714387
 21
801.15619442734589
 31
0.0
  0
CIRCLE
  5
2AE0
  8
AM_0
 10
579.54328048714365
 20
797.244454427346
 30
0.0
 40
9.5
  0
LINE
  5
2AE1
  8
ﾁｭｳｼﾝｾﾝ1
 10
579.54328048714365
 20
777.744454427346
 30
0.0
 11
579.54328048714365
 21
816.74445442734589
 31
0.0
  0
LINE
  5
2AE2
  8
AM_0
 10
556.12445048714392
 20
813.14887442734585
 30
0.0
 11
569.82245048714401
 21
813.62726442734572
 31
0.0
  0
ARC
  5
2AE3
  8
AM_0
 10
569.54328048714387
 20
821.62232442734592
 30
0.0
 40
8.0
 50
271.9999999999971
 51
0.0
  0
ARC
  5
2AE4
  8
AM_0
 10
585.54328048714399
 20
822.01892442734572
 30
0.0
 40
8.0
 50
91.999998000000545
 51
180.00001000000091
  0
LINE
  5
2AE5
  8
AM_0
 10
609.54328048714399
 20
774.53162442734572
 30
0.0
 11
609.54328048714399
 21
824.95722442734575
 31
0.0
  0
ARC
  5
2AE6
  8
AM_0
 10
604.54328048714365
 20
774.53162442734572
 30
0.0
 40
5.0
 50
271.9999999999971
 51
0.0
  0
ARC
  5
2AE7
  8
AM_0
 10
596.54328048714365
 20
838.41278442734574
 30
0.0
 40
8.0
 50
271.9999999999971
 51
0.0
  0
ARC
  5
2AE8
  8
AM_0
 10
607.54328048714376
 20
832.37348442734594
 30
0.0
 40
3.0
 50
180.00001000000091
 51
247.97569000000061
  0
ARC
  5
2AE9
  8
AM_0
 10
604.54328048714365
 20
824.95722442734575
 30
0.0
 40
5.0
 50
0.0
 51
67.975688999996393
  0
ARC
  5
2AEA
  8
AM_0
 10
607.54328048714376
 20
871.67584442734574
 30
0.0
 40
2.0
 50
271.9999999999971
 51
0.0
  0
ARC
  5
2AEB
  8
AM_0
 10
606.54328048714399
 20
867.6384944273459
 30
0.0
 40
2.0
 50
91.999998000000545
 51
180.00001000000091
  0
LINE
  5
2AEC
  8
AM_0
 10
606.47345048714385
 20
869.63721442734595
 30
0.0
 11
607.61310048714381
 21
869.67700442734622
 31
0.0
  0
LINE
  5
2AED
  8
AM_0
 10
609.54328048714399
 20
899.74445442734589
 30
0.0
 11
615.54322048714403
 21
899.74445442734589
 31
0.0
  0
LINE
  5
2AEE
  8
AM_0
 10
467.54328048714399
 20
1094.7443944273459
 30
0.0
 11
604.71778048714407
 21
1089.954164427344
 31
0.0
  0
LINE
  5
2AEF
  8
AM_0
 10
491.68799048714402
 20
1057.7266244273451
 30
0.0
 11
541.38324048714401
 21
1055.9912144273451
 31
0.0
  0
CIRCLE
  5
2AF0
  8
AM_0
 10
409.54328048714399
 20
1062.2444544273451
 30
0.0
 40
9.5
  0
LINE
  5
2AF1
  8
AM_0
 10
379.54328048714399
 20
1086.842964427346
 30
0.0
 11
379.54328048714399
 21
1044.456734427346
 31
0.0
  0
LINE
  5
2AF2
  8
AM_0
 10
467.54328048714399
 20
1079.8029844273451
 30
0.0
 11
467.54328048714399
 21
1062.5698344273451
 31
0.0
  0
ARC
  5
2AF3
  8
AM_0
 10
417.54322048714403
 20
1036.200144427346
 30
0.0
 40
5.0
 50
91.999998000000545
 51
180.00001000000091
  0
LINE
  5
2AF4
  8
AM_0
 10
396.04328048714399
 20
918.77869442734561
 30
0.0
 11
396.04328048714399
 21
940.71015442734574
 31
0.0
  0
LINE
  5
2AF5
  8
AM_0
 10
407.71772048714388
 20
918.37103442734622
 30
0.0
 11
396.04328048714399
 21
918.77869442734561
 31
0.0
  0
LINE
  5
2AF6
  8
AM_0
 10
407.71772048714388
 20
921.83478442734588
 30
0.0
 11
396.04328048714399
 21
922.24243442734564
 31
0.0
  0
ARC
  5
2AF7
  8
AM_0
 10
407.54322048714391
 20
916.83777442734561
 30
0.0
 40
5.0
 50
0.0
 51
88.000000000002785
  0
LINE
  5
2AF8
  8
AM_0
 10
407.71772048714388
 20
941.11786442734592
 30
0.0
 11
396.04328048714399
 21
940.71015442734574
 31
0.0
  0
LINE
  5
2AF9
  8
AM_0
 10
407.71772048714388
 20
937.65411442734558
 30
0.0
 11
396.04328048714399
 21
937.24646442734604
 31
0.0
  0
ARC
  5
2AFA
  8
AM_0
 10
407.54322048714391
 20
942.65106442734589
 30
0.0
 40
5.0
 50
271.9999999999971
 51
0.0
  0
ARC
  5
2AFB
  8
AM_0
 10
407.54322048714391
 20
946.11481442734555
 30
0.0
 40
5.0
 50
271.9999999999971
 51
0.0
  0
LINE
  5
2AFC
  8
AM_0
 10
394.04322048714403
 20
1013.744394427344
 30
0.0
 11
407.71772048714388
 21
1014.221924427346
 31
0.0
  0
LINE
  5
2AFD
  8
AM_0
 10
407.71772048714388
 20
1016.582094427346
 30
0.0
 11
396.04328048714399
 21
1016.174384427346
 31
0.0
  0
LINE
  5
2AFE
  8
AM_0
 10
396.04328048714399
 20
1013.814274427345
 30
0.0
 11
396.04328048714399
 21
1016.174384427346
 31
0.0
  0
ARC
  5
2AFF
  8
AM_0
 10
407.54322048714391
 20
1021.579044427346
 30
0.0
 40
5.0
 50
271.9999999999971
 51
0.0
  0
ARC
  5
2B00
  8
AM_0
 10
407.54322048714391
 20
1019.218934427344
 30
0.0
 40
5.0
 50
271.9999999999971
 51
0.0
  0
LINE
  5
2B01
  8
AM_0
 10
383.67505048714401
 20
1039.5326544273451
 30
0.0
 11
412.54322048714403
 21
1034.442444427345
 31
0.0
  0
ARC
  5
2B02
  8
AM_0
 10
384.54328048714387
 20
1044.456734427346
 30
0.0
 40
5.0
 50
180.00001000000091
 51
259.99998999999872
  0
LINE
  5
2B03
  8
AM_0
 10
432.54322048714391
 20
940.27997442734545
 30
0.0
 11
432.54322048714391
 21
1056.868354427344
 31
0.0
  0
LINE
  5
2B04
  8
AM_0
 10
462.54328048714387
 20
1062.744454427346
 30
0.0
 11
462.54328048714387
 21
934.74445442734589
 31
0.0
  0
ARC
  5
2B05
  8
AM_0
 10
464.54328048714399
 20
929.744454427346
 30
0.0
 40
5.0
 50
270.0
 51
90.00000299999769
  0
LINE
  5
2B06
  8
AM_0
 10
424.54328048714387
 20
934.74445442734589
 30
0.0
 11
464.54328048714399
 21
934.74445442734589
 31
0.0
  0
LINE
  5
2B07
  8
AM_0
 10
424.54328048714387
 20
924.74445442734589
 30
0.0
 11
464.54328048714399
 21
924.74445442734589
 31
0.0
  0
ARC
  5
2B08
  8
AM_0
 10
444.54328048714387
 20
929.744454427346
 30
0.0
 40
12.5
 50
203.5781799999973
 51
336.42183000000068
  0
ARC
  5
2B09
  8
AM_0
 10
444.54328048714387
 20
929.744454427346
 30
0.0
 40
12.5
 50
23.578179999997531
 51
156.42182000000241
  0
ARC
  5
2B0A
  8
AM_0
 10
424.54328048714387
 20
929.744454427346
 30
0.0
 40
5.0
 50
90.00000299999769
 51
270.0
  0
ARC
  5
2B0B
  8
AM_0
 10
427.54322048714403
 20
919.20886442734593
 30
0.0
 40
5.0
 50
0.0
 51
31.78801800000311
  0
ARC
  5
2B0C
  8
AM_0
 10
444.54328048714387
 20
929.744454427346
 30
0.0
 40
15.0
 50
199.4712300000005
 51
211.78801999999919
  0
ARC
  5
2B0D
  8
AM_0
 10
427.54322048714403
 20
940.27997442734545
 30
0.0
 40
5.0
 50
328.21198000000078
 51
0.0
  0
ARC
  5
2B0E
  8
AM_0
 10
444.54328048714387
 20
929.744454427346
 30
0.0
 40
15.0
 50
148.21198000000049
 51
160.52876999999901
  0
LINE
  5
2B0F
  8
AM_0
 10
462.54322048714403
 20
1062.7443944273459
 30
0.0
 11
437.36872048714389
 21
1061.865304427346
 31
0.0
  0
ARC
  5
2B10
  8
AM_0
 10
427.54322048714403
 20
1046.5554244273451
 30
0.0
 40
5.0
 50
271.9999999999971
 51
0.0
  0
LINE
  5
2B11
  8
AM_0
 10
427.71772048714388
 20
1041.558474427346
 30
0.0
 11
417.36872048714389
 21
1041.197084427346
 31
0.0
  0
ARC
  5
2B12
  8
AM_0
 10
437.54322048714403
 20
1056.868354427344
 30
0.0
 40
5.0
 50
91.999998000000545
 51
180.00001000000091
  0
LINE
  5
2B13
  8
AM_0
 10
462.54328048714387
 20
1062.744454427346
 30
0.0
 11
487.54328048714387
 21
1061.8714644273459
 31
0.0
  0
LINE
  5
2B14
  8
AM_0
 10
487.54328048714387
 20
1061.8714044273461
 30
0.0
 11
491.68805048714393
 21
1057.7266244273451
 31
0.0
  0
LINE
  5
2B15
  8
AM_0
 10
467.54328048714399
 20
1094.744454427346
 30
0.0
 11
384.36872048714389
 21
1091.8399144273451
 31
0.0
  0
ARC
  5
2B16
  8
AM_0
 10
384.54328048714387
 20
1086.842964427346
 30
0.0
 40
5.0
 50
91.999998000000545
 51
180.00001000000091
  0
LINE
  5
2B17
  8
AM_0
 10
435.07947048714391
 20
1093.402474427344
 30
0.0
 11
465.54328048714387
 21
1082.631414427346
 31
0.0
  0
LINE
  5
2B18
  8
AM_0
 10
438.54328048714399
 20
1081.571114427345
 30
0.0
 11
465.54334048714389
 21
1072.024724427346
 31
0.0
  0
ARC
  5
2B19
  8
AM_0
 10
437.54328048714387
 20
1078.742684427345
 30
0.0
 40
3.0
 50
70.527972999999633
 51
180.00001000000091
  0
ARC
  5
2B1A
  8
AM_0
 10
464.54328048714399
 20
1079.8029844273451
 30
0.0
 40
3.0
 50
0.0
 51
70.527972999999633
  0
ARC
  5
2B1B
  8
AM_0
 10
464.54328048714399
 20
1069.1962944273459
 30
0.0
 40
3.0
 50
0.0
 51
70.527972999999633
  0
CIRCLE
  5
2B1C
  8
AM_0
 10
579.54328048714365
 20
1062.2444544273451
 30
0.0
 40
9.5
  0
LINE
  5
2B1D
  8
AM_0
 10
609.54328048714399
 20
1084.957224427345
 30
0.0
 11
609.54328048714399
 21
1034.5316244273449
 31
0.0
  0
LINE
  5
2B1E
  8
AM_0
 10
544.54328048714387
 20
1086.877874427345
 30
0.0
 11
544.54328048714387
 21
1058.332704427346
 31
0.0
  0
LINE
  5
2B1F
  8
AM_0
 10
585.26410048714399
 20
1029.474794427344
 30
0.0
 11
596.8224504871439
 21
1029.0711744273451
 31
0.0
  0
ARC
  5
2B20
  8
AM_0
 10
556.54328048714399
 20
1058.332704427346
 30
0.0
 40
12.0
 50
180.00001000000091
 51
268.00000000000261
  0
ARC
  5
2B21
  8
AM_0
 10
541.20868048714408
 20
1050.9943244273441
 30
0.0
 40
5.0
 50
25.5735169999985
 51
88.000000000002785
  0
LINE
  5
2B22
  8
AM_0
 10
556.12445048714392
 20
1046.339974427344
 30
0.0
 11
569.82251048714375
 21
1045.861634427346
 31
0.0
  0
ARC
  5
2B23
  8
AM_0
 10
569.54328048714387
 20
1037.866524427345
 30
0.0
 40
8.0
 50
0.0
 51
88.000000000002785
  0
ARC
  5
2B24
  8
AM_0
 10
585.54328048714399
 20
1037.4699144273441
 30
0.0
 40
8.0
 50
180.00001000000091
 51
268.00000000000261
  0
ARC
  5
2B25
  8
AM_0
 10
606.54328048714399
 20
991.85040442734589
 30
0.0
 40
2.0
 50
180.00001000000091
 51
268.00000000000261
  0
ARC
  5
2B26
  8
AM_0
 10
607.54328048714376
 20
987.81305442734572
 30
0.0
 40
2.0
 50
0.0
 51
88.000000000002785
  0
ARC
  5
2B27
  8
AM_0
 10
635.54328048714399
 20
929.74439442734547
 30
0.0
 40
8.0000113999999982
 50
90.00000299999769
 51
270.0
  0
LINE
  5
2B28
  8
AM_0
 10
609.54328048714399
 20
959.74445442734589
 30
0.0
 11
615.54322048714403
 21
959.74445442734589
 31
0.0
  0
LINE
  5
2B29
  8
AM_0
 10
606.47345048714385
 20
989.851624427346
 30
0.0
 11
607.61310048714381
 21
989.81183442734562
 31
0.0
  0
LINE
  5
2B2A
  8
AM_0
 10
635.54322048714403
 20
937.744454427346
 30
0.0
 11
635.54322048714403
 21
921.74439442734547
 31
0.0
  0
ARC
  5
2B2B
  8
AM_0
 10
607.54328048714376
 20
1027.115424427345
 30
0.0
 40
3.0
 50
112.0243099999992
 51
180.00001000000091
  0
ARC
  5
2B2C
  8
AM_0
 10
596.54328048714365
 20
1021.076054427346
 30
0.0
 40
8.0
 50
0.0
 51
88.000000000002785
  0
ARC
  5
2B2D
  8
AM_0
 10
604.54328048714365
 20
1034.5316244273449
 30
0.0
 40
5.0
 50
292.02430999999922
 51
0.0
  0
ARC
  5
2B2E
  8
AM_0
 10
549.54328048714387
 20
1086.877874427345
 30
0.0
 40
5.0
 50
88.000000000002785
 51
180.00001000000091
  0
ARC
  5
2B2F
  8
AM_0
 10
604.54328048714365
 20
1084.957224427345
 30
0.0
 40
5.0
 50
0.0
 51
88.000000000002785
  0
LINE
  5
2B30
  8
AM_0
 10
697.54322048714403
 20
957.244454427346
 30
0.0
 11
697.54322048714403
 21
902.244454427346
 31
0.0
  0
LINE
  5
2B31
  8
ﾁｭｳｼﾝｾﾝ1
 10
579.54328048714365
 20
1042.744454427346
 30
0.0
 11
579.54328048714365
 21
1081.744454427346
 31
0.0
  0
LINE
  5
2B32
  8
ﾁｭｳｼﾝｾﾝ1
 10
560.04328048714399
 20
1062.2444544273451
 30
0.0
 11
599.04328048714387
 21
1062.2444544273451
 31
0.0
  0
LINE
  5
2B33
  8
ﾁｭｳｼﾝｾﾝ1
 10
409.54328048714399
 20
1042.744454427346
 30
0.0
 11
409.54328048714399
 21
1081.744454427346
 31
0.0
  0
LINE
  5
2B34
  8
ﾁｭｳｼﾝｾﾝ1
 10
390.04328048714399
 20
1062.2444544273451
 30
0.0
 11
429.04328048714387
 21
1062.2444544273451
 31
0.0
  0
LINE
  5
2B35
  8
ﾁｭｳｼﾝｾﾝ1
 10
409.54328048714399
 20
777.744454427346
 30
0.0
 11
409.54328048714399
 21
816.74445442734589
 31
0.0
  0
LINE
  5
2B36
  8
ﾁｭｳｼﾝｾﾝ1
 10
390.04328048714399
 20
797.244454427346
 30
0.0
 11
429.04328048714387
 21
797.244454427346
 31
0.0
  0
TEXT
  5
2D27
  8
AM_0
 10
818.21544953628279
 20
964.89599142984332
 30
0.0
 40
20.0
  1
VX22-060G~VX22-200G
  0
ENDSEC
  0
EOF
