  0
SECTION
  2
HEADER
  9
$ACADVER
  1
AC1009
  9
$INSBASE
 10
0.0
 20
0.0
 30
0.0
  9
$EXTMIN
 10
262.62941407019889
 20
345.94215100497507
 30
-0.0000000000112498
  9
$EXTMAX
 10
1421.3192175090301
 20
1247.489507392864
 30
0.0000000000002956
  9
$LIMMIN
 10
0.0
 20
0.0
  9
$LIMMAX
 10
1707.0
 20
1110.0
  9
$ORTHOMODE
 70
     0
  9
$REGENMODE
 70
     1
  9
$FILLMODE
 70
     1
  9
$QTEXTMODE
 70
     0
  9
$MIRRTEXT
 70
     1
  9
$DRAGMODE
 70
     2
  9
$LTSCALE
 40
6.0
  9
$OSMODE
 70
   551
  9
$ATTMODE
 70
     1
  9
$TEXTSIZE
 40
2.5
  9
$TRACEWID
 40
1.0
  9
$TEXTSTYLE
  7
STANDARD
  9
$CLAYER
  8
AM_0
  9
$CELTYPE
  6
BYLAYER
  9
$CECOLOR
 62
   256
  9
$DIMSCALE
 40
1.0
  9
$DIMASZ
 40
2.5
  9
$DIMEXO
 40
1.0
  9
$DIMDLI
 40
8.0
  9
$DIMRND
 40
0.0
  9
$DIMDLE
 40
0.0
  9
$DIMEXE
 40
0.6
  9
$DIMTP
 40
0.1
  9
$DIMTM
 40
0.1
  9
$DIMTXT
 40
2.5
  9
$DIMCEN
 40
0.0
  9
$DIMTSZ
 40
0.0
  9
$DIMTOL
 70
     0
  9
$DIMLIM
 70
     0
  9
$DIMTIH
 70
     0
  9
$DIMTOH
 70
     0
  9
$DIMSE1
 70
     0
  9
$DIMSE2
 70
     0
  9
$DIMTAD
 70
     1
  9
$DIMZIN
 70
     8
  9
$DIMBLK
  1

  9
$DIMASO
 70
     1
  9
$DIMSHO
 70
     1
  9
$DIMPOST
  1

  9
$DIMAPOST
  1
"
  9
$DIMALT
 70
     0
  9
$DIMALTD
 70
     2
  9
$DIMALTF
 40
0.0393701
  9
$DIMLFAC
 40
1.0
  9
$DIMTOFL
 70
     1
  9
$DIMTVP
 40
0.0
  9
$DIMTIX
 70
     0
  9
$DIMSOXD
 70
     0
  9
$DIMSAH
 70
     0
  9
$DIMBLK1
  1

  9
$DIMBLK2
  1

  9
$DIMSTYLE
  2
AM_ISO
  9
$DIMCLRD
 70
   256
  9
$DIMCLRE
 70
   256
  9
$DIMCLRT
 70
     4
  9
$DIMTFAC
 40
0.71
  9
$DIMGAP
 40
0.8
  9
$LUNITS
 70
     2
  9
$LUPREC
 70
     2
  9
$SKETCHINC
 40
1.0
  9
$FILLETRAD
 40
30.0
  9
$AUNITS
 70
     0
  9
$AUPREC
 70
     0
  9
$MENU
  1
.
  9
$ELEVATION
 40
0.0
  9
$PELEVATION
 40
0.0
  9
$THICKNESS
 40
0.0
  9
$LIMCHECK
 70
     0
  9
$BLIPMODE
 70
     0
  9
$CHAMFERA
 40
12.0
  9
$CHAMFERB
 40
6.0
  9
$SKPOLY
 70
     0
  9
$TDCREATE
 40
2452066.6787881488
  9
$TDUPDATE
 40
2458541.4215171412
  9
$TDINDWG
 40
0.1347753356
  9
$TDUSRTIMER
 40
0.1347751505
  9
$USRTIMER
 70
     1
  9
$ANGBASE
 50
0.0
  9
$ANGDIR
 70
     0
  9
$PDMODE
 70
     0
  9
$PDSIZE
 40
0.0
  9
$PLINEWID
 40
0.0
  9
$COORDS
 70
     1
  9
$SPLFRAME
 70
     0
  9
$SPLINETYPE
 70
     6
  9
$SPLINESEGS
 70
     8
  9
$ATTDIA
 70
     1
  9
$ATTREQ
 70
     1
  9
$HANDLING
 70
     1
  9
$HANDSEED
  5
2E7D
  9
$SURFTAB1
 70
     6
  9
$SURFTAB2
 70
     6
  9
$SURFTYPE
 70
     6
  9
$SURFU
 70
     6
  9
$SURFV
 70
     6
  9
$UCSNAME
  2

  9
$UCSORG
 10
0.0
 20
0.0
 30
0.0
  9
$UCSXDIR
 10
1.0
 20
0.0
 30
0.0
  9
$UCSYDIR
 10
0.0
 20
1.0
 30
0.0
  9
$PUCSNAME
  2

  9
$PUCSORG
 10
0.0
 20
0.0
 30
0.0
  9
$PUCSXDIR
 10
1.0
 20
0.0
 30
0.0
  9
$PUCSYDIR
 10
0.0
 20
1.0
 30
0.0
  9
$USERI1
 70
     0
  9
$USERI2
 70
     0
  9
$USERI3
 70
     0
  9
$USERI4
 70
     0
  9
$USERI5
 70
     0
  9
$USERR1
 40
0.0
  9
$USERR2
 40
0.0
  9
$USERR3
 40
0.0
  9
$USERR4
 40
0.0
  9
$USERR5
 40
0.0
  9
$WORLDVIEW
 70
     1
  9
$SHADEDGE
 70
     3
  9
$SHADEDIF
 70
    70
  9
$TILEMODE
 70
     1
  9
$MAXACTVP
 70
    64
  9
$PLIMCHECK
 70
     0
  9
$PEXTMIN
 10
1.0000000000000000E+020
 20
1.0000000000000000E+020
 30
1.0000000000000000E+020
  9
$PEXTMAX
 10
-1.0000000000000000E+020
 20
-1.0000000000000000E+020
 30
-1.0000000000000000E+020
  9
$PLIMMIN
 10
0.0
 20
0.0
  9
$PLIMMAX
 10
420.0
 20
297.0
  9
$UNITMODE
 70
     0
  9
$VISRETAIN
 70
     1
  9
$PLINEGEN
 70
     0
  9
$PSLTSCALE
 70
     1
  0
ENDSEC
  0
SECTION
  2
TABLES
  0
TABLE
  2
VPORT
 70
     1
  0
VPORT
  2
*ACTIVE
 70
     0
 10
0.0
 20
0.0
 11
1.0
 21
1.0
 12
841.97431578961482
 22
796.71582919891989
 13
0.0
 23
0.0
 14
15.0
 24
15.0
 15
60.0
 25
60.0
 16
0.0
 26
0.0
 36
1.0
 17
0.0
 27
0.0
 37
0.0
 40
907.73646867430523
 41
1.757159221076747
 42
50.0
 43
0.0
 44
0.0
 50
0.0
 51
0.0
 71
     0
 72
   100
 73
     1
 74
     3
 75
     0
 76
     0
 77
     0
 78
     0
  0
ENDTAB
  0
TABLE
  2
LTYPE
 70
    27
  0
LTYPE
  2
CONTINUOUS
 70
     0
  3
Solid line
 72
    65
 73
     0
 40
0.0
  0
LTYPE
  2
AM_ISO02W050
 70
     0
  3
__ __ __ __ __ __ __ __ __ __ __ __ __ __ __
 72
    65
 73
     2
 40
7.5
 49
6.0
 49
-1.5
  0
LTYPE
  2
AM_ISO08W050
 70
     0
  3
____ . ____ . ____ . ____ . ____ . ____ . ____
 72
    65
 73
     4
 40
18.0
 49
12.0
 49
-1.5
 49
3.0
 49
-1.5
  0
LTYPE
  2
AM_ISO09W050
 70
     0
  3
_____ . . _____ . . _____ . . ____ .. ____
 72
    65
 73
     6
 40
22.5
 49
12.0
 49
-1.5
 49
3.0
 49
-1.5
 49
3.0
 49
-1.5
  0
LTYPE
  2
AMCONSTR
 70
     0
  3
_______________________
 72
    65
 73
     2
 40
9999.0
 49
9999.0
 49
0.0
  0
LTYPE
  2
AM_ISO08W050X2
 70
     0
  3
__ . __ . __ . __ . __ . __
 72
    65
 73
     4
 40
9.0
 49
6.0
 49
-0.75
 49
1.5
 49
-0.75
  0
LTYPE
  2
AM_ISO02W050X2
 70
     0
  3
 _ _ _ _ _ _ _ _ _ _ _ _
 72
    65
 73
     2
 40
3.75
 49
3.0
 49
-0.75
  0
LTYPE
  2
AMZIGZAG
 70
     0
  3
/\/-/\/-/\/-/\/-/\/-/\/
 72
    65
 73
     2
 40
11.000099999999991
 49
0.0001
 49
-11.0
  0
LTYPE
  2
ACISOWELD
 70
     0
  3
_ _ _ _ _
 72
    65
 73
     2
 40
2.0
 49
2.0
 49
-1.0
  0
LTYPE
  2
ACISOTGB
 70
     0
  3
__ . . __ . .
 72
    65
 73
     6
 40
9.0
 49
4.0
 49
-1.0
 49
1.0
 49
-1.0
 49
1.0
 49
-1.0
  0
LTYPE
  2
ACISOTGL
 70
     0
  3
_ _ _ _ _
 72
    65
 73
     2
 40
3.0
 49
2.0
 49
-1.0
  0
LTYPE
  2
CENTER
 70
     0
  3
__ . __
 72
    65
 73
     4
 40
7.0
 49
4.0
 49
-1.0
 49
1.0
 49
-1.0
  0
LTYPE
  2
PHANTOM2
 70
     0
  3
Phantom (.5x) ___ _ _ ___ _ _ ___ _ _ ___ _ _
 72
    65
 73
     6
 40
31.75
 49
15.875
 49
-3.174999999999998
 49
3.174999999999998
 49
-3.174999999999998
 49
3.174999999999998
 49
-3.174999999999998
  0
LTYPE
  2
ACANSTGBM
 70
     0
  3
__ . . __ . .
 72
    65
 73
     6
 40
9.0
 49
4.0
 49
-1.0
 49
1.0
 49
-1.0
 49
1.0
 49
-1.0
  0
LTYPE
  2
ACANSTGLM
 70
     0
  3
_ _ _ _ _
 72
    65
 73
     2
 40
3.0
 49
2.0
 49
-1.0
  0
LTYPE
  2
GEN7
 70
     0
  3
____ . ____ . ____ . ____ . ____ . ____ . ____
 72
    65
 73
     4
 40
14.25
 49
9.75
 49
-1.5
 49
1.5
 49
-1.5
  0
LTYPE
  2
GEN3B
 70
     0
  3
 - - - - -
 72
    65
 73
     2
 40
1.0
 49
0.5
 49
-0.5
  0
LTYPE
  2
GEN7A
 70
     0
  3
__ . __ . __
 72
    65
 73
     4
 40
7.375
 49
4.75
 49
-0.875
 49
0.875
 49
-0.875
  0
LTYPE
  2
ACJISTGB
 70
     0
  3
__ . . __ . .
 72
    65
 73
     6
 40
9.0
 49
4.0
 49
-1.0
 49
1.0
 49
-1.0
 49
1.0
 49
-1.0
  0
LTYPE
  2
ACJISTGL
 70
     0
  3
_ _ _ _ _
 72
    65
 73
     2
 40
3.0
 49
2.0
 49
-1.0
  0
LTYPE
  2
HIDDEN
 70
     0
  3
Hidden __ __ __ __ __ __ __ __ __ __ __ __ __ _
 72
    65
 73
     2
 40
0.375
 49
0.25
 49
-0.125
  0
LTYPE
  2
CENTER2
 70
     0
  3
Center (.5x) ___ _ ___ _ ___ _ ___ _ ___ _ ___
 72
    65
 73
     4
 40
1.125
 49
0.75
 49
-0.125
 49
0.125
 49
-0.125
  0
LTYPE
  2
HIDDEN2
 70
     0
  3
Hidden (.5x) _ _ _ _ _ _ _ _ _ _ _ _ _ _ _ _ _
 72
    65
 73
     2
 40
0.1875
 49
0.125
 49
-0.0625
  0
LTYPE
  2
AMZIGZAG2
 70
     0
  3
/\/-/\/-/\/-/\/-/\/-/\/
 72
    65
 73
     2
 40
0.4401
 49
0.0001
 49
-0.4400000000000002
  0
LTYPE
  2
ACANSTGB
 70
     0
  3
__ . . __ . .
 72
    65
 73
     6
 40
0.35433070866
 49
0.15748031496
 49
-0.03937007874
 49
0.03937007874
 49
-0.03937007874
 49
0.03937007874
 49
-0.03937007874
  0
LTYPE
  2
ACANSTGL
 70
     0
  3
_ _ _ _ _
 72
    65
 73
     2
 40
0.11811023622
 49
0.07874015748
 49
-0.03937007874
  0
ENDTAB
  0
TABLE
  2
LAYER
 70
    10
  0
LAYER
  2
0
 70
     0
 62
     7
  6
CONTINUOUS
  0
LAYER
  2
AM_0
 70
     0
 62
     7
  6
CONTINUOUS
  0
LAYER
  2
AM_5
 70
     0
 62
     2
  6
CONTINUOUS
  0
LAYER
  2
DEFPOINTS
 70
     0
 62
     7
  6
CONTINUOUS
  0
LAYER
  2
ｶｸﾚｾﾝ2
 70
     0
 62
     3
  6
GEN3B
  0
LAYER
  2
ﾁｭｳｼﾝｾﾝ
 70
     0
 62
     1
  6
GEN7
  0
LAYER
  2
ﾁｭｳｼﾝｾﾝ1
 70
     0
 62
     1
  6
GEN7A
  0
LAYER
  2
GEV_FROZEN
 70
     1
 62
     7
  6
CONTINUOUS
  0
LAYER
  2
BHII
 70
     0
 62
     7
  6
CONTINUOUS
  0
LAYER
  2
CENN
 70
     0
 62
     7
  6
CONTINUOUS
  0
ENDTAB
  0
TABLE
  2
STYLE
 70
     9
  0
STYLE
  2
STANDARD
 70
     0
 40
0.0
 41
0.8299999999999999
 50
0.0
 71
     0
 42
2.5
  3
txt.shx
  4
bigfont.shx
  0
STYLE
  2
ANNOTATIVE
 70
     0
 40
0.0
 41
1.0
 50
0.0
 71
     0
 42
0.2
  3
txt
  4

  0
STYLE
  2

 70
     1
 40
0.0
 41
1.0
 50
0.0
 71
     0
 42
2.5
  3
ltypeshp.shx
  4

  0
STYLE
  2
ACISOTS
 70
     0
 40
1.0
 41
1.0
 50
0.0
 71
     0
 42
2.5
  3
isocp.shx
  4
extfont.shx
  0
STYLE
  2
ACISOGDT
 70
     0
 40
0.0
 41
1.0
 50
0.0
 71
     0
 42
2.5
  3
amgdt.shx
  4

  0
STYLE
  2
ACANSTS
 70
     0
 40
1.0
 41
1.0
 50
0.0
 71
     0
 42
2.5
  3
romans.shx
  4
bigfont.shx
  0
STYLE
  2
ACANSGDT
 70
     0
 40
0.0
 41
1.0
 50
0.0
 71
     0
 42
2.5
  3
amgdt.shx
  4

  0
STYLE
  2
ACJISTS
 70
     0
 40
1.0
 41
1.0
 50
0.0
 71
     0
 42
2.5
  3
isocp.shx
  4
bigfont.shx
  0
STYLE
  2
ACJISGDT
 70
     0
 40
0.0
 41
1.0
 50
0.0
 71
     0
 42
2.5
  3
amgdt.shx
  4

  0
ENDTAB
  0
TABLE
  2
VIEW
 70
     6
  0
VIEW
  2
AM_VIEW1
 70
     0
 40
555.00000000000011
 10
499.2955801104971
 20
832.50000000000011
 41
998.59116022099431
 11
0.0
 21
0.0
 31
1.0
 12
0.0
 22
0.0
 32
0.0
 42
50.0
 43
0.0
 44
0.0
 50
0.0
 71
     0
  0
VIEW
  2
AM_VIEW2
 70
     0
 40
555.00000000000011
 10
1207.704419889501
 20
832.50000000000011
 41
998.59116022099431
 11
0.0
 21
0.0
 31
1.0
 12
0.0
 22
0.0
 32
0.0
 42
50.0
 43
0.0
 44
0.0
 50
0.0
 71
     0
  0
VIEW
  2
AM_VIEW3
 70
     0
 40
555.00000000000011
 10
499.2955801104971
 20
277.49999999999989
 41
998.59116022099431
 11
0.0
 21
0.0
 31
1.0
 12
0.0
 22
0.0
 32
0.0
 42
50.0
 43
0.0
 44
0.0
 50
0.0
 71
     0
  0
VIEW
  2
AM_VIEW4
 70
     0
 40
555.00000000000011
 10
1207.704419889501
 20
277.49999999999989
 41
998.59116022099431
 11
0.0
 21
0.0
 31
1.0
 12
0.0
 22
0.0
 32
0.0
 42
50.0
 43
0.0
 44
0.0
 50
0.0
 71
     0
  0
VIEW
  2
AM_VIEW5
 70
     0
 40
555.00000000000011
 10
853.5
 20
555.00000000000011
 41
998.59116022099431
 11
0.0
 21
0.0
 31
1.0
 12
0.0
 22
0.0
 32
0.0
 42
50.0
 43
0.0
 44
0.0
 50
0.0
 71
     0
  0
VIEW
  2
AM_VIEW6
 70
     0
 40
1109.9889000000001
 10
853.5
 20
555.0
 41
1997.162348618785
 11
0.0
 21
0.0
 31
1.0
 12
0.0
 22
0.0
 32
0.0
 42
50.0
 43
0.0
 44
0.0
 50
0.0
 71
     0
  0
ENDTAB
  0
TABLE
  2
UCS
 70
     0
  0
ENDTAB
  0
TABLE
  2
APPID
 70
    95
  0
APPID
  2
ACAD
 70
     0
  0
APPID
  2
ACADANNOTATIVE
 70
     0
  0
APPID
  2
MCAD_NO_VIS
 70
     0
  0
APPID
  2
ACAD_TEMP_GRAPHIC
 70
     0
  0
APPID
  2
ACATTRIBSERVICES
 70
     0
  0
APPID
  2
GENIUS_GENREC_14
 70
     0
  0
APPID
  2
GENIUS_GENOBJ-N-REC_13
 70
     0
  0
APPID
  2
GENIUS_GENODEF_13
 70
     0
  0
APPID
  2
GENIUS_GENOLIS_13
 70
     0
  0
APPID
  2
GENIUS_GENOBJ-N-TIT_13
 70
     0
  0
APPID
  2
GENIUS_GENOENT_13
 70
     0
  0
APPID
  2
GENIUS_GENTITLE_13
 70
     0
  0
APPID
  2
GENIUS_GENOREF_13
 70
     0
  0
APPID
  2
GENIUS_GENSCREG_15
 70
     0
  0
APPID
  2
GENIUS_GENOBJ-N-SDF_13
 70
     0
  0
APPID
  2
GENIUS_GENFIL_13
 70
     0
  0
APPID
  2
GENIUS_GENOBJ-N-CHA_13
 70
     0
  0
APPID
  2
GENIUS_GENDTOL_13
 70
     0
  0
APPID
  2
GENIUS_GENOBJ-N-FIL_13
 70
     0
  0
APPID
  2
AD_DRAW
 70
     0
  0
APPID
  2
DESIGNERASSEMBLIES
 70
     0
  0
APPID
  2
ASURF_PCURVE_APPNAME
 70
     0
  0
APPID
  2
GENIUS_GE3SECT_13
 70
     0
  0
APPID
  2
GENIUS_GENCFG_13
 70
     0
  0
APPID
  2
GENIUS_GE3CFG0_13
 70
     0
  0
APPID
  2
GENIUS_GENCFG0_13
 70
     0
  0
APPID
  2
GENIUS_GENCFG1_13
 70
     0
  0
APPID
  2
GENIUS_GENCFG2_13
 70
     0
  0
APPID
  2
GENIUS_GENCFG3_13
 70
     0
  0
APPID
  2
GENIUS_GENCFG4_13
 70
     0
  0
APPID
  2
GENIUS_GEVCFG0_13
 70
     0
  0
APPID
  2
GENIUS_GENHINW_13
 70
     0
  0
APPID
  2
GENIUS_FIRSTVISTXT_14
 70
     0
  0
APPID
  2
GENIUS_GENOBJ-N-LEADER_13
 70
     0
  0
APPID
  2
GEV_VCCNULL_SWITCH_OFF
 70
     0
  0
APPID
  2
GENIUS_GEFCFG0_13
 70
     0
  0
APPID
  2
GENIUS_GENZVEED_13
 70
     0
  0
APPID
  2
GENIUS_GENSCREG_13
 70
     0
  0
APPID
  2
GENIUS_DUMCFG0_13
 70
     0
  0
APPID
  2
GEVID936201362
 70
     0
  0
APPID
  2
GEVDC
 70
     0
  0
APPID
  2
GEVCON
 70
     0
  0
APPID
  2
VCC
 70
     0
  0
APPID
  2
GEVPT
 70
     0
  0
APPID
  2
GEVIT
 70
     0
  0
APPID
  2
GENBH
 70
     0
  0
APPID
  2
GEVMK
 70
     0
  0
APPID
  2
GENIUS_GENBH_13
 70
     0
  0
APPID
  2
GENIUS_GENOBJ-NBEHI-BHF_13
 70
     0
  0
APPID
  2
GENIUS_GENOBJ-NBEHI-BHB_13
 70
     0
  0
APPID
  2
GENIUS_GENOBJ-F-DESC_13
 70
     0
  0
APPID
  2
GENIUS_GEFDESC_14
 70
     0
  0
APPID
  2
GENIUS_GENOBJ-F-PART_13
 70
     0
  0
APPID
  2
GENIUS_GEFSTDP_13
 70
     0
  0
APPID
  2
GENIUS_GEFPARTINS_13
 70
     0
  0
APPID
  2
GENIUS_GENTRA_14
 70
     0
  0
APPID
  2
GENIUS_GENINF13_13
 70
     0
  0
APPID
  2
GENIUS_GENOBJ-N-INFOPT_13
 70
     0
  0
APPID
  2
GENIUS_GENOBJ-N-RSSYM_13
 70
     0
  0
APPID
  2
GENIUS_GENSYMENT_13
 70
     0
  0
APPID
  2
GENIUS_GENSCSYM_13
 70
     0
  0
APPID
  2
GENIUS_GEFINFNAM_13
 70
     0
  0
APPID
  2
GENIUS_GENOBJ-N-CEN_13
 70
     0
  0
APPID
  2
GENIUS_GENOBJ-N-CRS_13
 70
     0
  0
APPID
  2
GENIUS_GENOBJ-N-CRC_13
 70
     0
  0
APPID
  2
GENIUS_GENCRC_14
 70
     0
  0
APPID
  2
GEVID942827039
 70
     0
  0
APPID
  2
GEVID942827040
 70
     0
  0
APPID
  2
GEVID942827041
 70
     0
  0
APPID
  2
GENIUS_GENOBJ-F-SCPASSM_13
 70
     0
  0
APPID
  2
GENIUS_GENDIMSH_14
 70
     0
  0
APPID
  2
GEVID942827042
 70
     0
  0
APPID
  2
GEVID946020473
 70
     0
  0
APPID
  2
GEVID946020474
 70
     0
  0
APPID
  2
GEVID946020475
 70
     0
  0
APPID
  2
GENIUS_GENOBJ-N-HTC_13
 70
     0
  0
APPID
  2
GENIUS_GENHATCH_13
 70
     0
  0
APPID
  2
GEVID948854295
 70
     0
  0
APPID
  2
GEVID939402019
 70
     0
  0
APPID
  2
GEVID952919491
 70
     0
  0
APPID
  2
GEVID952919492
 70
     0
  0
APPID
  2
GENIUS_GEFWELD_13
 70
     0
  0
APPID
  2
GENIUS_GENOBJ-F-WELS_13
 70
     0
  0
APPID
  2
GEVID952919493
 70
     0
  0
APPID
  2
GENIUS_GENOBJ-N-RSBK_13
 70
     0
  0
APPID
  2
GENIUS_GENOBJ-N-LIB_13
 70
     0
  0
APPID
  2
GENIUS_GENSCALE_13
 70
     0
  0
APPID
  2
GEVID986376691
 70
     0
  0
APPID
  2
DCO15
 70
     0
  0
APPID
  2
ACAD_DSTYLE_DIMBREAK
 70
     0
  0
APPID
  2
ACAD_DSTYLE_DIMJAG
 70
     0
  0
APPID
  2
ACAD_NAV_VCDISPLAY
 70
     0
  0
APPID
  2
ACADANNOPO
 70
     0
  0
APPID
  2
ACAD_EXEMPT_FROM_CAD_STANDARDS
 70
     0
  0
APPID
  2
ACAD_MLEADERVER
 70
     0
  0
ENDTAB
  0
TABLE
  2
DIMSTYLE
 70
    22
  0
DIMSTYLE
  2
STANDARD
 70
     0
  3

  4

  5

  6

  7

 40
1.0
 41
0.18
 42
0.0625
 43
0.38
 44
0.18
 45
0.0
 46
0.0
 47
0.0
 48
0.0
140
0.18
141
0.09
142
0.0
143
25.399999999999999
144
1.0
145
0.0
146
1.0
147
0.09
 71
     0
 72
     0
 73
     1
 74
     1
 75
     0
 76
     0
 77
     0
 78
     0
170
     0
171
     2
172
     0
173
     0
174
     0
175
     0
176
     0
177
     0
178
     0
  0
DIMSTYLE
  2
ANNOTATIVE
 70
     0
  3

  4

  5

  6

  7

 40
1.0
 41
0.18
 42
0.0625
 43
0.38
 44
0.18
 45
0.0
 46
0.0
 47
0.0
 48
0.0
140
0.18
141
0.09
142
0.0
143
25.399999999999999
144
1.0
145
0.0
146
1.0
147
0.09
 71
     0
 72
     0
 73
     1
 74
     1
 75
     0
 76
     0
 77
     0
 78
     0
170
     0
171
     2
172
     0
173
     0
174
     0
175
     0
176
     0
177
     0
178
     0
  0
DIMSTYLE
  2
AM_ISO
 70
     0
  3

  4
"
  5

  6

  7

 40
1.0
 41
2.5
 42
1.0
 43
8.0
 44
0.6
 45
0.0
 46
0.0
 47
0.1
 48
0.1
140
2.5
141
0.0
142
0.0
143
0.0393701
144
1.0
145
0.0
146
0.71
147
0.8
 71
     0
 72
     0
 73
     0
 74
     0
 75
     0
 76
     0
 77
     1
 78
     8
170
     0
171
     2
172
     1
173
     0
174
     0
175
     0
176
   256
177
   256
178
     4
  0
DIMSTYLE
  2
AM_ISO$3
 70
     0
  3

  4
"
  5

  6

  7

 40
1.0
 41
2.5
 42
1.0
 43
8.0
 44
0.6
 45
0.0
 46
0.0
 47
0.1
 48
0.1
140
2.5
141
0.0
142
0.0
143
0.0393701
144
1.0
145
0.0
146
0.71
147
0.8
 71
     0
 72
     0
 73
     0
 74
     1
 75
     0
 76
     0
 77
     1
 78
     8
170
     0
171
     2
172
     0
173
     0
174
     0
175
     0
176
   256
177
   256
178
     4
  0
DIMSTYLE
  2
AM_ISO$4
 70
     0
  3

  4
"
  5

  6

  7

 40
1.0
 41
2.5
 42
1.0
 43
8.0
 44
0.6
 45
0.0
 46
0.0
 47
0.1
 48
0.1
140
2.5
141
0.0
142
0.0
143
0.0393701
144
1.0
145
0.0
146
0.71
147
0.8
 71
     0
 72
     0
 73
     0
 74
     1
 75
     0
 76
     0
 77
     1
 78
     8
170
     0
171
     2
172
     0
173
     0
174
     0
175
     0
176
   256
177
   256
178
     4
  0
DIMSTYLE
  2
AM_ISO$6
 70
     0
  3

  4
"
  5

  6

  7

 40
1.0
 41
2.5
 42
1.0
 43
8.0
 44
0.6
 45
0.0
 46
0.0
 47
0.1
 48
0.1
140
2.5
141
0.0
142
0.0
143
0.0393701
144
1.0
145
0.0
146
0.71
147
0.8
 71
     0
 72
     0
 73
     0
 74
     0
 75
     0
 76
     0
 77
     0
 78
     8
170
     0
171
     2
172
     1
173
     0
174
     0
175
     0
176
   256
177
   256
178
     4
  0
DIMSTYLE
  2
AM_ISO$7
 70
     0
  3

  4
"
  5

  6

  7

 40
1.0
 41
2.5
 42
1.0
 43
8.0
 44
0.6
 45
0.0
 46
0.0
 47
0.1
 48
0.1
140
2.5
141
0.0
142
0.0
143
0.0393701
144
1.0
145
0.0
146
0.71
147
0.8
 71
     0
 72
     0
 73
     0
 74
     0
 75
     0
 76
     0
 77
     1
 78
     8
170
     0
171
     2
172
     1
173
     0
174
     0
175
     0
176
   256
177
   256
178
     4
  0
DIMSTYLE
  2
AM_ISO$SF
 70
     0
  3

  4
"
  5

  6

  7

 40
1.0
 41
2.5
 42
1.0
 43
10.0
 44
1.0
 45
0.0
 46
0.0
 47
0.1
 48
0.1
140
3.5
141
0.0
142
0.0
143
0.0393701
144
1.0
145
0.0
146
0.71
147
1.5
 71
     0
 72
     0
 73
     0
 74
     0
 75
     1
 76
     1
 77
     1
 78
     8
170
     0
171
     2
172
     1
173
     0
174
     0
175
     0
176
   256
177
   256
178
     2
  0
DIMSTYLE
  2
AM_ISO$SH
 70
     0
  3

  4
"
  5

  6

  7

 40
1.0
 41
2.5
 42
1.0
 43
10.0
 44
1.0
 45
0.0
 46
0.0
 47
0.1
 48
0.1
140
3.5
141
0.0
142
0.0
143
0.0393701
144
2.0
145
0.0
146
0.71
147
1.5
 71
     0
 72
     0
 73
     0
 74
     0
 75
     1
 76
     1
 77
     1
 78
     8
170
     0
171
     2
172
     1
173
     1
174
     0
175
     0
176
   256
177
   256
178
     2
  0
DIMSTYLE
  2
AM_JIS
 70
     0
  3

  4
"
  5

  6

  7

 40
1.0
 41
2.5
 42
1.0
 43
7.0
 44
1.0
 45
0.0
 46
0.0
 47
0.1
 48
0.1000000001
140
2.5
141
0.0
142
0.0
143
0.0393701
144
1.0
145
0.0
146
0.71
147
1.0
 71
     0
 72
     0
 73
     0
 74
     0
 75
     0
 76
     0
 77
     3
 78
     8
170
     0
171
     2
172
     1
173
     0
174
     0
175
     0
176
   256
177
   256
178
     4
  0
DIMSTYLE
  2
AM_JIS$3
 70
     0
  3

  4
"
  5

  6

  7

 40
1.0
 41
2.5
 42
1.0
 43
7.0
 44
1.0
 45
0.0
 46
0.0
 47
0.1
 48
0.1000000001
140
2.5
141
0.0
142
0.0
143
0.0393701
144
1.0
145
0.0
146
0.71
147
1.0
 71
     0
 72
     0
 73
     0
 74
     1
 75
     0
 76
     0
 77
     3
 78
     8
170
     0
171
     2
172
     0
173
     0
174
     0
175
     0
176
   256
177
   256
178
     4
  0
DIMSTYLE
  2
AM_JIS$4
 70
     0
  3

  4
"
  5

  6

  7

 40
1.0
 41
2.5
 42
1.0
 43
7.0
 44
1.0
 45
0.0
 46
0.0
 47
0.1
 48
0.1000000001
140
2.5
141
0.0
142
0.0
143
0.0393701
144
1.0
145
0.0
146
0.71
147
1.0
 71
     0
 72
     0
 73
     0
 74
     0
 75
     0
 76
     0
 77
     3
 78
     8
170
     0
171
     2
172
     0
173
     0
174
     0
175
     0
176
   256
177
   256
178
     4
  0
DIMSTYLE
  2
AM_JIS$6
 70
     0
  3

  4
"
  5

  6

  7

 40
1.0
 41
2.5
 42
1.0
 43
7.0
 44
1.0
 45
0.0
 46
0.0
 47
0.1
 48
0.1000000001
140
2.5
141
0.0
142
0.0
143
0.0393701
144
1.0
145
0.0
146
0.71
147
1.0
 71
     0
 72
     0
 73
     0
 74
     0
 75
     0
 76
     0
 77
     0
 78
     8
170
     0
171
     2
172
     1
173
     0
174
     0
175
     0
176
   256
177
   256
178
     4
  0
DIMSTYLE
  2
AM_JIS$7
 70
     0
  3

  4
"
  5

  6

  7

 40
1.0
 41
2.5
 42
1.0
 43
7.0
 44
1.0
 45
0.0
 46
0.0
 47
0.1
 48
0.1000000001
140
2.5
141
0.0
142
0.0
143
0.0393701
144
1.0
145
0.0
146
0.71
147
1.0
 71
     0
 72
     0
 73
     0
 74
     0
 75
     0
 76
     0
 77
     3
 78
     8
170
     0
171
     2
172
     1
173
     0
174
     0
175
     0
176
   256
177
   256
178
     4
  0
DIMSTYLE
  2
AM_JIS$SF
 70
     0
  3

  4
"
  5

  6

  7

 40
1.0
 41
2.5
 42
1.0
 43
10.0
 44
1.0
 45
0.0
 46
0.0
 47
0.1
 48
0.1
140
3.5
141
0.0
142
0.0
143
0.0393701
144
1.0
145
0.0
146
0.71
147
1.5
 71
     0
 72
     0
 73
     0
 74
     0
 75
     1
 76
     1
 77
     3
 78
     8
170
     0
171
     2
172
     1
173
     0
174
     0
175
     0
176
   256
177
   256
178
     4
  0
DIMSTYLE
  2
AM_JIS$SH
 70
     0
  3

  4
"
  5

  6

  7

 40
1.0
 41
2.5
 42
1.0
 43
10.0
 44
1.0
 45
0.0
 46
0.0
 47
0.1
 48
0.1
140
3.5
141
0.0
142
0.0
143
0.0393701
144
1.0
145
0.0
146
0.71
147
1.5
 71
     0
 72
     0
 73
     0
 74
     0
 75
     1
 76
     0
 77
     3
 78
     8
170
     0
171
     2
172
     1
173
     1
174
     0
175
     0
176
   256
177
   256
178
     4
  0
DIMSTYLE
  2
AM_ANSI
 70
     0
  3

  4
mm
  5

  6

  7

 40
1.0
 41
0.1
 42
0.05
 43
0.5
 44
0.1
 45
0.0
 46
0.0
 47
0.1
 48
0.1
140
0.12
141
0.0
142
0.0
143
25.399999999999999
144
1.0
145
0.0
146
0.71
147
0.06
 71
     0
 72
     0
 73
     1
 74
     1
 75
     0
 76
     0
 77
     0
 78
     7
170
     0
171
     2
172
     0
173
     0
174
     0
175
     0
176
   256
177
   256
178
     2
  0
DIMSTYLE
  2
AM_ANSI$3
 70
     0
  3

  4
mm
  5

  6

  7

 40
1.0
 41
0.1
 42
0.05
 43
0.5
 44
0.1
 45
0.0
 46
0.0
 47
0.1
 48
0.1
140
0.12
141
0.0
142
0.0
143
25.399999999999999
144
1.0
145
0.0
146
0.71
147
0.06
 71
     0
 72
     0
 73
     1
 74
     1
 75
     0
 76
     0
 77
     0
 78
     7
170
     0
171
     2
172
     0
173
     0
174
     0
175
     0
176
   256
177
   256
178
     2
  0
DIMSTYLE
  2
AM_ANSI$4
 70
     0
  3

  4
mm
  5

  6

  7

 40
1.0
 41
0.1
 42
0.05
 43
0.5
 44
0.1
 45
0.0
 46
0.0
 47
0.1
 48
0.1
140
0.12
141
0.0
142
0.0
143
25.399999999999999
144
1.0
145
0.0
146
0.71
147
0.06
 71
     0
 72
     0
 73
     1
 74
     1
 75
     0
 76
     0
 77
     0
 78
     7
170
     0
171
     2
172
     0
173
     0
174
     0
175
     0
176
   256
177
   256
178
     2
  0
DIMSTYLE
  2
AM_ANSI$7
 70
     0
  3

  4
mm
  5

  6

  7

 40
1.0
 41
0.1
 42
0.05
 43
0.5
 44
0.1
 45
0.0
 46
0.0
 47
0.1
 48
0.1
140
0.24
141
0.0
142
0.0
143
25.399999999999999
144
1.0
145
0.0
146
0.71
147
0.06
 71
     0
 72
     0
 73
     1
 74
     1
 75
     0
 76
     0
 77
     0
 78
     7
170
     0
171
     2
172
     0
173
     0
174
     0
175
     0
176
   256
177
   256
178
     2
  0
DIMSTYLE
  2
AM_ANSI$SF
 70
     0
  3

  4
mm
  5

  6

  7

 40
1.0
 41
0.1
 42
0.05
 43
0.5
 44
0.1
 45
0.0
 46
0.0
 47
0.1
 48
0.1
140
0.12
141
0.0
142
0.0
143
25.399999999999999
144
1.0
145
0.0
146
0.71
147
0.06
 71
     0
 72
     0
 73
     1
 74
     1
 75
     1
 76
     1
 77
     0
 78
     7
170
     0
171
     2
172
     0
173
     0
174
     0
175
     0
176
   256
177
   256
178
     2
  0
DIMSTYLE
  2
AM_ANSI$SH
 70
     0
  3

  4
mm
  5

  6

  7

 40
1.0
 41
0.1
 42
0.05
 43
0.5
 44
0.1
 45
0.0
 46
0.0
 47
0.1
 48
0.1
140
0.12
141
0.0
142
0.0
143
25.399999999999999
144
1.0
145
0.0
146
0.71
147
0.06
 71
     0
 72
     0
 73
     1
 74
     1
 75
     1
 76
     1
 77
     0
 78
     7
170
     0
171
     2
172
     0
173
     1
174
     0
175
     0
176
   256
177
   256
178
     2
  0
ENDTAB
  0
ENDSEC
  0
SECTION
  2
BLOCKS
  0
BLOCK
  8
0
  2
$MODEL_SPACE
 70
     0
 10
0.0
 20
0.0
 30
0.0
  3
$MODEL_SPACE
  1

  0
ENDBLK
  5
2CDC
  8
0
  0
BLOCK
 67
     1
  8
0
  2
$PAPER_SPACE
 70
     0
 10
0.0
 20
0.0
 30
0.0
  3
$PAPER_SPACE
  1

  0
ENDBLK
  5
2CD8
 67
     1
  8
0
  0
BLOCK
  8
0
  2
GENAXEH
 70
     0
 10
0.0
 20
0.0
 30
0.0
  3
GENAXEH
  1

  0
LINE
  5
29CD
  8
0
 10
-1.0
 20
0.0
 30
0.0
 11
1.0
 21
0.0
 31
0.0
  0
ENDBLK
  5
29CE
  8
0
  0
BLOCK
  8
0
  2
_OPEN30
 70
     0
 10
0.0
 20
0.0
 30
0.0
  3
_OPEN30
  1

  0
LINE
  5
29D1
  8
0
 62
     0
 10
-1.0
 20
0.26794919
 30
0.0
 11
0.0
 21
0.0
 31
0.0
  0
LINE
  5
29D2
  8
0
 62
     0
 10
0.0
 20
0.0
 30
0.0
 11
-1.0
 21
-0.26794919
 31
0.0
  0
LINE
  5
29D3
  8
0
 62
     0
 10
0.0
 20
0.0
 30
0.0
 11
-1.0
 21
0.0
 31
0.0
  0
ENDBLK
  5
29D4
  8
0
  0
BLOCK
  8
0
  2
*U4
 70
     1
 10
0.0
 20
0.0
 30
0.0
  3
*U4
  1
*U
  0
LINE
  5
29D7
  8
BHII
 10
0.0
 20
7.6999999999999984
 30
0.0
 11
0.0000000000000021
 21
-0.3279404685324049
 31
0.0
  0
LINE
  5
29D8
  8
BHII
 10
2.0
 20
7.6999999999999984
 30
0.0
 11
2.0000000000000022
 21
0.3999999999999986
 31
0.0
  0
LINE
  5
29D9
  8
BHII
 10
0.0
 20
-7.6999999999999984
 30
0.0
 11
2.0
 21
-7.6999999999999984
 31
0.0
  0
LINE
  5
29DA
  8
BHII
 10
2.0
 20
-0.3999999999999999
 30
0.0
 11
0.0000000000000001
 21
-1.127940468532403
 31
0.0
  0
LINE
  5
29DB
  8
BHII
 10
2.0000000000000022
 20
0.3999999999999986
 30
0.0
 11
0.0000000000000021
 21
-0.3279404685324049
 31
0.0
  0
LINE
  5
29DC
  8
BHII
 10
2.0
 20
-0.3999999999999999
 30
0.0
 11
2.0
 21
-7.6999999999999984
 31
0.0
  0
LINE
  5
29DD
  8
BHII
 10
0.0000000000000001
 20
-1.127940468532403
 30
0.0
 11
0.0
 21
-7.6999999999999984
 31
0.0
  0
LINE
  5
29DE
  8
CENN
 10
-2.999999999999996
 20
0.0
 30
0.0
 11
5.0
 21
0.0
 31
0.0
  0
LINE
  5
29DF
  8
BHII
 10
2.0
 20
7.6999999999999984
 30
0.0
 11
0.0
 21
7.6999999999999984
 31
0.0
  0
ENDBLK
  5
29E0
  8
0
  0
BLOCK
  8
0
  2
*U5
 70
     1
 10
0.0
 20
0.0
 30
0.0
  3
*U5
  1
*U
  0
LINE
  5
29E3
  8
BHII
 10
0.0
 20
7.6999999999999984
 30
0.0
 11
0.0000000000000021
 21
-0.3279404685324049
 31
0.0
  0
LINE
  5
29E4
  8
BHII
 10
2.0
 20
7.6999999999999984
 30
0.0
 11
2.0000000000000022
 21
0.3999999999999986
 31
0.0
  0
LINE
  5
29E5
  8
BHII
 10
0.0
 20
-7.6999999999999984
 30
0.0
 11
2.0
 21
-7.6999999999999984
 31
0.0
  0
LINE
  5
29E6
  8
BHII
 10
2.0
 20
-0.3999999999999999
 30
0.0
 11
0.0000000000000001
 21
-1.127940468532403
 31
0.0
  0
LINE
  5
29E7
  8
BHII
 10
2.0000000000000022
 20
0.3999999999999986
 30
0.0
 11
0.0000000000000021
 21
-0.3279404685324049
 31
0.0
  0
LINE
  5
29E8
  8
BHII
 10
2.0
 20
-0.3999999999999999
 30
0.0
 11
2.0
 21
-7.6999999999999984
 31
0.0
  0
LINE
  5
29E9
  8
BHII
 10
0.0000000000000001
 20
-1.127940468532403
 30
0.0
 11
0.0
 21
-7.6999999999999984
 31
0.0
  0
LINE
  5
29EA
  8
CENN
 10
-2.999999999999996
 20
0.0
 30
0.0
 11
5.0
 21
0.0
 31
0.0
  0
LINE
  5
29EB
  8
BHII
 10
2.0
 20
7.6999999999999984
 30
0.0
 11
0.0
 21
7.6999999999999984
 31
0.0
  0
ENDBLK
  5
29EC
  8
0
  0
BLOCK
  8
0
  2
_NONE
 70
     0
 10
0.0
 20
0.0
 30
0.0
  3
_NONE
  1

  0
ENDBLK
  5
29EF
  8
0
  0
BLOCK
  8
0
  2
*U7
 70
     1
 10
0.0
 20
0.0
 30
0.0
  3
*U7
  1
*U
  0
LINE
  5
29F2
  8
BHII
 10
0.0
 20
7.6999999999999984
 30
0.0
 11
0.0000000000000021
 21
-0.3279404685324049
 31
0.0
  0
LINE
  5
29F3
  8
BHII
 10
2.0
 20
7.6999999999999984
 30
0.0
 11
2.0000000000000022
 21
0.3999999999999986
 31
0.0
  0
LINE
  5
29F4
  8
BHII
 10
0.0
 20
-7.6999999999999984
 30
0.0
 11
2.0
 21
-7.6999999999999984
 31
0.0
  0
LINE
  5
29F5
  8
BHII
 10
2.0
 20
-0.3999999999999999
 30
0.0
 11
0.0000000000000001
 21
-1.127940468532403
 31
0.0
  0
LINE
  5
29F6
  8
BHII
 10
2.0000000000000022
 20
0.3999999999999986
 30
0.0
 11
0.0000000000000021
 21
-0.3279404685324049
 31
0.0
  0
LINE
  5
29F7
  8
BHII
 10
2.0
 20
-0.3999999999999999
 30
0.0
 11
2.0
 21
-7.6999999999999984
 31
0.0
  0
LINE
  5
29F8
  8
BHII
 10
0.0000000000000001
 20
-1.127940468532403
 30
0.0
 11
0.0
 21
-7.6999999999999984
 31
0.0
  0
LINE
  5
29F9
  8
CENN
 10
-2.999999999999996
 20
0.0
 30
0.0
 11
5.0
 21
0.0
 31
0.0
  0
LINE
  5
29FA
  8
BHII
 10
2.0
 20
7.6999999999999984
 30
0.0
 11
0.0
 21
7.6999999999999984
 31
0.0
  0
ENDBLK
  5
29FB
  8
0
  0
BLOCK
  8
0
  2
*U8
 70
     1
 10
0.0
 20
0.0
 30
0.0
  3
*U8
  1
*U
  0
LINE
  5
29FE
  8
BHII
 10
0.0
 20
7.6999999999999984
 30
0.0
 11
0.0000000000000021
 21
-0.3279404685324049
 31
0.0
  0
LINE
  5
29FF
  8
BHII
 10
2.0
 20
7.6999999999999984
 30
0.0
 11
2.0000000000000022
 21
0.3999999999999986
 31
0.0
  0
LINE
  5
2A00
  8
BHII
 10
0.0
 20
-7.6999999999999984
 30
0.0
 11
2.0
 21
-7.6999999999999984
 31
0.0
  0
LINE
  5
2A01
  8
BHII
 10
2.0
 20
-0.3999999999999999
 30
0.0
 11
0.0000000000000001
 21
-1.127940468532403
 31
0.0
  0
LINE
  5
2A02
  8
BHII
 10
2.0000000000000022
 20
0.3999999999999986
 30
0.0
 11
0.0000000000000021
 21
-0.3279404685324049
 31
0.0
  0
LINE
  5
2A03
  8
BHII
 10
2.0
 20
-0.3999999999999999
 30
0.0
 11
2.0
 21
-7.6999999999999984
 31
0.0
  0
LINE
  5
2A04
  8
BHII
 10
0.0000000000000001
 20
-1.127940468532403
 30
0.0
 11
0.0
 21
-7.6999999999999984
 31
0.0
  0
LINE
  5
2A05
  8
CENN
 10
-2.999999999999996
 20
0.0
 30
0.0
 11
5.0
 21
0.0
 31
0.0
  0
LINE
  5
2A06
  8
BHII
 10
2.0
 20
7.6999999999999984
 30
0.0
 11
0.0
 21
7.6999999999999984
 31
0.0
  0
ENDBLK
  5
2A07
  8
0
  0
BLOCK
  8
0
  2
_ACMFILLEDHALF
 70
     0
 10
0.0
 20
0.0
 30
0.0
  3
_ACMFILLEDHALF
  1

  0
TRACE
  5
2DDF
  8
AM_0
 62
     0
 10
-0.8
 20
0.0
 30
0.0
 11
-1.0
 21
0.166666666
 31
0.0
 12
0.0
 22
0.0
 32
0.0
 13
0.0
 23
0.0
 33
0.0
  0
LINE
  5
2DE0
  8
AM_0
 62
     0
 10
-1.0
 20
0.0
 30
0.0
 11
-0.8
 21
0.0
 31
0.0
  0
ENDBLK
  5
2DDE
  8
0
  0
ENDSEC
  0
SECTION
  2
ENTITIES
  0
INSERT
  5
2A08
  8
GEV_FROZEN
  2
*U4
 10
900.68725648575435
 20
561.57261424397791
 30
0.0
 41
0.1
 42
0.1
 43
0.1
 50
179.9999999999998
1001
GENBH
1002
{
1000
-NOBRK
1002
}
  0
INSERT
  5
2A09
  8
GEV_FROZEN
  2
*U5
 10
900.68725648575435
 20
561.57261424397791
 30
0.0
 41
0.1
 42
0.1
 43
0.1
 50
179.9999999999998
1001
GENBH
1002
{
1000
-NOBRK
1002
}
  0
INSERT
  5
2A0A
  8
GEV_FROZEN
  2
*U7
 10
900.68725648575435
 20
561.57261424397791
 30
0.0
 41
0.1
 42
0.1
 43
0.1
 50
179.9999999999998
1001
GENBH
1002
{
1000
-NOBRK
1002
}
  0
INSERT
  5
2A0B
  8
GEV_FROZEN
  2
*U8
 10
900.68725648575435
 20
561.57261424397791
 30
0.0
 41
0.1
 42
0.1
 43
0.1
 50
179.9999999999998
1001
GENBH
1002
{
1000
-NOBRK
1002
}
  0
LINE
  5
2A0C
  8
AM_0
 10
795.25870903295379
 20
610.38162975283262
 30
0.0
 11
900.258759032954
 21
610.38162975283262
 31
0.0
  0
LINE
  5
2A0D
  8
AM_0
 10
795.25870903295379
 20
550.38160975283267
 30
0.0
 11
900.258759032954
 21
550.38160975283267
 31
0.0
  0
LINE
  5
2A0E
  8
AM_0
 10
819.25870903295367
 20
614.38162975283262
 30
0.0
 11
900.258759032954
 21
614.38162975283262
 31
0.0
  0
LINE
  5
2A0F
  8
ﾁｭｳｼﾝｾﾝ
 10
903.19775903295351
 20
580.38160975283267
 30
0.0
 11
476.44991220109108
 21
580.38160975283267
 31
0.0
  0
ARC
  5
2A10
  8
AM_0
 10
446.25885903295398
 20
557.61518975283275
 30
0.0
 40
3.0000000500000001
 50
270.0
 51
0.0
  0
LINE
  5
2A11
  8
AM_0
 10
431.75870903295367
 20
556.88163975283271
 30
0.0
 11
431.75870903295367
 21
386.88163975283271
 31
0.0
  0
LINE
  5
2A12
  8
AM_0
 10
416.75870903295367
 20
387.88163975283271
 30
0.0
 11
416.75870903295367
 21
568.88163975283248
 31
0.0
  0
LINE
  5
2A13
  8
AM_0
 10
795.25870903295379
 20
612.88162975283262
 30
0.0
 11
795.25870903295379
 21
547.88160975283245
 31
0.0
  0
LINE
  5
2A14
  8
AM_0
 10
494.25870903295367
 20
606.37827975283244
 30
0.0
 11
494.25870903295367
 21
458.3849647528325
 31
0.0
  0
LINE
  5
2A15
  8
AM_0
 10
465.25870903295367
 20
471.88163975283271
 30
0.0
 11
465.25870903295367
 21
607.86492975283272
 31
0.0
  0
LINE
  5
2A16
  8
AM_0
 10
571.75870903295356
 20
660.57532975283254
 30
0.0
 11
571.75870903295356
 21
410.76810975283269
 31
0.0
  0
LINE
  5
2A17
  8
AM_0
 10
512.258759032954
 20
652.38162975283262
 30
0.0
 11
512.258759032954
 21
412.3816047528324
 31
0.0
  0
LINE
  5
2A18
  8
AM_0
 10
525.2587090329539
 20
650.38162975283262
 30
0.0
 11
525.2587090329539
 21
414.3816397528326
 31
0.0
  0
LINE
  5
2A19
  8
AM_0
 10
591.75870903295356
 20
710.38167975283284
 30
0.0
 11
591.75870903295356
 21
387.38160475283252
 31
0.0
  0
LINE
  5
2A1A
  8
AM_0
 10
676.75870903295356
 20
710.69617975283268
 30
0.0
 11
676.75870903295356
 21
509.68382475283238
 31
0.0
  0
LINE
  5
2A1B
  8
AM_0
 10
723.2587090329539
 20
616.30852975283244
 30
0.0
 11
723.2587090329539
 21
402.38160475283269
 31
0.0
  0
LINE
  5
2A1C
  8
AM_0
 10
753.25870903295379
 20
694.00257975283262
 30
0.0
 11
753.25870903295379
 21
436.03358475283272
 31
0.0
  0
LINE
  5
2A1D
  8
AM_0
 10
783.2587090329539
 20
665.05092975283264
 30
0.0
 11
783.2587090329539
 21
387.38160475283252
 31
0.0
  0
LINE
  5
2A1E
  8
AM_0
 10
789.2587090329539
 20
642.48452975283271
 30
0.0
 11
789.2587090329539
 21
518.27867475283244
 31
0.0
  0
LINE
  5
2A1F
  8
AM_0
 10
646.75870903295356
 20
712.38162975283262
 30
0.0
 11
646.75870903295356
 21
432.6197047528326
 31
0.0
  0
LINE
  5
2A20
  8
ﾁｭｳｼﾝｾﾝ
 10
262.73659668921721
 20
471.88163975283271
 30
0.0
 11
505.04270212018662
 21
471.88163975283271
 31
0.0
  0
LINE
  5
2A21
  8
AM_0
 10
316.25870903295367
 20
434.30428975283252
 30
0.0
 11
322.127208032954
 21
430.91610975283282
 31
0.0
  0
LINE
  5
2A22
  8
AM_0
 10
316.25870903295367
 20
509.45898975283268
 30
0.0
 11
322.127208032954
 21
512.84716975283266
 31
0.0
  0
LINE
  5
2A23
  8
AM_0
 10
310.25870903295367
 20
484.38163975283271
 30
0.0
 11
310.25870903295367
 21
459.38163975283271
 31
0.0
  0
LINE
  5
2A24
  8
AM_0
 10
274.2587090329539
 20
483.88163975283271
 30
0.0
 11
274.2587090329539
 21
459.8816397528326
 31
0.0
  0
LINE
  5
2A25
  8
AM_0
 10
315.25870903295367
 20
436.03634075283259
 30
0.0
 11
315.25870903295367
 21
507.72693875283272
 31
0.0
  0
LINE
  5
2A26
  8
AM_0
 10
313.25870903295367
 20
446.88163975283271
 30
0.0
 11
313.25870903295367
 21
496.88163975283271
 31
0.0
  0
LINE
  5
2A27
  8
AM_0
 10
274.2587090329539
 20
459.8816397528326
 30
0.0
 11
310.25870903295367
 21
459.8816397528326
 31
0.0
  0
LINE
  5
2A28
  8
AM_0
 10
313.25870903295367
 20
446.88163975283271
 30
0.0
 11
315.25870903295367
 21
444.88163975283271
 31
0.0
  0
ARC
  5
2A29
  8
AM_0
 10
317.25870903295367
 20
436.03634075283259
 30
0.0
 40
2.0
 50
180.0
 51
240.0000000000002
  0
LINE
  5
2A2A
  8
AM_0
 10
310.25870903295367
 20
459.38163975283271
 30
0.0
 11
313.25870903295367
 21
459.38163975283271
 31
0.0
  0
LINE
  5
2A2B
  8
AM_0
 10
274.2587090329539
 20
486.88163975283271
 30
0.0
 11
302.25870903295367
 21
486.88163975283271
 31
0.0
  0
LINE
  5
2A2C
  8
AM_0
 10
274.2587090329539
 20
483.88163975283271
 30
0.0
 11
310.25870903295367
 21
483.88163975283271
 31
0.0
  0
LINE
  5
2A2D
  8
AM_0
 10
274.2587090329539
 20
483.88163975283271
 30
0.0
 11
274.2587090329539
 21
486.88163975283271
 31
0.0
  0
LINE
  5
2A2E
  8
AM_0
 10
302.25870903295367
 20
483.88163975283271
 30
0.0
 11
302.25870903295367
 21
486.88163975283271
 31
0.0
  0
LINE
  5
2A2F
  8
AM_0
 10
310.25870903295367
 20
484.38163975283271
 30
0.0
 11
313.25870903295367
 21
484.38163975283271
 31
0.0
  0
LINE
  5
2A30
  8
AM_0
 10
313.25870903295367
 20
496.88163975283271
 30
0.0
 11
315.25870903295367
 21
498.88163975283271
 31
0.0
  0
ARC
  5
2A31
  8
AM_0
 10
317.25870903295367
 20
507.72693875283272
 30
0.0
 40
2.0
 50
119.9999999999997
 51
180.0
  0
LINE
  5
2A32
  8
AM_0
 10
529.25870903295356
 20
355.38160475283252
 30
0.0
 11
789.2587090329539
 21
355.38160475283252
 31
0.0
  0
LINE
  5
2A33
  8
AM_0
 10
534.25870903295356
 20
387.38160475283252
 30
0.0
 11
595.25870903295367
 21
387.38160475283252
 31
0.0
  0
LINE
  5
2A34
  8
AM_0
 10
574.72330903295369
 20
403.6616047528326
 30
0.0
 11
588.79415903295364
 21
389.73145975283262
 31
0.0
  0
LINE
  5
2A35
  8
ｶｸﾚｾﾝ2
 10
547.25875903295378
 20
387.38160475283252
 30
0.0
 11
547.25875903295378
 21
355.38160475283252
 31
0.0
  0
LINE
  5
2A36
  8
AM_0
 10
529.25870903295356
 20
382.38160475283252
 30
0.0
 11
529.25870903295356
 21
355.38160475283252
 31
0.0
  0
LINE
  5
2A37
  8
ﾁｭｳｼﾝｾﾝ1
 10
559.25870903295356
 20
391.6813797528327
 30
0.0
 11
559.25870903295356
 21
350.06844975283252
 31
0.0
  0
LINE
  5
2A38
  8
ｶｸﾚｾﾝ2
 10
571.25875903295389
 20
387.38160475283252
 30
0.0
 11
571.25875903295389
 21
355.38160475283252
 31
0.0
  0
LINE
  5
2A39
  8
AM_0
 10
433.75885903295398
 20
416.02866975283251
 30
0.0
 11
465.75870903295367
 21
416.02866975283251
 31
0.0
  0
LINE
  5
2A3A
  8
AM_0
 10
433.75885903295398
 20
429.01902975283269
 30
0.0
 11
460.75870903295367
 21
429.01902975283269
 31
0.0
  0
LINE
  5
2A3B
  8
AM_0
 10
433.75885903295398
 20
440.77116475283259
 30
0.0
 11
465.75870903295367
 21
440.77116475283259
 31
0.0
  0
LINE
  5
2A3C
  8
AM_0
 10
449.25870903295367
 20
554.61518975283275
 30
0.0
 11
464.51695903295371
 21
554.61518975283275
 31
0.0
  0
LINE
  5
2A3D
  8
AM_0
 10
431.75870903295367
 20
386.88163475283272
 30
0.0
 11
468.25870903295367
 21
386.88163475283272
 31
0.0
  0
LINE
  5
2A3E
  8
AM_0
 10
356.2483210329541
 20
511.88163975283271
 30
0.0
 11
356.2483210329541
 21
431.88163975283271
 31
0.0
  0
LINE
  5
2A3F
  8
AM_0
 10
323.91896303295368
 20
510.88163975283271
 30
0.0
 11
323.91896303295368
 21
432.88163975283271
 31
0.0
  0
LINE
  5
2A40
  8
AM_0
 10
414.25870903295367
 20
395.8250157528326
 30
0.0
 11
358.04007603295372
 21
428.28285875283262
 31
0.0
  0
LINE
  5
2A41
  8
AM_0
 10
325.98758903295391
 20
429.84553175283253
 30
0.0
 11
354.1796950329541
 21
429.35343675283258
 31
0.0
  0
ARC
  5
2A42
  8
AM_0
 10
326.127208032954
 20
437.8443137528327
 30
0.0
 40
8.0
 50
240.0000000000002
 51
268.99999999999812
  0
ARC
  5
2A43
  8
AM_0
 10
354.04007603295372
 20
421.35465475283269
 30
0.0
 40
8.0
 50
60.000000000000277
 51
88.999999999998224
  0
LINE
  5
2A44
  8
AM_0
 10
433.75885903295398
 20
440.77116475283259
 30
0.0
 11
433.75885903295398
 21
416.02866975283251
 31
0.0
  0
LINE
  5
2A45
  8
AM_0
 10
430.75870903295367
 20
446.13473375283257
 30
0.0
 11
430.75870903295367
 21
411.96273975283259
 31
0.0
  0
LINE
  5
2A46
  8
AM_0
 10
428.75870903295362
 20
409.96273975283231
 30
0.0
 11
418.75870903295367
 21
409.96273975283231
 31
0.0
  0
LINE
  5
2A47
  8
AM_0
 10
430.75870903295367
 20
385.88163975283271
 30
0.0
 11
418.75870903295367
 21
385.88163975283271
 31
0.0
  0
ARC
  5
2A48
  8
AM_0
 10
418.75870903295367
 20
387.88163975283271
 30
0.0
 40
2.0
 50
180.0
 51
270.0
  0
ARC
  5
2A49
  8
AM_0
 10
411.75870903295367
 20
391.49488875283271
 30
0.0
 40
5.0
 50
0.0
 51
60.000000000000277
  0
ARC
  5
2A4A
  8
AM_0
 10
418.75870903295367
 20
411.96273975283259
 30
0.0
 40
2.0
 50
180.0
 51
270.0
  0
LINE
  5
2A4B
  8
AM_0
 10
430.75870903295367
 20
385.88163975283271
 30
0.0
 11
431.75870903295367
 21
386.88163975283271
 31
0.0
  0
ARC
  5
2A4C
  8
AM_0
 10
428.75870903295362
 20
411.96273975283259
 30
0.0
 40
2.0
 50
270.0
 51
0.0
  0
LINE
  5
2A4D
  8
AM_0
 10
417.75870903295367
 20
446.13473375283257
 30
0.0
 11
429.75870903295367
 21
446.13473375283257
 31
0.0
  0
LINE
  5
2A4E
  8
AM_0
 10
418.75870903295367
 20
435.94350175283267
 30
0.0
 11
428.75870903295362
 21
435.94350175283267
 31
0.0
  0
ARC
  5
2A4F
  8
AM_0
 10
418.75870903295367
 20
437.94350175283267
 30
0.0
 40
2.0
 50
180.0
 51
270.0
  0
ARC
  5
2A50
  8
AM_0
 10
428.75870903295362
 20
437.94350175283267
 30
0.0
 40
2.0
 50
270.0
 51
0.0
  0
LINE
  5
2A51
  8
AM_0
 10
414.25870903295367
 20
547.93826375283277
 30
0.0
 11
358.04007603295372
 21
515.48042075283263
 31
0.0
  0
LINE
  5
2A52
  8
AM_0
 10
325.98758903295391
 20
513.91774775283272
 30
0.0
 11
354.1796950329541
 21
514.40984275283267
 31
0.0
  0
ARC
  5
2A53
  8
AM_0
 10
326.127208032954
 20
505.91896575283272
 30
0.0
 40
8.0
 50
91.000000000001705
 51
119.9999999999997
  0
ARC
  5
2A54
  8
AM_0
 10
354.04007603295372
 20
522.40862475283245
 30
0.0
 40
8.0
 50
271.00000000000171
 51
299.99999999999972
  0
ARC
  5
2A55
  8
AM_0
 10
411.75870903295367
 20
552.2683907528326
 30
0.0
 40
5.0
 50
299.99999999999972
 51
0.0
  0
LINE
  5
2A56
  8
AM_0
 10
485.25870903295367
 20
432.6544047528327
 30
0.0
 11
525.2587090329539
 21
432.6544047528327
 31
0.0
  0
LINE
  5
2A57
  8
AM_0
 10
483.25870903295367
 20
448.21073975283241
 30
0.0
 11
525.2587090329539
 21
448.21073975283241
 31
0.0
  0
LINE
  5
2A58
  8
AM_0
 10
496.25875903295372
 20
456.38496475283267
 30
0.0
 11
525.2587090329539
 21
456.38496475283267
 31
0.0
  0
LINE
  5
2A59
  8
AM_0
 10
512.258759032954
 20
412.3816047528324
 30
0.0
 11
523.2587090329539
 21
412.3816047528324
 31
0.0
  0
LINE
  5
2A5A
  8
AM_0
 10
465.75870903295367
 20
440.77116475283259
 30
0.0
 11
465.75870903295367
 21
416.02866975283251
 31
0.0
  0
LINE
  5
2A5B
  8
AM_0
 10
460.75870903295367
 20
429.01902975283269
 30
0.0
 11
460.75870903295367
 21
416.02866975283251
 31
0.0
  0
LINE
  5
2A5C
  8
AM_0
 10
471.25875903295372
 20
429.65440475283259
 30
0.0
 11
471.25875903295372
 21
389.88160475283269
 31
0.0
  0
LINE
  5
2A5D
  8
AM_0
 10
476.08420903295359
 20
411.11839475283261
 30
0.0
 11
512.258759032954
 21
412.3816397528326
 31
0.0
  0
ARC
  5
2A5E
  8
AM_0
 10
468.25870903295367
 20
389.88160475283269
 30
0.0
 40
3.0000000500000001
 50
270.0
 51
0.0
  0
ARC
  5
2A5F
  8
AM_0
 10
476.25875903295372
 20
406.12144475283259
 30
0.0
 40
5.0
 50
91.999997999999948
 51
180.00001
  0
LINE
  5
2A60
  8
AM_0
 10
483.25870903295367
 20
434.65440475283248
 30
0.0
 11
483.25870903295367
 21
464.38493475283269
 31
0.0
  0
LINE
  5
2A61
  8
AM_0
 10
460.75870903295367
 20
429.01905975283267
 30
0.0
 11
465.75875903295372
 21
440.77119475283251
 31
0.0
  0
ARC
  5
2A62
  8
AM_0
 10
474.25870903295367
 20
429.65440475283259
 30
0.0
 40
3.0000000500000001
 50
90.000003000000007
 51
180.00001
  0
ARC
  5
2A63
  8
AM_0
 10
485.25870903295367
 20
434.65440475283248
 30
0.0
 40
2.0000000500000001
 50
179.99998999999991
 51
270.0
  0
ARC
  5
2A64
  8
AM_0
 10
481.25875903295361
 20
464.38493475283269
 30
0.0
 40
2.0000000500000001
 50
0.0
 51
90.000003000000007
  0
ARC
  5
2A65
  8
AM_0
 10
496.25875903295372
 20
458.3849647528325
 30
0.0
 40
2.0000000500000001
 50
179.99998999999991
 51
270.0
  0
LINE
  5
2A66
  8
AM_0
 10
527.258759032954
 20
420.38160475283252
 30
0.0
 11
566.75870903295356
 21
420.38160475283252
 31
0.0
  0
ARC
  5
2A67
  8
AM_0
 10
534.25870903295356
 20
382.38160475283252
 30
0.0
 40
5.0
 50
90.000003000000007
 51
180.00001
  0
ARC
  5
2A68
  8
AM_0
 10
527.258759032954
 20
418.38160475283252
 30
0.0
 40
2.0000000500000001
 50
90.000003000000007
 51
180.00001
  0
ARC
  5
2A69
  8
AM_0
 10
523.2587090329539
 20
414.3816397528326
 30
0.0
 40
2.0000000500000001
 50
270.0
 51
0.0
  0
ARC
  5
2A6A
  8
AM_0
 10
566.75870903295356
 20
415.38160475283269
 30
0.0
 40
5.0
 50
0.0
 51
90.000003000000007
  0
ARC
  5
2A6B
  8
AM_0
 10
581.75870903295367
 20
410.76810975283269
 30
0.0
 40
10.0
 50
179.99998999999991
 51
225.28792000000001
  0
LINE
  5
2A6C
  8
AM_0
 10
525.2587090329539
 20
445.70673975283268
 30
0.0
 11
571.75870903295356
 21
445.70673975283268
 31
0.0
  0
LINE
  5
2A6D
  8
AM_0
 10
525.2587090329539
 20
461.44880975283269
 30
0.0
 11
571.75870903295356
 21
461.44880975283269
 31
0.0
  0
LINE
  5
2A6E
  8
AM_0
 10
789.2587090329539
 20
382.38160475283252
 30
0.0
 11
789.2587090329539
 21
355.38160475283252
 31
0.0
  0
LINE
  5
2A6F
  8
ﾁｭｳｼﾝｾﾝ1
 10
759.25870903295345
 20
391.6813797528327
 30
0.0
 11
759.25870903295345
 21
350.06844975283252
 31
0.0
  0
LINE
  5
2A70
  8
ｶｸﾚｾﾝ2
 10
747.25875903295389
 20
387.38160475283252
 30
0.0
 11
747.25875903295389
 21
355.38160475283252
 31
0.0
  0
LINE
  5
2A71
  8
ｶｸﾚｾﾝ2
 10
771.25875903295389
 20
387.38160475283252
 30
0.0
 11
771.25875903295389
 21
355.38160475283252
 31
0.0
  0
LINE
  5
2A72
  8
AM_0
 10
624.758759032954
 20
481.3244797528327
 30
0.0
 11
624.758759032954
 21
445.05515975283242
 31
0.0
  0
LINE
  5
2A73
  8
AM_0
 10
651.75870903295356
 20
509.68382475283238
 30
0.0
 11
651.75870903295356
 21
441.66731475283262
 31
0.0
  0
LINE
  5
2A74
  8
AM_0
 10
602.15525903295395
 20
390.14021475283272
 30
0.0
 11
648.65525903295395
 21
434.42591975283273
 31
0.0
  0
ARC
  5
2A75
  8
AM_0
 10
595.25870903295367
 20
397.38160475283252
 30
0.0
 40
10.0
 50
270.0
 51
313.60282000000001
  0
ARC
  5
2A76
  8
AM_0
 10
581.75870903295367
 20
382.62492475283273
 30
0.0
 40
10.0
 50
28.402999999999999
 51
45.287917999999991
  0
LINE
  5
2A77
  8
AM_0
 10
596.75870903295356
 20
443.05512975283261
 30
0.0
 11
622.7587090329539
 21
443.05512975283261
 31
0.0
  0
ARC
  5
2A78
  8
AM_0
 10
596.75870903295356
 20
438.05512975283261
 30
0.0
 40
5.0
 50
90.000003000000007
 51
180.00001
  0
ARC
  5
2A79
  8
AM_0
 10
622.7587090329539
 20
445.05515975283242
 30
0.0
 40
2.0000000500000001
 50
270.0
 51
0.0
  0
ARC
  5
2A7A
  8
AM_0
 10
641.75870903295356
 20
441.66731475283262
 30
0.0
 40
10.0
 50
313.60282000000001
 51
0.0
  0
LINE
  5
2A7B
  8
AM_0
 10
646.75870903295356
 20
509.68382475283238
 30
0.0
 11
676.75870903295356
 21
509.68382475283238
 31
0.0
  0
LINE
  5
2A7C
  8
AM_0
 10
596.75870903295356
 20
483.32450975283263
 30
0.0
 11
622.7587090329539
 21
483.32450975283263
 31
0.0
  0
ARC
  5
2A7D
  8
AM_0
 10
596.75870903295356
 20
488.32450975283268
 30
0.0
 40
5.0
 50
179.99998999999991
 51
270.0
  0
ARC
  5
2A7E
  8
AM_0
 10
622.7587090329539
 20
481.3244797528327
 30
0.0
 40
2.0000000500000001
 50
0.0
 51
90.000003000000007
  0
ARC
  5
2A7F
  8
AM_0
 10
784.2587090329539
 20
382.38160475283252
 30
0.0
 40
5.0
 50
0.0
 51
90.000003000000007
  0
ARC
  5
2A80
  8
AM_0
 10
743.2587090329539
 20
436.03358475283272
 30
0.0
 40
10.0
 50
270.0
 51
0.0
  0
LINE
  5
2A81
  8
AM_0
 10
738.2587090329539
 20
387.38160475283252
 30
0.0
 11
784.2587090329539
 21
387.38160475283252
 31
0.0
  0
ARC
  5
2A82
  8
AM_0
 10
738.2587090329539
 20
402.38160475283269
 30
0.0
 40
15.0
 50
179.99998999999991
 51
270.0
  0
LINE
  5
2A83
  8
AM_0
 10
723.2587090329539
 20
426.03358475283272
 30
0.0
 11
743.2587090329539
 21
426.03358475283272
 31
0.0
  0
ARC
  5
2A84
  8
AM_0
 10
786.258759032954
 20
518.27867475283244
 30
0.0
 40
3.0000000500000001
 50
272.0
 51
0.0
  0
ARC
  5
2A85
  8
AM_0
 10
786.258759032954
 20
512.27503975283275
 30
0.0
 40
3.0000000500000001
 50
91.999997999999948
 51
180.00001
  0
LINE
  5
2A86
  8
AM_0
 10
786.15405903295391
 20
515.27320975283271
 30
0.0
 11
786.36345903295376
 21
515.2805047528326
 31
0.0
  0
LINE
  5
2A87
  8
AM_0
 10
789.2587090329539
 20
547.88160975283245
 30
0.0
 11
795.25870903295379
 21
547.88160975283245
 31
0.0
  0
LINE
  5
2A88
  8
AM_0
 10
588.00570903295375
 20
678.37917975283244
 30
0.0
 11
575.51175903295371
 21
668.3840297528327
 31
0.0
  0
ARC
  5
2A89
  8
AM_0
 10
606.75870903295367
 20
738.38162975283262
 30
0.0
 40
25.000000499999999
 50
306.46672000000001
 51
233.53328999999999
  0
LINE
  5
2A8A
  8
AM_0
 10
452.25870903295367
 20
582.38160975283245
 30
0.0
 11
462.25870903295367
 21
582.38160975283245
 31
0.0
  0
LINE
  5
2A8B
  8
AM_0
 10
429.75870903295367
 20
555.81719675283273
 30
0.0
 11
417.75870903295367
 21
555.81719675283273
 31
0.0
  0
LINE
  5
2A8C
  8
AM_0
 10
418.75870903295367
 20
570.88163975283271
 30
0.0
 11
428.75870903295362
 21
570.88163975283271
 31
0.0
  0
ARC
  5
2A8D
  8
AM_0
 10
418.75870903295367
 20
568.88163975283248
 30
0.0
 40
2.0
 50
90.0
 51
180.0
  0
LINE
  5
2A8E
  8
AM_0
 10
449.25870903295367
 20
557.61518975283275
 30
0.0
 11
449.25870903295367
 21
579.38163975283271
 31
0.0
  0
LINE
  5
2A8F
  8
AM_0
 10
431.75870903295367
 20
556.88163975283271
 30
0.0
 11
446.3634590329537
 21
557.39164975283245
 31
0.0
  0
LINE
  5
2A90
  8
AM_0
 10
433.75885903295398
 20
570.88160975283245
 30
0.0
 11
446.25885903295398
 21
570.88160975283245
 31
0.0
  0
LINE
  5
2A91
  8
AM_0
 10
433.75885903295398
 20
556.95143475283248
 30
0.0
 11
433.75885903295398
 21
570.88160975283245
 31
0.0
  0
LINE
  5
2A92
  8
AM_0
 10
430.75870903295367
 20
555.81719675283273
 30
0.0
 11
430.75870903295367
 21
568.88163975283248
 31
0.0
  0
LINE
  5
2A93
  8
AM_0
 10
430.75870903295367
 20
557.88163975283271
 30
0.0
 11
431.75870903295367
 21
556.88163975283271
 31
0.0
  0
ARC
  5
2A94
  8
AM_0
 10
428.75870903295362
 20
568.88163975283248
 30
0.0
 40
2.0
 50
0.0
 51
90.0
  0
ARC
  5
2A95
  8
AM_0
 10
446.25885903295398
 20
560.38978975283271
 30
0.0
 40
3.0000000500000001
 50
272.0
 51
0.0
  0
ARC
  5
2A96
  8
AM_0
 10
446.25885903295398
 20
573.88160975283245
 30
0.0
 40
3.0000000500000001
 50
270.0
 51
0.0
  0
ARC
  5
2A97
  8
AM_0
 10
452.25870903295367
 20
579.38163975283271
 30
0.0
 40
3.0000000500000001
 50
90.000003000000007
 51
180.00001
  0
LINE
  5
2A98
  8
AM_0
 10
494.25870903295367
 20
649.38162975283262
 30
0.0
 11
494.25870903295367
 21
632.10882975283243
 31
0.0
  0
ARC
  5
2A99
  8
AM_0
 10
491.25875903295372
 20
642.22132975283262
 30
0.0
 40
3.0000000500000001
 50
270.0
 51
0.0
  0
LINE
  5
2A9A
  8
AM_0
 10
496.25875903295372
 20
608.37822975283245
 30
0.0
 11
525.2587090329539
 21
608.37822975283245
 31
0.0
  0
LINE
  5
2A9B
  8
AM_0
 10
483.25870903295367
 20
616.55242975283272
 30
0.0
 11
525.2587090329539
 21
616.55242975283272
 31
0.0
  0
LINE
  5
2A9C
  8
AM_0
 10
485.25870903295367
 20
632.10882975283243
 30
0.0
 11
525.2587090329539
 21
632.10882975283243
 31
0.0
  0
ARC
  5
2A9D
  8
AM_0
 10
481.25875903295361
 20
600.37822975283245
 30
0.0
 40
2.0000000500000001
 50
270.0
 51
0.0
  0
ARC
  5
2A9E
  8
AM_0
 10
462.25870903295367
 20
585.38160975283245
 30
0.0
 40
3.0000000500000001
 50
270.0
 51
0.0
  0
LINE
  5
2A9F
  8
AM_0
 10
484.32090903295398
 20
639.22137975283272
 30
0.0
 11
491.25875903295372
 21
639.22137975283272
 31
0.0
  0
LINE
  5
2AA0
  8
AM_0
 10
483.25870903295367
 20
600.37822975283245
 30
0.0
 11
483.25870903295367
 21
630.10882975283243
 31
0.0
  0
LINE
  5
2AA1
  8
AM_0
 10
465.9286590329537
 20
610.36492975283272
 30
0.0
 11
481.72280903295359
 21
637.72137975283272
 31
0.0
  0
ARC
  5
2AA2
  8
AM_0
 10
470.25870903295367
 20
607.86492975283272
 30
0.0
 40
5.0
 50
150.0
 51
180.00001
  0
ARC
  5
2AA3
  8
AM_0
 10
485.25870903295367
 20
630.10882975283243
 30
0.0
 40
2.0000000500000001
 50
90.000003000000007
 51
180.00001
  0
ARC
  5
2AA4
  8
AM_0
 10
484.32090903295398
 20
636.22132975283262
 30
0.0
 40
3.0000000500000001
 50
90.000003000000007
 51
150.0
  0
ARC
  5
2AA5
  8
AM_0
 10
496.25875903295372
 20
606.37827975283244
 30
0.0
 40
2.0000000500000001
 50
90.000003000000007
 51
180.00001
  0
LINE
  5
2AA6
  8
AM_0
 10
525.2587090329539
 20
619.05647975283273
 30
0.0
 11
571.75870903295356
 21
619.05647975283273
 31
0.0
  0
LINE
  5
2AA7
  8
AM_0
 10
525.2587090329539
 20
603.31442975283244
 30
0.0
 11
571.75870903295356
 21
603.31442975283244
 31
0.0
  0
LINE
  5
2AA8
  8
AM_0
 10
512.258759032954
 20
652.38162975283262
 30
0.0
 11
523.2587090329539
 21
652.38162975283262
 31
0.0
  0
LINE
  5
2AA9
  8
AM_0
 10
497.25875903295372
 20
652.38162975283262
 30
0.0
 11
512.258759032954
 21
652.38162975283262
 31
0.0
  0
ARC
  5
2AAA
  8
AM_0
 10
497.25875903295372
 20
649.38162975283262
 30
0.0
 40
3.0000000500000001
 50
90.000003000000007
 51
180.00001
  0
LINE
  5
2AAB
  8
AM_0
 10
527.258759032954
 20
644.38162975283262
 30
0.0
 11
566.75870903295356
 21
644.38162975283262
 31
0.0
  0
ARC
  5
2AAC
  8
AM_0
 10
527.258759032954
 20
646.38162975283251
 30
0.0
 40
2.0000000500000001
 50
179.99998999999991
 51
270.0
  0
ARC
  5
2AAD
  8
AM_0
 10
523.2587090329539
 20
650.38162975283262
 30
0.0
 40
2.0000000500000001
 50
0.0
 51
90.000003000000007
  0
ARC
  5
2AAE
  8
AM_0
 10
581.75870903295367
 20
660.57532975283254
 30
0.0
 40
10.0
 50
128.65980999999991
 51
180.00001
  0
ARC
  5
2AAF
  8
AM_0
 10
566.75870903295356
 20
649.38162975283262
 30
0.0
 40
5.0
 50
270.0
 51
0.0
  0
CIRCLE
  5
2AB0
  8
AM_0
 10
606.75870903295367
 20
738.38162975283262
 30
0.0
 40
15.0
  0
LINE
  5
2AB1
  8
AM_0
 10
688.473909032954
 20
705.92182975283265
 30
0.0
 11
743.60770903295384
 21
703.99652975283254
 31
0.0
  0
LINE
  5
2AB2
  8
AM_0
 10
624.758759032954
 20
603.60662975283276
 30
0.0
 11
624.758759032954
 21
570.43244975283244
 31
0.0
  0
LINE
  5
2AB3
  8
AM_0
 10
596.75870903295356
 20
568.43244975283267
 30
0.0
 11
622.7587090329539
 21
568.43244975283267
 31
0.0
  0
ARC
  5
2AB4
  8
AM_0
 10
596.75870903295356
 20
563.43244975283244
 30
0.0
 40
5.0
 50
90.000003000000007
 51
180.00001
  0
ARC
  5
2AB5
  8
AM_0
 10
622.7587090329539
 20
570.43244975283244
 30
0.0
 40
2.0000000500000001
 50
270.0
 51
0.0
  0
LINE
  5
2AB6
  8
AM_0
 10
596.75870903295356
 20
605.60662975283265
 30
0.0
 11
622.7587090329539
 21
605.60662975283265
 31
0.0
  0
ARC
  5
2AB7
  8
AM_0
 10
596.75870903295356
 20
610.60662975283265
 30
0.0
 40
5.0
 50
179.99998999999991
 51
270.0
  0
ARC
  5
2AB8
  8
AM_0
 10
622.7587090329539
 20
603.60662975283276
 30
0.0
 40
2.0000000500000001
 50
0.0
 51
90.000003000000007
  0
LINE
  5
2AB9
  8
AM_0
 10
646.75875903295389
 20
712.38162975283262
 30
0.0
 11
671.77525903295395
 21
711.50802975283284
 31
0.0
  0
ARC
  5
2ABA
  8
AM_0
 10
596.75870903295356
 20
680.50227975283269
 30
0.0
 40
5.0
 50
90.000003000000007
 51
180.00001
  0
ARC
  5
2ABB
  8
AM_0
 10
581.75870903295367
 20
686.18782975283261
 30
0.0
 40
10.0
 50
308.65980999999982
 51
0.0
  0
LINE
  5
2ABC
  8
AM_0
 10
593.75875903295355
 20
712.38162975283262
 30
0.0
 11
646.75870903295356
 21
712.38162975283262
 31
0.0
  0
LINE
  5
2ABD
  8
AM_0
 10
596.58420903295359
 20
710.62947975283248
 30
0.0
 11
646.75870903295356
 21
712.38162975283262
 31
0.0
  0
ARC
  5
2ABE
  8
AM_0
 10
625.18375903295362
 20
713.45132975283263
 30
0.0
 40
6.0
 50
126.4666999999999
 51
190.27006
  0
LINE
  5
2ABF
  8
AM_0
 10
596.75870903295356
 20
685.50227975283246
 30
0.0
 11
622.7587090329539
 21
685.50227975283246
 31
0.0
  0
LINE
  5
2AC0
  8
AM_0
 10
596.75870903295356
 20
702.12917975283244
 30
0.0
 11
622.7587090329539
 21
702.12917975283244
 31
0.0
  0
ARC
  5
2AC1
  8
AM_0
 10
596.75870903295356
 20
705.63252975283262
 30
0.0
 40
5.0
 50
91.999997999999948
 51
180.00001
  0
ARC
  5
2AC2
  8
AM_0
 10
596.75870903295356
 20
707.12917975283244
 30
0.0
 40
5.0
 50
179.99998999999991
 51
270.0
  0
LINE
  5
2AC3
  8
AM_0
 10
596.96470903295358
 20
721.38162975283251
 30
0.0
 11
616.55280903295375
 21
721.38162975283251
 31
0.0
  0
LINE
  5
2AC4
  8
AM_0
 10
597.28070903295361
 20
721.5026297528326
 30
0.0
 11
606.75870903295367
 21
723.38162975283262
 31
0.0
  0
ARC
  5
2AC5
  8
AM_0
 10
588.33370903295349
 20
713.45132975283263
 30
0.0
 40
6.0
 50
349.72994999999997
 51
53.533291000000013
  0
LINE
  5
2AC6
  8
AM_0
 10
594.25870903295367
 20
712.38162975283262
 30
0.0
 11
596.50920903295366
 21
720.78052975283265
 31
0.0
  0
ARC
  5
2AC7
  8
AM_0
 10
593.75875903295355
 20
710.38167975283284
 30
0.0
 40
2.0000000500000001
 50
90.000003000000007
 51
180.00001
  0
ARC
  5
2AC8
  8
AM_0
 10
597.47515903295402
 20
720.52172975283281
 30
0.0
 40
1.0
 50
101.21329
 51
164.99999
  0
LINE
  5
2AC9
  8
AM_0
 10
619.25870903295367
 20
712.38167975283284
 30
0.0
 11
617.00830903295389
 21
720.78052975283265
 31
0.0
  0
LINE
  5
2ACA
  8
AM_0
 10
606.75885903295375
 20
723.38152975283265
 30
0.0
 11
616.23680903295372
 21
721.50257975283262
 31
0.0
  0
ARC
  5
2ACB
  8
AM_0
 10
616.04235903295375
 20
720.52172975283281
 30
0.0
 40
1.0
 50
15.0
 51
78.786709999999999
  0
LINE
  5
2ACC
  8
AM_0
 10
624.758759032954
 20
700.12917975283267
 30
0.0
 11
624.758759032954
 21
687.50227975283281
 31
0.0
  0
ARC
  5
2ACD
  8
AM_0
 10
622.7587090329539
 20
687.50227975283281
 30
0.0
 40
2.0000000500000001
 50
270.0
 51
0.0
  0
ARC
  5
2ACE
  8
AM_0
 10
622.7587090329539
 20
700.12917975283267
 30
0.0
 40
2.0000000500000001
 50
0.0
 51
90.000003000000007
  0
ARC
  5
2ACF
  8
AM_0
 10
688.82290903295393
 20
715.91577975283235
 30
0.0
 40
10.0
 50
239.99999999999989
 51
268.0
  0
ARC
  5
2AD0
  8
AM_0
 10
671.07720903295376
 20
691.52017975283275
 30
0.0
 40
20.000000499999999
 50
60.000002000000002
 51
88.0
  0
LINE
  5
2AD1
  8
AM_0
 10
681.07720903295399
 20
708.84072975283254
 30
0.0
 11
683.82290903295359
 21
707.25552975283244
 31
0.0
  0
ARC
  5
2AD2
  8
AM_0
 10
738.2587090329539
 20
616.30852975283244
 30
0.0
 40
15.0
 50
90.000003000000007
 51
180.00001
  0
LINE
  5
2AD3
  8
AM_0
 10
738.2587090329539
 20
631.30852975283244
 30
0.0
 11
753.25870903295379
 21
631.30852975283244
 31
0.0
  0
LINE
  5
2AD4
  8
AM_0
 10
789.2587090329539
 20
612.88162975283262
 30
0.0
 11
795.25870903295379
 21
612.88162975283262
 31
0.0
  0
LINE
  5
2AD5
  8
AM_0
 10
819.25870903295367
 20
614.38162975283262
 30
0.0
 11
819.25870903295367
 21
610.38162975283262
 31
0.0
  0
ARC
  5
2AD6
  8
AM_0
 10
786.258759032954
 20
642.48452975283271
 30
0.0
 40
3.0000000500000001
 50
0.0
 51
88.0
  0
ARC
  5
2AD7
  8
AM_0
 10
763.2587090329539
 20
684.16957975283265
 30
0.0
 40
10.0
 50
179.99998999999991
 51
265.0
  0
ARC
  5
2AD8
  8
AM_0
 10
786.258759032954
 20
648.48817975283225
 30
0.0
 40
3.0000000500000001
 50
179.99998999999991
 51
268.00000999999992
  0
LINE
  5
2AD9
  8
AM_0
 10
786.15405903295391
 20
645.49002975283236
 30
0.0
 11
786.36345903295376
 21
645.48267975283261
 31
0.0
  0
LINE
  5
2ADA
  8
AM_0
 10
762.38725903295392
 20
674.20767975283275
 30
0.0
 11
775.95605903295393
 21
673.02052975283254
 31
0.0
  0
ARC
  5
2ADB
  8
AM_0
 10
775.2587090329539
 20
665.05092975283264
 30
0.0
 40
8.0
 50
0.0
 51
84.999996999999979
  0
ARC
  5
2ADC
  8
AM_0
 10
743.2587090329539
 20
694.00257975283262
 30
0.0
 40
10.0
 50
0.0
 51
88.0
  0
LINE
  5
2ADD
  8
AM_0
 10
1322.1802321616201
 20
565.38160975283245
 30
0.0
 11
1322.1802321616201
 21
402.38160475283269
 31
0.0
  0
LINE
  5
2ADE
  8
AM_0
 10
1108.1802321616201
 20
565.38160975283245
 30
0.0
 11
1108.1802321616201
 21
402.38160475283269
 31
0.0
  0
ARC
  5
2ADF
  8
AM_0
 10
1215.1802621616191
 20
580.38160975283267
 30
0.0
 40
30.000000499999999
 50
107.4575999999999
 51
72.542383999999998
  0
LINE
  5
2AE0
  8
AM_0
 10
900.258759032954
 20
614.38162975283262
 30
0.0
 11
900.258759032954
 21
550.38160975283267
 31
0.0
  0
CIRCLE
  5
2AE1
  8
AM_0
 10
1215.1802621616191
 20
580.38160975283267
 30
0.0
 40
65.0
  0
LINE
  5
2AE2
  8
ﾁｭｳｼﾝｾﾝ
 10
1215.1802621616191
 20
772.15940325321412
 30
0.0
 11
1215.1802621616191
 21
345.94408975283272
 31
0.0
  0
LINE
  5
2AE3
  8
AM_0
 10
1351.9986371616201
 20
612.18317975283276
 30
0.0
 11
1395.1802321616201
 21
390.03312475283269
 31
0.0
  0
LINE
  5
2AE4
  8
AM_0
 10
1345.1802471616199
 20
629.68362975283253
 30
0.0
 11
1345.1802471616199
 21
492.38160975283267
 31
0.0
  0
LINE
  5
2AE5
  8
AM_0
 10
1085.1802621616191
 20
629.68362975283253
 30
0.0
 11
1085.1802621616191
 21
492.38160975283267
 31
0.0
  0
LINE
  5
2AE6
  8
AM_0
 10
1078.3618071616199
 20
612.18317975283276
 30
0.0
 11
1035.1802471616199
 21
390.03312475283269
 31
0.0
  0
LINE
  5
2AE7
  8
AM_0
 10
1395.180247161619
 20
355.38160475283252
 30
0.0
 11
1315.1802471616199
 21
355.38160475283252
 31
0.0
  0
LINE
  5
2AE8
  8
AM_0
 10
1390.1802471616199
 20
387.38160475283252
 30
0.0
 11
1320.180247161619
 21
387.38160475283252
 31
0.0
  0
LINE
  5
2AE9
  8
AM_0
 10
1118.1802321616201
 20
358.38160475283252
 30
0.0
 11
1215.1802621616191
 21
358.38160475283252
 31
0.0
  0
LINE
  5
2AEA
  8
AM_0
 10
1118.109187161619
 20
368.31052975283262
 30
0.0
 11
1126.2333021616189
 21
376.4346447528327
 31
0.0
  0
LINE
  5
2AEB
  8
ﾁｭｳｼﾝｾﾝ1
 10
1070.1802621616191
 20
392.2200147528327
 30
0.0
 11
1070.1802621616191
 21
349.1420447528327
 31
0.0
  0
LINE
  5
2AEC
  8
ｶｸﾚｾﾝ2
 10
1058.180247161619
 20
387.38160475283252
 30
0.0
 11
1058.180247161619
 21
355.38160475283252
 31
0.0
  0
LINE
  5
2AED
  8
ｶｸﾚｾﾝ2
 10
1082.1802621616191
 20
387.38160475283252
 30
0.0
 11
1082.1802621616191
 21
355.38160475283252
 31
0.0
  0
LINE
  5
2AEE
  8
AM_0
 10
1115.1802621616191
 20
382.38160475283252
 30
0.0
 11
1115.1802621616191
 21
355.38160475283252
 31
0.0
  0
LINE
  5
2AEF
  8
AM_0
 10
1035.1802471616199
 20
390.03309475283271
 30
0.0
 11
1035.1802471616199
 21
355.38160475283252
 31
0.0
  0
LINE
  5
2AF0
  8
AM_0
 10
1035.1802471616199
 20
355.38160475283252
 30
0.0
 11
1115.1802621616191
 21
355.38160475283252
 31
0.0
  0
ARC
  5
2AF1
  8
AM_0
 10
1118.1802321616201
 20
355.38160475283252
 30
0.0
 40
3.0000000500000001
 50
90.000003000000007
 51
180.00001
  0
ARC
  5
2AF2
  8
AM_0
 10
1125.1802621616191
 20
361.23948475283271
 30
0.0
 40
10.0
 50
135.0
 51
180.00001
  0
ARC
  5
2AF3
  8
AM_0
 10
1215.1802621616191
 20
492.38160975283267
 30
0.0
 40
130.0
 50
179.99998999999991
 51
214.60598999999999
  0
LINE
  5
2AF4
  8
AM_0
 10
1040.1802471616199
 20
387.38160475283252
 30
0.0
 11
1110.1802621616191
 21
387.38160475283252
 31
0.0
  0
ARC
  5
2AF5
  8
AM_0
 10
1040.1802471616199
 20
382.38160475283252
 30
0.0
 40
5.0
 50
90.000003000000007
 51
180.00001
  0
ARC
  5
2AF6
  8
AM_0
 10
1093.1802271616191
 20
402.38160475283269
 30
0.0
 40
15.0
 50
270.0
 51
0.0
  0
ARC
  5
2AF7
  8
AM_0
 10
1110.1802621616191
 20
382.38160475283252
 30
0.0
 40
5.0
 50
0.0
 51
90.000003000000007
  0
LINE
  5
2AF8
  8
ｶｸﾚｾﾝ2
 10
1348.1802471616199
 20
387.38160475283252
 30
0.0
 11
1348.1802471616199
 21
355.38160475283252
 31
0.0
  0
LINE
  5
2AF9
  8
ﾁｭｳｼﾝｾﾝ1
 10
1360.1802471616199
 20
392.2200147528327
 30
0.0
 11
1360.1802471616199
 21
349.1420447528327
 31
0.0
  0
LINE
  5
2AFA
  8
ｶｸﾚｾﾝ2
 10
1372.1802321616201
 20
387.38160475283252
 30
0.0
 11
1372.1802321616201
 21
355.38160475283252
 31
0.0
  0
LINE
  5
2AFB
  8
AM_0
 10
1315.1802471616199
 20
382.38160475283252
 30
0.0
 11
1315.1802471616199
 21
355.38160475283252
 31
0.0
  0
LINE
  5
2AFC
  8
AM_0
 10
1312.1802321616201
 20
358.38160475283252
 30
0.0
 11
1215.1802621616191
 21
358.38160475283252
 31
0.0
  0
LINE
  5
2AFD
  8
AM_0
 10
1275.1253921616201
 20
368.15131975283271
 30
0.0
 11
1215.1802621616191
 21
368.15131975283271
 31
0.0
  0
LINE
  5
2AFE
  8
AM_0
 10
1155.2351021616189
 20
368.15131975283271
 30
0.0
 11
1215.1802621616191
 21
368.15131975283271
 31
0.0
  0
ARC
  5
2AFF
  8
AM_0
 10
1155.2351021616189
 20
378.15131975283259
 30
0.0
 40
10.0
 50
234.0
 51
270.0
  0
ARC
  5
2B00
  8
AM_0
 10
1133.304347161619
 20
369.36356975283269
 30
0.0
 40
10.0
 50
54.000002000000002
 51
135.0
  0
LINE
  5
2B01
  8
AM_0
 10
1149.3572321616191
 20
370.06113975283267
 30
0.0
 11
1139.182182161619
 21
377.45374975283272
 31
0.0
  0
LINE
  5
2B02
  8
AM_0
 10
1281.00320216162
 20
370.0611697528326
 30
0.0
 11
1291.1782771616199
 21
377.45377975283259
 31
0.0
  0
ARC
  5
2B03
  8
AM_0
 10
1275.1253921616201
 20
378.15131975283259
 30
0.0
 40
10.0
 50
270.0
 51
306.0
  0
ARC
  5
2B04
  8
AM_0
 10
1312.1802321616201
 20
355.38160475283252
 30
0.0
 40
3.0000000500000001
 50
0.0
 51
90.000003000000007
  0
ARC
  5
2B05
  8
AM_0
 10
1297.0561171616191
 20
369.36356975283269
 30
0.0
 40
10.0
 50
45.00000099999999
 51
126.0
  0
LINE
  5
2B06
  8
AM_0
 10
1312.251307161619
 20
368.31055975283272
 30
0.0
 11
1304.1271921616201
 21
376.4346447528327
 31
0.0
  0
ARC
  5
2B07
  8
AM_0
 10
1305.1802621616191
 20
361.23948475283271
 30
0.0
 40
10.0
 50
0.0
 51
45.00000099999999
  0
ARC
  5
2B08
  8
AM_0
 10
1215.1802621616191
 20
492.38160975283267
 30
0.0
 40
130.0
 50
325.39400000000001
 51
0.0
  0
ARC
  5
2B09
  8
AM_0
 10
1337.1802321616201
 20
402.38160475283269
 30
0.0
 40
15.0
 50
179.99998999999991
 51
270.0
  0
ARC
  5
2B0A
  8
AM_0
 10
1320.180247161619
 20
382.38160475283252
 30
0.0
 40
5.0
 50
90.000003000000007
 51
180.00001
  0
LINE
  5
2B0B
  8
AM_0
 10
1395.180247161619
 20
390.03309475283271
 30
0.0
 11
1395.180247161619
 21
355.38160475283252
 31
0.0
  0
ARC
  5
2B0C
  8
AM_0
 10
1390.1802471616199
 20
382.38160475283252
 30
0.0
 40
5.0
 50
0.0
 51
90.000003000000007
  0
ARC
  5
2B0D
  8
AM_0
 10
1195.044672161619
 20
583.56324975283269
 30
0.0
 40
120.0
 50
111.47534999999991
 51
169.0
  0
ARC
  5
2B0E
  8
AM_0
 10
1196.1571271616201
 20
589.28611975283263
 30
0.0
 40
120.0
 50
108.48475999999999
 51
169.0
  0
ARC
  5
2B0F
  8
AM_0
 10
1215.1802621616191
 20
565.38160975283245
 30
0.0
 40
107.0
 50
90.000003000000007
 51
180.00001
  0
ARC
  5
2B10
  8
AM_0
 10
1095.1802621616191
 20
629.68362975283253
 30
0.0
 40
10.0
 50
155.21109000000001
 51
180.00001
  0
LINE
  5
2B11
  8
AM_0
 10
1220.1802621616191
 20
758.38162975283262
 30
0.0
 11
1220.1802621616191
 21
716.38162975283262
 31
0.0
  0
LINE
  5
2B12
  8
AM_0
 10
1210.1802621616191
 20
758.38162975283262
 30
0.0
 11
1210.1802621616191
 21
716.38162975283262
 31
0.0
  0
LINE
  5
2B13
  8
ﾁｭｳｼﾝｾﾝ
 10
1306.3459901751669
 20
580.38160975283267
 30
0.0
 11
1123.337583918099
 21
580.38160975283267
 31
0.0
  0
ARC
  5
2B14
  8
AM_0
 10
1215.1802621616191
 20
532.38160975283245
 30
0.0
 40
175.0000049999999
 50
68.524644999999992
 51
90.000003000000007
  0
ARC
  5
2B15
  8
AM_0
 10
1215.1802621616191
 20
532.38160975283245
 30
0.0
 40
180.0000049999999
 50
71.515242999999998
 51
90.000003000000007
  0
ARC
  5
2B16
  8
AM_0
 10
1215.1802621616191
 20
565.38160975283245
 30
0.0
 40
107.0
 50
0.0000000000000761
 51
90.000003000000007
  0
CIRCLE
  5
2B17
  8
AM_5
 10
1215.1802621616191
 20
580.38160975283267
 30
0.0
 40
6.0
  0
CIRCLE
  5
2B18
  8
AM_0
 10
1215.1802621616191
 20
580.38160975283267
 30
0.0
 40
4.500000049999997
  0
LINE
  5
2B19
  8
AM_0
 10
1206.1802321616201
 20
603.38162975283262
 30
0.0
 11
1224.1802321616201
 21
603.38162975283262
 31
0.0
  0
LINE
  5
2B1A
  8
AM_0
 10
1206.1802321616201
 20
614.38162975283262
 30
0.0
 11
1224.1802321616201
 21
614.38162975283262
 31
0.0
  0
LINE
  5
2B1B
  8
AM_0
 10
1206.1802321616201
 20
614.38162975283262
 30
0.0
 11
1206.1802321616201
 21
603.38162975283262
 31
0.0
  0
LINE
  5
2B1C
  8
AM_0
 10
1224.1802321616201
 20
614.38162975283262
 30
0.0
 11
1224.1802321616201
 21
603.38162975283262
 31
0.0
  0
ARC
  5
2B1D
  8
AM_0
 10
1215.1802621616191
 20
532.38160975283245
 30
0.0
 40
175.0000049999999
 50
90.000003000000007
 51
111.47534999999991
  0
ARC
  5
2B1E
  8
AM_0
 10
1215.1802621616191
 20
532.38160975283245
 30
0.0
 40
180.0000049999999
 50
90.000003000000007
 51
108.48475999999999
  0
LINE
  5
2B1F
  8
AM_0
 10
1220.1802621616191
 20
722.39037975283259
 30
0.0
 11
1224.6583221616199
 21
721.5026297528326
 31
0.0
  0
ARC
  5
2B20
  8
AM_0
 10
1222.18026216162
 20
716.38162975283262
 30
0.0
 40
2.0000000500000001
 50
179.99998999999991
 51
270.0
  0
LINE
  5
2B21
  8
AM_0
 10
1202.5615771616201
 20
711.93872975283284
 30
0.0
 11
1204.9307171616199
 21
720.78052975283265
 31
0.0
  0
ARC
  5
2B22
  8
AM_0
 10
1205.8966621616189
 20
720.52172975283281
 30
0.0
 40
1.0
 50
101.21329
 51
164.99999
  0
LINE
  5
2B23
  8
AM_0
 10
1205.7022021616201
 20
721.50257975283262
 30
0.0
 11
1210.1802321616201
 21
722.3903297528326
 31
0.0
  0
ARC
  5
2B24
  8
AM_0
 10
1208.1802321616201
 20
716.38162975283262
 30
0.0
 40
2.0000000500000001
 50
270.0
 51
0.0
  0
LINE
  5
2B25
  8
AM_0
 10
1227.79888216162
 20
711.93877975283283
 30
0.0
 11
1225.42974216162
 21
720.78052975283265
 31
0.0
  0
ARC
  5
2B26
  8
AM_0
 10
1224.4638621616191
 20
720.52172975283281
 30
0.0
 40
1.0
 50
15.0
 51
78.786709999999999
  0
ARC
  5
2B27
  8
AM_0
 10
1234.2033921616201
 20
589.28611975283263
 30
0.0
 40
120.0
 50
11.0
 51
71.515242999999998
  0
ARC
  5
2B28
  8
AM_0
 10
1235.3157921616189
 20
583.56324975283269
 30
0.0
 40
120.0
 50
11.0
 51
68.524651000000006
  0
ARC
  5
2B29
  8
AM_0
 10
1335.1802471616199
 20
629.68362975283253
 30
0.0
 40
10.0
 50
0.0
 51
24.788910999999999
  0
ARC
  5
2B2A
  8
AM_0
 10
1215.1802621616191
 20
758.38162975283262
 30
0.0
 40
5.0
 50
0.0
 51
179.99998999999991
  0
LINE
  5
2B2B
  8
AM_0
 10
416.75879903295402
 20
977.2236247632635
 30
0.0
 11
416.75879903295402
 21
1157.71698746517
 31
0.0
  0
LINE
  5
2B2C
  8
AM_0
 10
430.75879903295379
 20
1086.2005558351841
 30
0.0
 11
430.75879903295379
 21
1048.740056393249
 31
0.0
  0
LINE
  5
2B2D
  8
AM_0
 10
416.75879903295419
 20
1048.740056393249
 30
0.0
 11
430.75879903295379
 21
1048.740056393249
 31
0.0
  0
LINE
  5
2B2E
  8
AM_0
 10
416.75879903295402
 20
1052.470306114217
 30
0.0
 11
430.75879903295379
 21
1052.470306114217
 31
0.0
  0
LINE
  5
2B2F
  8
AM_0
 10
416.75879903295419
 20
1086.2005558351841
 30
0.0
 11
430.75879903295379
 21
1086.2005558351841
 31
0.0
  0
LINE
  5
2B30
  8
AM_0
 10
416.75879903295402
 20
1082.4703061142161
 30
0.0
 11
430.75879903295379
 21
1082.4703061142161
 31
0.0
  0
LINE
  5
2B31
  8
AM_0
 10
430.75879903295379
 20
981.47030611421712
 30
0.0
 11
430.75879903295379
 21
977.2236247632635
 31
0.0
  0
ARC
  5
2B32
  8
AM_0
 10
428.75879903295402
 20
977.2236247632635
 30
0.0
 40
2.0
 50
270.0
 51
0.0
1001
GENIUS_GENODEF_13
1002
{
1000
HIER
1070
     0
1002
}
1002
{
1000
MANEDIT
1070
     0
1002
}
1002
{
1000
NOSEL
1070
     0
1002
}
1002
{
1000
BEHIND
1070
     0
1002
}
1002
{
1000
OTHER
1070
     0
1002
}
1002
{
1000
REACTOR
1002
}
1001
GENIUS_GENOBJ-N-FIL_13
1002
{
1000
OWNER
1000
GEN
1002
}
  0
LINE
  5
2B33
  8
AM_0
 10
418.75879903295379
 20
975.22362476326362
 30
0.0
 11
428.75879903295402
 21
975.22362476326362
 31
0.0
  0
LINE
  5
2B34
  8
AM_0
 10
430.75879903295379
 20
981.47030611421712
 30
0.0
 11
418.75879903295379
 21
981.47030611421712
 31
0.0
  0
LINE
  5
2B35
  8
AM_0
 10
430.75879903295379
 20
981.47030611421712
 30
0.0
 11
431.75879903295402
 21
982.47030611421712
 31
0.0
  0
ARC
  5
2B36
  8
AM_0
 10
418.75879903295379
 20
977.2236247632635
 30
0.0
 40
2.0
 50
180.0
 51
270.0
1001
GENIUS_GENOBJ-N-FIL_13
1002
{
1000
OWNER
1000
GEN
1002
}
1001
GENIUS_GENODEF_13
1002
{
1000
HIER
1070
     0
1002
}
1002
{
1000
MANEDIT
1070
     0
1002
}
1002
{
1000
NOSEL
1070
     0
1002
}
1002
{
1000
BEHIND
1070
     0
1002
}
1002
{
1000
OTHER
1070
     0
1002
}
1002
{
1000
REACTOR
1002
}
  0
ARC
  5
2B37
  8
AM_0
 10
418.75879903295379
 20
983.47030611421621
 30
0.0
 40
2.0
 50
180.0
 51
270.0
  0
ARC
  5
2B38
  8
AM_0
 10
411.75879903295402
 20
987.08355511421621
 30
0.0
 40
5.0
 50
0.0
 51
59.999999999999439
  0
LINE
  5
2B39
  8
AM_0
 10
414.25879903295379
 20
991.41368211421661
 30
0.0
 11
358.04016603295401
 21
1023.871525114216
 31
0.0
  0
LINE
  5
2B3A
  8
AM_0
 10
414.25879903295379
 20
1143.5269301142171
 30
0.0
 11
358.04016603295401
 21
1111.069087114216
 31
0.0
  0
LINE
  5
2B3B
  8
AM_0
 10
313.25879903295402
 20
1042.4703061142161
 30
0.0
 11
313.25879903295402
 21
1092.4703061142161
 31
0.0
  0
LINE
  5
2B3C
  8
AM_0
 10
310.2587990329539
 20
1079.9703061142161
 30
0.0
 11
310.2587990329539
 21
1054.9703061142161
 31
0.0
  0
LINE
  5
2B3D
  8
AM_0
 10
274.25879903295407
 20
1079.470306114217
 30
0.0
 11
274.25879903295407
 21
1055.4703061142161
 31
0.0
  0
LINE
  5
2B3E
  8
AM_0
 10
302.25879903295402
 20
1063.470306114217
 30
0.0
 11
302.25879903295402
 21
1071.470306114217
 31
0.0
  0
ARC
  5
2B3F
  8
AM_0
 10
302.25879903295402
 20
1067.4703061142161
 30
0.0
 40
4.0
 50
270.0
 51
90.0
  0
LINE
  5
2B40
  8
AM_0
 10
315.25879903295402
 20
1031.625007114216
 30
0.0
 11
315.25879903295402
 21
1103.3156051142171
 31
0.0
  0
LINE
  5
2B41
  8
AM_0
 10
323.91905303295408
 20
1106.4703061142161
 30
0.0
 11
323.91905303295408
 21
1028.4703061142161
 31
0.0
  0
LINE
  5
2B42
  8
AM_0
 10
356.2484110329541
 20
1107.4703061142161
 30
0.0
 11
356.2484110329541
 21
1027.4703061142161
 31
0.0
  0
LINE
  5
2B43
  8
AM_0
 10
274.25879903295407
 20
1055.4703061142161
 30
0.0
 11
310.2587990329539
 21
1055.4703061142161
 31
0.0
  0
LINE
  5
2B44
  8
AM_0
 10
274.25879903295407
 20
1063.470306114217
 30
0.0
 11
302.25879903295402
 21
1063.470306114217
 31
0.0
  0
LINE
  5
2B45
  8
AM_0
 10
325.98767903295419
 20
1025.4341981142161
 30
0.0
 11
354.1797850329541
 21
1024.942103114216
 31
0.0
  0
LINE
  5
2B46
  8
AM_0
 10
316.2587990329539
 20
1029.8929561142161
 30
0.0
 11
322.127298032954
 21
1026.5047761142159
 31
0.0
  0
ARC
  5
2B47
  8
AM_0
 10
317.25879903295402
 20
1031.625007114216
 30
0.0
 40
2.0
 50
180.0
 51
239.99999999999949
  0
ARC
  5
2B48
  8
AM_0
 10
326.127298032954
 20
1033.432980114216
 30
0.0
 40
8.0
 50
239.99999999999949
 51
268.99999999999812
  0
ARC
  5
2B49
  8
AM_0
 10
354.04016603295401
 20
1016.943321114216
 30
0.0
 40
8.0
 50
59.999999999999439
 51
88.999999999998224
  0
LINE
  5
2B4A
  8
AM_0
 10
313.25879903295402
 20
1042.4703061142161
 30
0.0
 11
315.25879903295402
 21
1040.4703061142161
 31
0.0
  0
LINE
  5
2B4B
  8
AM_0
 10
310.2587990329539
 20
1054.9703061142161
 30
0.0
 11
313.25879903295402
 21
1054.9703061142161
 31
0.0
  0
LINE
  5
2B4C
  8
AM_0
 10
274.25879903295407
 20
1079.470306114217
 30
0.0
 11
310.2587990329539
 21
1079.470306114217
 31
0.0
  0
LINE
  5
2B4D
  8
AM_0
 10
274.25879903295407
 20
1071.470306114217
 30
0.0
 11
302.25879903295402
 21
1071.470306114217
 31
0.0
  0
LINE
  5
2B4E
  8
AM_0
 10
316.2587990329539
 20
1105.047656114215
 30
0.0
 11
322.127298032954
 21
1108.435836114217
 31
0.0
  0
LINE
  5
2B4F
  8
AM_0
 10
310.2587990329539
 20
1079.9703061142161
 30
0.0
 11
313.25879903295402
 21
1079.9703061142161
 31
0.0
  0
LINE
  5
2B50
  8
AM_0
 10
313.25879903295402
 20
1092.4703061142161
 30
0.0
 11
315.25879903295402
 21
1094.4703061142161
 31
0.0
  0
ARC
  5
2B51
  8
AM_0
 10
317.25879903295402
 20
1103.3156051142171
 30
0.0
 40
2.0
 50
120.0000000000005
 51
180.0
  0
LINE
  5
2B52
  8
AM_0
 10
325.98767903295419
 20
1109.506414114217
 30
0.0
 11
354.1797850329541
 21
1109.9985091142171
 31
0.0
  0
ARC
  5
2B53
  8
AM_0
 10
326.127298032954
 20
1101.507632114216
 30
0.0
 40
8.0
 50
91.000000000001776
 51
120.0000000000005
  0
ARC
  5
2B54
  8
AM_0
 10
354.04016603295401
 20
1117.9972911142149
 30
0.0
 40
8.0
 50
271.00000000000171
 51
300.00000000000051
  0
ARC
  5
2B55
  8
AM_0
 10
411.75879903295402
 20
1147.8570571142161
 30
0.0
 40
5.0
 50
300.00000000000051
 51
0.0
  0
ARC
  5
2B56
  8
AM_0
 10
418.75879903295379
 20
1157.71698746517
 30
0.0
 40
2.0
 50
90.0
 51
180.0
1001
GENIUS_GENOBJ-N-FIL_13
1002
{
1000
OWNER
1000
GEN
1002
}
1001
GENIUS_GENODEF_13
1002
{
1000
HIER
1070
     0
1002
}
1002
{
1000
MANEDIT
1070
     0
1002
}
1002
{
1000
NOSEL
1070
     0
1002
}
1002
{
1000
BEHIND
1070
     0
1002
}
1002
{
1000
OTHER
1070
     0
1002
}
1002
{
1000
REACTOR
1002
}
  0
LINE
  5
2B57
  8
AM_0
 10
430.75879903295379
 20
1153.4703061142161
 30
0.0
 11
418.75879903295379
 21
1153.4703061142161
 31
0.0
  0
LINE
  5
2B58
  8
AM_0
 10
418.75879903295379
 20
1159.71698746517
 30
0.0
 11
428.75879903295402
 21
1159.71698746517
 31
0.0
  0
ARC
  5
2B59
  8
AM_0
 10
418.75879903295379
 20
1151.4703061142161
 30
0.0
 40
2.0
 50
90.0
 51
180.0
  0
LINE
  5
2B5A
  8
AM_0
 10
430.75879903295379
 20
1153.4703061142161
 30
0.0
 11
431.75879903295402
 21
1152.4703061142161
 31
0.0
  0
ARC
  5
2B5B
  8
AM_0
 10
428.75879903295402
 20
1157.71698746517
 30
0.0
 40
2.0
 50
0.0
 51
90.0
1001
GENIUS_GENODEF_13
1002
{
1000
HIER
1070
     0
1002
}
1002
{
1000
MANEDIT
1070
     0
1002
}
1002
{
1000
NOSEL
1070
     0
1002
}
1002
{
1000
BEHIND
1070
     0
1002
}
1002
{
1000
OTHER
1070
     0
1002
}
1002
{
1000
REACTOR
1002
}
1001
GENIUS_GENOBJ-N-FIL_13
1002
{
1000
OWNER
1000
GEN
1002
}
  0
LINE
  5
2B5C
  8
AM_0
 10
430.75879903295379
 20
1153.470306114217
 30
0.0
 11
430.75879903295379
 21
1157.71698746517
 31
0.0
  0
LINE
  5
2B5E
  8
ﾁｭｳｼﾝｾﾝ
 10
1119.5720121098061
 20
471.88163975283271
 30
0.0
 11
1310.788512213433
 21
471.88163975283271
 31
0.0
  0
LINE
  5
2B5F
  8
AM_0
 10
819.25875903295389
 20
1076.4703061142161
 30
0.0
 11
900.258759032954
 21
1076.4703061142161
 31
0.0
  0
LINE
  5
2B60
  8
AM_0
 10
819.25875903295389
 20
1058.4703061142161
 30
0.0
 11
900.258759032954
 21
1058.4703061142161
 31
0.0
  0
LINE
  5
2B61
  8
AM_0
 10
795.258759032954
 20
1037.4703061142161
 30
0.0
 11
900.258759032954
 21
1037.4703061142161
 31
0.0
  0
LINE
  5
2B62
  8
AM_0
 10
795.258759032954
 20
1097.4703061142161
 30
0.0
 11
900.258759032954
 21
1097.4703061142161
 31
0.0
  0
LINE
  5
2B63
  8
ﾁｭｳｼﾝｾﾝ
 10
262.73659668921738
 20
1067.470306114217
 30
0.0
 11
916.08169903295391
 21
1067.4703061142161
 31
0.0
  0
LINE
  5
2B64
  8
AM_0
 10
431.75879903295402
 20
982.47030611421712
 30
0.0
 11
431.75879903295402
 21
1152.4703061142161
 31
0.0
  0
LINE
  5
2B65
  8
AM_0
 10
465.25879903295402
 20
1161.414166114216
 30
0.0
 11
465.25879903295402
 21
973.52645611421713
 31
0.0
  0
LINE
  5
2B66
  8
AM_0
 10
494.25879903295402
 20
1185.470266114216
 30
0.0
 11
494.25879903295402
 21
949.47030611421735
 31
0.0
  0
LINE
  5
2B67
  8
AM_0
 10
676.75869903295415
 20
1225.3697661142171
 30
0.0
 11
676.75869903295415
 21
909.57095611421676
 31
0.0
  0
LINE
  5
2B68
  8
AM_0
 10
571.75869903295415
 20
942.53890611421673
 30
0.0
 11
571.75869903295415
 21
1192.4016661142159
 31
0.0
  0
LINE
  5
2B69
  8
AM_0
 10
591.75869903295415
 20
915.27236611421677
 30
0.0
 11
591.75869903295415
 21
1062.4703061142161
 31
0.0
  0
LINE
  5
2B6A
  8
AM_0
 10
512.25879903295402
 20
1187.470266114216
 30
0.0
 11
512.25879903295402
 21
947.47030611421724
 31
0.0
  0
LINE
  5
2B6B
  8
AM_0
 10
525.25869903295404
 20
1185.470266114216
 30
0.0
 11
525.25869903295404
 21
949.47030611421735
 31
0.0
  0
LINE
  5
2B6C
  8
AM_0
 10
753.258759032954
 20
947.12716611421661
 30
0.0
 11
753.258759032954
 21
1187.813466114216
 31
0.0
  0
LINE
  5
2B6D
  8
AM_0
 10
646.75875903295389
 20
1226.4173661142161
 30
0.0
 11
646.75875903295389
 21
908.5232861142166
 31
0.0
  0
LINE
  5
2B6E
  8
AM_0
 10
789.258759032954
 20
1129.5731661142161
 30
0.0
 11
789.258759032954
 21
1005.367396114216
 31
0.0
  0
LINE
  5
2B6F
  8
AM_0
 10
783.258759032954
 20
1167.9351661142159
 30
0.0
 11
783.258759032954
 21
967.00539611421675
 31
0.0
  0
LINE
  5
2B70
  8
AM_0
 10
646.75875903295389
 20
908.5232861142166
 30
0.0
 11
596.58419903295407
 21
910.2754161142168
 31
0.0
  0
LINE
  5
2B71
  8
AM_0
 10
600.04409903295402
 20
889.40078611421666
 30
0.0
 11
642.98592903295412
 21
894.71078611421683
 31
0.0
  0
LINE
  5
2B72
  8
AM_0
 10
647.57198903295409
 20
905.10549611421675
 30
0.0
 11
605.07192903295413
 21
898.10024611421659
 31
0.0
  0
LINE
  5
2B73
  8
AM_0
 10
534.0840990329541
 20
891.57961611421661
 30
0.0
 11
651.758759032954
 21
887.47030611421667
 31
0.0
  0
ARC
  5
2B74
  8
AM_0
 10
534.25879903295402
 20
896.57656611421669
 30
0.0
 40
5.0
 50
180.00001000000091
 51
268.0000000000029
  0
LINE
  5
2B75
  8
AM_0
 10
525.25869903295404
 20
980.79543611421673
 30
0.0
 11
571.75869903295415
 21
980.79543611421673
 31
0.0
  0
LINE
  5
2B76
  8
AM_0
 10
525.25869903295404
 20
996.53750611421663
 30
0.0
 11
571.75869903295415
 21
996.53750611421663
 31
0.0
  0
LINE
  5
2B77
  8
AM_0
 10
527.25879903295379
 20
955.47030611421724
 30
0.0
 11
566.75869903295415
 21
955.47030611421724
 31
0.0
  0
LINE
  5
2B78
  8
AM_0
 10
529.25879903295402
 20
896.57656611421669
 30
0.0
 11
529.25879903295402
 21
952.17129611421672
 31
0.0
  0
LINE
  5
2B79
  8
AM_0
 10
468.548699032954
 20
968.82803611421673
 30
0.0
 11
490.968799032954
 21
960.66775611421724
 31
0.0
  0
LINE
  5
2B7A
  8
AM_0
 10
460.43319903295401
 20
980.10885611421634
 30
0.0
 11
433.7588990329541
 21
981.04031611421681
 31
0.0
  0
LINE
  5
2B7B
  8
AM_0
 10
460.43319903295401
 20
982.46896611421676
 30
0.0
 11
431.75879903295402
 21
983.47030611421621
 31
0.0
  0
LINE
  5
2B7C
  8
AM_0
 10
433.7588990329541
 20
983.40047611421676
 30
0.0
 11
433.7588990329541
 21
981.04037611421666
 31
0.0
  0
ARC
  5
2B7D
  8
AM_0
 10
460.25879903295379
 20
977.47201611421713
 30
0.0
 40
5.0
 50
0.0
 51
88.000000000002998
  0
ARC
  5
2B7E
  8
AM_0
 10
460.25879903295379
 20
975.11190611421671
 30
0.0
 40
5.0
 50
0.0
 51
88.000000000002998
  0
ARC
  5
2B7F
  8
AM_0
 10
470.25879903295402
 20
973.52645611421713
 30
0.0
 40
5.0
 50
179.9999899999988
 51
250.0000000000046
  0
LINE
  5
2B80
  8
AM_0
 10
496.25879903295402
 20
947.47030611421724
 30
0.0
 11
523.25879903295402
 21
947.47030611421724
 31
0.0
  0
ARC
  5
2B81
  8
AM_0
 10
489.25879903295379
 20
955.96926611421702
 30
0.0
 40
5.0
 50
0.0
 51
70.000000000004647
  0
ARC
  5
2B82
  8
AM_0
 10
496.25879903295402
 20
949.47030611421735
 30
0.0
 40
2.0
 50
179.9999899999988
 51
270.0
  0
ARC
  5
2B83
  8
AM_0
 10
527.25879903295379
 20
953.47030611421667
 30
0.0
 40
2.0
 50
90.00000299999769
 51
180.00001000000091
  0
ARC
  5
2B84
  8
AM_0
 10
523.25879903295402
 20
949.47030611421735
 30
0.0
 40
2.0
 50
270.0
 51
0.0
  0
ARC
  5
2B85
  8
AM_0
 10
534.25879903295402
 20
952.17129611421672
 30
0.0
 40
5.0
 50
138.7152999999978
 51
180.00001000000091
  0
LINE
  5
2B86
  8
AM_0
 10
512.25879903295402
 20
967.74306611421673
 30
0.0
 11
525.25869903295404
 21
967.74306611421673
 31
0.0
  0
LINE
  5
2B87
  8
AM_0
 10
512.25879903295402
 20
983.29940611421682
 30
0.0
 11
525.25869903295404
 21
983.29940611421682
 31
0.0
  0
LINE
  5
2B88
  8
AM_0
 10
512.25879903295402
 20
991.473596114217
 30
0.0
 11
525.25869903295404
 21
991.473596114217
 31
0.0
  0
ARC
  5
2B89
  8
AM_0
 10
586.75869903295415
 20
931.84689611421675
 30
0.0
 40
5.0
 50
0.0
 51
86.16916099999878
  0
CIRCLE
  5
2B8A
  8
AM_0
 10
559.25875903295378
 20
922.47030611421724
 30
0.0
 40
12.0
  0
ARC
  5
2B8B
  8
AM_0
 10
576.75869903295415
 20
942.53890611421673
 30
0.0
 40
5.0
 50
180.00001000000091
 51
266.16915999999748
  0
LINE
  5
2B8C
  8
AM_0
 10
587.09273903295411
 20
936.83572611421675
 30
0.0
 11
576.42471903295404
 21
937.55007611421661
 31
0.0
  0
ARC
  5
2B8D
  8
AM_0
 10
604.258759032954
 20
903.03365611421634
 30
0.0
 40
5.0
 50
180.00001000000091
 51
279.35984999999653
  0
LINE
  5
2B8E
  8
AM_0
 10
596.75869903295415
 20
920.38027611421671
 30
0.0
 11
622.758759032954
 21
920.38027611421671
 31
0.0
  0
LINE
  5
2B8F
  8
AM_0
 10
596.75869903295415
 20
931.17068611421712
 30
0.0
 11
622.758759032954
 21
931.17068611421712
 31
0.0
  0
ARC
  5
2B90
  8
AM_0
 10
596.75869903295415
 20
915.3802761142166
 30
0.0
 40
5.0
 50
90.00000299999769
 51
180.00001000000091
  0
ARC
  5
2B91
  8
AM_0
 10
596.75869903295415
 20
915.27236611421677
 30
0.0
 40
5.0
 50
180.00001000000091
 51
268.00000999999878
  0
ARC
  5
2B92
  8
AM_0
 10
596.75869903295415
 20
936.17068611421666
 30
0.0
 40
5.0
 50
180.00001000000091
 51
270.0
  0
ARC
  5
2B93
  8
AM_0
 10
622.758759032954
 20
922.38027611421671
 30
0.0
 40
2.0
 50
270.0
 51
0.0
  0
ARC
  5
2B94
  8
AM_0
 10
622.758759032954
 20
929.17068611421723
 30
0.0
 40
2.0
 50
0.0
 51
90.00000299999769
  0
LINE
  5
2B95
  8
AM_0
 10
624.758759032954
 20
922.38027611421671
 30
0.0
 11
624.758759032954
 21
929.17068611421723
 31
0.0
  0
ARC
  5
2B96
  8
AM_0
 10
566.75869903295415
 20
950.47030611421644
 30
0.0
 40
5.0
 50
0.0
 51
90.00000299999769
  0
LINE
  5
2B97
  8
AM_0
 10
624.758759032954
 20
974.52615611421675
 30
0.0
 11
624.758759032954
 21
1016.441736114215
 31
0.0
  0
LINE
  5
2B98
  8
AM_0
 10
596.75869903295415
 20
972.52615611421675
 30
0.0
 11
622.758759032954
 21
972.52615611421675
 31
0.0
  0
ARC
  5
2B99
  8
AM_0
 10
596.75869903295415
 20
967.52615611421675
 30
0.0
 40
5.0
 50
90.00000299999769
 51
180.00001000000091
  0
ARC
  5
2B9A
  8
AM_0
 10
622.758759032954
 20
974.52615611421675
 30
0.0
 40
2.0
 50
270.0
 51
0.0
  0
LINE
  5
2B9B
  8
AM_0
 10
596.75869903295415
 20
1018.441736114216
 30
0.0
 11
622.758759032954
 21
1018.441736114216
 31
0.0
  0
ARC
  5
2B9C
  8
AM_0
 10
596.75869903295415
 20
1023.441736114216
 30
0.0
 40
5.0
 50
180.00001000000091
 51
270.0
  0
ARC
  5
2B9D
  8
AM_0
 10
622.758759032954
 20
1016.441736114215
 30
0.0
 40
2.0
 50
0.0
 51
90.00000299999769
  0
ARC
  5
2B9E
  8
AM_0
 10
743.25875903295389
 20
947.12716611421661
 30
0.0
 40
10.0
 50
271.99999999999682
 51
0.0
  0
CIRCLE
  5
2B9F
  8
AM_0
 10
759.25875903295389
 20
922.47030611421724
 30
0.0
 40
12.0
  0
LINE
  5
2BA0
  8
AM_0
 10
651.75869903295415
 20
887.47030611421667
 30
0.0
 11
784.43319903295378
 21
892.10342611421663
 31
0.0
  0
LINE
  5
2BA1
  8
AM_0
 10
715.53793903295411
 20
910.92513611421691
 30
0.0
 11
646.75875903295389
 21
908.5232861142166
 31
0.0
  0
ARC
  5
2BA2
  8
AM_0
 10
641.758759032954
 20
904.63522611421683
 30
0.0
 40
10.0
 50
277.0491999999964
 51
0.0
  0
ARC
  5
2BA3
  8
AM_0
 10
646.75875903295389
 20
910.03890611421662
 30
0.0
 40
5.0
 50
279.35985999999889
 51
344.36583000000519
  0
LINE
  5
2BA4
  8
AM_0
 10
651.758759032954
 20
904.63522611421683
 30
0.0
 11
651.758759032954
 21
908.69790611421683
 31
0.0
  0
ARC
  5
2BA5
  8
AM_0
 10
733.258759032954
 20
900.32241611421705
 30
0.0
 40
10.0
 50
180.00001000000091
 51
271.99999000000111
  0
ARC
  5
2BA6
  8
AM_0
 10
738.25875903295389
 20
921.93734611421667
 30
0.0
 40
15.0
 50
91.999998000000787
 51
180.00001000000091
  0
ARC
  5
2BA7
  8
AM_0
 10
715.258759032954
 20
918.92025611421673
 30
0.0
 40
8.0
 50
271.99999999999682
 51
0.0
  0
LINE
  5
2BA8
  8
AM_0
 10
723.258759032954
 20
900.32241611421705
 30
0.0
 11
723.258759032954
 21
921.93734611421667
 31
0.0
  0
LINE
  5
2BA9
  8
AM_0
 10
743.60769903295397
 20
937.13326611421667
 30
0.0
 11
737.73525903295399
 21
936.92825611421665
 31
0.0
  0
LINE
  5
2BAA
  8
AM_0
 10
789.258759032954
 20
897.10036611421685
 30
0.0
 11
789.258759032954
 21
957.84023611421674
 31
0.0
  0
ARC
  5
2BAB
  8
AM_0
 10
784.25875903295389
 20
897.10036611421685
 30
0.0
 40
5.0
 50
271.99999999999682
 51
0.0
  0
LINE
  5
2BAC
  8
ﾁｭｳｼﾝｾﾝ1
 10
738.25875903295389
 20
922.47030611421724
 30
0.0
 11
780.25875903295389
 21
922.47030611421724
 31
0.0
  0
LINE
  5
2BAD
  8
ﾁｭｳｼﾝｾﾝ1
 10
759.25875903295389
 20
901.47030611421667
 30
0.0
 11
759.25875903295389
 21
943.47030611421667
 31
0.0
  0
ARC
  5
2BAE
  8
AM_0
 10
775.258759032954
 20
968.19582611421674
 30
0.0
 40
8.0
 50
271.99999999999682
 51
0.0
  0
LINE
  5
2BAF
  8
AM_0
 10
775.53793903295411
 20
960.20064611421674
 30
0.0
 11
762.90975903295384
 21
959.75967611421675
 31
0.0
  0
ARC
  5
2BB0
  8
AM_0
 10
763.25875903295389
 20
949.76577611421612
 30
0.0
 40
10.0
 50
91.999998000000787
 51
180.00001000000091
  0
ARC
  5
2BB1
  8
AM_0
 10
788.25875903295389
 20
967.00539611421675
 30
0.0
 40
5.0
 50
180.00001000000091
 51
246.421820000005
  0
ARC
  5
2BB2
  8
AM_0
 10
784.25875903295389
 20
957.84023611421674
 30
0.0
 40
5.0
 50
0.0
 51
66.421821000003519
  0
ARC
  5
2BB3
  8
AM_0
 10
786.258759032954
 20
1005.367396114216
 30
0.0
 40
3.0
 50
271.99999999999682
 51
0.0
  0
ARC
  5
2BB4
  8
AM_0
 10
786.258759032954
 20
999.36373611421675
 30
0.0
 40
3.0
 50
91.999998000000787
 51
180.00001000000091
  0
LINE
  5
2BB5
  8
AM_0
 10
786.15408903295395
 20
1002.361846114216
 30
0.0
 11
786.36343903295415
 21
1002.369166114216
 31
0.0
  0
LINE
  5
2BB6
  8
AM_0
 10
646.75875903295389
 20
1226.4173661142161
 30
0.0
 11
596.58419903295407
 21
1224.665266114215
 31
0.0
  0
LINE
  5
2BB7
  8
AM_0
 10
647.57192903295413
 20
1229.835066114216
 30
0.0
 11
605.07192903295413
 21
1236.8402661142161
 31
0.0
  0
LINE
  5
2BB8
  8
AM_0
 10
600.04409903295402
 20
1245.539866114216
 30
0.0
 11
642.98586903295416
 21
1240.229866114217
 31
0.0
  0
LINE
  5
2BB9
  8
AM_0
 10
534.08419903295407
 20
1243.3610661142161
 30
0.0
 11
651.758759032954
 21
1247.4704661142171
 31
0.0
  0
CIRCLE
  5
2BBA
  8
AM_0
 10
559.25875903295378
 20
1212.4702661142171
 30
0.0
 40
12.0
  0
LINE
  5
2BBB
  8
AM_0
 10
591.75869903295415
 20
1072.4703061142161
 30
0.0
 11
591.75869903295415
 21
1219.6681661142161
 31
0.0
  0
LINE
  5
2BBC
  8
AM_0
 10
624.758759032954
 20
1212.560266114215
 30
0.0
 11
624.758759032954
 21
1205.7698661142149
 31
0.0
  0
LINE
  5
2BBD
  8
AM_0
 10
529.25879903295402
 20
1238.364066114216
 30
0.0
 11
529.25879903295402
 21
1182.7693661142159
 31
0.0
  0
LINE
  5
2BBE
  8
AM_0
 10
525.25869903295404
 20
1154.145266114215
 30
0.0
 11
571.75869903295415
 21
1154.145266114215
 31
0.0
  0
LINE
  5
2BBF
  8
AM_0
 10
525.25869903295404
 20
1138.403066114216
 30
0.0
 11
571.75869903295415
 21
1138.403066114216
 31
0.0
  0
LINE
  5
2BC0
  8
AM_0
 10
527.25879903295379
 20
1179.470266114216
 30
0.0
 11
566.75869903295415
 21
1179.470266114216
 31
0.0
  0
ARC
  5
2BC1
  8
AM_0
 10
460.25879903295379
 20
1080.9007861142161
 30
0.0
 40
5.0
 50
271.99999999999682
 51
0.0
  0
LINE
  5
2BC2
  8
AM_0
 10
433.7588990329541
 20
1056.5045461142161
 30
0.0
 11
433.7588990329541
 21
1078.4360661142159
 31
0.0
  0
LINE
  5
2BC3
  8
AM_0
 10
460.43319903295401
 20
1075.903776114216
 30
0.0
 11
433.7588990329541
 21
1074.972316114216
 31
0.0
  0
LINE
  5
2BC4
  8
AM_0
 10
460.43319903295401
 20
1055.573086114216
 30
0.0
 11
433.75879903295402
 21
1056.5045461142161
 31
0.0
  0
LINE
  5
2BC5
  8
AM_0
 10
460.43329903295393
 20
1059.0367761142161
 30
0.0
 11
433.7588990329541
 21
1059.968286114216
 31
0.0
  0
ARC
  5
2BC6
  8
AM_0
 10
460.25879903295379
 20
1054.0398261142161
 30
0.0
 40
5.0
 50
0.0
 51
88.000000000002998
  0
ARC
  5
2BC7
  8
AM_0
 10
460.25879903295379
 20
1050.5761361142161
 30
0.0
 40
5.0
 50
0.0
 51
88.000000000002998
  0
LINE
  5
2BC8
  8
AM_0
 10
460.43319903295401
 20
1079.367586114216
 30
0.0
 11
433.75879903295402
 21
1078.4360661142159
 31
0.0
  0
ARC
  5
2BC9
  8
AM_0
 10
460.25879903295379
 20
1084.364526114216
 30
0.0
 40
5.0
 50
271.99999999999682
 51
0.0
  0
LINE
  5
2BCA
  8
AM_0
 10
468.54859903295397
 20
1166.1126661142159
 30
0.0
 11
490.968799032954
 21
1174.2729661142159
 31
0.0
  0
LINE
  5
2BCB
  8
AM_0
 10
460.43319903295401
 20
1154.831766114216
 30
0.0
 11
433.75879903295402
 21
1153.900266114216
 31
0.0
  0
LINE
  5
2BCC
  8
AM_0
 10
460.43319903295401
 20
1152.471666114217
 30
0.0
 11
431.75879903295402
 21
1151.4702661142151
 31
0.0
  0
LINE
  5
2BCD
  8
AM_0
 10
433.7588990329541
 20
1151.5401661142171
 30
0.0
 11
433.7588990329541
 21
1153.900266114216
 31
0.0
  0
ARC
  5
2BCE
  8
AM_0
 10
460.25879903295379
 20
1157.4685661142159
 30
0.0
 40
5.0
 50
271.99999999999682
 51
0.0
  0
ARC
  5
2BCF
  8
AM_0
 10
460.25879903295379
 20
1159.828666114216
 30
0.0
 40
5.0
 50
271.99999999999682
 51
0.0
  0
ARC
  5
2BD0
  8
AM_0
 10
470.25879903295402
 20
1161.414166114216
 30
0.0
 40
5.0
 50
109.9999999999953
 51
180.00001000000091
  0
LINE
  5
2BD1
  8
AM_0
 10
512.25879903295402
 20
1143.466866114215
 30
0.0
 11
525.25869903295404
 21
1143.466866114215
 31
0.0
  0
LINE
  5
2BD2
  8
AM_0
 10
512.25879903295402
 20
1151.6410661142161
 30
0.0
 11
525.25869903295404
 21
1151.6410661142161
 31
0.0
  0
LINE
  5
2BD3
  8
AM_0
 10
496.25879903295402
 20
1187.470266114216
 30
0.0
 11
523.25879903295402
 21
1187.470266114216
 31
0.0
  0
ARC
  5
2BD4
  8
AM_0
 10
489.25879903295379
 20
1178.971366114215
 30
0.0
 40
5.0
 50
289.99999999999523
 51
0.0
  0
ARC
  5
2BD5
  8
AM_0
 10
496.25879903295402
 20
1185.470266114216
 30
0.0
 40
2.0
 50
90.00000299999769
 51
180.00001000000091
  0
LINE
  5
2BD6
  8
AM_0
 10
512.25879903295402
 20
1167.197466114216
 30
0.0
 11
525.25869903295404
 21
1167.197466114216
 31
0.0
  0
ARC
  5
2BD7
  8
AM_0
 10
527.25879903295379
 20
1181.470266114216
 30
0.0
 40
2.0
 50
179.9999899999988
 51
270.0
  0
ARC
  5
2BD8
  8
AM_0
 10
523.25879903295402
 20
1185.470266114216
 30
0.0
 40
2.0
 50
0.0
 51
90.00000299999769
  0
ARC
  5
2BD9
  8
AM_0
 10
534.25879903295402
 20
1182.7693661142159
 30
0.0
 40
5.0
 50
180.00001000000091
 51
221.28494000000109
  0
LINE
  5
2BDA
  8
AM_0
 10
624.758759032954
 20
1160.4145661142161
 30
0.0
 11
624.758759032954
 21
1118.4988661142161
 31
0.0
  0
LINE
  5
2BDB
  8
AM_0
 10
586.758759032954
 20
1072.4703061142161
 30
0.0
 11
626.758759032954
 21
1072.4703061142161
 31
0.0
  0
LINE
  5
2BDC
  8
AM_0
 10
586.758759032954
 20
1062.4703061142161
 30
0.0
 11
626.758759032954
 21
1062.4703061142161
 31
0.0
  0
ARC
  5
2BDD
  8
AM_0
 10
586.758759032954
 20
1067.4703061142161
 30
0.0
 40
5.0
 50
90.00000299999769
 51
270.0
  0
ARC
  5
2BDE
  8
AM_0
 10
606.758759032954
 20
1067.4703061142161
 30
0.0
 40
12.5
 50
23.578179999997531
 51
156.42182000000241
  0
ARC
  5
2BDF
  8
AM_0
 10
606.758759032954
 20
1067.4703061142161
 30
0.0
 40
12.5
 50
203.5781799999973
 51
336.42182999999471
  0
ARC
  5
2BE0
  8
AM_0
 10
626.758759032954
 20
1067.4703061142161
 30
0.0
 40
5.0
 50
270.0
 51
90.00000299999769
  0
LINE
  5
2BE1
  8
AM_0
 10
596.75869903295415
 20
1116.4988661142161
 30
0.0
 11
622.758759032954
 21
1116.4988661142161
 31
0.0
  0
ARC
  5
2BE2
  8
AM_0
 10
596.75869903295415
 20
1111.4988661142161
 30
0.0
 40
5.0
 50
90.00000299999769
 51
180.00001000000091
  0
ARC
  5
2BE3
  8
AM_0
 10
622.758759032954
 20
1118.4988661142161
 30
0.0
 40
2.0
 50
270.0
 51
0.0
  0
ARC
  5
2BE4
  8
AM_0
 10
586.75869903295415
 20
1203.0937661142159
 30
0.0
 40
5.0
 50
273.83084000000241
 51
0.0
  0
ARC
  5
2BE5
  8
AM_0
 10
566.75869903295415
 20
1184.4702661142151
 30
0.0
 40
5.0
 50
270.0
 51
0.0
  0
ARC
  5
2BE6
  8
AM_0
 10
576.75869903295415
 20
1192.4016661142159
 30
0.0
 40
5.0
 50
93.830836999998056
 51
180.00001000000091
  0
LINE
  5
2BE7
  8
AM_0
 10
587.09280903295405
 20
1198.1048661142161
 30
0.0
 11
576.42464903295411
 21
1197.390466114216
 31
0.0
  0
ARC
  5
2BE8
  8
AM_0
 10
596.75869903295415
 20
1167.414566114217
 30
0.0
 40
5.0
 50
180.00001000000091
 51
270.0
  0
LINE
  5
2BE9
  8
AM_0
 10
596.75869903295415
 20
1162.414566114217
 30
0.0
 11
622.758759032954
 21
1162.414566114217
 31
0.0
  0
ARC
  5
2BEA
  8
AM_0
 10
622.758759032954
 20
1160.4145661142161
 30
0.0
 40
2.0
 50
0.0
 51
90.00000299999769
  0
LINE
  5
2BEB
  8
AM_0
 10
596.75869903295415
 20
1203.769866114216
 30
0.0
 11
622.758759032954
 21
1203.769866114216
 31
0.0
  0
ARC
  5
2BEC
  8
AM_0
 10
596.75869903295415
 20
1198.769866114216
 30
0.0
 40
5.0
 50
90.00000299999769
 51
180.00001000000091
  0
ARC
  5
2BED
  8
AM_0
 10
622.758759032954
 20
1205.7698661142149
 30
0.0
 40
2.0
 50
270.0
 51
0.0
  0
ARC
  5
2BEE
  8
AM_0
 10
534.25879903295402
 20
1238.364066114216
 30
0.0
 40
5.0
 50
91.999998000000787
 51
180.00001000000091
  0
LINE
  5
2BEF
  8
AM_0
 10
596.75869903295415
 20
1214.5602661142159
 30
0.0
 11
622.758759032954
 21
1214.5602661142159
 31
0.0
  0
ARC
  5
2BF0
  8
AM_0
 10
604.258759032954
 20
1231.9069661142159
 30
0.0
 40
5.0
 50
80.640142999995817
 51
180.00001000000091
  0
ARC
  5
2BF1
  8
AM_0
 10
596.75869903295415
 20
1219.560266114215
 30
0.0
 40
5.0
 50
180.00001000000091
 51
270.0
  0
ARC
  5
2BF2
  8
AM_0
 10
596.75869903295415
 20
1219.6681661142161
 30
0.0
 40
5.0
 50
91.999998000000787
 51
180.00001000000091
  0
ARC
  5
2BF3
  8
AM_0
 10
622.758759032954
 20
1212.560266114215
 30
0.0
 40
2.0
 50
0.0
 51
90.00000299999769
  0
ARC
  5
2BF4
  8
AM_0
 10
738.25875903295389
 20
1213.0032661142161
 30
0.0
 40
15.0
 50
180.00001000000091
 51
268.0000000000029
  0
CIRCLE
  5
2BF5
  8
AM_0
 10
759.25875903295389
 20
1212.4702661142171
 30
0.0
 40
12.0
  0
LINE
  5
2BF6
  8
AM_0
 10
789.258759032954
 20
1237.8402661142161
 30
0.0
 11
789.258759032954
 21
1177.1002661142161
 31
0.0
  0
ARC
  5
2BF7
  8
AM_0
 10
743.25875903295389
 20
1187.813466114216
 30
0.0
 40
10.0
 50
0.0
 51
88.000000000002998
  0
LINE
  5
2BF8
  8
AM_0
 10
743.60769903295397
 20
1197.8073661142159
 30
0.0
 11
737.73525903295399
 21
1198.0124661142161
 31
0.0
  0
LINE
  5
2BF9
  8
AM_0
 10
795.258759032954
 20
1099.9703061142161
 30
0.0
 11
795.258759032954
 21
1034.9703061142161
 31
0.0
  0
LINE
  5
2BFA
  8
AM_0
 10
789.258759032954
 20
1034.9703061142161
 30
0.0
 11
795.258759032954
 21
1034.9703061142161
 31
0.0
  0
LINE
  5
2BFB
  8
AM_0
 10
789.258759032954
 20
1099.9703061142161
 30
0.0
 11
795.258759032954
 21
1099.9703061142161
 31
0.0
  0
ARC
  5
2BFC
  8
AM_0
 10
819.25875903295389
 20
1067.4703061142161
 30
0.0
 40
8.9999962
 50
90.00000299999769
 51
270.0
  0
LINE
  5
2BFD
  8
AM_0
 10
819.25875903295389
 20
1076.4703061142161
 30
0.0
 11
819.25875903295389
 21
1058.4703061142161
 31
0.0
  0
ARC
  5
2BFE
  8
AM_0
 10
775.258759032954
 20
1166.7448661142159
 30
0.0
 40
8.0
 50
0.0
 51
88.000000000002998
  0
ARC
  5
2BFF
  8
AM_0
 10
786.258759032954
 20
1135.576866114216
 30
0.0
 40
3.0
 50
180.00001000000091
 51
268.0000000000029
  0
ARC
  5
2C00
  8
AM_0
 10
786.258759032954
 20
1129.5731661142161
 30
0.0
 40
3.0
 50
0.0
 51
88.000000000002998
  0
LINE
  5
2C01
  8
AM_0
 10
786.15408903295395
 20
1132.578666114216
 30
0.0
 11
786.36349903295411
 21
1132.5713661142161
 31
0.0
  0
LINE
  5
2C02
  8
AM_0
 10
775.53793903295411
 20
1174.739966114216
 30
0.0
 11
762.90981903295415
 21
1175.1809661142161
 31
0.0
  0
ARC
  5
2C03
  8
AM_0
 10
763.25875903295389
 20
1185.174766114216
 30
0.0
 40
10.0
 50
180.00001000000091
 51
268.0000000000029
  0
ARC
  5
2C04
  8
AM_0
 10
788.25875903295389
 20
1167.9351661142159
 30
0.0
 40
5.0
 50
113.5781799999949
 51
180.00001000000091
  0
ARC
  5
2C05
  8
AM_0
 10
784.25875903295389
 20
1177.1002661142161
 30
0.0
 40
5.0
 50
293.57817999999492
 51
0.0
  0
LINE
  5
2C06
  8
AM_0
 10
651.758759032954
 20
1247.470266114216
 30
0.0
 11
784.43325903295374
 21
1242.837266114215
 31
0.0
  0
LINE
  5
2C07
  8
AM_0
 10
715.53793903295411
 20
1224.015566114216
 30
0.0
 11
646.75875903295389
 21
1226.417466114216
 31
0.0
  0
ARC
  5
2C08
  8
AM_0
 10
641.758759032954
 20
1230.305366114216
 30
0.0
 40
10.0
 50
0.0
 51
82.950795999998775
  0
ARC
  5
2C09
  8
AM_0
 10
646.75875903295389
 20
1224.9016661142159
 30
0.0
 40
5.0
 50
15.63417199999704
 51
80.640142999995817
  0
LINE
  5
2C0A
  8
AM_0
 10
651.758759032954
 20
1230.305366114216
 30
0.0
 11
651.758759032954
 21
1226.242666114216
 31
0.0
  0
ARC
  5
2C0B
  8
AM_0
 10
733.258759032954
 20
1234.618166114215
 30
0.0
 40
10.0
 50
88.000000000002998
 51
180.00001000000091
  0
ARC
  5
2C0C
  8
AM_0
 10
715.258759032954
 20
1216.020366114215
 30
0.0
 40
8.0
 50
0.0
 51
88.000000000002998
  0
LINE
  5
2C0D
  8
AM_0
 10
723.258759032954
 20
1234.618166114215
 30
0.0
 11
723.258759032954
 21
1213.0032661142161
 31
0.0
  0
ARC
  5
2C0E
  8
AM_0
 10
784.25875903295389
 20
1237.8402661142161
 30
0.0
 40
5.0
 50
0.0
 51
88.000000000002998
  0
LINE
  5
2C0F
  8
AM_0
 10
900.258759032954
 20
1097.4703061142161
 30
0.0
 11
900.258759032954
 21
1037.4703061142161
 31
0.0
  0
LINE
  5
2C10
  8
ﾁｭｳｼﾝｾﾝ1
 10
559.25875903295378
 20
901.47030611421667
 30
0.0
 11
559.25875903295378
 21
943.47030611421667
 31
0.0
  0
LINE
  5
2C11
  8
ﾁｭｳｼﾝｾﾝ1
 10
538.25875903295378
 20
922.47030611421724
 30
0.0
 11
580.25875903295378
 21
922.47030611421724
 31
0.0
  0
LINE
  5
2C12
  8
ﾁｭｳｼﾝｾﾝ1
 10
559.25875903295378
 20
1191.470266114216
 30
0.0
 11
559.25875903295378
 21
1233.470266114216
 31
0.0
  0
LINE
  5
2C13
  8
ﾁｭｳｼﾝｾﾝ1
 10
538.25875903295378
 20
1212.4702661142171
 30
0.0
 11
580.25875903295378
 21
1212.4702661142171
 31
0.0
  0
LINE
  5
2C14
  8
ﾁｭｳｼﾝｾﾝ1
 10
759.25875903295389
 20
1191.470266114216
 30
0.0
 11
759.25875903295389
 21
1233.470266114216
 31
0.0
  0
LINE
  5
2C15
  8
ﾁｭｳｼﾝｾﾝ1
 10
738.25875903295389
 20
1212.4702661142171
 30
0.0
 11
780.25875903295389
 21
1212.4702661142171
 31
0.0
  0
TEXT
  5
2E06
  8
AM_0
 10
1044.6231914888269
 20
1095.6220119576949
 30
0.0
 40
20.0
  1
VX22-240G~VX22-300G
  0
ENDSEC
  0
EOF
