  0
SECTION
  2
HEADER
  9
$ACADVER
  1
AC1024
  9
$ACADMAINTVER
 70
   226
  9
$DWGCODEPAGE
  3
ANSI_932
  9
$LASTSAVEDBY
  1
y-sakai
  9
$INSBASE
 10
0.0
 20
0.0
 30
0.0
  9
$EXTMIN
 10
86.44787660600597
 20
303.2498917902813
 30
-0.0000000000000058
  9
$EXTMAX
 10
1171.626361052187
 20
1005.381995036345
 30
0.0000000000000104
  9
$LIMMIN
 10
0.0
 20
0.0
  9
$LIMMAX
 10
1422.5
 20
925.0
  9
$ORTHOMODE
 70
     0
  9
$REGENMODE
 70
     1
  9
$FILLMODE
 70
     1
  9
$QTEXTMODE
 70
     0
  9
$MIRRTEXT
 70
     1
  9
$LTSCALE
 40
5.0
  9
$ATTMODE
 70
     1
  9
$TEXTSIZE
 40
2.5
  9
$TRACEWID
 40
1.0
  9
$TEXTSTYLE
  7
STANDARD
  9
$CLAYER
  8
AM_0
  9
$CELTYPE
  6
ByLayer
  9
$CECOLOR
 62
   256
  9
$CELTSCALE
 40
1.0
  9
$DISPSILH
 70
     0
  9
$DIMSCALE
 40
1.0
  9
$DIMASZ
 40
2.5
  9
$DIMEXO
 40
1.0
  9
$DIMDLI
 40
8.0
  9
$DIMRND
 40
0.0
  9
$DIMDLE
 40
0.0
  9
$DIMEXE
 40
0.6
  9
$DIMTP
 40
0.1
  9
$DIMTM
 40
0.1
  9
$DIMTXT
 40
2.5
  9
$DIMCEN
 40
0.0
  9
$DIMTSZ
 40
0.0
  9
$DIMTOL
 70
     0
  9
$DIMLIM
 70
     0
  9
$DIMTIH
 70
     0
  9
$DIMTOH
 70
     0
  9
$DIMSE1
 70
     0
  9
$DIMSE2
 70
     0
  9
$DIMTAD
 70
     1
  9
$DIMZIN
 70
     8
  9
$DIMBLK
  1

  9
$DIMASO
 70
     1
  9
$DIMSHO
 70
     1
  9
$DIMPOST
  1

  9
$DIMAPOST
  1
"
  9
$DIMALT
 70
     0
  9
$DIMALTD
 70
     2
  9
$DIMALTF
 40
0.0393701
  9
$DIMLFAC
 40
1.0
  9
$DIMTOFL
 70
     1
  9
$DIMTVP
 40
0.0
  9
$DIMTIX
 70
     0
  9
$DIMSOXD
 70
     0
  9
$DIMSAH
 70
     0
  9
$DIMBLK1
  1

  9
$DIMBLK2
  1

  9
$DIMSTYLE
  2
AM_ISO
  9
$DIMCLRD
 70
   256
  9
$DIMCLRE
 70
   256
  9
$DIMCLRT
 70
     4
  9
$DIMTFAC
 40
0.71
  9
$DIMGAP
 40
0.8
  9
$DIMJUST
 70
     0
  9
$DIMSD1
 70
     0
  9
$DIMSD2
 70
     0
  9
$DIMTOLJ
 70
     1
  9
$DIMTZIN
 70
     0
  9
$DIMALTZ
 70
     0
  9
$DIMALTTZ
 70
     0
  9
$DIMUPT
 70
     0
  9
$DIMDEC
 70
     4
  9
$DIMTDEC
 70
     4
  9
$DIMALTU
 70
     2
  9
$DIMALTTD
 70
     2
  9
$DIMTXSTY
  7
STANDARD
  9
$DIMAUNIT
 70
     0
  9
$DIMADEC
 70
     0
  9
$DIMALTRND
 40
0.0
  9
$DIMAZIN
 70
     0
  9
$DIMDSEP
 70
    46
  9
$DIMATFIT
 70
     3
  9
$DIMFRAC
 70
     0
  9
$DIMLDRBLK
  1

  9
$DIMLUNIT
 70
     2
  9
$DIMLWD
 70
    -2
  9
$DIMLWE
 70
    -2
  9
$DIMTMOVE
 70
     0
  9
$DIMFXL
 40
1.0
  9
$DIMFXLON
 70
     0
  9
$DIMJOGANG
 40
0.7853981633974483
  9
$DIMTFILL
 70
     0
  9
$DIMTFILLCLR
 70
     0
  9
$DIMARCSYM
 70
     0
  9
$DIMLTYPE
  6

  9
$DIMLTEX1
  6

  9
$DIMLTEX2
  6

  9
$DIMTXTDIRECTION
 70
     0
  9
$LUNITS
 70
     2
  9
$LUPREC
 70
     2
  9
$SKETCHINC
 40
1.0
  9
$FILLETRAD
 40
25.0
  9
$AUNITS
 70
     0
  9
$AUPREC
 70
     0
  9
$MENU
  1
.
  9
$ELEVATION
 40
0.0
  9
$PELEVATION
 40
0.0
  9
$THICKNESS
 40
0.0
  9
$LIMCHECK
 70
     0
  9
$CHAMFERA
 40
10.0
  9
$CHAMFERB
 40
5.0
  9
$CHAMFERC
 40
0.0
  9
$CHAMFERD
 40
0.0
  9
$SKPOLY
 70
     0
  9
$TDCREATE
 40
2452066.694432871
  9
$TDUCREATE
 40
2452066.319432871
  9
$TDUPDATE
 40
2460363.550011575
  9
$TDUUPDATE
 40
2460363.175011575
  9
$TDINDWG
 40
0.0628738079
  9
$TDUSRTIMER
 40
0.0628736111
  9
$USRTIMER
 70
     1
  9
$ANGBASE
 50
0.0
  9
$ANGDIR
 70
     0
  9
$PDMODE
 70
     0
  9
$PDSIZE
 40
0.0
  9
$PLINEWID
 40
0.0
  9
$SPLFRAME
 70
     0
  9
$SPLINETYPE
 70
     6
  9
$SPLINESEGS
 70
     8
  9
$HANDSEED
  5
2F6A
  9
$SURFTAB1
 70
     6
  9
$SURFTAB2
 70
     6
  9
$SURFTYPE
 70
     6
  9
$SURFU
 70
     6
  9
$SURFV
 70
     6
  9
$UCSBASE
  2

  9
$UCSNAME
  2

  9
$UCSORG
 10
0.0
 20
0.0
 30
0.0
  9
$UCSXDIR
 10
1.0
 20
0.0
 30
0.0
  9
$UCSYDIR
 10
0.0
 20
1.0
 30
0.0
  9
$UCSORTHOREF
  2

  9
$UCSORTHOVIEW
 70
     0
  9
$UCSORGTOP
 10
0.0
 20
0.0
 30
0.0
  9
$UCSORGBOTTOM
 10
0.0
 20
0.0
 30
0.0
  9
$UCSORGLEFT
 10
0.0
 20
0.0
 30
0.0
  9
$UCSORGRIGHT
 10
0.0
 20
0.0
 30
0.0
  9
$UCSORGFRONT
 10
0.0
 20
0.0
 30
0.0
  9
$UCSORGBACK
 10
0.0
 20
0.0
 30
0.0
  9
$PUCSBASE
  2

  9
$PUCSNAME
  2

  9
$PUCSORG
 10
0.0
 20
0.0
 30
0.0
  9
$PUCSXDIR
 10
1.0
 20
0.0
 30
0.0
  9
$PUCSYDIR
 10
0.0
 20
1.0
 30
0.0
  9
$PUCSORTHOREF
  2

  9
$PUCSORTHOVIEW
 70
     0
  9
$PUCSORGTOP
 10
0.0
 20
0.0
 30
0.0
  9
$PUCSORGBOTTOM
 10
0.0
 20
0.0
 30
0.0
  9
$PUCSORGLEFT
 10
0.0
 20
0.0
 30
0.0
  9
$PUCSORGRIGHT
 10
0.0
 20
0.0
 30
0.0
  9
$PUCSORGFRONT
 10
0.0
 20
0.0
 30
0.0
  9
$PUCSORGBACK
 10
0.0
 20
0.0
 30
0.0
  9
$USERI1
 70
     0
  9
$USERI2
 70
     0
  9
$USERI3
 70
     0
  9
$USERI4
 70
     0
  9
$USERI5
 70
     0
  9
$USERR1
 40
0.0
  9
$USERR2
 40
0.0
  9
$USERR3
 40
0.0
  9
$USERR4
 40
0.0
  9
$USERR5
 40
0.0
  9
$WORLDVIEW
 70
     1
  9
$SHADEDGE
 70
     3
  9
$SHADEDIF
 70
    70
  9
$TILEMODE
 70
     1
  9
$MAXACTVP
 70
    64
  9
$PINSBASE
 10
0.0
 20
0.0
 30
0.0
  9
$PLIMCHECK
 70
     0
  9
$PEXTMIN
 10
1.000000000000000E+20
 20
1.000000000000000E+20
 30
1.000000000000000E+20
  9
$PEXTMAX
 10
-1.000000000000000E+20
 20
-1.000000000000000E+20
 30
-1.000000000000000E+20
  9
$PLIMMIN
 10
0.0
 20
0.0
  9
$PLIMMAX
 10
420.0
 20
297.0
  9
$UNITMODE
 70
     0
  9
$VISRETAIN
 70
     1
  9
$PLINEGEN
 70
     0
  9
$PSLTSCALE
 70
     1
  9
$TREEDEPTH
 70
  3020
  9
$CMLSTYLE
  2
Standard
  9
$CMLJUST
 70
     0
  9
$CMLSCALE
 40
1.0
  9
$PROXYGRAPHICS
 70
     1
  9
$MEASUREMENT
 70
     0
  9
$CELWEIGHT
370
    -1
  9
$ENDCAPS
280
     0
  9
$JOINSTYLE
280
     0
  9
$LWDISPLAY
290
     0
  9
$INSUNITS
 70
     0
  9
$HYPERLINKBASE
  1

  9
$STYLESHEET
  1

  9
$XEDIT
290
     1
  9
$CEPSNTYPE
380
     0
  9
$PSTYLEMODE
290
     1
  9
$FINGERPRINTGUID
  2
{3D365E31-F56C-064E-9D68-FD28A3FEAB8C}
  9
$VERSIONGUID
  2
{738A000A-24D8-954E-AD6D-E52FD0D1A876}
  9
$EXTNAMES
290
     1
  9
$PSVPSCALE
 40
0.0
  9
$OLESTARTUP
290
     0
  9
$SORTENTS
280
   127
  9
$INDEXCTL
280
     0
  9
$HIDETEXT
280
     0
  9
$XCLIPFRAME
280
     2
  9
$HALOGAP
280
     0
  9
$OBSCOLOR
 70
   257
  9
$OBSLTYPE
280
     0
  9
$INTERSECTIONDISPLAY
280
     0
  9
$INTERSECTIONCOLOR
 70
   257
  9
$DIMASSOC
280
     1
  9
$PROJECTNAME
  1

  9
$CAMERADISPLAY
290
     0
  9
$LENSLENGTH
 40
50.0
  9
$CAMERAHEIGHT
 40
0.0
  9
$STEPSPERSEC
 40
2.0
  9
$STEPSIZE
 40
6.0
  9
$3DDWFPREC
 40
2.0
  9
$PSOLWIDTH
 40
0.25
  9
$PSOLHEIGHT
 40
4.0
  9
$LOFTANG1
 40
1.570796326794896
  9
$LOFTANG2
 40
1.570796326794896
  9
$LOFTMAG1
 40
0.0
  9
$LOFTMAG2
 40
0.0
  9
$LOFTPARAM
 70
     7
  9
$LOFTNORMALS
280
     1
  9
$LATITUDE
 40
37.795
  9
$LONGITUDE
 40
-122.394
  9
$NORTHDIRECTION
 40
0.0
  9
$TIMEZONE
 70
 -8000
  9
$LIGHTGLYPHDISPLAY
280
     1
  9
$TILEMODELIGHTSYNCH
280
     1
  9
$CMATERIAL
347
2D10
  9
$SOLIDHIST
280
     0
  9
$SHOWHIST
280
     1
  9
$DWFFRAME
280
     2
  9
$DGNFRAME
280
     0
  9
$REALWORLDSCALE
290
     1
  9
$INTERFERECOLOR
 62
     1
  9
$INTERFEREOBJVS
345
2D32
  9
$INTERFEREVPVS
346
2D2F
  9
$CSHADOW
280
     0
  9
$SHADOWPLANELOCATION
 40
0.0
  0
ENDSEC
  0
SECTION
  2
CLASSES
  0
CLASS
  1
ACDBDICTIONARYWDFLT
  2
AcDbDictionaryWithDefault
  3
ObjectDBX Classes
 90
        0
 91
        1
280
     0
281
     0
  0
CLASS
  1
MATERIAL
  2
AcDbMaterial
  3
ObjectDBX Classes
 90
     1153
 91
        3
280
     0
281
     0
  0
CLASS
  1
VISUALSTYLE
  2
AcDbVisualStyle
  3
ObjectDBX Classes
 90
     4095
 91
       24
280
     0
281
     0
  0
CLASS
  1
SCALE
  2
AcDbScale
  3
ObjectDBX Classes
 90
     1153
 91
       17
280
     0
281
     0
  0
CLASS
  1
TABLESTYLE
  2
AcDbTableStyle
  3
ObjectDBX Classes
 90
     4095
 91
        1
280
     0
281
     0
  0
CLASS
  1
MLEADERSTYLE
  2
AcDbMLeaderStyle
  3
ACDB_MLEADERSTYLE_CLASS
 90
     4095
 91
        1
280
     0
281
     0
  0
CLASS
  1
ACDBSECTIONVIEWSTYLE
  2
AcDbSectionViewStyle
  3
ObjectDBX Classes
 90
     1025
 91
        2
280
     0
281
     0
  0
CLASS
  1
ACDBDETAILVIEWSTYLE
  2
AcDbDetailViewStyle
  3
ObjectDBX Classes
 90
     1025
 91
        2
280
     0
281
     0
  0
CLASS
  1
AMGSETTINGSOBJ
  2
AmgSettingsObj
  3
"AcadM|Product Description: AutoCAD Mechanical|Company: Autodesk, Inc."
 90
     1024
 91
        2
280
     0
281
     0
  0
CLASS
  1
ACME_DOCUMENT
  2
AcMeDbDoc
  3
AcMeServices
 90
     1024
 91
        1
280
     0
281
     0
  0
CLASS
  1
ACMESCOPE
  2
AcMeScope
  3
AcMeServices
 90
     1024
 91
        1
280
     0
281
     0
  0
CLASS
  1
ACMECOMMANDHISTORY
  2
AcMeCommandHistory
  3
AcMeServices
 90
     1024
 91
        1
280
     0
281
     0
  0
CLASS
  1
ACIMSYSVARMAN
  2
AcImSysVarManager
  3
AcMeServices
 90
     1024
 91
        3
280
     0
281
     0
  0
CLASS
  1
ACIMINTSYSVAR
  2
AcImIntSysVar
  3
AcMeServices
 90
     1024
 91
        3
280
     0
281
     0
  0
CLASS
  1
ACMESTATEMGR
  2
AcMeStateMgr
  3
AcMeServices
 90
     1024
 91
        1
280
     0
281
     0
  0
CLASS
  1
ACDBENTITYCACHE
  2
AcMeEntityCache
  3
AcMeServices
 90
     1024
 91
        1
280
     0
281
     0
  0
CLASS
  1
ACGREFMASTER
  2
AcGrefMaster
  3
AcAttribServices
 90
     1024
 91
        1
280
     0
281
     0
  0
CLASS
  1
ACME_DATABASE
  2
AcMeDbDatabase
  3
AcMeServices
 90
     1024
 91
        2
280
     0
281
     0
  0
CLASS
  1
ACRFINSADJUSTERMGR
  2
AcRfInsAdjusterMgr
  3
AcMeServices
 90
     1024
 91
        1
280
     0
281
     0
  0
CLASS
  1
ACGREFACADMASTER
  2
AcGrefacadMaster
  3
AcGrefServices
 90
     1024
 91
        1
280
     0
281
     0
  0
CLASS
  1
AMIMASTER
  2
AmiMaster
  3
AmiServices
 90
     1024
 91
        1
280
     0
281
     0
  0
CLASS
  1
AMDTMENUSTATEMGR
  2
AmdtMenuStateMgr
  3
McadcomServices
 90
     1024
 91
        1
280
     0
281
     0
  0
CLASS
  1
AMDTMCOMMENUSTATE
  2
AmdtMcomMenuState
  3
McadcomServices
 90
     1024
 91
        1
280
     0
281
     0
  0
CLASS
  1
MAPIAMMOUDLE
  2
MApiAmModule
  3
MApiAmServices
 90
     1024
 91
        1
280
     0
281
     0
  0
CLASS
  1
ACIMSTRSYSVAR
  2
AcImStrSysVar
  3
AcMeServices
 90
     1024
 91
        5
280
     0
281
     0
  0
CLASS
  1
AMDTAMMENUSTATE
  2
AmdtAmMenuState
  3
DesignerAssemblies_arx
 90
     1024
 91
        1
280
     0
281
     0
  0
CLASS
  1
ACAMPROJECT
  2
AcAmProject
  3
DesignerAssemblies
 90
     1024
 91
        1
280
     0
281
     0
  0
CLASS
  1
ACAMGRCOMPDEF
  2
AcAmGrCompDef
  3
DesignerAssemblies
 90
     1024
 91
        1
280
     0
281
     0
  0
CLASS
  1
ACAMCOMPDEF
  2
AcAmCompDef
  3
DesignerAssemblies
 90
     1024
 91
        1
280
     0
281
     0
  0
CLASS
  1
ACAMCOMPDEFMGR
  2
AcAmCompDefMgr
  3
DesignerAssemblies
 90
     1024
 91
        1
280
     0
281
     0
  0
CLASS
  1
AMCONTEXTMGR
  2
AcAmContextMgr
  3
DesignerAssemblies
 90
     1024
 91
        1
280
     0
281
     0
  0
CLASS
  1
ACAMCONTEXTMODELER
  2
AcAmContextModeler
  3
DesignerAssemblies
 90
     1024
 91
        1
280
     0
281
     0
  0
CLASS
  1
ACMDATADICTIONARY
  2
AcmDataDictionary
  3
"AcmSymBB|Product Description: AutoCAD Mechanical|Company: Autodesk, Inc."
 90
     1024
 91
        1
280
     0
281
     0
  0
CLASS
  1
ACAMGRCOMPDEFSET
  2
AcAmGrCompDefSet
  3
DesignerAssemblies
 90
     1024
 91
        1
280
     0
281
     0
  0
CLASS
  1
AMDTBROWSERDBTAB
  2
AmdtBrowserDbTab
  3
McadcomServices
 90
     1024
 91
        1
280
     0
281
     0
  0
CLASS
  1
CBROWSERAPPOBJECT
  2
CBrowserAppObject
  3
McadcomServices
 90
     1024
 91
        2
280
     0
281
     0
  0
CLASS
  1
DM_PLACEHOLDER
  2
AcDmSelsetPlaceholder
  3
McadcomServices
 90
     1024
 91
        1
280
     0
281
     0
  0
CLASS
  1
EXACXREFPANELOBJECT
  2
ExAcXREFPanelObject
  3
EXAC_ESW
 90
     1025
 91
        1
280
     0
281
     0
  0
CLASS
  1
NPOCOLLECTION
  2
AcDbImpNonPersistentObjectsCollection
  3
ObjectDBX Classes
 90
     1153
 91
        1
280
     0
281
     0
  0
CLASS
  1
ACMSTANDARDANSI
  2
AcmStandardANSI
  3
"Amdt_StdImp|Product Description: AutoCAD Mechanical|Company: Autodesk, Inc."
 90
     1024
 91
        1
280
     0
281
     0
  0
CLASS
  1
ACMSURFSTANDARDANSI
  2
AcmSurfTextStdANSI
  3
"Amdt_StdImp|Product Description: AutoCAD Mechanical|Company: Autodesk, Inc."
 90
     1024
 91
        1
280
     0
281
     0
  0
CLASS
  1
ACMFCFSTANDARDANSI
  2
AcmFCFStdANSI
  3
"Amdt_StdImp|Product Description: AutoCAD Mechanical|Company: Autodesk, Inc."
 90
     1024
 91
        1
280
     0
281
     0
  0
CLASS
  1
ACMWELDSTANDARDANSI
  2
AcmWeldingStdANSI
  3
"Amdt_StdImp|Product Description: AutoCAD Mechanical|Company: Autodesk, Inc."
 90
     1024
 91
        1
280
     0
281
     0
  0
CLASS
  1
ACMIDSTANDARDANSI
  2
AcmIdStdANSI
  3
"Amdt_StdImp|Product Description: AutoCAD Mechanical|Company: Autodesk, Inc."
 90
     1024
 91
        1
280
     0
281
     0
  0
CLASS
  1
ACMDATUMSTANDARDANSI
  2
AcmDatumStdANSI
  3
"Amdt_StdImp|Product Description: AutoCAD Mechanical|Company: Autodesk, Inc."
 90
     1024
 91
        1
280
     0
281
     0
  0
CLASS
  1
ACMBOMSTANDARDANSI
  2
AcmBOMStdANSI
  3
"Amdt_StdImp|Product Description: AutoCAD Mechanical|Company: Autodesk, Inc."
 90
     1024
 91
        1
280
     0
281
     0
  0
CLASS
  1
ACMDETAILSTANDARDANSI
  2
AmdtDetailSymStdANSI
  3
"Amdt_StdImp|Product Description: AutoCAD Mechanical|Company: Autodesk, Inc."
 90
     1024
 91
        1
280
     0
281
     0
  0
CLASS
  1
ACMSECTIONSTANDARDANSI
  2
AmdtSectionSymStdANSI
  3
"Amdt_StdImp|Product Description: AutoCAD Mechanical|Company: Autodesk, Inc."
 90
     1024
 91
        1
280
     0
281
     0
  0
CLASS
  1
ACMCENTERLINESTANDARDANSI
  2
AmdtCenterLineStdANSI
  3
"Amdt_StdImp|Product Description: AutoCAD Mechanical|Company: Autodesk, Inc."
 90
     1024
 91
        1
280
     0
281
     0
  0
CLASS
  1
ACMTHREADLINESTANDARDANSI
  2
AmdtThreadLineStdANSI
  3
"Amdt_StdImp|Product Description: AutoCAD Mechanical|Company: Autodesk, Inc."
 90
     1024
 91
        1
280
     0
281
     0
  0
CLASS
  1
ACMNOTESTANDARDANSI
  2
AmdtNoteStdANSI
  3
"Amdt_StdImp|Product Description: AutoCAD Mechanical|Company: Autodesk, Inc."
 90
     1024
 91
        1
280
     0
281
     0
  0
CLASS
  1
ACMTAPERSTANDARDANSI
  2
AcmTaperStdANSI
  3
"Amdt_StdImp|Product Description: AutoCAD Mechanical|Company: Autodesk, Inc."
 90
     1024
 91
        1
280
     0
281
     0
  0
CLASS
  1
ACMANOOTATIONVIEWSTANDARDANSI
  2
AmdtAnViewStdANSI
  3
"Amdt_StdImp|Product Description: AutoCAD Mechanical|Company: Autodesk, Inc."
 90
     1024
 91
        1
280
     0
281
     0
  0
CLASS
  1
ACAMGLAYSTD
  2
AcAmgLayStd
  3
"AmgLay|Product Description: AutoCAD Mechanical|Company: Autodesk, Inc."
 90
     1024
 91
        1
280
     0
281
     0
  0
CLASS
  1
ACAMGDIMSTD
  2
AcAmgDimStd
  3
"AmgDim|Product Description: AutoCAD Mechanical|Company: Autodesk, Inc."
 90
     1024
 91
        1
280
     0
281
     0
  0
CLASS
  1
ACAMGHOLECHARTSTDANSI
  2
AcAmgHoleChartStdANSI
  3
"AmgDim" "Product Description: AutoCAD Mechanical|Company: Autodesk, Inc."
 90
     1024
 91
        1
280
     0
281
     0
  0
CLASS
  1
AMGOBJPROPCFG
  2
AmgObjPropCfg
  3
"AmgLay|Product Description: AutoCAD Mechanical|Company: Autodesk, Inc."
 90
     1024
 91
        1
280
     0
281
     0
  0
CLASS
  1
ACAMGTITLESTD
  2
AcAmgTitleStd
  3
"AmgTitle|Product Description: AutoCAD Mechanical|Company: Autodesk, Inc."
 90
     1024
 91
        1
280
     0
281
     0
  0
CLASS
  1
ACMSECTIONSTANDARDCUSTOM
  2
AmdtSectionSymStdCustom
  3
"Amdt_StdImp|Product Description: AutoCAD Mechanical|Company: Autodesk, Inc."
 90
     1024
 91
        1
280
     0
281
     0
  0
CLASS
  1
ACMDETAILTANDARDCUSTOM
  2
AmdtDetailSymStdCustom
  3
"Amdt_StdImp|Product Description: AutoCAD Mechanical|Company: Autodesk, Inc."
 90
     1024
 91
        1
280
     0
281
     0
  0
CLASS
  1
FIELD
  2
AcDbField
  3
ObjectDBX Classes
 90
     1152
 91
        8
280
     0
281
     0
  0
CLASS
  1
FIELDLIST
  2
AcDbFieldList
  3
ObjectDBX Classes
 90
     1152
 91
        1
280
     0
281
     0
  0
CLASS
  1
AMDTNOTETEMPLATEDB
  2
AmdtNoteTemplateDB
  3
"AcmSymBB" "Product Description: AutoCAD Mechanical|Company: Autodesk, Inc."
 90
     1024
 91
        7
280
     0
281
     0
  0
CLASS
  1
SORTENTSTABLE
  2
AcDbSortentsTable
  3
ObjectDBX Classes
 90
        0
 91
        1
280
     0
281
     0
  0
CLASS
  1
ACAMGFILTERDAT
  2
AcAmgFilterDat
  3
"AcadM|Product Description: AutoCAD Mechanical|Company: Autodesk, Inc."
 90
     1024
 91
        6
280
     0
281
     0
  0
CLASS
  1
DICTIONARYVAR
  2
AcDbDictionaryVar
  3
ObjectDBX Classes
 90
        0
 91
       18
280
     0
281
     0
  0
CLASS
  1
CELLSTYLEMAP
  2
AcDbCellStyleMap
  3
ObjectDBX Classes
 90
     1152
 91
        2
280
     0
281
     0
  0
ENDSEC
  0
SECTION
  2
TABLES
  0
TABLE
  2
VPORT
  5
2D07
330
0
100
AcDbSymbolTable
 70
     1
  0
VPORT
  5
2D73
330
2D07
100
AcDbSymbolTableRecord
100
AcDbViewportTableRecord
  2
*ACTIVE
 70
     0
 10
0.0
 20
0.0
 11
1.0
 21
1.0
 12
698.8777956560109
 22
654.3159434133131
 13
0.0
 23
0.0
 14
12.5
 24
12.5
 15
50.0
 25
50.0
 16
0.0
 26
0.0
 36
1.0
 17
0.0
 27
0.0
 37
0.0
 40
707.9832041064475
 41
2.197496522948539
 42
50.0
 43
0.0
 44
0.0
 50
0.0
 51
0.0
 71
     0
 72
   100
 73
     1
 74
     3
 75
     0
 76
     0
 77
     0
 78
     0
281
     0
 65
     0
110
0.0
120
0.0
130
0.0
111
1.0
121
0.0
131
0.0
112
0.0
122
1.0
132
0.0
 79
     0
146
0.0
348
2D2E
 60
     3
 61
     5
292
     1
282
     0
141
0.0
142
0.0
 63
   250
421
  3355443
1001
ACAD_NAV_VCDISPLAY
1070
     3
  0
ENDTAB
  0
TABLE
  2
LTYPE
  5
2D04
330
0
100
AcDbSymbolTable
 70
    26
  0
LTYPE
  5
2D59
330
2D04
100
AcDbSymbolTableRecord
100
AcDbLinetypeTableRecord
  2
ByBlock
 70
     0
  3

 72
    65
 73
     0
 40
0.0
  0
LTYPE
  5
2D5A
330
2D04
100
AcDbSymbolTableRecord
100
AcDbLinetypeTableRecord
  2
ByLayer
 70
     0
  3

 72
    65
 73
     0
 40
0.0
  0
LTYPE
  5
2D5B
330
2D04
100
AcDbSymbolTableRecord
100
AcDbLinetypeTableRecord
  2
CONTINUOUS
 70
     0
  3
Solid line
 72
    65
 73
     0
 40
0.0
  0
LTYPE
  5
2D74
330
2D04
100
AcDbSymbolTableRecord
100
AcDbLinetypeTableRecord
  2
AM_ISO02W050
 70
     0
  3
__ __ __ __ __ __ __ __ __ __ __ __ __ __ __
 72
    65
 73
     2
 40
7.5
 49
6.0
 74
     0
 49
-1.5
 74
     0
  0
LTYPE
  5
2D75
330
2D04
100
AcDbSymbolTableRecord
100
AcDbLinetypeTableRecord
  2
AM_ISO08W050
 70
     0
  3
____ . ____ . ____ . ____ . ____ . ____ . ____
 72
    65
 73
     4
 40
18.0
 49
12.0
 74
     0
 49
-1.5
 74
     0
 49
3.0
 74
     0
 49
-1.5
 74
     0
  0
LTYPE
  5
2D76
330
2D04
100
AcDbSymbolTableRecord
100
AcDbLinetypeTableRecord
  2
AM_ISO09W050
 70
     0
  3
_____ . . _____ . . _____ . . ____ .. ____
 72
    65
 73
     6
 40
22.5
 49
12.0
 74
     0
 49
-1.5
 74
     0
 49
3.0
 74
     0
 49
-1.5
 74
     0
 49
3.0
 74
     0
 49
-1.5
 74
     0
  0
LTYPE
  5
2D77
330
2D04
100
AcDbSymbolTableRecord
100
AcDbLinetypeTableRecord
  2
AMCONSTR
 70
     0
  3
_______________________
 72
    65
 73
     2
 40
9999.0
 49
9999.0
 74
     0
 49
0.0
 74
     0
  0
LTYPE
  5
2D78
330
2D04
100
AcDbSymbolTableRecord
100
AcDbLinetypeTableRecord
  2
AM_ISO08W050X2
 70
     0
  3
__ . __ . __ . __ . __ . __
 72
    65
 73
     4
 40
9.0
 49
6.0
 74
     0
 49
-0.75
 74
     0
 49
1.5
 74
     0
 49
-0.75
 74
     0
  0
LTYPE
  5
2D79
330
2D04
100
AcDbSymbolTableRecord
100
AcDbLinetypeTableRecord
  2
AM_ISO02W050X2
 70
     0
  3
 _ _ _ _ _ _ _ _ _ _ _ _
 72
    65
 73
     2
 40
3.75
 49
3.0
 74
     0
 49
-0.75
 74
     0
  0
LTYPE
  5
2D7A
330
2D04
100
AcDbSymbolTableRecord
100
AcDbLinetypeTableRecord
  2
AMZIGZAG
 70
     0
  3
/\/-/\/-/\/-/\/-/\/-/\/
 72
    65
 73
     2
 40
11.00009999999999
 49
0.0001
 74
     0
 49
-11.0
 74
     0
  0
LTYPE
  5
2D7F
330
2D04
100
AcDbSymbolTableRecord
100
AcDbLinetypeTableRecord
  2
PHANTOM2
 70
     0
  3
Phantom (.5x) ___ _ _ ___ _ _ ___ _ _ ___ _ _
 72
    65
 73
     6
 40
31.75
 49
15.875
 74
     0
 49
-3.174999999999998
 74
     0
 49
3.174999999999998
 74
     0
 49
-3.174999999999998
 74
     0
 49
3.174999999999998
 74
     0
 49
-3.174999999999998
 74
     0
  0
LTYPE
  5
2D82
330
2D04
100
AcDbSymbolTableRecord
100
AcDbLinetypeTableRecord
  2
GEN7
 70
     0
  3
____ . ____ . ____ . ____ . ____ . ____ . ____
 72
    65
 73
     4
 40
14.25
 49
9.75
 74
     0
 49
-1.5
 74
     0
 49
1.5
 74
     0
 49
-1.5
 74
     0
  0
LTYPE
  5
2D83
330
2D04
100
AcDbSymbolTableRecord
100
AcDbLinetypeTableRecord
  2
GEN3B
 70
     0
  3
 - - - - -
 72
    65
 73
     2
 40
1.0
 49
0.5
 74
     0
 49
-0.5
 74
     0
  0
LTYPE
  5
2D84
330
2D04
100
AcDbSymbolTableRecord
100
AcDbLinetypeTableRecord
  2
GEN7A
 70
     0
  3
__ . __ . __
 72
    65
 73
     4
 40
7.375
 49
4.75
 74
     0
 49
-0.875
 74
     0
 49
0.875
 74
     0
 49
-0.875
 74
     0
  0
LTYPE
  5
2D8B
330
2D04
100
AcDbSymbolTableRecord
100
AcDbLinetypeTableRecord
  2
ACANSTGB
 70
     0
  3
__ . . __ . .
 72
    65
 73
     6
 40
0.35433070866
 49
0.15748031496
 74
     0
 49
-0.03937007874
 74
     0
 49
0.03937007874
 74
     0
 49
-0.03937007874
 74
     0
 49
0.03937007874
 74
     0
 49
-0.03937007874
 74
     0
  0
LTYPE
  5
2D8C
330
2D04
100
AcDbSymbolTableRecord
100
AcDbLinetypeTableRecord
  2
ACANSTGL
 70
     0
  3
_ _ _ _ _
 72
    65
 73
     2
 40
0.11811023622
 49
0.07874015748
 74
     0
 49
-0.03937007874
 74
     0
  0
ENDTAB
  0
TABLE
  2
LAYER
  5
2D01
102
{ACAD_XDICTIONARY
360
2F1B
102
}
330
0
100
AcDbSymbolTable
 70
     7
  0
LAYER
  5
2D53
102
{ACAD_XDICTIONARY
360
2F0C
102
}
330
2D01
100
AcDbSymbolTableRecord
100
AcDbLayerTableRecord
  2
0
 70
     0
 62
     7
  6
CONTINUOUS
370
    -3
390
2D0E
347
2D20
  0
LAYER
  5
2D72
102
{ACAD_XDICTIONARY
360
2F0E
102
}
330
2D01
100
AcDbSymbolTableRecord
100
AcDbLayerTableRecord
  2
AM_0
 70
     0
 62
     7
  6
CONTINUOUS
370
    -3
390
2D0E
347
2D20
  0
LAYER
  5
2D8D
102
{ACAD_XDICTIONARY
360
2F10
102
}
330
2D01
100
AcDbSymbolTableRecord
100
AcDbLayerTableRecord
  2
AM_5
 70
     0
 62
     2
  6
CONTINUOUS
370
    -3
390
2D0E
347
2D20
  0
LAYER
  5
2D8E
330
2D01
100
AcDbSymbolTableRecord
100
AcDbLayerTableRecord
  2
DEFPOINTS
 70
     0
 62
     7
  6
CONTINUOUS
290
     0
370
    -3
390
2D0E
347
2D20
  0
LAYER
  5
2D8F
102
{ACAD_XDICTIONARY
360
2F12
102
}
330
2D01
100
AcDbSymbolTableRecord
100
AcDbLayerTableRecord
  2
ｶｸﾚｾﾝ2
 70
     0
 62
     3
  6
GEN3B
370
    -3
390
2D0E
347
2D20
  0
LAYER
  5
2D90
102
{ACAD_XDICTIONARY
360
2F14
102
}
330
2D01
100
AcDbSymbolTableRecord
100
AcDbLayerTableRecord
  2
ﾁｭｳｼﾝｾﾝ
 70
     0
 62
     1
  6
GEN7
370
    -3
390
2D0E
347
2D20
  0
LAYER
  5
2D91
102
{ACAD_XDICTIONARY
360
2F16
102
}
330
2D01
100
AcDbSymbolTableRecord
100
AcDbLayerTableRecord
  2
ﾁｭｳｼﾝｾﾝ1
 70
     0
 62
     1
  6
GEN7A
370
    -3
390
2D0E
347
2D20
  0
ENDTAB
  0
TABLE
  2
STYLE
  5
2D02
330
0
100
AcDbSymbolTable
 70
     9
  0
STYLE
  5
2D54
330
2D02
100
AcDbSymbolTableRecord
100
AcDbTextStyleTableRecord
  2
STANDARD
 70
     0
 40
0.0
 41
0.8299999999999998
 50
0.0
 71
     0
 42
2.5
  3
txt.shx
  4
bigfont.shx
  0
STYLE
  5
2D96
330
2D02
100
AcDbSymbolTableRecord
100
AcDbTextStyleTableRecord
  2
ACANSGDT
 70
     0
 40
0.0
 41
1.0
 50
0.0
 71
     0
 42
2.5
  3
amgdt.shx
  4

  0
ENDTAB
  0
TABLE
  2
VIEW
  5
2D05
330
0
100
AcDbSymbolTable
 70
     7
  0
VIEW
  5
2D99
330
2D05
100
AcDbSymbolTableRecord
100
AcDbViewTableRecord
  2
AM_VIEW1
 70
     0
 40
462.5
 10
416.0796500920808
 20
693.75
 41
832.1593001841621
 11
0.0
 21
0.0
 31
1.0
 12
0.0
 22
0.0
 32
0.0
 42
50.0
 43
0.0
 44
0.0
 50
0.0
 71
     0
281
     0
 72
     0
 73
     0
348
2D2E
  0
VIEW
  5
2D9A
330
2D05
100
AcDbSymbolTableRecord
100
AcDbViewTableRecord
  2
AM_VIEW2
 70
     0
 40
462.5
 10
1006.420349907918
 20
693.75
 41
832.1593001841621
 11
0.0
 21
0.0
 31
1.0
 12
0.0
 22
0.0
 32
0.0
 42
50.0
 43
0.0
 44
0.0
 50
0.0
 71
     0
281
     0
 72
     0
 73
     0
348
2D2E
  0
VIEW
  5
2D9B
330
2D05
100
AcDbSymbolTableRecord
100
AcDbViewTableRecord
  2
AM_VIEW3
 70
     0
 40
462.5
 10
416.0796500920808
 20
231.25
 41
832.1593001841621
 11
0.0
 21
0.0
 31
1.0
 12
0.0
 22
0.0
 32
0.0
 42
50.0
 43
0.0
 44
0.0
 50
0.0
 71
     0
281
     0
 72
     0
 73
     0
348
2D2E
  0
VIEW
  5
2D9C
330
2D05
100
AcDbSymbolTableRecord
100
AcDbViewTableRecord
  2
AM_VIEW4
 70
     0
 40
462.5
 10
1006.420349907918
 20
231.25
 41
832.1593001841621
 11
0.0
 21
0.0
 31
1.0
 12
0.0
 22
0.0
 32
0.0
 42
50.0
 43
0.0
 44
0.0
 50
0.0
 71
     0
281
     0
 72
     0
 73
     0
348
2D2E
  0
VIEW
  5
2D9D
330
2D05
100
AcDbSymbolTableRecord
100
AcDbViewTableRecord
  2
AM_VIEW5
 70
     0
 40
462.5
 10
711.2499999999997
 20
462.5
 41
832.1593001841618
 11
0.0
 21
0.0
 31
1.0
 12
0.0
 22
0.0
 32
0.0
 42
50.0
 43
0.0
 44
0.0
 50
0.0
 71
     0
281
     0
 72
     0
 73
     0
348
2D2E
  0
VIEW
  5
2D9E
330
2D05
100
AcDbSymbolTableRecord
100
AcDbViewTableRecord
  2
AM_VIEW6
 70
     0
 40
924.99075
 10
711.2499999999997
 20
462.5
 41
1664.30195718232
 11
0.0
 21
0.0
 31
1.0
 12
0.0
 22
0.0
 32
0.0
 42
50.0
 43
0.0
 44
0.0
 50
0.0
 71
     0
281
     0
 72
     0
 73
     0
348
2D2E
  0
ENDTAB
  0
TABLE
  2
UCS
  5
2D06
330
0
100
AcDbSymbolTable
 70
     0
  0
ENDTAB
  0
TABLE
  2
APPID
  5
2D08
330
0
100
AcDbSymbolTable
 70
    95
  0
APPID
  5
2D55
330
2D08
100
AcDbSymbolTableRecord
100
AcDbRegAppTableRecord
  2
ACAD
 70
     0
  0
APPID
  5
2D5C
330
2D08
100
AcDbSymbolTableRecord
100
AcDbRegAppTableRecord
  2
ACADANNOTATIVE
 70
     0
  0
APPID
  5
2D9F
330
2D08
100
AcDbSymbolTableRecord
100
AcDbRegAppTableRecord
  2
MCAD_NO_VIS
 70
     0
  0
APPID
  5
2DA0
330
2D08
100
AcDbSymbolTableRecord
100
AcDbRegAppTableRecord
  2
ACAD_TEMP_GRAPHIC
 70
     0
  0
APPID
  5
2DA1
330
2D08
100
AcDbSymbolTableRecord
100
AcDbRegAppTableRecord
  2
ACATTRIBSERVICES
 70
     0
  0
APPID
  5
2DA2
330
2D08
100
AcDbSymbolTableRecord
100
AcDbRegAppTableRecord
  2
GENIUS_GENREC_14
 70
     0
  0
APPID
  5
2DA3
330
2D08
100
AcDbSymbolTableRecord
100
AcDbRegAppTableRecord
  2
GENIUS_GENOBJ-N-REC_13
 70
     0
  0
APPID
  5
2DA4
330
2D08
100
AcDbSymbolTableRecord
100
AcDbRegAppTableRecord
  2
GENIUS_GENODEF_13
 70
     0
  0
APPID
  5
2DA5
330
2D08
100
AcDbSymbolTableRecord
100
AcDbRegAppTableRecord
  2
GENIUS_GENOLIS_13
 70
     0
  0
APPID
  5
2DA6
330
2D08
100
AcDbSymbolTableRecord
100
AcDbRegAppTableRecord
  2
GENIUS_GENOBJ-N-TIT_13
 70
     0
  0
APPID
  5
2DA7
330
2D08
100
AcDbSymbolTableRecord
100
AcDbRegAppTableRecord
  2
GENIUS_GENOENT_13
 70
     0
  0
APPID
  5
2DA8
330
2D08
100
AcDbSymbolTableRecord
100
AcDbRegAppTableRecord
  2
GENIUS_GENTITLE_13
 70
     0
  0
APPID
  5
2DA9
330
2D08
100
AcDbSymbolTableRecord
100
AcDbRegAppTableRecord
  2
GENIUS_GENOREF_13
 70
     0
  0
APPID
  5
2DAA
330
2D08
100
AcDbSymbolTableRecord
100
AcDbRegAppTableRecord
  2
GENIUS_GENSCREG_15
 70
     0
  0
APPID
  5
2DAB
330
2D08
100
AcDbSymbolTableRecord
100
AcDbRegAppTableRecord
  2
GENIUS_GENOBJ-N-SDF_13
 70
     0
  0
APPID
  5
2DAC
330
2D08
100
AcDbSymbolTableRecord
100
AcDbRegAppTableRecord
  2
GENIUS_GENFIL_13
 70
     0
  0
APPID
  5
2DAD
330
2D08
100
AcDbSymbolTableRecord
100
AcDbRegAppTableRecord
  2
GENIUS_GENOBJ-N-CHA_13
 70
     0
  0
APPID
  5
2DAE
330
2D08
100
AcDbSymbolTableRecord
100
AcDbRegAppTableRecord
  2
GENIUS_GENDTOL_13
 70
     0
  0
APPID
  5
2DAF
330
2D08
100
AcDbSymbolTableRecord
100
AcDbRegAppTableRecord
  2
GENIUS_GENOBJ-N-FIL_13
 70
     0
  0
APPID
  5
2DB0
330
2D08
100
AcDbSymbolTableRecord
100
AcDbRegAppTableRecord
  2
AD_DRAW
 70
     0
  0
APPID
  5
2DB1
330
2D08
100
AcDbSymbolTableRecord
100
AcDbRegAppTableRecord
  2
DESIGNERASSEMBLIES
 70
     0
  0
APPID
  5
2DB2
330
2D08
100
AcDbSymbolTableRecord
100
AcDbRegAppTableRecord
  2
ASURF_PCURVE_APPNAME
 70
     0
  0
APPID
  5
2DB3
330
2D08
100
AcDbSymbolTableRecord
100
AcDbRegAppTableRecord
  2
GENIUS_GE3SECT_13
 70
     0
  0
APPID
  5
2DB4
330
2D08
100
AcDbSymbolTableRecord
100
AcDbRegAppTableRecord
  2
GENIUS_GENCFG_13
 70
     0
  0
APPID
  5
2DB5
330
2D08
100
AcDbSymbolTableRecord
100
AcDbRegAppTableRecord
  2
GENIUS_GE3CFG0_13
 70
     0
  0
APPID
  5
2DB6
330
2D08
100
AcDbSymbolTableRecord
100
AcDbRegAppTableRecord
  2
GENIUS_GENCFG0_13
 70
     0
  0
APPID
  5
2DB7
330
2D08
100
AcDbSymbolTableRecord
100
AcDbRegAppTableRecord
  2
GENIUS_GENCFG1_13
 70
     0
  0
APPID
  5
2DB8
330
2D08
100
AcDbSymbolTableRecord
100
AcDbRegAppTableRecord
  2
GENIUS_GENCFG2_13
 70
     0
  0
APPID
  5
2DB9
330
2D08
100
AcDbSymbolTableRecord
100
AcDbRegAppTableRecord
  2
GENIUS_GENCFG3_13
 70
     0
  0
APPID
  5
2DBA
330
2D08
100
AcDbSymbolTableRecord
100
AcDbRegAppTableRecord
  2
GENIUS_GENCFG4_13
 70
     0
  0
APPID
  5
2DBB
330
2D08
100
AcDbSymbolTableRecord
100
AcDbRegAppTableRecord
  2
GENIUS_GEVCFG0_13
 70
     0
  0
APPID
  5
2DBC
330
2D08
100
AcDbSymbolTableRecord
100
AcDbRegAppTableRecord
  2
GENIUS_GENHINW_13
 70
     0
  0
APPID
  5
2DBD
330
2D08
100
AcDbSymbolTableRecord
100
AcDbRegAppTableRecord
  2
GENIUS_FIRSTVISTXT_14
 70
     0
  0
APPID
  5
2DBE
330
2D08
100
AcDbSymbolTableRecord
100
AcDbRegAppTableRecord
  2
GENIUS_GENOBJ-N-LEADER_13
 70
     0
  0
APPID
  5
2DBF
330
2D08
100
AcDbSymbolTableRecord
100
AcDbRegAppTableRecord
  2
GEV_VCCNULL_SWITCH_OFF
 70
     0
  0
APPID
  5
2DC0
330
2D08
100
AcDbSymbolTableRecord
100
AcDbRegAppTableRecord
  2
GENIUS_GEFCFG0_13
 70
     0
  0
APPID
  5
2DC1
330
2D08
100
AcDbSymbolTableRecord
100
AcDbRegAppTableRecord
  2
GENIUS_GENZVEED_13
 70
     0
  0
APPID
  5
2DC2
330
2D08
100
AcDbSymbolTableRecord
100
AcDbRegAppTableRecord
  2
GENIUS_GENSCREG_13
 70
     0
  0
APPID
  5
2DC3
330
2D08
100
AcDbSymbolTableRecord
100
AcDbRegAppTableRecord
  2
GENIUS_DUMCFG0_13
 70
     0
  0
APPID
  5
2DC4
330
2D08
100
AcDbSymbolTableRecord
100
AcDbRegAppTableRecord
  2
GEVID936201362
 70
     0
  0
APPID
  5
2DC5
330
2D08
100
AcDbSymbolTableRecord
100
AcDbRegAppTableRecord
  2
GEVDC
 70
     0
  0
APPID
  5
2DC6
330
2D08
100
AcDbSymbolTableRecord
100
AcDbRegAppTableRecord
  2
GEVCON
 70
     0
  0
APPID
  5
2DC7
330
2D08
100
AcDbSymbolTableRecord
100
AcDbRegAppTableRecord
  2
VCC
 70
     0
  0
APPID
  5
2DC8
330
2D08
100
AcDbSymbolTableRecord
100
AcDbRegAppTableRecord
  2
GEVPT
 70
     0
  0
APPID
  5
2DC9
330
2D08
100
AcDbSymbolTableRecord
100
AcDbRegAppTableRecord
  2
GEVIT
 70
     0
  0
APPID
  5
2DCA
330
2D08
100
AcDbSymbolTableRecord
100
AcDbRegAppTableRecord
  2
GENBH
 70
     0
  0
APPID
  5
2DCB
330
2D08
100
AcDbSymbolTableRecord
100
AcDbRegAppTableRecord
  2
GEVMK
 70
     0
  0
APPID
  5
2DCC
330
2D08
100
AcDbSymbolTableRecord
100
AcDbRegAppTableRecord
  2
GENIUS_GENBH_13
 70
     0
  0
APPID
  5
2DCD
330
2D08
100
AcDbSymbolTableRecord
100
AcDbRegAppTableRecord
  2
GENIUS_GENOBJ-NBEHI-BHF_13
 70
     0
  0
APPID
  5
2DCE
330
2D08
100
AcDbSymbolTableRecord
100
AcDbRegAppTableRecord
  2
GENIUS_GENOBJ-NBEHI-BHB_13
 70
     0
  0
APPID
  5
2DCF
330
2D08
100
AcDbSymbolTableRecord
100
AcDbRegAppTableRecord
  2
GENIUS_GENOBJ-F-DESC_13
 70
     0
  0
APPID
  5
2DD0
330
2D08
100
AcDbSymbolTableRecord
100
AcDbRegAppTableRecord
  2
GENIUS_GEFDESC_14
 70
     0
  0
APPID
  5
2DD1
330
2D08
100
AcDbSymbolTableRecord
100
AcDbRegAppTableRecord
  2
GENIUS_GENOBJ-F-PART_13
 70
     0
  0
APPID
  5
2DD2
330
2D08
100
AcDbSymbolTableRecord
100
AcDbRegAppTableRecord
  2
GENIUS_GEFSTDP_13
 70
     0
  0
APPID
  5
2DD3
330
2D08
100
AcDbSymbolTableRecord
100
AcDbRegAppTableRecord
  2
GENIUS_GEFPARTINS_13
 70
     0
  0
APPID
  5
2DD4
330
2D08
100
AcDbSymbolTableRecord
100
AcDbRegAppTableRecord
  2
GENIUS_GENTRA_14
 70
     0
  0
APPID
  5
2DD5
330
2D08
100
AcDbSymbolTableRecord
100
AcDbRegAppTableRecord
  2
GENIUS_GENINF13_13
 70
     0
  0
APPID
  5
2DD6
330
2D08
100
AcDbSymbolTableRecord
100
AcDbRegAppTableRecord
  2
GENIUS_GENOBJ-N-INFOPT_13
 70
     0
  0
APPID
  5
2DD7
330
2D08
100
AcDbSymbolTableRecord
100
AcDbRegAppTableRecord
  2
GENIUS_GENOBJ-N-RSSYM_13
 70
     0
  0
APPID
  5
2DD8
330
2D08
100
AcDbSymbolTableRecord
100
AcDbRegAppTableRecord
  2
GENIUS_GENSYMENT_13
 70
     0
  0
APPID
  5
2DD9
330
2D08
100
AcDbSymbolTableRecord
100
AcDbRegAppTableRecord
  2
GENIUS_GENSCSYM_13
 70
     0
  0
APPID
  5
2DDA
330
2D08
100
AcDbSymbolTableRecord
100
AcDbRegAppTableRecord
  2
GENIUS_GEFINFNAM_13
 70
     0
  0
APPID
  5
2DDB
330
2D08
100
AcDbSymbolTableRecord
100
AcDbRegAppTableRecord
  2
GENIUS_GENOBJ-N-CEN_13
 70
     0
  0
APPID
  5
2DDC
330
2D08
100
AcDbSymbolTableRecord
100
AcDbRegAppTableRecord
  2
GENIUS_GENOBJ-N-CRS_13
 70
     0
  0
APPID
  5
2DDD
330
2D08
100
AcDbSymbolTableRecord
100
AcDbRegAppTableRecord
  2
GENIUS_GENOBJ-N-CRC_13
 70
     0
  0
APPID
  5
2DDE
330
2D08
100
AcDbSymbolTableRecord
100
AcDbRegAppTableRecord
  2
GENIUS_GENCRC_14
 70
     0
  0
APPID
  5
2DDF
330
2D08
100
AcDbSymbolTableRecord
100
AcDbRegAppTableRecord
  2
GEVID942827039
 70
     0
  0
APPID
  5
2DE0
330
2D08
100
AcDbSymbolTableRecord
100
AcDbRegAppTableRecord
  2
GEVID942827040
 70
     0
  0
APPID
  5
2DE1
330
2D08
100
AcDbSymbolTableRecord
100
AcDbRegAppTableRecord
  2
GEVID942827041
 70
     0
  0
APPID
  5
2DE2
330
2D08
100
AcDbSymbolTableRecord
100
AcDbRegAppTableRecord
  2
GENIUS_GENOBJ-F-SCPASSM_13
 70
     0
  0
APPID
  5
2DE3
330
2D08
100
AcDbSymbolTableRecord
100
AcDbRegAppTableRecord
  2
GENIUS_GENDIMSH_14
 70
     0
  0
APPID
  5
2DE4
330
2D08
100
AcDbSymbolTableRecord
100
AcDbRegAppTableRecord
  2
GEVID942827042
 70
     0
  0
APPID
  5
2DE5
330
2D08
100
AcDbSymbolTableRecord
100
AcDbRegAppTableRecord
  2
GEVID946020473
 70
     0
  0
APPID
  5
2DE6
330
2D08
100
AcDbSymbolTableRecord
100
AcDbRegAppTableRecord
  2
GEVID946020474
 70
     0
  0
APPID
  5
2DE7
330
2D08
100
AcDbSymbolTableRecord
100
AcDbRegAppTableRecord
  2
GEVID946020475
 70
     0
  0
APPID
  5
2DE8
330
2D08
100
AcDbSymbolTableRecord
100
AcDbRegAppTableRecord
  2
GENIUS_GENOBJ-N-HTC_13
 70
     0
  0
APPID
  5
2DE9
330
2D08
100
AcDbSymbolTableRecord
100
AcDbRegAppTableRecord
  2
GENIUS_GENHATCH_13
 70
     0
  0
APPID
  5
2DEA
330
2D08
100
AcDbSymbolTableRecord
100
AcDbRegAppTableRecord
  2
GEVID948854295
 70
     0
  0
APPID
  5
2DEB
330
2D08
100
AcDbSymbolTableRecord
100
AcDbRegAppTableRecord
  2
GEVID939402019
 70
     0
  0
APPID
  5
2DEC
330
2D08
100
AcDbSymbolTableRecord
100
AcDbRegAppTableRecord
  2
GEVID952919491
 70
     0
  0
APPID
  5
2DED
330
2D08
100
AcDbSymbolTableRecord
100
AcDbRegAppTableRecord
  2
GEVID952919492
 70
     0
  0
APPID
  5
2DEE
330
2D08
100
AcDbSymbolTableRecord
100
AcDbRegAppTableRecord
  2
GENIUS_GEFWELD_13
 70
     0
  0
APPID
  5
2DEF
330
2D08
100
AcDbSymbolTableRecord
100
AcDbRegAppTableRecord
  2
GENIUS_GENOBJ-F-WELS_13
 70
     0
  0
APPID
  5
2DF0
330
2D08
100
AcDbSymbolTableRecord
100
AcDbRegAppTableRecord
  2
GEVID952919493
 70
     0
  0
APPID
  5
2DF1
330
2D08
100
AcDbSymbolTableRecord
100
AcDbRegAppTableRecord
  2
GENIUS_GENOBJ-N-RSBK_13
 70
     0
  0
APPID
  5
2DF2
330
2D08
100
AcDbSymbolTableRecord
100
AcDbRegAppTableRecord
  2
GENIUS_GENOBJ-N-LIB_13
 70
     0
  0
APPID
  5
2DF3
330
2D08
100
AcDbSymbolTableRecord
100
AcDbRegAppTableRecord
  2
GENIUS_GENSCALE_13
 70
     0
  0
APPID
  5
2DF4
330
2D08
100
AcDbSymbolTableRecord
100
AcDbRegAppTableRecord
  2
GEVID986376691
 70
     0
  0
APPID
  5
2DF5
330
2D08
100
AcDbSymbolTableRecord
100
AcDbRegAppTableRecord
  2
DCO15
 70
     0
  0
APPID
  5
2DF6
330
2D08
100
AcDbSymbolTableRecord
100
AcDbRegAppTableRecord
  2
ACAD_DSTYLE_DIMBREAK
 70
     0
  0
APPID
  5
2DF7
330
2D08
100
AcDbSymbolTableRecord
100
AcDbRegAppTableRecord
  2
ACAD_DSTYLE_DIMJAG
 70
     0
  0
APPID
  5
2DF8
330
2D08
100
AcDbSymbolTableRecord
100
AcDbRegAppTableRecord
  2
ACAD_NAV_VCDISPLAY
 70
     0
  0
APPID
  5
2DF9
330
2D08
100
AcDbSymbolTableRecord
100
AcDbRegAppTableRecord
  2
ACADANNOPO
 70
     0
  0
APPID
  5
2DFA
330
2D08
100
AcDbSymbolTableRecord
100
AcDbRegAppTableRecord
  2
ACAD_EXEMPT_FROM_CAD_STANDARDS
 70
     0
  0
APPID
  5
2DFB
330
2D08
100
AcDbSymbolTableRecord
100
AcDbRegAppTableRecord
  2
ACAD_MLEADERVER
 70
     0
  0
ENDTAB
  0
TABLE
  2
DIMSTYLE
  5
2D09
330
0
100
AcDbSymbolTable
 70
    22
100
AcDbDimStyleTable
 71
     0
  0
DIMSTYLE
105
2D56
330
2D09
100
AcDbSymbolTableRecord
100
AcDbDimStyleTableRecord
  2
STANDARD
 70
     0
271
     2
272
     2
279
     2
284
     8
285
     8
286
     8
340
2D54
  0
DIMSTYLE
105
2DFC
330
2D09
100
AcDbSymbolTableRecord
100
AcDbDimStyleTableRecord
  2
AM_ISO
 70
     0
  4
"
 41
2.5
 42
1.0
 43
8.0
 44
0.6
 47
0.1
 48
0.1
 73
     0
 74
     0
 77
     1
 78
     8
140
2.5
141
0.0
143
0.0393701
146
0.71
147
0.8
172
     1
176
   256
177
   256
178
     4
271
     2
272
     2
279
     2
284
     8
285
     8
286
     8
340
2D54
  0
DIMSTYLE
105
2E0A
102
{ACAD_REACTORS
330
2E56
102
}
330
2D09
100
AcDbSymbolTableRecord
100
AcDbDimStyleTableRecord
  2
AM_ANSI
 70
     0
  4
mm
 41
0.1
 42
0.05
 43
0.5
 44
0.1
 47
0.1
 48
0.1
 78
     7
140
0.12
141
0.0
146
0.71
147
0.06
176
   256
177
   256
178
     2
271
     2
272
     2
279
     2
284
     8
285
     8
286
     8
340
2D54
  0
DIMSTYLE
105
2E0B
330
2D09
100
AcDbSymbolTableRecord
100
AcDbDimStyleTableRecord
  2
AM_ANSI$3
 70
     0
  4
mm
 41
0.1
 42
0.05
 43
0.5
 44
0.1
 47
0.1
 48
0.1
 78
     7
140
0.12
141
0.0
146
0.71
147
0.06
176
   256
177
   256
178
     2
271
     2
272
     2
279
     2
284
     8
285
     8
286
     8
340
2D54
  0
DIMSTYLE
105
2E0C
330
2D09
100
AcDbSymbolTableRecord
100
AcDbDimStyleTableRecord
  2
AM_ANSI$4
 70
     0
  4
mm
 41
0.1
 42
0.05
 43
0.5
 44
0.1
 47
0.1
 48
0.1
 78
     7
140
0.12
141
0.0
146
0.71
147
0.06
176
   256
177
   256
178
     2
271
     2
272
     2
279
     2
284
     8
285
     8
286
     8
340
2D54
  0
DIMSTYLE
105
2E0D
330
2D09
100
AcDbSymbolTableRecord
100
AcDbDimStyleTableRecord
  2
AM_ANSI$7
 70
     0
  4
mm
 41
0.1
 42
0.05
 43
0.5
 44
0.1
 47
0.1
 48
0.1
 78
     7
140
0.24
141
0.0
146
0.71
147
0.06
176
   256
177
   256
178
     2
271
     2
272
     2
279
     2
284
     8
285
     8
286
     8
340
2D54
  0
DIMSTYLE
105
2E0E
330
2D09
100
AcDbSymbolTableRecord
100
AcDbDimStyleTableRecord
  2
AM_ANSI$SF
 70
     0
  4
mm
 41
0.1
 42
0.05
 43
0.5
 44
0.1
 47
0.1
 48
0.1
 75
     1
 76
     1
 78
     7
140
0.12
141
0.0
146
0.71
147
0.06
176
   256
177
   256
178
     2
271
     2
272
     2
279
     2
284
     8
285
     8
286
     8
340
2D54
  0
DIMSTYLE
105
2E0F
330
2D09
100
AcDbSymbolTableRecord
100
AcDbDimStyleTableRecord
  2
AM_ANSI$SH
 70
     0
  4
mm
 41
0.1
 42
0.05
 43
0.5
 44
0.1
 47
0.1
 48
0.1
 75
     1
 76
     1
 78
     7
140
0.12
141
0.0
146
0.71
147
0.06
173
     1
176
   256
177
   256
178
     2
271
     2
272
     2
279
     2
284
     8
285
     8
286
     8
340
2D54
  0
ENDTAB
  0
TABLE
  2
BLOCK_RECORD
  5
2D00
330
0
100
AcDbSymbolTable
 70
     9
  0
BLOCK_RECORD
  5
2D6E
330
2D00
100
AcDbSymbolTableRecord
100
AcDbBlockTableRecord
  2
*Model_Space
340
2D71
 70
     0
280
     1
281
     0
  0
BLOCK_RECORD
  5
2D6A
330
2D00
100
AcDbSymbolTableRecord
100
AcDbBlockTableRecord
  2
*Paper_Space
340
2D6D
 70
     0
280
     1
281
     0
  0
BLOCK_RECORD
  5
2E23
330
2D00
100
AcDbSymbolTableRecord
100
AcDbBlockTableRecord
  2
_ACMFILLEDHALF
340
0
 70
     0
280
     1
281
     0
  0
ENDTAB
  0
ENDSEC
  0
SECTION
  2
BLOCKS
  0
BLOCK
  5
2D6F
330
2D6E
100
AcDbEntity
  8
0
100
AcDbBlockBegin
  2
*Model_Space
 70
     0
 10
0.0
 20
0.0
 30
0.0
  3
*Model_Space
  1

  0
ENDBLK
  5
2D70
330
2D6E
100
AcDbEntity
  8
0
100
AcDbBlockEnd
  0
BLOCK
  5
2D6B
330
2D6A
100
AcDbEntity
 67
     1
  8
0
100
AcDbBlockBegin
  2
*Paper_Space
 70
     0
 10
0.0
 20
0.0
 30
0.0
  3
*Paper_Space
  1

  0
ENDBLK
  5
2D6C
330
2D6A
100
AcDbEntity
 67
     1
  8
0
100
AcDbBlockEnd
  0
BLOCK
  5
2E24
330
2E23
100
AcDbEntity
  8
0
100
AcDbBlockBegin
  2
_ACMFILLEDHALF
 70
     0
 10
0.0
 20
0.0
 30
0.0
  3
_ACMFILLEDHALF
  1

  0
TRACE
  5
2C68
330
2E23
100
AcDbEntity
  8
AM_0
 62
     0
100
AcDbTrace
 10
-0.8
 20
0.0
 30
0.0
 11
-1.0
 21
0.166666666
 31
0.0
 12
0.0
 22
0.0
 32
0.0
 13
0.0
 23
0.0
 33
0.0
  0
LINE
  5
2C69
330
2E23
100
AcDbEntity
  8
AM_0
 62
     0
100
AcDbLine
 10
-1.0
 20
0.0
 30
0.0
 11
-0.8
 21
0.0
 31
0.0
  0
ENDBLK
  5
2C67
330
2E23
100
AcDbEntity
  8
0
100
AcDbBlockEnd
  0
ENDSEC
  0
SECTION
  2
ENTITIES
  0
LINE
  5
28B1
330
2D6E
100
AcDbEntity
  8
AM_0
100
AcDbLine
 10
470.2072801435671
 20
368.847058149671
 30
0.0
 11
470.2072801435671
 21
577.2986531496711
 31
0.0
  0
LINE
  5
28B2
330
2D6E
100
AcDbEntity
  8
AM_0
100
AcDbLine
 10
490.6039301435676
 20
467.786203149671
 30
0.0
 11
502.7425801435676
 21
453.872813149671
 31
0.0
  0
LINE
  5
28B3
330
2D6E
100
AcDbEntity
  8
AM_0
100
AcDbLine
 10
540.2072801435673
 20
519.4715031496711
 30
0.0
 11
540.2072801435673
 21
343.2986831496709
 31
0.0
  0
LINE
  5
28B4
330
2D6E
100
AcDbEntity
  8
AM_0
100
AcDbLine
 10
582.2072801435673
 20
485.2986581496709
 30
0.0
 11
582.2072801435673
 21
339.0446581496711
 31
0.0
  0
LINE
  5
28B5
330
2D6E
100
AcDbEntity
  8
AM_0
100
AcDbLine
 10
560.2072801435673
 20
388.896523149671
 30
0.0
 11
560.2072801435673
 21
561.1440531496707
 31
0.0
  0
LINE
  5
28B6
330
2D6E
100
AcDbEntity
  8
AM_0
100
AcDbLine
 10
588.2073301435675
 20
485.2986581496709
 30
0.0
 11
588.2073301435675
 21
451.541303149671
 31
0.0
  0
LINE
  5
28B7
330
2D6E
100
AcDbEntity
  8
AM_0
100
AcDbLine
 10
443.2073301435675
 20
335.8510831496709
 30
0.0
 11
443.2073301435675
 21
575.298653149671
 31
0.0
  0
LINE
  5
28B8
330
2D6E
100
AcDbEntity
  8
AM_0
100
AcDbLine
 10
457.2072801435671
 20
352.072853149671
 30
0.0
 11
457.2072801435671
 21
574.9133531496712
 31
0.0
  0
LINE
  5
28B9
330
2D6E
100
AcDbEntity
  8
AM_0
100
AcDbLine
 10
409.7072801435673
 20
349.798653149671
 30
0.0
 11
409.7072801435673
 21
544.798653149671
 31
0.0
  0
ARC
  5
28BA
330
2D6E
100
AcDbEntity
  8
AM_0
100
AcDbCircle
 10
482.2072801435671
 20
465.3104381496707
 30
0.0
 40
3.00000005
100
AcDbArc
 50
270.0
 51
0.0
  0
LINE
  5
28BB
330
2D6E
100
AcDbEntity
  8
AM_0
100
AcDbLine
 10
279.7072801435674
 20
474.7986581496708
 30
0.0
 11
279.7072801435674
 21
447.2986581496709
 31
0.0
  0
LINE
  5
28BC
330
2D6E
100
AcDbEntity
  8
AM_0
100
AcDbLine
 10
234.7056801435673
 20
464.298658149671
 30
0.0
 11
234.7056801435673
 21
433.2986581496711
 31
0.0
  0
LINE
  5
28BD
330
2D6E
100
AcDbEntity
  8
AM_0
100
AcDbLine
 10
281.7072801435674
 20
487.2157541496711
 30
0.0
 11
281.7072801435674
 21
447.2986581496709
 31
0.0
  0
LINE
  5
28BE
330
2D6E
100
AcDbEntity
  8
AM_0
100
AcDbLine
 10
315.7072801435674
 20
495.2986581496708
 30
0.0
 11
315.7072801435674
 21
447.2986581496709
 31
0.0
  0
LINE
  5
28BF
330
2D6E
100
AcDbEntity
  8
AM_0
100
AcDbLine
 10
291.7072801435674
 20
492.2069921496711
 30
0.0
 11
291.7072801435674
 21
447.2986581496709
 31
0.0
  0
LINE
  5
28C0
330
2D6E
100
AcDbEntity
  8
AM_0
100
AcDbLine
 10
392.7072801435673
 20
447.2986581496709
 30
0.0
 11
392.7072801435673
 21
556.2986581496708
 31
0.0
  0
LINE
  5
28C1
330
2D6E
100
AcDbEntity
  8
AM_0
100
AcDbLine
 10
266.7056801435673
 20
464.298658149671
 30
0.0
 11
266.7056801435673
 21
461.2986581496707
 31
0.0
  0
LINE
  5
28C2
330
2D6E
100
AcDbEntity
  8
AM_0
100
AcDbLine
 10
276.7056801435674
 20
433.2986581496711
 30
0.0
 11
234.7056801435673
 21
433.2986581496711
 31
0.0
  0
LINE
  5
28C3
330
2D6E
100
AcDbEntity
  8
AM_0
100
AcDbLine
 10
276.7056801435674
 20
461.2986581496707
 30
0.0
 11
234.7056801435673
 21
461.2986581496707
 31
0.0
  0
LINE
  5
28C4
330
2D6E
100
AcDbEntity
  8
ﾁｭｳｼﾝｾﾝ
100
AcDbLine
 10
226.1926423504619
 20
447.2986581496709
 30
0.0
 11
438.3047490622131
 21
447.2986581496709
 31
0.0
  0
LINE
  5
28C5
330
2D6E
100
AcDbEntity
  8
AM_0
100
AcDbLine
 10
487.9649301435675
 20
429.3837081496711
 30
0.0
 11
501.2007801435673
 21
439.2936831496708
 31
0.0
  0
LINE
  5
28C6
330
2D6E
100
AcDbEntity
  8
AM_0
100
AcDbLine
 10
396.2072801435675
 20
310.2986531496711
 30
0.0
 11
588.2073301435675
 21
310.2986531496711
 31
0.0
  0
LINE
  5
28C7
330
2D6E
100
AcDbEntity
  8
ｶｸﾚｾﾝ2
100
AcDbLine
 10
426.7072801435673
 20
335.2986531496711
 30
0.0
 11
426.7072801435673
 21
310.2986531496711
 31
0.0
  0
LINE
  5
28C8
330
2D6E
100
AcDbEntity
  8
AM_0
100
AcDbLine
 10
396.2072801435675
 20
331.2986831496709
 30
0.0
 11
396.2072801435675
 21
310.2986531496711
 31
0.0
  0
LINE
  5
28C9
330
2D6E
100
AcDbEntity
  8
ｶｸﾚｾﾝ2
100
AcDbLine
 10
407.7072801435671
 20
335.2986531496711
 30
0.0
 11
407.7072801435671
 21
310.2986531496711
 31
0.0
  0
LINE
  5
28CA
330
2D6E
100
AcDbEntity
  8
ﾁｭｳｼﾝｾﾝ1
100
AcDbLine
 10
417.2072801435675
 20
339.8065581496712
 30
0.0
 11
417.2072801435673
 21
305.4070231496709
 31
0.0
  0
LINE
  5
28CB
330
2D6E
100
AcDbEntity
  8
AM_0
100
AcDbLine
 10
389.6841141435673
 20
357.026181149671
 30
0.0
 11
317.5518761435674
 21
398.2446031496709
 31
0.0
  0
LINE
  5
28CC
330
2D6E
100
AcDbEntity
  8
AM_0
100
AcDbLine
 10
315.7072801435674
 20
399.2986581496709
 30
0.0
 11
315.7072801435674
 21
447.2986581496709
 31
0.0
  0
LINE
  5
28CD
330
2D6E
100
AcDbEntity
  8
AM_0
100
AcDbLine
 10
291.7072801435674
 20
402.390324149671
 30
0.0
 11
291.7072801435674
 21
447.2986581496709
 31
0.0
  0
LINE
  5
28CE
330
2D6E
100
AcDbEntity
  8
AM_0
100
AcDbLine
 10
281.7072801435674
 20
407.3815611496709
 30
0.0
 11
281.7072801435674
 21
447.2986581496709
 31
0.0
  0
LINE
  5
28CF
330
2D6E
100
AcDbEntity
  8
AM_0
100
AcDbLine
 10
279.7072801435674
 20
419.7986581496711
 30
0.0
 11
279.7072801435674
 21
447.2986581496709
 31
0.0
  0
LINE
  5
28D0
330
2D6E
100
AcDbEntity
  8
AM_0
100
AcDbLine
 10
313.5827651435674
 20
399.2986581496709
 30
0.0
 11
293.8508741435672
 21
399.2986581496709
 31
0.0
  0
ARC
  5
28D1
330
2D6E
100
AcDbEntity
  8
AM_0
100
AcDbCircle
 10
285.7072801435672
 20
407.3815611496709
 30
0.0
 40
4.0
100
AcDbArc
 50
180.0
 51
239.9999999999995
  0
ARC
  5
28D2
330
2D6E
100
AcDbEntity
  8
AM_0
100
AcDbCircle
 10
293.8508741435672
 20
407.2986581496711
 30
0.0
 40
8.0
100
AcDbArc
 50
239.9999999999995
 51
270.0
  0
LINE
  5
28D3
330
2D6E
100
AcDbEntity
  8
AM_0
100
AcDbLine
 10
289.8508741435673
 20
400.3704541496707
 30
0.0
 11
283.7072801435672
 21
403.917460149671
 31
0.0
  0
LINE
  5
28D4
330
2D6E
100
AcDbEntity
  8
AM_0
100
AcDbLine
 10
279.7072801435674
 20
419.7986581496711
 30
0.0
 11
281.7072801435674
 21
417.7986581496709
 31
0.0
  0
ARC
  5
28D5
330
2D6E
100
AcDbEntity
  8
AM_0
100
AcDbCircle
 10
313.5827651435674
 20
391.2986581496708
 30
0.0
 40
8.0
100
AcDbArc
 50
60.25511900000238
 51
90.0
  0
LINE
  5
28D6
330
2D6E
100
AcDbEntity
  8
AM_0
100
AcDbLine
 10
276.7056801435674
 20
432.2986581496711
 30
0.0
 11
276.7056801435674
 21
447.2986581496709
 31
0.0
  0
LINE
  5
28D7
330
2D6E
100
AcDbEntity
  8
AM_0
100
AcDbLine
 10
279.7072801435674
 20
432.2986581496711
 30
0.0
 11
276.7056801435674
 21
432.2986581496711
 31
0.0
  0
LINE
  5
28D8
330
2D6E
100
AcDbEntity
  8
AM_0
100
AcDbLine
 10
276.7056801435674
 20
462.2986581496708
 30
0.0
 11
276.7056801435674
 21
447.2986581496709
 31
0.0
  0
LINE
  5
28D9
330
2D6E
100
AcDbEntity
  8
AM_0
100
AcDbLine
 10
279.7072801435674
 20
462.2986581496708
 30
0.0
 11
276.7056801435674
 21
462.2986581496708
 31
0.0
  0
LINE
  5
28DA
330
2D6E
100
AcDbEntity
  8
AM_0
100
AcDbLine
 10
475.2072801435671
 20
421.110578149671
 30
0.0
 11
475.2072801435671
 21
377.0093481496711
 31
0.0
  0
LINE
  5
28DB
330
2D6E
100
AcDbEntity
  8
AM_0
100
AcDbLine
 10
411.7072801435671
 20
390.5228681496711
 30
0.0
 11
411.7072801435671
 21
363.6858631496709
 31
0.0
  0
LINE
  5
28DC
330
2D6E
100
AcDbEntity
  8
AM_0
100
AcDbLine
 10
408.7072801435671
 20
420.7616581496711
 30
0.0
 11
408.7072801435671
 21
363.6858751496711
 31
0.0
  0
LINE
  5
28DD
330
2D6E
100
AcDbEntity
  8
AM_0
100
AcDbLine
 10
392.7072801435673
 20
350.7986581496711
 30
0.0
 11
392.7072801435673
 21
447.2986581496709
 31
0.0
  0
LINE
  5
28DE
330
2D6E
100
AcDbEntity
  8
AM_0
100
AcDbLine
 10
400.2072801435671
 20
335.2986531496711
 30
0.0
 11
440.2859801435676
 21
335.2986531496711
 31
0.0
  0
LINE
  5
28DF
330
2D6E
100
AcDbEntity
  8
AM_0
100
AcDbLine
 10
409.7073301435675
 20
349.7986831496709
 30
0.0
 11
438.3817801435673
 21
348.797343149671
 31
0.0
  0
LINE
  5
28E0
330
2D6E
100
AcDbEntity
  8
AM_0
100
AcDbLine
 10
411.7072801435671
 20
374.2924931496709
 30
0.0
 11
443.2073301435675
 21
374.2924931496709
 31
0.0
  0
LINE
  5
28E1
330
2D6E
100
AcDbEntity
  8
AM_0
100
AcDbLine
 10
411.7072801435671
 20
363.6858631496709
 30
0.0
 11
443.2073301435675
 21
363.6858631496709
 31
0.0
  0
ARC
  5
28E2
330
2D6E
100
AcDbEntity
  8
AM_0
100
AcDbCircle
 10
386.7072801435673
 20
351.8167221496711
 30
0.0
 40
6.0
100
AcDbArc
 50
0.0
 51
60.25511900000238
  0
LINE
  5
28E3
330
2D6E
100
AcDbEntity
  8
AM_0
100
AcDbLine
 10
409.7072801435673
 20
349.7986581496711
 30
0.0
 11
393.7072801435673
 21
349.7986581496711
 31
0.0
  0
ARC
  5
28E4
330
2D6E
100
AcDbEntity
  8
AM_0
100
AcDbCircle
 10
400.2072801435671
 20
331.2986831496709
 30
0.0
 40
4.000000049999997
100
AcDbArc
 50
90.00000300000001
 51
180.00001
  0
ARC
  5
28E5
330
2D6E
100
AcDbEntity
  8
AM_0
100
AcDbCircle
 10
393.7072801435673
 20
350.7986581496711
 30
0.0
 40
1.0
100
AcDbArc
 50
180.0
 51
270.0
  0
LINE
  5
28E6
330
2D6E
100
AcDbEntity
  8
AM_0
100
AcDbLine
 10
408.7072801435671
 20
363.6858751496711
 30
0.0
 11
394.7072801435673
 21
363.6858751496711
 31
0.0
  0
ARC
  5
28E7
330
2D6E
100
AcDbEntity
  8
AM_0
100
AcDbCircle
 10
394.7072801435673
 20
365.6858751496711
 30
0.0
 40
2.0
100
AcDbArc
 50
180.0
 51
270.0
  0
LINE
  5
28E8
330
2D6E
100
AcDbEntity
  8
AM_0
100
AcDbLine
 10
474.1593301435675
 20
373.9464831496711
 30
0.0
 11
446.6092801435673
 21
338.3980831496709
 31
0.0
  0
ARC
  5
28E9
330
2D6E
100
AcDbEntity
  8
AM_0
100
AcDbCircle
 10
440.2859801435676
 20
343.2986831496709
 30
0.0
 40
8.0
100
AcDbArc
 50
270.0
 51
322.2243199999999
  0
ARC
  5
28EA
330
2D6E
100
AcDbEntity
  8
AM_0
100
AcDbCircle
 10
438.2073301435672
 20
343.8003931496709
 30
0.0
 40
5.0
100
AcDbArc
 50
0.0
 51
88.0
  0
ARC
  5
28EB
330
2D6E
100
AcDbEntity
  8
AM_0
100
AcDbCircle
 10
470.2072801435671
 20
377.0093481496711
 30
0.0
 40
5.0
100
AcDbArc
 50
322.2243199999999
 51
0.0
  0
LINE
  5
28EC
330
2D6E
100
AcDbEntity
  8
AM_0
100
AcDbLine
 10
411.7072801435671
 20
390.5228681496711
 30
0.0
 11
443.2073301435675
 21
390.5228681496711
 31
0.0
  0
LINE
  5
28ED
330
2D6E
100
AcDbEntity
  8
AM_0
100
AcDbLine
 10
394.7072801435673
 20
420.7616581496711
 30
0.0
 11
408.7072801435671
 21
420.7616581496711
 31
0.0
  0
LINE
  5
28EE
330
2D6E
100
AcDbEntity
  8
AM_0
100
AcDbLine
 10
394.7072801435673
 20
405.2981301496711
 30
0.0
 11
408.7072801435671
 21
405.2981301496711
 31
0.0
  0
ARC
  5
28EF
330
2D6E
100
AcDbEntity
  8
AM_0
100
AcDbCircle
 10
394.7072801435673
 20
403.2981301496711
 30
0.0
 40
2.0
100
AcDbArc
 50
90.0
 51
180.0
  0
ARC
  5
28F0
330
2D6E
100
AcDbEntity
  8
AM_0
100
AcDbCircle
 10
394.7072801435673
 20
418.7616581496711
 30
0.0
 40
2.0
100
AcDbArc
 50
90.0
 51
180.0
  0
LINE
  5
28F1
330
2D6E
100
AcDbEntity
  8
AM_0
100
AcDbLine
 10
485.2072801435673
 20
427.6883331496711
 30
0.0
 11
485.2072801435673
 21
421.110578149671
 31
0.0
  0
LINE
  5
28F2
330
2D6E
100
AcDbEntity
  8
AM_0
100
AcDbLine
 10
475.2072801435671
 20
421.110578149671
 30
0.0
 11
485.2072801435673
 21
421.110578149671
 31
0.0
  0
LINE
  5
28F3
330
2D6E
100
AcDbEntity
  8
AM_0
100
AcDbLine
 10
457.2072801435671
 20
462.3104381496711
 30
0.0
 11
470.2072801435671
 21
462.3104381496711
 31
0.0
  0
LINE
  5
28F4
330
2D6E
100
AcDbEntity
  8
AM_0
100
AcDbLine
 10
457.2072801435671
 20
430.6883631496709
 30
0.0
 11
482.2072801435671
 21
430.6883631496709
 31
0.0
  0
ARC
  5
28F5
330
2D6E
100
AcDbEntity
  8
AM_0
100
AcDbCircle
 10
482.2072801435671
 20
427.6883331496711
 30
0.0
 40
3.00000005
100
AcDbArc
 50
0.0
 51
90.00000300000001
  0
LINE
  5
28F6
330
2D6E
100
AcDbEntity
  8
AM_0
100
AcDbLine
 10
470.2072801435671
 20
462.3104381496711
 30
0.0
 11
482.2072801435671
 21
462.3104381496711
 31
0.0
  0
LINE
  5
28F7
330
2D6E
100
AcDbEntity
  8
AM_0
100
AcDbLine
 10
588.2073301435675
 20
331.2986831496709
 30
0.0
 11
588.2073301435675
 21
310.2986531496711
 31
0.0
  0
LINE
  5
28F8
330
2D6E
100
AcDbEntity
  8
ﾁｭｳｼﾝｾﾝ1
100
AcDbLine
 10
567.2072801435673
 20
339.8065581496712
 30
0.0
 11
567.2072801435673
 21
305.4070231496709
 31
0.0
  0
LINE
  5
28F9
330
2D6E
100
AcDbEntity
  8
ｶｸﾚｾﾝ2
100
AcDbLine
 10
557.7072801435673
 20
335.2986531496711
 30
0.0
 11
557.7072801435673
 21
310.2986531496711
 31
0.0
  0
LINE
  5
28FA
330
2D6E
100
AcDbEntity
  8
ｶｸﾚｾﾝ2
100
AcDbLine
 10
576.7072801435673
 20
335.2986531496711
 30
0.0
 11
576.7072801435673
 21
310.2986531496711
 31
0.0
  0
LINE
  5
28FB
330
2D6E
100
AcDbEntity
  8
AM_0
100
AcDbLine
 10
552.2072801435673
 20
380.8965231496711
 30
0.0
 11
543.6905301435673
 21
380.8965231496711
 31
0.0
  0
ARC
  5
28FC
330
2D6E
100
AcDbEntity
  8
AM_0
100
AcDbCircle
 10
548.2073301435674
 20
343.2986831496709
 30
0.0
 40
8.0
100
AcDbArc
 50
180.00001
 51
270.0
  0
LINE
  5
28FD
330
2D6E
100
AcDbEntity
  8
AM_0
100
AcDbLine
 10
548.2073301435674
 20
335.2986531496711
 30
0.0
 11
584.2072801435675
 21
335.2986531496711
 31
0.0
  0
ARC
  5
28FE
330
2D6E
100
AcDbEntity
  8
AM_0
100
AcDbCircle
 10
586.2072801435673
 20
339.0446581496711
 30
0.0
 40
4.000000049999997
100
AcDbArc
 50
179.9999899999999
 51
255.52249
  0
ARC
  5
28FF
330
2D6E
100
AcDbEntity
  8
AM_0
100
AcDbCircle
 10
584.2072801435675
 20
331.2986831496709
 30
0.0
 40
4.000000049999997
100
AcDbArc
 50
0.0
 51
90.00000300000001
  0
ARC
  5
2900
330
2D6E
100
AcDbEntity
  8
AM_0
100
AcDbCircle
 10
552.2072801435673
 20
388.896523149671
 30
0.0
 40
8.0
100
AcDbArc
 50
270.0
 51
0.0
  0
LINE
  5
2901
330
2D6E
100
AcDbEntity
  8
AM_0
100
AcDbLine
 10
489.7072801435673
 20
459.7864781496711
 30
0.0
 11
489.7072801435673
 21
432.6743281496709
 31
0.0
  0
ARC
  5
2902
330
2D6E
100
AcDbEntity
  8
AM_0
100
AcDbCircle
 10
495.2072801435671
 20
447.2986581496709
 30
0.0
 40
10.0
100
AcDbArc
 50
306.82304
 51
41.10282199999999
  0
ARC
  5
2903
330
2D6E
100
AcDbEntity
  8
AM_0
100
AcDbCircle
 10
585.2072801435673
 20
443.0560431496711
 30
0.0
 40
3.00000005
100
AcDbArc
 50
135.0
 51
180.00001
  0
LINE
  5
2904
330
2D6E
100
AcDbEntity
  8
AM_0
100
AcDbLine
 10
583.0860301435673
 20
445.1772881496711
 30
0.0
 11
587.3286801435674
 21
449.4199331496711
 31
0.0
  0
ARC
  5
2905
330
2D6E
100
AcDbEntity
  8
AM_0
100
AcDbCircle
 10
585.2072801435673
 20
451.541303149671
 30
0.0
 40
3.00000005
100
AcDbArc
 50
315.0
 51
0.0
  0
ARC
  5
2907
330
2D6E
100
AcDbEntity
  8
AM_0
100
AcDbCircle
 10
488.8987301435673
 20
566.881953149671
 30
0.0
 40
3.00000005
100
AcDbArc
 50
59.83387800000001
 51
90.00000300000001
  0
LINE
  5
2908
330
2D6E
100
AcDbEntity
  8
AM_0
100
AcDbLine
 10
486.5737301435676
 20
541.6924531496711
 30
0.0
 11
498.3750801435673
 21
545.6338531496711
 31
0.0
  0
ARC
  5
2909
330
2D6E
100
AcDbEntity
  8
AM_0
100
AcDbCircle
 10
488.3432801435672
 20
465.8139481496708
 30
0.0
 40
3.00000005
100
AcDbArc
 50
41.10282199999999
 51
90.00000300000001
  0
LINE
  5
290A
330
2D6E
100
AcDbEntity
  8
AM_0
100
AcDbLine
 10
487.1374801435676
 20
571.4212031496709
 30
0.0
 11
552.4864301435675
 21
569.139153149671
 31
0.0
  0
LINE
  5
290B
330
2D6E
100
AcDbEntity
  8
ﾁｭｳｼﾝｾﾝ
100
AcDbLine
 10
428.4827301435672
 20
485.2986581496709
 30
0.0
 11
670.1516801435676
 21
485.2986581496709
 31
0.0
  0
CIRCLE
  5
290C
330
2D6E
100
AcDbEntity
  8
AM_0
100
AcDbCircle
 10
454.2072801435671
 20
597.7986531496711
 30
0.0
 40
12.5
  0
ARC
  5
290D
330
2D6E
100
AcDbEntity
  8
AM_0
100
AcDbCircle
 10
454.2072801435671
 20
597.7986531496711
 30
0.0
 40
20.50000049999999
100
AcDbArc
 50
304.6136399999999
 51
235.38635
  0
LINE
  5
290E
330
2D6E
100
AcDbEntity
  8
AM_0
100
AcDbLine
 10
389.6841141435673
 20
537.5711341496709
 30
0.0
 11
317.5518761435674
 21
496.3527121496707
 31
0.0
  0
LINE
  5
290F
330
2D6E
100
AcDbEntity
  8
AM_0
100
AcDbLine
 10
313.5827651435674
 20
495.2986581496708
 30
0.0
 11
293.8508741435672
 21
495.2986581496708
 31
0.0
  0
LINE
  5
2910
330
2D6E
100
AcDbEntity
  8
AM_0
100
AcDbLine
 10
279.7072801435674
 20
474.7986581496708
 30
0.0
 11
281.7072801435674
 21
476.7986581496709
 31
0.0
  0
ARC
  5
2911
330
2D6E
100
AcDbEntity
  8
AM_0
100
AcDbCircle
 10
285.7072801435672
 20
487.2157541496711
 30
0.0
 40
4.0
100
AcDbArc
 50
120.0000000000005
 51
180.0
  0
LINE
  5
2912
330
2D6E
100
AcDbEntity
  8
AM_0
100
AcDbLine
 10
289.8508741435673
 20
494.2268611496707
 30
0.0
 11
283.7072801435672
 21
490.679855149671
 31
0.0
  0
ARC
  5
2913
330
2D6E
100
AcDbEntity
  8
AM_0
100
AcDbCircle
 10
293.8508741435672
 20
487.2986581496708
 30
0.0
 40
8.0
100
AcDbArc
 50
90.0
 51
120.0000000000005
  0
ARC
  5
2914
330
2D6E
100
AcDbEntity
  8
AM_0
100
AcDbCircle
 10
313.5827651435674
 20
503.2986581496711
 30
0.0
 40
8.0
100
AcDbArc
 50
270.0
 51
299.7448809999976
  0
LINE
  5
2915
330
2D6E
100
AcDbEntity
  8
AM_0
100
AcDbLine
 10
485.2072801435673
 20
465.3104381496707
 30
0.0
 11
485.2072801435673
 21
548.622953149671
 31
0.0
  0
LINE
  5
2916
330
2D6E
100
AcDbEntity
  8
AM_0
100
AcDbLine
 10
411.7072801435671
 20
530.911453149671
 30
0.0
 11
443.2073301435675
 21
530.911453149671
 31
0.0
  0
LINE
  5
2917
330
2D6E
100
AcDbEntity
  8
AM_0
100
AcDbLine
 10
411.7072801435671
 20
520.304803149671
 30
0.0
 11
443.2073301435675
 21
520.304803149671
 31
0.0
  0
LINE
  5
2918
330
2D6E
100
AcDbEntity
  8
AM_0
100
AcDbLine
 10
411.7072801435671
 20
504.0744431496711
 30
0.0
 11
443.2073301435675
 21
504.0744431496711
 31
0.0
  0
LINE
  5
2919
330
2D6E
100
AcDbEntity
  8
AM_0
100
AcDbLine
 10
408.7072801435671
 20
520.3048391496711
 30
0.0
 11
394.7072801435673
 21
520.3048391496711
 31
0.0
  0
LINE
  5
291A
330
2D6E
100
AcDbEntity
  8
AM_0
100
AcDbLine
 10
408.7072801435671
 20
530.9114411496708
 30
0.0
 11
394.7072801435673
 21
530.9114411496708
 31
0.0
  0
LINE
  5
291B
330
2D6E
100
AcDbEntity
  8
AM_0
100
AcDbLine
 10
394.7072801435673
 20
504.0744461496711
 30
0.0
 11
408.7072801435671
 21
504.0744461496711
 31
0.0
  0
ARC
  5
291C
330
2D6E
100
AcDbEntity
  8
AM_0
100
AcDbCircle
 10
394.7072801435673
 20
506.074446149671
 30
0.0
 40
2.0
100
AcDbArc
 50
180.0
 51
270.0
  0
ARC
  5
291D
330
2D6E
100
AcDbEntity
  8
AM_0
100
AcDbCircle
 10
394.7072801435673
 20
518.304839149671
 30
0.0
 40
2.0
100
AcDbArc
 50
90.0
 51
180.0
  0
ARC
  5
291E
330
2D6E
100
AcDbEntity
  8
AM_0
100
AcDbCircle
 10
394.7072801435673
 20
528.911441149671
 30
0.0
 40
2.0
100
AcDbArc
 50
90.0
 51
180.0
  0
LINE
  5
291F
330
2D6E
100
AcDbEntity
  8
AM_0
100
AcDbLine
 10
411.7072801435671
 20
530.911453149671
 30
0.0
 11
411.7072801435671
 21
504.0744431496711
 31
0.0
  0
LINE
  5
2920
330
2D6E
100
AcDbEntity
  8
AM_0
100
AcDbLine
 10
408.7072801435671
 20
530.9114411496708
 30
0.0
 11
408.7072801435671
 21
504.0744461496711
 31
0.0
  0
LINE
  5
2921
330
2D6E
100
AcDbEntity
  8
AM_0
100
AcDbLine
 10
409.7072801435673
 20
544.798653149671
 30
0.0
 11
438.3817801435673
 21
545.8000031496712
 31
0.0
  0
LINE
  5
2922
330
2D6E
100
AcDbEntity
  8
AM_0
100
AcDbLine
 10
408.7072801435671
 20
558.2986581496708
 30
0.0
 11
394.7072801435673
 21
558.2986581496708
 31
0.0
  0
LINE
  5
2923
330
2D6E
100
AcDbEntity
  8
AM_0
100
AcDbLine
 10
409.7072801435673
 20
544.7986581496711
 30
0.0
 11
393.7072801435673
 21
544.7986581496711
 31
0.0
  0
ARC
  5
2924
330
2D6E
100
AcDbEntity
  8
AM_0
100
AcDbCircle
 10
386.7072801435673
 20
542.7805931496711
 30
0.0
 40
6.0
100
AcDbArc
 50
299.7448809999976
 51
0.0
  0
ARC
  5
2925
330
2D6E
100
AcDbEntity
  8
AM_0
100
AcDbCircle
 10
393.7072801435673
 20
543.7986581496711
 30
0.0
 40
1.0
100
AcDbArc
 50
90.0
 51
180.0
  0
ARC
  5
2926
330
2D6E
100
AcDbEntity
  8
AM_0
100
AcDbCircle
 10
394.7072801435673
 20
556.2986581496708
 30
0.0
 40
2.0
100
AcDbArc
 50
90.0
 51
180.0
  0
LINE
  5
2927
330
2D6E
100
AcDbEntity
  8
AM_0
100
AcDbLine
 10
408.7072801435671
 20
544.7986581496711
 30
0.0
 11
408.7072801435671
 21
558.2986581496708
 31
0.0
  0
LINE
  5
2928
330
2D6E
100
AcDbEntity
  8
AM_0
100
AcDbLine
 10
485.2072801435673
 20
569.881953149671
 30
0.0
 11
485.2072801435673
 21
574.8434531496711
 31
0.0
  0
LINE
  5
2929
330
2D6E
100
AcDbEntity
  8
AM_0
100
AcDbLine
 10
457.2072801435671
 20
569.881953149671
 30
0.0
 11
470.2072801435671
 21
569.881953149671
 31
0.0
  0
LINE
  5
292A
330
2D6E
100
AcDbEntity
  8
AM_0
100
AcDbLine
 10
457.2072801435671
 20
551.622953149671
 30
0.0
 11
470.2072801435671
 21
551.622953149671
 31
0.0
  0
ARC
  5
292B
330
2D6E
100
AcDbEntity
  8
AM_0
100
AcDbCircle
 10
438.2073301435672
 20
550.7969531496711
 30
0.0
 40
5.0
100
AcDbArc
 50
272.0
 51
0.0
  0
LINE
  5
292C
330
2D6E
100
AcDbEntity
  8
AM_0
100
AcDbLine
 10
445.6862801435675
 20
564.377653149671
 30
0.0
 11
454.7281301435675
 21
565.9720031496711
 31
0.0
  0
ARC
  5
292D
330
2D6E
100
AcDbEntity
  8
AM_0
100
AcDbCircle
 10
446.2072801435676
 20
561.423253149671
 30
0.0
 40
3.00000005
100
AcDbArc
 50
100.0
 51
159.3455099999999
  0
ARC
  5
292E
330
2D6E
100
AcDbEntity
  8
AM_0
100
AcDbCircle
 10
454.2072801435671
 20
568.926403149671
 30
0.0
 40
3.00000005
100
AcDbArc
 50
280.0
 51
0.0
  0
LINE
  5
292F
330
2D6E
100
AcDbEntity
  8
AM_0
100
AcDbLine
 10
470.2072801435671
 20
551.622953149671
 30
0.0
 11
482.2072801435671
 21
551.622953149671
 31
0.0
  0
ARC
  5
2930
330
2D6E
100
AcDbEntity
  8
AM_0
100
AcDbCircle
 10
482.2072801435671
 20
548.622953149671
 30
0.0
 40
3.00000005
100
AcDbArc
 50
0.0
 51
90.00000300000001
  0
LINE
  5
2931
330
2D6E
100
AcDbEntity
  8
AM_0
100
AcDbLine
 10
470.2072801435671
 20
569.881953149671
 30
0.0
 11
488.8987301435673
 21
569.881953149671
 31
0.0
  0
LINE
  5
2932
330
2D6E
100
AcDbEntity
  8
AM_0
100
AcDbLine
 10
459.1374801435673
 20
576.9121031496711
 30
0.0
 11
470.2072801435671
 21
577.2986531496711
 31
0.0
  0
LINE
  5
2933
330
2D6E
100
AcDbEntity
  8
AM_0
100
AcDbLine
 10
454.2071801435674
 20
585.298653149671
 30
0.0
 11
461.7106301435676
 21
583.913353149671
 31
0.0
  0
LINE
  5
2934
330
2D6E
100
AcDbEntity
  8
AM_0
100
AcDbLine
 10
446.3901301435676
 20
583.798653149671
 30
0.0
 11
462.0243301435673
 21
583.798653149671
 31
0.0
  0
LINE
  5
2935
330
2D6E
100
AcDbEntity
  8
AM_0
100
AcDbLine
 10
443.8843801435675
 20
576.798653149671
 30
0.0
 11
458.5398301435672
 21
576.798653149671
 31
0.0
  0
LINE
  5
2936
330
2D6E
100
AcDbEntity
  8
AM_0
100
AcDbLine
 10
446.7039801435674
 20
583.913353149671
 30
0.0
 11
454.2073801435672
 21
585.298653149671
 31
0.0
  0
LINE
  5
2937
330
2D6E
100
AcDbEntity
  8
AM_0
100
AcDbLine
 10
444.2072801435672
 20
576.798603149671
 30
0.0
 11
445.9194801435677
 21
583.1887531496711
 31
0.0
  0
ARC
  5
2938
330
2D6E
100
AcDbEntity
  8
AM_0
100
AcDbCircle
 10
445.2072801435671
 20
575.298653149671
 30
0.0
 40
2.00000005
100
AcDbArc
 50
131.4096199999999
 51
180.00001
  0
ARC
  5
2939
330
2D6E
100
AcDbEntity
  8
AM_0
100
AcDbCircle
 10
440.2902801435672
 20
577.6351531496707
 30
0.0
 40
4.000000049999997
100
AcDbArc
 50
347.92933
 51
55.38635899999999
  0
ARC
  5
293A
330
2D6E
100
AcDbEntity
  8
AM_0
100
AcDbCircle
 10
446.8854301435674
 20
582.929903149671
 30
0.0
 40
1.0
100
AcDbArc
 50
100.4607199999999
 51
164.99999
  0
ARC
  5
293B
330
2D6E
100
AcDbEntity
  8
AM_0
100
AcDbCircle
 10
459.2072801435675
 20
574.9133531496712
 30
0.0
 40
2.00000005
100
AcDbArc
 50
91.99999799999995
 51
180.00001
  0
LINE
  5
293C
330
2D6E
100
AcDbEntity
  8
AM_0
100
AcDbLine
 10
470.2072801435671
 20
577.2986531496711
 30
0.0
 11
483.2770801435676
 21
576.8422531496712
 31
0.0
  0
LINE
  5
293D
330
2D6E
100
AcDbEntity
  8
AM_0
100
AcDbLine
 10
464.1301301435673
 20
577.0863531496712
 30
0.0
 11
462.4950301435672
 21
583.1887531496711
 31
0.0
  0
ARC
  5
293E
330
2D6E
100
AcDbEntity
  8
AM_0
100
AcDbCircle
 10
468.1241801435675
 20
577.6351531496707
 30
0.0
 40
4.000000049999997
100
AcDbArc
 50
124.61365
 51
187.86822
  0
ARC
  5
293F
330
2D6E
100
AcDbEntity
  8
AM_0
100
AcDbCircle
 10
461.5291801435676
 20
582.929903149671
 30
0.0
 40
1.0
100
AcDbArc
 50
15.0
 51
79.539281
  0
ARC
  5
2940
330
2D6E
100
AcDbEntity
  8
AM_0
100
AcDbCircle
 10
483.2073301435673
 20
574.8434531496711
 30
0.0
 40
2.00000005
100
AcDbArc
 50
0.0
 51
88.0
  0
ARC
  5
2941
330
2D6E
100
AcDbEntity
  8
AM_0
100
AcDbCircle
 10
487.2072801435671
 20
573.420003149671
 30
0.0
 40
2.00000005
100
AcDbArc
 50
179.9999899999999
 51
268.0000099999999
  0
LINE
  5
2942
330
2D6E
100
AcDbEntity
  8
AM_0
100
AcDbLine
 10
592.2072801435673
 20
464.2986581496709
 30
0.0
 11
662.2072801435673
 21
464.2986581496709
 31
0.0
  0
LINE
  5
2943
330
2D6E
100
AcDbEntity
  8
AM_0
100
AcDbLine
 10
592.2072801435673
 20
506.298688149671
 30
0.0
 11
662.2072801435673
 21
506.298688149671
 31
0.0
  0
LINE
  5
2944
330
2D6E
100
AcDbEntity
  8
AM_0
100
AcDbLine
 10
582.2072801435673
 20
485.2986581496709
 30
0.0
 11
582.2072801435673
 21
542.298653149671
 31
0.0
  0
ARC
  5
2945
330
2D6E
100
AcDbEntity
  8
AM_0
100
AcDbCircle
 10
550.2072801435673
 20
519.4715031496711
 30
0.0
 40
10.0
100
AcDbArc
 50
90.00000300000001
 51
180.00001
  0
LINE
  5
2946
330
2D6E
100
AcDbEntity
  8
AM_0
100
AcDbLine
 10
592.2072801435673
 20
462.7986581496711
 30
0.0
 11
592.2072801435673
 21
507.7986581496711
 31
0.0
  0
LINE
  5
2947
330
2D6E
100
AcDbEntity
  8
AM_0
100
AcDbLine
 10
588.2073301435675
 20
485.2986581496709
 30
0.0
 11
588.2073301435675
 21
525.0560531496708
 31
0.0
  0
LINE
  5
2948
330
2D6E
100
AcDbEntity
  8
AM_0
100
AcDbLine
 10
588.2073301435675
 20
462.7986581496711
 30
0.0
 11
592.2072801435673
 21
462.7986581496711
 31
0.0
  0
LINE
  5
2949
330
2D6E
100
AcDbEntity
  8
AM_0
100
AcDbLine
 10
555.2655301435675
 20
529.4715031496711
 30
0.0
 11
550.2072801435673
 21
529.4715031496711
 31
0.0
  0
LINE
  5
294A
330
2D6E
100
AcDbEntity
  8
AM_0
100
AcDbLine
 10
588.2073301435675
 20
507.7986581496711
 30
0.0
 11
592.2072801435673
 21
507.7986581496711
 31
0.0
  0
LINE
  5
294B
330
2D6E
100
AcDbEntity
  8
AM_0
100
AcDbLine
 10
583.0859801435677
 20
531.4200031496709
 30
0.0
 11
587.3286801435674
 21
527.177303149671
 31
0.0
  0
ARC
  5
294C
330
2D6E
100
AcDbEntity
  8
AM_0
100
AcDbCircle
 10
585.2072801435673
 20
533.5412531496711
 30
0.0
 40
3.00000005
100
AcDbArc
 50
179.9999899999999
 51
225.0
  0
ARC
  5
294D
330
2D6E
100
AcDbEntity
  8
AM_0
100
AcDbCircle
 10
585.2072801435673
 20
525.0560531496708
 30
0.0
 40
3.00000005
100
AcDbArc
 50
0.0
 51
45.00000099999999
  0
LINE
  5
294E
330
2D6E
100
AcDbEntity
  8
AM_0
100
AcDbLine
 10
489.7072801435673
 20
546.7743031496711
 30
0.0
 11
489.7072801435673
 21
567.9475031496711
 31
0.0
  0
ARC
  5
294F
330
2D6E
100
AcDbEntity
  8
AM_0
100
AcDbCircle
 10
495.2072801435671
 20
555.118853149671
 30
0.0
 40
10.0
100
AcDbArc
 50
288.46821
 51
59.83387800000001
  0
ARC
  5
2950
330
2D6E
100
AcDbEntity
  8
AM_0
100
AcDbCircle
 10
489.2195801435675
 20
545.7389531496711
 30
0.0
 40
3.00000005
100
AcDbArc
 50
270.0
 51
288.4682199999999
  0
LINE
  5
2951
330
2D6E
100
AcDbEntity
  8
AM_0
100
AcDbLine
 10
490.4062801435675
 20
569.4756531496708
 30
0.0
 11
500.2323301435676
 21
563.7645531496707
 31
0.0
  0
LINE
  5
2952
330
2D6E
100
AcDbEntity
  8
AM_0
100
AcDbLine
 10
568.2073301435675
 20
545.298653149671
 30
0.0
 11
579.2072801435673
 21
545.298653149671
 31
0.0
  0
ARC
  5
2953
330
2D6E
100
AcDbEntity
  8
AM_0
100
AcDbCircle
 10
568.2073301435675
 20
553.298653149671
 30
0.0
 40
8.0
100
AcDbArc
 50
180.00001
 51
270.0
  0
ARC
  5
2954
330
2D6E
100
AcDbEntity
  8
AM_0
100
AcDbCircle
 10
552.2072801435673
 20
561.1440531496707
 30
0.0
 40
8.0
100
AcDbArc
 50
0.0
 51
88.0
  0
ARC
  5
2955
330
2D6E
100
AcDbEntity
  8
AM_0
100
AcDbCircle
 10
579.2072801435673
 20
542.298653149671
 30
0.0
 40
3.00000005
100
AcDbArc
 50
0.0
 51
90.00000300000001
  0
LINE
  5
2956
330
2D6E
100
AcDbEntity
  8
AM_0
100
AcDbLine
 10
606.2072801435673
 20
509.2986581496709
 30
0.0
 11
662.2072801435673
 21
509.2986581496709
 31
0.0
  0
LINE
  5
2957
330
2D6E
100
AcDbEntity
  8
AM_0
100
AcDbLine
 10
606.2072801435673
 20
509.2986581496709
 30
0.0
 11
606.2072801435673
 21
506.298688149671
 31
0.0
  0
LINE
  5
2958
330
2D6E
100
AcDbEntity
  8
AM_0
100
AcDbLine
 10
662.2072801435673
 20
464.2986581496709
 30
0.0
 11
662.2072801435673
 21
509.2986581496709
 31
0.0
  0
LINE
  5
2959
330
2D6E
100
AcDbEntity
  8
ﾁｭｳｼﾝｾﾝ
100
AcDbLine
 10
981.0637691643421
 20
622.7165261114695
 30
0.0
 11
981.0637691643421
 21
309.3290781496709
 31
0.0
  0
LINE
  5
295A
330
2D6E
100
AcDbEntity
  8
AM_0
100
AcDbLine
 10
1118.134829164342
 20
454.3697331496709
 30
0.0
 11
1104.794954164342
 21
467.7096081496711
 31
0.0
  0
LINE
  5
295B
330
2D6E
100
AcDbEntity
  8
AM_0
100
AcDbLine
 10
843.9927041643423
 20
454.3696731496708
 30
0.0
 11
857.3326041643424
 21
467.709578149671
 31
0.0
  0
LINE
  5
295C
330
2D6E
100
AcDbEntity
  8
AM_0
100
AcDbLine
 10
857.5188041643421
 20
462.690258149671
 30
0.0
 11
841.1021041643422
 21
330.9167881496712
 31
0.0
  0
LINE
  5
295D
330
2D6E
100
AcDbEntity
  8
AM_0
100
AcDbLine
 10
887.0637641643424
 20
528.9335031496711
 30
0.0
 11
887.0637641643424
 21
413.2887981496708
 31
0.0
  0
LINE
  5
295E
330
2D6E
100
AcDbEntity
  8
AM_0
100
AcDbLine
 10
1104.608704164342
 20
462.690258149671
 30
0.0
 11
1121.025424164342
 21
330.9168181496709
 31
0.0
  0
LINE
  5
295F
330
2D6E
100
AcDbEntity
  8
AM_0
100
AcDbLine
 10
1075.063769164342
 20
528.9335031496711
 30
0.0
 11
1075.063769164342
 21
409.6840331496711
 31
0.0
  0
CIRCLE
  5
2960
330
2D6E
100
AcDbEntity
  8
AM_0
100
AcDbCircle
 10
981.0637691643421
 20
485.2986581496709
 30
0.0
 40
41.00000049999999
  0
ARC
  5
2961
330
2D6E
100
AcDbEntity
  8
AM_0
100
AcDbCircle
 10
981.0637691643421
 20
457.2986581496711
 30
0.0
 40
88.0
100
AcDbArc
 50
0.0
 51
186.5249799999999
  0
ARC
  5
2962
330
2D6E
100
AcDbEntity
  8
AM_0
100
AcDbCircle
 10
1114.946794164342
 20
464.6288281496711
 30
0.0
 40
5.0
100
AcDbArc
 50
187.37551
 51
225.0
  0
ARC
  5
2963
330
2D6E
100
AcDbEntity
  8
AM_0
100
AcDbCircle
 10
847.1807541643421
 20
464.6288281496711
 30
0.0
 40
5.0
100
AcDbArc
 50
315.0
 51
352.62449
  0
LINE
  5
2964
330
2D6E
100
AcDbEntity
  8
AM_0
100
AcDbLine
 10
914.0637641643424
 20
330.2986531496711
 30
0.0
 11
1048.063769164342
 21
330.2986531496711
 31
0.0
  0
LINE
  5
2965
330
2D6E
100
AcDbEntity
  8
AM_0
100
AcDbLine
 10
910.7093041643421
 20
325.0293381496712
 30
0.0
 11
1051.418229164342
 21
325.0293381496712
 31
0.0
  0
LINE
  5
2966
330
2D6E
100
AcDbEntity
  8
AM_0
100
AcDbLine
 10
900.0637641643422
 20
315.2986531496711
 30
0.0
 11
1062.429554164342
 21
315.2986531496711
 31
0.0
  0
LINE
  5
2967
330
2D6E
100
AcDbEntity
  8
ﾁｭｳｼﾝｾﾝ
100
AcDbLine
 10
836.7982041643424
 20
447.2986581496709
 30
0.0
 11
1124.918244164341
 21
447.2986581496709
 31
0.0
  0
LINE
  5
2968
330
2D6E
100
AcDbEntity
  8
ﾁｭｳｼﾝｾﾝ1
100
AcDbLine
 10
866.0637641643424
 20
339.8065581496709
 30
0.0
 11
866.0637641643424
 21
305.4070231496709
 31
0.0
  0
LINE
  5
2969
330
2D6E
100
AcDbEntity
  8
AM_0
100
AcDbLine
 10
892.3637841643422
 20
331.2986831496709
 30
0.0
 11
892.3637841643422
 21
310.2986531496711
 31
0.0
  0
ARC
  5
296A
330
2D6E
100
AcDbEntity
  8
AM_0
100
AcDbCircle
 10
898.0856141643423
 20
323.134498149671
 30
0.0
 40
8.0
100
AcDbArc
 50
279.4883
 51
357.00554
  0
LINE
  5
296B
330
2D6E
100
AcDbEntity
  8
ｶｸﾚｾﾝ2
100
AcDbLine
 10
875.5637941643422
 20
335.2986531496711
 30
0.0
 11
875.5637941643422
 21
310.2986531496711
 31
0.0
  0
LINE
  5
296C
330
2D6E
100
AcDbEntity
  8
AM_0
100
AcDbLine
 10
841.0637541643421
 20
330.2986531496711
 30
0.0
 11
841.0637541643421
 21
310.2986531496711
 31
0.0
  0
LINE
  5
296D
330
2D6E
100
AcDbEntity
  8
ｶｸﾚｾﾝ2
100
AcDbLine
 10
856.5637541643424
 20
335.2986531496711
 30
0.0
 11
856.5637541643424
 21
310.2986531496711
 31
0.0
  0
LINE
  5
296E
330
2D6E
100
AcDbEntity
  8
AM_0
100
AcDbLine
 10
841.0637541643421
 20
310.2986531496711
 30
0.0
 11
896.0637641643424
 21
310.2986531496711
 31
0.0
  0
LINE
  5
296F
330
2D6E
100
AcDbEntity
  8
AM_0
100
AcDbLine
 10
896.0637641643424
 20
311.2986831496709
 30
0.0
 11
896.0637641643424
 21
310.2986531496711
 31
0.0
  0
ARC
  5
2970
330
2D6E
100
AcDbEntity
  8
AM_0
100
AcDbCircle
 10
900.0637641643422
 20
311.2986831496709
 30
0.0
 40
4.000000049999997
100
AcDbArc
 50
99.48829599999996
 51
180.00001
  0
LINE
  5
2971
330
2D6E
100
AcDbEntity
  8
AM_0
100
AcDbLine
 10
893.0637941643421
 20
447.2986581496709
 30
0.0
 11
893.0637941643421
 21
343.2986831496709
 31
0.0
  0
ARC
  5
2972
330
2D6E
100
AcDbEntity
  8
AM_0
100
AcDbCircle
 10
981.0637691643421
 20
413.2887981496708
 30
0.0
 40
93.99999499999998
100
AcDbArc
 50
179.9999899999999
 51
200.5819599999998
  0
LINE
  5
2973
330
2D6E
100
AcDbEntity
  8
AM_0
100
AcDbLine
 10
846.0637541643421
 20
335.2986531496711
 30
0.0
 11
888.3637841643423
 21
335.2986531496711
 31
0.0
  0
ARC
  5
2974
330
2D6E
100
AcDbEntity
  8
AM_0
100
AcDbCircle
 10
846.0637541643421
 20
330.2986531496711
 30
0.0
 40
5.0
100
AcDbArc
 50
90.00000300000001
 51
180.00001
  0
ARC
  5
2975
330
2D6E
100
AcDbEntity
  8
AM_0
100
AcDbCircle
 10
914.0637641643424
 20
322.2986531496711
 30
0.0
 40
8.0
100
AcDbArc
 50
90.00000300000001
 51
177.0055399999999
  0
ARC
  5
2976
330
2D6E
100
AcDbEntity
  8
AM_0
100
AcDbCircle
 10
910.7093041643421
 20
320.0293381496709
 30
0.0
 40
5.0
100
AcDbArc
 50
90.00000300000001
 51
166.18078
  0
ARC
  5
2977
330
2D6E
100
AcDbEntity
  8
AM_0
100
AcDbCircle
 10
888.3637841643423
 20
331.2986831496709
 30
0.0
 40
4.000000049999997
100
AcDbArc
 50
0.0
 51
90.00000300000001
  0
ARC
  5
2978
330
2D6E
100
AcDbEntity
  8
AM_0
100
AcDbCircle
 10
885.0637641643421
 20
343.2986831496709
 30
0.0
 40
8.0
100
AcDbArc
 50
270.0
 51
0.0
  0
ARC
  5
2979
330
2D6E
100
AcDbEntity
  8
AM_0
100
AcDbCircle
 10
981.0637691643421
 20
447.2986581496709
 30
0.0
 40
130.0
100
AcDbArc
 50
187.37551
 51
189.62446
  0
LINE
  5
297A
330
2D6E
100
AcDbEntity
  8
AM_0
100
AcDbLine
 10
843.9927041643423
 20
440.2275481496711
 30
0.0
 11
851.8037041643422
 21
432.4165781496711
 31
0.0
  0
ARC
  5
297B
330
2D6E
100
AcDbEntity
  8
AM_0
100
AcDbCircle
 10
851.0637541643422
 20
447.2986581496709
 30
0.0
 40
10.0
100
AcDbArc
 50
135.0
 51
225.0
  0
ARC
  5
297C
330
2D6E
100
AcDbEntity
  8
AM_0
100
AcDbCircle
 10
848.2681541643424
 20
428.8810831496708
 30
0.0
 40
5.0
100
AcDbArc
 50
352.89852
 51
45.00000099999999
  0
ARC
  5
297D
330
2D6E
100
AcDbEntity
  8
AM_0
100
AcDbCircle
 10
847.1807541643421
 20
429.9684881496711
 30
0.0
 40
5.0
100
AcDbArc
 50
7.375508099999997
 51
45.00000099999999
  0
LINE
  5
297E
330
2D6E
100
AcDbEntity
  8
ﾁｭｳｼﾝｾﾝ1
100
AcDbLine
 10
1096.063769164342
 20
339.1488131496708
 30
0.0
 11
1096.063769164342
 21
303.3231281496709
 31
0.0
  0
LINE
  5
297F
330
2D6E
100
AcDbEntity
  8
AM_0
100
AcDbLine
 10
1121.063784164342
 20
330.2986531496711
 30
0.0
 11
1121.063784164342
 21
310.2986531496711
 31
0.0
  0
LINE
  5
2980
330
2D6E
100
AcDbEntity
  8
ｶｸﾚｾﾝ2
100
AcDbLine
 10
1105.563769164342
 20
335.2986531496711
 30
0.0
 11
1105.563769164342
 21
310.2986531496711
 31
0.0
  0
LINE
  5
2981
330
2D6E
100
AcDbEntity
  8
AM_0
100
AcDbLine
 10
1069.763779164341
 20
331.2986831496709
 30
0.0
 11
1069.763779164341
 21
310.2986531496711
 31
0.0
  0
ARC
  5
2982
330
2D6E
100
AcDbEntity
  8
AM_0
100
AcDbCircle
 10
1064.041949164342
 20
323.134498149671
 30
0.0
 40
8.0
100
AcDbArc
 50
182.99446
 51
260.5117
  0
LINE
  5
2983
330
2D6E
100
AcDbEntity
  8
ｶｸﾚｾﾝ2
100
AcDbLine
 10
1086.563769164342
 20
335.2986531496711
 30
0.0
 11
1086.563769164342
 21
310.2986531496711
 31
0.0
  0
LINE
  5
2984
330
2D6E
100
AcDbEntity
  8
AM_0
100
AcDbLine
 10
1066.063769164342
 20
310.2986531496711
 30
0.0
 11
1121.063784164342
 21
310.2986531496711
 31
0.0
  0
LINE
  5
2985
330
2D6E
100
AcDbEntity
  8
AM_0
100
AcDbLine
 10
1066.063769164342
 20
311.2986831496709
 30
0.0
 11
1066.063769164342
 21
310.2986531496711
 31
0.0
  0
ARC
  5
2986
330
2D6E
100
AcDbEntity
  8
AM_0
100
AcDbCircle
 10
1062.063769164342
 20
311.2986831496709
 30
0.0
 40
4.000000049999997
100
AcDbArc
 50
0.0
 51
80.51170199999999
  0
LINE
  5
2987
330
2D6E
100
AcDbEntity
  8
AM_0
100
AcDbLine
 10
1069.063769164342
 20
457.2986581496711
 30
0.0
 11
1069.063769164342
 21
343.2986831496709
 31
0.0
  0
ARC
  5
2988
330
2D6E
100
AcDbEntity
  8
AM_0
100
AcDbCircle
 10
981.0637691643421
 20
413.2887981496708
 30
0.0
 40
93.99999499999998
100
AcDbArc
 50
339.9500199999998
 51
20.049976
  0
LINE
  5
2989
330
2D6E
100
AcDbEntity
  8
AM_0
100
AcDbLine
 10
1077.063769164342
 20
335.2986531496711
 30
0.0
 11
1116.063784164341
 21
335.2986531496711
 31
0.0
  0
ARC
  5
298A
330
2D6E
100
AcDbEntity
  8
AM_0
100
AcDbCircle
 10
1073.763779164342
 20
331.2986831496709
 30
0.0
 40
4.000000049999997
100
AcDbArc
 50
90.00000300000001
 51
180.00001
  0
ARC
  5
298B
330
2D6E
100
AcDbEntity
  8
AM_0
100
AcDbCircle
 10
1077.063769164342
 20
343.2986831496709
 30
0.0
 40
8.0
100
AcDbArc
 50
180.00001
 51
270.0
  0
ARC
  5
298C
330
2D6E
100
AcDbEntity
  8
AM_0
100
AcDbCircle
 10
1048.063769164342
 20
322.2986531496711
 30
0.0
 40
8.0
100
AcDbArc
 50
2.994464399999999
 51
90.00000300000001
  0
ARC
  5
298D
330
2D6E
100
AcDbEntity
  8
AM_0
100
AcDbCircle
 10
1051.418229164342
 20
320.0293381496709
 30
0.0
 40
5.0
100
AcDbArc
 50
13.819217
 51
90.00000300000001
  0
ARC
  5
298E
330
2D6E
100
AcDbEntity
  8
AM_0
100
AcDbCircle
 10
1074.063769164342
 20
379.3476981496709
 30
0.0
 40
5.0
100
AcDbArc
 50
159.95003
 51
180.00001
  0
ARC
  5
298F
330
2D6E
100
AcDbEntity
  8
AM_0
100
AcDbCircle
 10
1116.063784164341
 20
330.2986531496711
 30
0.0
 40
5.0
100
AcDbArc
 50
0.0
 51
90.00000300000001
  0
ARC
  5
2990
330
2D6E
100
AcDbEntity
  8
AM_0
100
AcDbCircle
 10
1074.063769164342
 20
447.229933149671
 30
0.0
 40
5.0
100
AcDbArc
 50
179.9999899999999
 51
200.04997
  0
ARC
  5
2991
330
2D6E
100
AcDbEntity
  8
AM_0
100
AcDbCircle
 10
981.0637691643421
 20
447.2986581496709
 30
0.0
 40
130.0
100
AcDbArc
 50
350.37555
 51
352.62449
  0
ARC
  5
2992
330
2D6E
100
AcDbEntity
  8
AM_0
100
AcDbCircle
 10
1111.063784164342
 20
447.2986581496709
 30
0.0
 40
10.0
100
AcDbArc
 50
315.0
 51
45.00000099999999
  0
LINE
  5
2993
330
2D6E
100
AcDbEntity
  8
AM_0
100
AcDbLine
 10
1118.134829164342
 20
440.227613149671
 30
0.0
 11
1110.323854164342
 21
432.4166381496706
 31
0.0
  0
ARC
  5
2994
330
2D6E
100
AcDbEntity
  8
AM_0
100
AcDbCircle
 10
1113.859394164342
 20
428.8810831496708
 30
0.0
 40
5.0
100
AcDbArc
 50
135.0
 51
187.1014899999999
  0
ARC
  5
2995
330
2D6E
100
AcDbEntity
  8
AM_0
100
AcDbCircle
 10
1114.946794164342
 20
429.9684881496711
 30
0.0
 40
5.0
100
AcDbArc
 50
135.0
 51
172.6244899999999
  0
LINE
  5
2996
330
2D6E
100
AcDbEntity
  8
AM_0
100
AcDbLine
 10
918.6519641643423
 20
569.541203149671
 30
0.0
 11
936.8745891643422
 21
564.658503149671
 31
0.0
  0
LINE
  5
2997
330
2D6E
100
AcDbEntity
  8
ﾁｭｳｼﾝｾﾝ
100
AcDbLine
 10
913.1919819270247
 20
485.2986581496709
 30
0.0
 11
1049.854644072531
 21
485.2986581496709
 31
0.0
  0
ARC
  5
2998
330
2D6E
100
AcDbEntity
  8
AM_0
100
AcDbCircle
 10
981.0637691643421
 20
447.2986581496709
 30
0.0
 40
130.0
100
AcDbArc
 50
67.375506
 51
112.62449
  0
ARC
  5
2999
330
2D6E
100
AcDbEntity
  8
AM_0
100
AcDbCircle
 10
981.0637691643421
 20
447.2986581496709
 30
0.0
 40
124.5
100
AcDbArc
 50
7.101483900000001
 51
172.8985199999999
  0
ARC
  5
299A
330
2D6E
100
AcDbEntity
  8
AM_0
100
AcDbCircle
 10
981.0637691643421
 20
447.2986581496709
 30
0.0
 40
130.0
100
AcDbArc
 50
127.3754999999999
 51
172.6244899999999
  0
ARC
  5
299B
330
2D6E
100
AcDbEntity
  8
AM_0
100
AcDbCircle
 10
853.7970541643424
 20
471.245158149671
 30
0.0
 40
5.0
100
AcDbArc
 50
315.0
 51
349.3438199999998
  0
ARC
  5
299C
330
2D6E
100
AcDbEntity
  8
AM_0
100
AcDbCircle
 10
916.0637641643425
 20
559.8819531496712
 30
0.0
 40
10.0
100
AcDbArc
 50
74.999999
 51
164.99999
  0
LINE
  5
299D
330
2D6E
100
AcDbEntity
  8
AM_0
100
AcDbLine
 10
906.4045241643423
 20
562.4701531496707
 30
0.0
 11
901.5217741643423
 21
544.247503149671
 31
0.0
  0
ARC
  5
299E
330
2D6E
100
AcDbEntity
  8
AM_0
100
AcDbCircle
 10
899.1139041643421
 20
554.5796531496709
 30
0.0
 40
5.0
100
AcDbArc
 50
307.37551
 51
345.0
  0
ARC
  5
299F
330
2D6E
100
AcDbEntity
  8
AM_0
100
AcDbCircle
 10
896.6921241643422
 20
545.541553149671
 30
0.0
 40
5.0
100
AcDbArc
 50
310.65618
 51
345.0
  0
ARC
  5
29A0
330
2D6E
100
AcDbEntity
  8
AM_0
100
AcDbCircle
 10
929.1306291643424
 20
571.9098531496711
 30
0.0
 40
5.0
100
AcDbArc
 50
255.0
 51
292.62449
  0
LINE
  5
29A1
330
2D6E
100
AcDbEntity
  8
AM_0
100
AcDbLine
 10
977.0637691643424
 20
614.298653149671
 30
0.0
 11
977.0637691643424
 21
580.798653149671
 31
0.0
  0
LINE
  5
29A2
330
2D6E
100
AcDbEntity
  8
AM_0
100
AcDbLine
 10
985.0637691643424
 20
614.298653149671
 30
0.0
 11
985.0637691643424
 21
580.798653149671
 31
0.0
  0
ARC
  5
29A3
330
2D6E
100
AcDbEntity
  8
AM_0
100
AcDbCircle
 10
1046.063769164342
 20
559.8819531496712
 30
0.0
 40
10.0
100
AcDbArc
 50
15.0
 51
104.9999999999998
  0
ARC
  5
29A4
330
2D6E
100
AcDbEntity
  8
AM_0
100
AcDbCircle
 10
981.0637691643421
 20
485.2986581496709
 30
0.0
 40
20.9999985
100
AcDbArc
 50
106.60155
 51
73.398452
  0
CIRCLE
  5
29A5
330
2D6E
100
AcDbEntity
  8
AM_5
100
AcDbCircle
 10
981.0637691643421
 20
485.2986581496709
 30
0.0
 40
5.0
  0
CIRCLE
  5
29A6
330
2D6E
100
AcDbEntity
  8
AM_0
100
AcDbCircle
 10
981.0637691643421
 20
485.2986581496709
 30
0.0
 40
3.50000005
  0
LINE
  5
29A7
330
2D6E
100
AcDbEntity
  8
AM_0
100
AcDbLine
 10
975.0637691643424
 20
509.2986581496709
 30
0.0
 11
987.0637691643421
 21
509.2986581496709
 31
0.0
  0
LINE
  5
29A8
330
2D6E
100
AcDbEntity
  8
AM_0
100
AcDbLine
 10
975.0637691643424
 20
501.298688149671
 30
0.0
 11
987.0637691643421
 21
501.298688149671
 31
0.0
  0
LINE
  5
29A9
330
2D6E
100
AcDbEntity
  8
AM_0
100
AcDbLine
 10
975.0637691643424
 20
509.2986581496709
 30
0.0
 11
975.0637691643424
 21
501.298688149671
 31
0.0
  0
LINE
  5
29AA
330
2D6E
100
AcDbEntity
  8
AM_0
100
AcDbLine
 10
987.0637691643421
 20
509.2986581496709
 30
0.0
 11
987.0637691643421
 21
501.298688149671
 31
0.0
  0
ARC
  5
29AB
330
2D6E
100
AcDbEntity
  8
AM_0
100
AcDbCircle
 10
988.3856341643424
 20
582.929903149671
 30
0.0
 40
1.0
100
AcDbArc
 50
15.0
 51
79.539281
  0
ARC
  5
29AC
330
2D6E
100
AcDbEntity
  8
AM_0
100
AcDbCircle
 10
938.1686841643421
 20
569.4881031496711
 30
0.0
 40
5.0
100
AcDbArc
 50
255.0
 51
289.3438199999998
  0
LINE
  5
29AD
330
2D6E
100
AcDbEntity
  8
AM_0
100
AcDbLine
 10
977.0637691643424
 20
584.560153149671
 30
0.0
 11
973.5603491643422
 21
583.913353149671
 31
0.0
  0
ARC
  5
29AE
330
2D6E
100
AcDbEntity
  8
AM_0
100
AcDbCircle
 10
975.0637691643424
 20
580.798653149671
 30
0.0
 40
2.00000005
100
AcDbArc
 50
270.0
 51
0.0
  0
LINE
  5
29AF
330
2D6E
100
AcDbEntity
  8
AM_0
100
AcDbLine
 10
971.0951991643424
 20
576.9159031496711
 30
0.0
 11
972.7759841643425
 21
583.1887531496711
 31
0.0
  0
ARC
  5
29B0
330
2D6E
100
AcDbEntity
  8
AM_0
100
AcDbCircle
 10
973.7419291643423
 20
582.929903149671
 30
0.0
 40
1.0
100
AcDbArc
 50
100.4607199999999
 51
164.99999
  0
LINE
  5
29B1
330
2D6E
100
AcDbEntity
  8
AM_0
100
AcDbLine
 10
985.0637691643424
 20
584.5602031496706
 30
0.0
 11
988.5671841643423
 21
583.913353149671
 31
0.0
  0
ARC
  5
29B2
330
2D6E
100
AcDbEntity
  8
AM_0
100
AcDbCircle
 10
987.0637691643421
 20
580.798653149671
 30
0.0
 40
2.00000005
100
AcDbArc
 50
179.9999899999999
 51
270.0
  0
LINE
  5
29B3
330
2D6E
100
AcDbEntity
  8
AM_0
100
AcDbLine
 10
1043.475574164342
 20
569.541203149671
 30
0.0
 11
1025.252944164342
 21
564.6584531496711
 31
0.0
  0
ARC
  5
29B4
330
2D6E
100
AcDbEntity
  8
AM_0
100
AcDbCircle
 10
1023.958879164342
 20
569.4881031496711
 30
0.0
 40
5.0
100
AcDbArc
 50
250.6561799999999
 51
285.0
  0
ARC
  5
29B5
330
2D6E
100
AcDbEntity
  8
AM_0
100
AcDbCircle
 10
1032.996904164342
 20
571.9098531496711
 30
0.0
 40
5.0
100
AcDbArc
 50
247.3755099999999
 51
285.0
  0
LINE
  5
29B6
330
2D6E
100
AcDbEntity
  8
AM_0
100
AcDbLine
 10
991.0323641643422
 20
576.9159031496711
 30
0.0
 11
989.3515791643423
 21
583.1887531496711
 31
0.0
  0
ARC
  5
29B7
330
2D6E
100
AcDbEntity
  8
AM_0
100
AcDbCircle
 10
981.0637691643421
 20
447.2986581496709
 30
0.0
 40
130.0
100
AcDbArc
 50
7.375507199999999
 51
52.62449399999999
  0
ARC
  5
29B8
330
2D6E
100
AcDbEntity
  8
AM_0
100
AcDbCircle
 10
1108.330494164342
 20
471.245158149671
 30
0.0
 40
5.0
100
AcDbArc
 50
190.65618
 51
225.0
  0
LINE
  5
29B9
330
2D6E
100
AcDbEntity
  8
AM_0
100
AcDbLine
 10
1055.723039164342
 20
562.470103149671
 30
0.0
 11
1060.605759164342
 21
544.247503149671
 31
0.0
  0
ARC
  5
29BA
330
2D6E
100
AcDbEntity
  8
AM_0
100
AcDbCircle
 10
1063.013659164342
 20
554.5796531496709
 30
0.0
 40
5.0
100
AcDbArc
 50
195.00001
 51
232.6245
  0
ARC
  5
29BB
330
2D6E
100
AcDbEntity
  8
AM_0
100
AcDbCircle
 10
1065.435409164342
 20
545.541553149671
 30
0.0
 40
5.0
100
AcDbArc
 50
195.00001
 51
229.3438199999999
  0
ARC
  5
29BC
330
2D6E
100
AcDbEntity
  8
AM_0
100
AcDbCircle
 10
981.0637691643421
 20
614.298653149671
 30
0.0
 40
4.000000049999997
100
AcDbArc
 50
359.9999899999999
 51
179.9999899999999
  0
ARC
  5
29BD
330
2D6E
100
AcDbEntity
  8
AM_0
100
AcDbCircle
 10
606.2073101435673
 20
865.3359064492411
 30
0.0
 40
6.000003999999997
100
AcDbArc
 50
90.00000299999769
 51
270.0
  0
LINE
  5
29BE
330
2D6E
100
AcDbEntity
  8
AM_0
100
AcDbLine
 10
592.2073101435674
 20
844.335966449241
 30
0.0
 11
662.2072801435673
 21
844.335966449241
 31
0.0
  0
LINE
  5
29BF
330
2D6E
100
AcDbEntity
  8
AM_0
100
AcDbLine
 10
592.2073101435674
 20
886.335966449241
 30
0.0
 11
662.2072801435673
 21
886.335966449241
 31
0.0
  0
LINE
  5
29C0
330
2D6E
100
AcDbEntity
  8
ﾁｭｳｼﾝｾﾝ
100
AcDbLine
 10
226.1926423504619
 20
865.3359664492411
 30
0.0
 11
673.7212501435672
 21
865.3359664492411
 31
0.0
  0
ARC
  5
29C1
330
2D6E
100
AcDbEntity
  8
AM_0
100
AcDbCircle
 10
454.2073101435672
 20
865.3359664492411
 30
0.0
 40
11.0
100
AcDbArc
 50
201.3237799999976
 51
262.8188000000004
  0
ARC
  5
29C2
330
2D6E
100
AcDbEntity
  8
AM_0
100
AcDbCircle
 10
452.2071801435672
 20
849.461456449241
 30
0.0
 40
5.0
100
AcDbArc
 50
0.0
 51
82.81880299999594
  0
LINE
  5
29C3
330
2D6E
100
AcDbEntity
  8
AM_0
100
AcDbLine
 10
409.7073101435673
 20
767.835966449241
 30
0.0
 11
409.7073101435673
 21
962.835966449241
 31
0.0
  0
LINE
  5
29C4
330
2D6E
100
AcDbEntity
  8
AM_0
100
AcDbLine
 10
443.2073101435673
 20
751.194796449241
 30
0.0
 11
443.2073101435673
 21
861.335906449241
 31
0.0
  0
LINE
  5
29C5
330
2D6E
100
AcDbEntity
  8
AM_0
100
AcDbLine
 10
485.2073101435673
 20
815.771396449241
 30
0.0
 11
485.2073101435673
 21
914.9004864492408
 31
0.0
  0
LINE
  5
29C6
330
2D6E
100
AcDbEntity
  8
AM_0
100
AcDbLine
 10
560.2073101435673
 20
774.335966449241
 30
0.0
 11
560.2073101435673
 21
956.3359664492407
 31
0.0
  0
LINE
  5
29C7
330
2D6E
100
AcDbEntity
  8
AM_0
100
AcDbLine
 10
588.2073101435674
 20
905.093296449241
 30
0.0
 11
588.2073101435674
 21
831.5785864492411
 31
0.0
  0
LINE
  5
29C8
330
2D6E
100
AcDbEntity
  8
AM_0
100
AcDbLine
 10
470.2073101435671
 20
725.597936449241
 30
0.0
 11
470.2073101435671
 21
861.335906449241
 31
0.0
  0
LINE
  5
29C9
330
2D6E
100
AcDbEntity
  8
AM_0
100
AcDbLine
 10
582.2073101435672
 20
951.2165264492411
 30
0.0
 11
582.2073101435672
 21
779.4553564492412
 31
0.0
  0
LINE
  5
29CA
330
2D6E
100
AcDbEntity
  8
AM_0
100
AcDbLine
 10
592.2073101435674
 20
842.8359664492409
 30
0.0
 11
592.2073101435674
 21
887.835966449241
 31
0.0
  0
LINE
  5
29CB
330
2D6E
100
AcDbEntity
  8
AM_0
100
AcDbLine
 10
457.2071801435671
 20
729.126126449241
 30
0.0
 11
457.2071801435671
 21
855.7965364492412
 31
0.0
  0
ARC
  5
29CC
330
2D6E
100
AcDbEntity
  8
AM_0
100
AcDbCircle
 10
449.2073101435671
 20
739.6260064492412
 30
0.0
 40
5.0
100
AcDbArc
 50
180.0000100000009
 51
277.1398300000001
  0
LINE
  5
29CD
330
2D6E
100
AcDbEntity
  8
AM_0
100
AcDbLine
 10
445.6863701435672
 20
748.256926449241
 30
0.0
 11
454.7281801435675
 21
746.6626264492405
 31
0.0
  0
LINE
  5
29CE
330
2D6E
100
AcDbEntity
  8
AM_0
100
AcDbLine
 10
399.9978901435674
 20
729.277496449241
 30
0.0
 11
475.2072401435673
 21
725.335966449241
 31
0.0
  0
LINE
  5
29CF
330
2D6E
100
AcDbEntity
  8
AM_0
100
AcDbLine
 10
444.2073101435672
 20
727.9407064492411
 30
0.0
 11
444.2073101435672
 21
735.7894564492411
 31
0.0
  0
LINE
  5
29D0
330
2D6E
100
AcDbEntity
  8
AM_0
100
AcDbLine
 10
411.7073101435671
 20
808.560156449241
 30
0.0
 11
411.7073101435671
 21
781.7231764492412
 31
0.0
  0
CIRCLE
  5
29D1
330
2D6E
100
AcDbEntity
  8
AM_0
100
AcDbCircle
 10
417.2073101435672
 20
750.335966449241
 30
0.0
 40
9.5
  0
LINE
  5
29D2
330
2D6E
100
AcDbEntity
  8
AM_0
100
AcDbLine
 10
396.2073101435673
 20
733.272006449241
 30
0.0
 11
396.2073101435672
 21
767.835966449241
 31
0.0
  0
ARC
  5
29D3
330
2D6E
100
AcDbEntity
  8
AM_0
100
AcDbCircle
 10
400.2073101435672
 20
733.272006449241
 30
0.0
 40
4.0
100
AcDbArc
 50
180.0000100000009
 51
266.9999900000001
  0
ARC
  5
29D4
330
2D6E
100
AcDbEntity
  8
AM_0
100
AcDbCircle
 10
446.2073101435672
 20
751.2113364492412
 30
0.0
 40
3.0
100
AcDbArc
 50
179.683070000001
 51
260.0000000000012
  0
LINE
  5
29D5
330
2D6E
100
AcDbEntity
  8
AM_0
100
AcDbLine
 10
411.7073101435671
 20
781.7231764492412
 30
0.0
 11
443.2073101435673
 21
781.7231764492412
 31
0.0
  0
LINE
  5
29D6
330
2D6E
100
AcDbEntity
  8
AM_0
100
AcDbLine
 10
409.7073101435673
 20
767.835906449241
 30
0.0
 11
438.3816801435675
 21
766.834566449241
 31
0.0
  0
ARC
  5
29D7
330
2D6E
100
AcDbEntity
  8
AM_0
100
AcDbCircle
 10
438.2073101435672
 20
761.837676449241
 30
0.0
 40
5.0
100
AcDbArc
 50
0.0
 51
87.99999999999625
  0
LINE
  5
29D8
330
2D6E
100
AcDbEntity
  8
AM_0
100
AcDbLine
 10
411.7073101435671
 20
792.329746449241
 30
0.0
 11
443.2073101435673
 21
792.329746449241
 31
0.0
  0
LINE
  5
29D9
330
2D6E
100
AcDbEntity
  8
AM_0
100
AcDbLine
 10
411.7073101435671
 20
808.560156449241
 30
0.0
 11
443.2073101435673
 21
808.560156449241
 31
0.0
  0
ARC
  5
29DA
330
2D6E
100
AcDbEntity
  8
AM_0
100
AcDbCircle
 10
460.2071801435672
 20
729.126126449241
 30
0.0
 40
3.0
100
AcDbArc
 50
180.0000100000009
 51
266.9999900000001
  0
ARC
  5
29DB
330
2D6E
100
AcDbEntity
  8
AM_0
100
AcDbCircle
 10
545.2073101435671
 20
732.7834764492412
 30
0.0
 40
5.0
100
AcDbArc
 50
180.0000100000009
 51
271.9999900000014
  0
ARC
  5
29DC
330
2D6E
100
AcDbEntity
  8
AM_0
100
AcDbCircle
 10
490.7679701435673
 20
736.0539264492412
 30
0.0
 40
10.0
100
AcDbArc
 50
272.0000000000037
 51
316.5170399999985
  0
LINE
  5
29DD
330
2D6E
100
AcDbEntity
  8
AM_0
100
AcDbLine
 10
475.2072401435673
 20
725.335966449241
 30
0.0
 11
584.3468301435676
 21
729.147186449241
 31
0.0
  0
LINE
  5
29DE
330
2D6E
100
AcDbEntity
  8
AM_0
100
AcDbLine
 10
514.2975801435675
 20
742.161836449241
 30
0.0
 11
532.4864201435676
 21
742.796966449241
 31
0.0
  0
POLYLINE
  5
29DF
330
2D6E
100
AcDbEntity
  8
AM_0
100
AcDb2dPolyline
 66
     1
 10
0.0
 20
0.0
 30
0.0
  0
VERTEX
  5
29E0
330
29DF
100
AcDbEntity
  8
AM_0
100
AcDbVertex
100
AcDb2dVertex
 10
490.1370001435672
 20
785.604416449241
 30
0.0
  0
VERTEX
  5
29E1
330
29DF
100
AcDbEntity
  8
AM_0
100
AcDbVertex
100
AcDb2dVertex
 10
493.7486351435675
 20
787.5317624492412
 30
0.0
  0
VERTEX
  5
29E2
330
29DF
100
AcDbEntity
  8
AM_0
100
AcDbVertex
100
AcDb2dVertex
 10
497.1261491435672
 20
789.8449784492411
 30
0.0
  0
VERTEX
  5
29E3
330
29DF
100
AcDbEntity
  8
AM_0
100
AcDbVertex
100
AcDb2dVertex
 10
500.2284871435675
 20
792.515945449241
 30
0.0
  0
VERTEX
  5
29E4
330
29DF
100
AcDbEntity
  8
AM_0
100
AcDbVertex
100
AcDb2dVertex
 10
503.0179401435675
 20
795.512196449241
 30
0.0
  0
VERTEX
  5
29E5
330
29DF
100
AcDbEntity
  8
AM_0
100
AcDbVertex
100
AcDb2dVertex
 10
504.1545011435673
 20
797.217261449241
 30
0.0
  0
VERTEX
  5
29E6
330
29DF
100
AcDbEntity
  8
AM_0
100
AcDbVertex
100
AcDb2dVertex
 10
504.9277541435674
 20
799.114916449241
 30
0.0
  0
VERTEX
  5
29E7
330
29DF
100
AcDbEntity
  8
AM_0
100
AcDbVertex
100
AcDb2dVertex
 10
505.3065621435672
 20
801.128749449241
 30
0.0
  0
VERTEX
  5
29E8
330
29DF
100
AcDbEntity
  8
AM_0
100
AcDbVertex
100
AcDb2dVertex
 10
505.2756701435671
 20
803.177666449241
 30
0.0
  0
VERTEX
  5
29E9
330
29DF
100
AcDbEntity
  8
AM_0
100
AcDbVertex
100
AcDb2dVertex
 10
490.5058701435675
 20
822.0928164492411
 30
0.0
  0
SEQEND
  5
29EA
330
29DF
100
AcDbEntity
  8
AM_0
  0
LINE
  5
29EB
330
2D6E
100
AcDbEntity
  8
AM_0
100
AcDbLine
 10
489.7073101435672
 20
787.770176449241
 30
0.0
 11
489.7073101435672
 21
813.7713964492411
 31
0.0
  0
ARC
  5
29EC
330
2D6E
100
AcDbEntity
  8
AM_0
100
AcDbCircle
 10
487.2073101435672
 20
740.7777464492411
 30
0.0
 40
2.0
100
AcDbArc
 50
91.99999800000055
 51
180.0000100000009
  0
LINE
  5
29ED
330
2D6E
100
AcDbEntity
  8
AM_0
100
AcDbLine
 10
485.2073101435673
 20
738.660796449241
 30
0.0
 11
485.2073101435673
 21
785.770176449241
 31
0.0
  0
LINE
  5
29EE
330
2D6E
100
AcDbEntity
  8
AM_0
100
AcDbLine
 10
459.1374801435673
 20
736.592136449241
 30
0.0
 11
470.2073101435671
 21
736.2055964492411
 31
0.0
  0
ARC
  5
29EF
330
2D6E
100
AcDbEntity
  8
AM_0
100
AcDbCircle
 10
454.2073101435672
 20
743.7082264492411
 30
0.0
 40
3.0
100
AcDbArc
 50
0.0
 51
79.9999980000011
  0
ARC
  5
29F0
330
2D6E
100
AcDbEntity
  8
AM_0
100
AcDbCircle
 10
459.2073101435672
 20
738.5909764492412
 30
0.0
 40
2.0
100
AcDbArc
 50
179.9999899999988
 51
268.0000099999986
  0
LINE
  5
29F1
330
2D6E
100
AcDbEntity
  8
AM_0
100
AcDbLine
 10
457.2072401435675
 20
735.5889564492412
 30
0.0
 11
449.8287001435675
 21
734.664706449241
 31
0.0
  0
LINE
  5
29F2
330
2D6E
100
AcDbEntity
  8
AM_0
100
AcDbLine
 10
470.2071801435671
 20
736.2055964492411
 30
0.0
 11
483.2770701435675
 21
736.6619564492411
 31
0.0
  0
ARC
  5
29F3
330
2D6E
100
AcDbEntity
  8
AM_0
100
AcDbCircle
 10
483.2073101435672
 20
738.660796449241
 30
0.0
 40
2.0
100
AcDbArc
 50
272.0000000000037
 51
0.0
  0
LINE
  5
29F4
330
2D6E
100
AcDbEntity
  8
AM_0
100
AcDbLine
 10
457.2071801435671
 20
787.770176449241
 30
0.0
 11
483.2073101435672
 21
787.770176449241
 31
0.0
  0
ARC
  5
29F5
330
2D6E
100
AcDbEntity
  8
AM_0
100
AcDbCircle
 10
483.2073101435672
 20
785.770176449241
 30
0.0
 40
2.0
100
AcDbArc
 50
0.0
 51
90.00000299999769
  0
LINE
  5
29F6
330
2D6E
100
AcDbEntity
  8
AM_0
100
AcDbLine
 10
487.1374801435672
 20
742.776516449241
 30
0.0
 11
511.7405101435675
 21
743.6356564492411
 31
0.0
  0
LINE
  5
29F7
330
2D6E
100
AcDbEntity
  8
AM_0
100
AcDbLine
 10
498.0237101435672
 20
729.1725164492411
 30
0.0
 11
507.3908401435671
 21
739.049346449241
 31
0.0
  0
LINE
  5
29F8
330
2D6E
100
AcDbEntity
  8
AM_0
100
AcDbLine
 10
489.7073101435672
 20
729.098786449241
 30
0.0
 11
489.7073101435672
 21
741.1311364492411
 31
0.0
  0
ARC
  5
29F9
330
2D6E
100
AcDbEntity
  8
AM_0
100
AcDbCircle
 10
514.6466401435675
 20
732.1678764492411
 30
0.0
 40
10.0
100
AcDbArc
 50
91.99999800000055
 51
136.5170399999985
  0
ARC
  5
29FA
330
2D6E
100
AcDbEntity
  8
AM_0
100
AcDbCircle
 10
489.2353801435675
 20
787.389676449241
 30
0.0
 40
2.0
100
AcDbArc
 50
270.0
 51
296.8001999999971
  0
LINE
  5
29FB
330
2D6E
100
AcDbEntity
  8
AM_0
100
AcDbLine
 10
457.2071801435671
 20
813.7713964492411
 30
0.0
 11
483.2073101435672
 21
813.7713964492411
 31
0.0
  0
ARC
  5
29FC
330
2D6E
100
AcDbEntity
  8
AM_0
100
AcDbCircle
 10
483.2073101435672
 20
815.771396449241
 30
0.0
 40
2.0
100
AcDbArc
 50
270.0
 51
0.0
  0
ARC
  5
29FD
330
2D6E
100
AcDbEntity
  8
AM_0
100
AcDbCircle
 10
488.7568701435673
 20
819.6553664492412
 30
0.0
 40
3.0
100
AcDbArc
 50
54.34832400000471
 51
90.00000299999769
  0
ARC
  5
29FE
330
2D6E
100
AcDbEntity
  8
AM_0
100
AcDbCircle
 10
567.8114301435677
 20
770.7991064492412
 30
0.0
 40
8.0
100
AcDbArc
 50
91.99999800000055
 51
167.2292499999988
  0
CIRCLE
  5
29FF
330
2D6E
100
AcDbEntity
  8
AM_0
100
AcDbCircle
 10
567.2073101435674
 20
750.335966449241
 30
0.0
 40
9.5
  0
LINE
  5
2A00
330
2D6E
100
AcDbEntity
  8
ﾁｭｳｼﾝｾﾝ1
100
AcDbLine
 10
549.7073101435671
 20
750.335966449241
 30
0.0
 11
584.7073101435674
 21
750.335966449241
 31
0.0
  0
ARC
  5
2A01
330
2D6E
100
AcDbEntity
  8
AM_0
100
AcDbCircle
 10
550.2073101435674
 20
756.335966449241
 30
0.0
 40
10.0
100
AcDbArc
 50
90.00000299999769
 51
180.0000100000009
  0
ARC
  5
2A02
330
2D6E
100
AcDbEntity
  8
AM_0
100
AcDbCircle
 10
532.2073101435671
 20
750.792146449241
 30
0.0
 40
8.0
100
AcDbArc
 50
272.0000000000037
 51
0.0
  0
LINE
  5
2A03
330
2D6E
100
AcDbEntity
  8
AM_0
100
AcDbLine
 10
540.2073101435671
 20
732.7834764492412
 30
0.0
 11
540.2073101435671
 21
750.792146449241
 31
0.0
  0
LINE
  5
2A04
330
2D6E
100
AcDbEntity
  8
AM_0
100
AcDbLine
 10
540.2073101435671
 20
756.335966449241
 30
0.0
 11
540.2073101435671
 21
750.792146449241
 31
0.0
  0
ARC
  5
2A05
330
2D6E
100
AcDbEntity
  8
AM_0
100
AcDbCircle
 10
552.2073101435672
 20
774.335966449241
 30
0.0
 40
8.0
100
AcDbArc
 50
270.0
 51
0.0
  0
LINE
  5
2A06
330
2D6E
100
AcDbEntity
  8
AM_0
100
AcDbLine
 10
550.2073101435674
 20
766.335966449241
 30
0.0
 11
552.2073101435672
 21
766.335966449241
 31
0.0
  0
LINE
  5
2A07
330
2D6E
100
AcDbEntity
  8
ﾁｭｳｼﾝｾﾝ1
100
AcDbLine
 10
567.2073101435674
 20
732.835966449241
 30
0.0
 11
567.2073101435674
 21
767.835966449241
 31
0.0
  0
LINE
  5
2A08
330
2D6E
100
AcDbEntity
  8
AM_0
100
AcDbLine
 10
588.2073101435674
 20
733.1447464492412
 30
0.0
 11
588.2073101435674
 21
772.527136449241
 31
0.0
  0
ARC
  5
2A09
330
2D6E
100
AcDbEntity
  8
AM_0
100
AcDbCircle
 10
584.2073101435674
 20
733.1447464492412
 30
0.0
 40
4.0
100
AcDbArc
 50
272.0000000000037
 51
0.0
  0
ARC
  5
2A0A
330
2D6E
100
AcDbEntity
  8
AM_0
100
AcDbCircle
 10
585.2073101435673
 20
779.4553564492412
 30
0.0
 40
3.0
100
AcDbArc
 50
180.0000100000009
 51
261.786779999997
  0
ARC
  5
2A0B
330
2D6E
100
AcDbEntity
  8
AM_0
100
AcDbCircle
 10
577.2073101435672
 20
784.135166449241
 30
0.0
 40
5.0
100
AcDbArc
 50
272.0000000000037
 51
0.0
  0
LINE
  5
2A0C
330
2D6E
100
AcDbEntity
  8
AM_0
100
AcDbLine
 10
567.5322601435676
 20
778.794216449241
 30
0.0
 11
577.3817401435673
 21
779.1382164492412
 31
0.0
  0
ARC
  5
2A0D
330
2D6E
100
AcDbEntity
  8
AM_0
100
AcDbCircle
 10
584.2073101435674
 20
772.527136449241
 30
0.0
 40
4.0
100
AcDbArc
 50
0.0
 51
81.7867890000002
  0
ARC
  5
2A0E
330
2D6E
100
AcDbEntity
  8
AM_0
100
AcDbCircle
 10
585.2073101435673
 20
823.093296449241
 30
0.0
 40
3.0
100
AcDbArc
 50
135.0
 51
180.0000100000009
  0
ARC
  5
2A0F
330
2D6E
100
AcDbEntity
  8
AM_0
100
AcDbCircle
 10
585.2073101435673
 20
823.093296449241
 30
0.0
 40
3.0
100
AcDbArc
 50
135.0
 51
180.0000100000009
  0
ARC
  5
2A10
330
2D6E
100
AcDbEntity
  8
AM_0
100
AcDbCircle
 10
585.2073101435673
 20
831.5785864492411
 30
0.0
 40
3.0
100
AcDbArc
 50
315.0
 51
0.0
  0
ARC
  5
2A11
330
2D6E
100
AcDbEntity
  8
AM_0
100
AcDbCircle
 10
585.2073101435673
 20
831.5785864492411
 30
0.0
 40
3.0
100
AcDbArc
 50
315.0
 51
0.0
  0
LINE
  5
2A12
330
2D6E
100
AcDbEntity
  8
AM_0
100
AcDbLine
 10
583.0860901435674
 20
825.214566449241
 30
0.0
 11
587.3287001435674
 21
829.4572464492413
 31
0.0
  0
LINE
  5
2A13
330
2D6E
100
AcDbEntity
  8
AM_0
100
AcDbLine
 10
588.2073101435674
 20
842.8359664492409
 30
0.0
 11
592.2073101435674
 21
842.8359664492409
 31
0.0
  0
ARC
  5
2A14
330
2D6E
100
AcDbEntity
  8
AM_0
100
AcDbCircle
 10
454.2073101435672
 20
865.3359664492411
 30
0.0
 40
11.0
100
AcDbArc
 50
97.18119500000412
 51
158.6764799999984
  0
ARC
  5
2A15
330
2D6E
100
AcDbEntity
  8
AM_0
100
AcDbCircle
 10
454.2073101435672
 20
865.3359664492411
 30
0.0
 40
10.0
100
AcDbArc
 50
203.5782699999985
 51
336.4217200000013
  0
ARC
  5
2A16
330
2D6E
100
AcDbEntity
  8
AM_0
100
AcDbCircle
 10
454.2073101435672
 20
865.3359664492411
 30
0.0
 40
10.0
100
AcDbArc
 50
23.57803699999776
 51
156.4219600000008
  0
ARC
  5
2A17
330
2D6E
100
AcDbEntity
  8
AM_0
100
AcDbCircle
 10
449.2073101435671
 20
991.0459264492411
 30
0.0
 40
5.0
100
AcDbArc
 50
82.8601670000001
 51
180.0000100000009
  0
LINE
  5
2A18
330
2D6E
100
AcDbEntity
  8
AM_0
100
AcDbLine
 10
445.6863101435672
 20
982.4148864492411
 30
0.0
 11
454.7281801435675
 21
984.0092464492412
 31
0.0
  0
LINE
  5
2A19
330
2D6E
100
AcDbEntity
  8
AM_0
100
AcDbLine
 10
437.7073101435672
 20
869.335906449241
 30
0.0
 11
470.7073101435672
 21
869.335906449241
 31
0.0
  0
LINE
  5
2A1A
330
2D6E
100
AcDbEntity
  8
AM_0
100
AcDbLine
 10
437.7073101435672
 20
861.335906449241
 30
0.0
 11
470.7073101435672
 21
861.335906449241
 31
0.0
  0
LINE
  5
2A1B
330
2D6E
100
AcDbEntity
  8
AM_0
100
AcDbLine
 10
399.9978901435674
 20
1001.394376449241
 30
0.0
 11
475.2072401435673
 21
1005.33596644924
 31
0.0
  0
ARC
  5
2A1C
330
2D6E
100
AcDbEntity
  8
AM_0
100
AcDbCircle
 10
446.2073101435672
 20
979.4604764492412
 30
0.0
 40
3.0
100
AcDbArc
 50
99.99999999999859
 51
180.3169299999988
  0
CIRCLE
  5
2A1D
330
2D6E
100
AcDbEntity
  8
AM_0
100
AcDbCircle
 10
417.2073101435672
 20
980.3359664492404
 30
0.0
 40
9.5
  0
LINE
  5
2A1E
330
2D6E
100
AcDbEntity
  8
AM_0
100
AcDbLine
 10
396.2073101435673
 20
997.399876449241
 30
0.0
 11
396.2073101435672
 21
962.835966449241
 31
0.0
  0
LINE
  5
2A1F
330
2D6E
100
AcDbEntity
  8
AM_0
100
AcDbLine
 10
443.2073101435673
 20
869.335906449241
 30
0.0
 11
443.2073101435673
 21
979.4770864492404
 31
0.0
  0
ARC
  5
2A20
330
2D6E
100
AcDbEntity
  8
AM_0
100
AcDbCircle
 10
437.7073101435672
 20
865.3359064492411
 30
0.0
 40
3.999995999999999
100
AcDbArc
 50
90.00000299999769
 51
270.0
  0
LINE
  5
2A21
330
2D6E
100
AcDbEntity
  8
AM_0
100
AcDbLine
 10
411.7073101435671
 20
948.9486964492407
 30
0.0
 11
411.7073101435671
 21
922.1117264492411
 31
0.0
  0
LINE
  5
2A22
330
2D6E
100
AcDbEntity
  8
AM_0
100
AcDbLine
 10
411.7073101435671
 20
922.1117264492411
 30
0.0
 11
443.2073101435673
 21
922.1117264492411
 31
0.0
  0
LINE
  5
2A23
330
2D6E
100
AcDbEntity
  8
AM_0
100
AcDbLine
 10
411.7073101435671
 20
938.3420764492411
 30
0.0
 11
443.2073101435673
 21
938.3420764492411
 31
0.0
  0
LINE
  5
2A24
330
2D6E
100
AcDbEntity
  8
AM_0
100
AcDbLine
 10
409.7073101435673
 20
962.835966449241
 30
0.0
 11
438.3816801435675
 21
963.837316449241
 31
0.0
  0
LINE
  5
2A25
330
2D6E
100
AcDbEntity
  8
AM_0
100
AcDbLine
 10
411.7073101435671
 20
948.9486964492407
 30
0.0
 11
443.2073101435673
 21
948.9486964492407
 31
0.0
  0
ARC
  5
2A26
330
2D6E
100
AcDbEntity
  8
AM_0
100
AcDbCircle
 10
438.2073101435672
 20
968.834256449241
 30
0.0
 40
5.0
100
AcDbArc
 50
272.0000000000037
 51
0.0
  0
ARC
  5
2A27
330
2D6E
100
AcDbEntity
  8
AM_0
100
AcDbCircle
 10
400.2073101435672
 20
997.399876449241
 30
0.0
 40
4.0
100
AcDbArc
 50
92.99999900000168
 51
180.0000100000009
  0
LINE
  5
2A28
330
2D6E
100
AcDbEntity
  8
AM_0
100
AcDbLine
 10
444.2073101435672
 20
1002.731176449241
 30
0.0
 11
444.2073101435672
 21
994.8824164492407
 31
0.0
  0
ARC
  5
2A29
330
2D6E
100
AcDbEntity
  8
AM_0
100
AcDbCircle
 10
532.2073101435671
 20
979.8797964492411
 30
0.0
 40
8.0
100
AcDbArc
 50
0.0
 51
87.99999999999625
  0
CIRCLE
  5
2A2A
330
2D6E
100
AcDbEntity
  8
AM_0
100
AcDbCircle
 10
567.2073101435674
 20
980.3359664492404
 30
0.0
 40
9.5
  0
LINE
  5
2A2B
330
2D6E
100
AcDbEntity
  8
AM_0
100
AcDbLine
 10
457.2071801435671
 20
874.8753364492412
 30
0.0
 11
457.2071801435671
 21
1001.545686449241
 31
0.0
  0
LINE
  5
2A2C
330
2D6E
100
AcDbEntity
  8
AM_0
100
AcDbLine
 10
470.2073101435671
 20
869.335906449241
 30
0.0
 11
470.2073101435671
 21
1005.07388644924
 31
0.0
  0
LINE
  5
2A2D
330
2D6E
100
AcDbEntity
  8
AM_0
100
AcDbLine
 10
485.2073101435673
 20
992.011076449241
 30
0.0
 11
485.2073101435673
 21
944.901706449241
 31
0.0
  0
LINE
  5
2A2E
330
2D6E
100
AcDbEntity
  8
AM_0
100
AcDbLine
 10
540.2073101435671
 20
997.8884564492407
 30
0.0
 11
540.2073101435671
 21
979.8797964492411
 31
0.0
  0
LINE
  5
2A2F
330
2D6E
100
AcDbEntity
  8
AM_0
100
AcDbLine
 10
588.2073101435674
 20
997.5271364492407
 30
0.0
 11
588.2073101435674
 21
958.1447464492411
 31
0.0
  0
POLYLINE
  5
2A30
330
2D6E
100
AcDbEntity
  8
AM_0
100
AcDb2dPolyline
 66
     1
 10
0.0
 20
0.0
 30
0.0
  0
VERTEX
  5
2A31
330
2A30
100
AcDbEntity
  8
AM_0
100
AcDbVertex
100
AcDb2dVertex
 10
490.1370001435672
 20
945.0673964492411
 30
0.0
  0
VERTEX
  5
2A32
330
2A30
100
AcDbEntity
  8
AM_0
100
AcDbVertex
100
AcDb2dVertex
 10
493.7486391435673
 20
943.1400684492411
 30
0.0
  0
VERTEX
  5
2A33
330
2A30
100
AcDbEntity
  8
AM_0
100
AcDbVertex
100
AcDb2dVertex
 10
497.1261591435673
 20
940.826870449241
 30
0.0
  0
VERTEX
  5
2A34
330
2A30
100
AcDbEntity
  8
AM_0
100
AcDbVertex
100
AcDb2dVertex
 10
500.2285061435673
 20
938.1559214492407
 30
0.0
  0
VERTEX
  5
2A35
330
2A30
100
AcDbEntity
  8
AM_0
100
AcDbVertex
100
AcDb2dVertex
 10
503.0179701435671
 20
935.159686449241
 30
0.0
  0
VERTEX
  5
2A36
330
2A30
100
AcDbEntity
  8
AM_0
100
AcDbVertex
100
AcDb2dVertex
 10
504.1545291435673
 20
933.4546194492411
 30
0.0
  0
VERTEX
  5
2A37
330
2A30
100
AcDbEntity
  8
AM_0
100
AcDbVertex
100
AcDb2dVertex
 10
504.9277761435671
 20
931.5569604492408
 30
0.0
  0
VERTEX
  5
2A38
330
2A30
100
AcDbEntity
  8
AM_0
100
AcDbVertex
100
AcDb2dVertex
 10
505.3065741435672
 20
929.5431244492407
 30
0.0
  0
VERTEX
  5
2A39
330
2A30
100
AcDbEntity
  8
AM_0
100
AcDbVertex
100
AcDb2dVertex
 10
505.2756701435671
 20
927.494206449241
 30
0.0
  0
VERTEX
  5
2A3A
330
2A30
100
AcDbEntity
  8
AM_0
100
AcDbVertex
100
AcDb2dVertex
 10
490.5058701435675
 20
908.579066449241
 30
0.0
  0
SEQEND
  5
2A3B
330
2A30
100
AcDbEntity
  8
AM_0
  0
ARC
  5
2A3C
330
2D6E
100
AcDbEntity
  8
AM_0
100
AcDbCircle
 10
483.2073101435672
 20
914.9004864492408
 30
0.0
 40
2.0
100
AcDbArc
 50
0.0
 51
90.00000299999769
  0
LINE
  5
2A3D
330
2D6E
100
AcDbEntity
  8
AM_0
100
AcDbLine
 10
489.7073101435672
 20
942.9017064492411
 30
0.0
 11
489.7073101435672
 21
916.9004864492411
 31
0.0
  0
ARC
  5
2A3E
330
2D6E
100
AcDbEntity
  8
AM_0
100
AcDbCircle
 10
470.7073101435672
 20
865.3359064492411
 30
0.0
 40
3.999995999999999
100
AcDbArc
 50
270.0
 51
90.00000299999769
  0
ARC
  5
2A3F
330
2D6E
100
AcDbEntity
  8
AM_0
100
AcDbCircle
 10
452.2071801435672
 20
881.210416449241
 30
0.0
 40
5.0
100
AcDbArc
 50
277.1811999999994
 51
0.0
  0
LINE
  5
2A40
330
2D6E
100
AcDbEntity
  8
AM_0
100
AcDbLine
 10
457.2071801435671
 20
916.9004864492411
 30
0.0
 11
483.2073101435672
 21
916.9004864492411
 31
0.0
  0
ARC
  5
2A41
330
2D6E
100
AcDbEntity
  8
AM_0
100
AcDbCircle
 10
488.7568701435673
 20
911.0165164492411
 30
0.0
 40
3.0
100
AcDbArc
 50
270.0
 51
305.6516699999972
  0
LINE
  5
2A42
330
2D6E
100
AcDbEntity
  8
AM_0
100
AcDbLine
 10
457.2071801435671
 20
942.9017064492411
 30
0.0
 11
483.2073101435672
 21
942.9017064492411
 31
0.0
  0
ARC
  5
2A43
330
2D6E
100
AcDbEntity
  8
AM_0
100
AcDbCircle
 10
483.2073101435672
 20
944.901706449241
 30
0.0
 40
2.0
100
AcDbArc
 50
270.0
 51
0.0
  0
ARC
  5
2A44
330
2D6E
100
AcDbEntity
  8
AM_0
100
AcDbCircle
 10
489.2353801435675
 20
943.2821364492408
 30
0.0
 40
2.0
100
AcDbArc
 50
63.19980900000232
 51
90.00000299999769
  0
ARC
  5
2A45
330
2D6E
100
AcDbEntity
  8
AM_0
100
AcDbCircle
 10
585.2073101435673
 20
913.5785864492412
 30
0.0
 40
3.0
100
AcDbArc
 50
180.0000100000009
 51
225.0
  0
ARC
  5
2A46
330
2D6E
100
AcDbEntity
  8
AM_0
100
AcDbCircle
 10
585.2073101435673
 20
913.5785864492412
 30
0.0
 40
3.0
100
AcDbArc
 50
179.9999899999988
 51
225.0
  0
LINE
  5
2A47
330
2D6E
100
AcDbEntity
  8
AM_0
100
AcDbLine
 10
588.2073101435674
 20
887.835966449241
 30
0.0
 11
592.2073101435674
 21
887.835966449241
 31
0.0
  0
ARC
  5
2A48
330
2D6E
100
AcDbEntity
  8
AM_0
100
AcDbCircle
 10
585.2073101435673
 20
905.093296449241
 30
0.0
 40
3.0
100
AcDbArc
 50
0.0
 51
44.99999800000161
  0
ARC
  5
2A49
330
2D6E
100
AcDbEntity
  8
AM_0
100
AcDbCircle
 10
585.2073101435673
 20
905.093296449241
 30
0.0
 40
3.0
100
AcDbArc
 50
0.0
 51
45.0000010000038
  0
LINE
  5
2A4A
330
2D6E
100
AcDbEntity
  8
AM_0
100
AcDbLine
 10
583.0860301435675
 20
911.4573064492411
 30
0.0
 11
587.3287001435674
 21
907.214566449241
 31
0.0
  0
ARC
  5
2A4B
330
2D6E
100
AcDbEntity
  8
AM_0
100
AcDbCircle
 10
567.8114301435677
 20
959.8727764492407
 30
0.0
 40
8.0
100
AcDbArc
 50
192.7707500000011
 51
267.9999999999963
  0
ARC
  5
2A4C
330
2D6E
100
AcDbEntity
  8
AM_0
100
AcDbCircle
 10
550.2073101435674
 20
974.3359664492411
 30
0.0
 40
10.0
100
AcDbArc
 50
180.0000100000009
 51
270.0
  0
LINE
  5
2A4D
330
2D6E
100
AcDbEntity
  8
AM_0
100
AcDbLine
 10
540.2073101435671
 20
974.3359664492411
 30
0.0
 11
540.2073101435671
 21
979.8797964492411
 31
0.0
  0
ARC
  5
2A4E
330
2D6E
100
AcDbEntity
  8
AM_0
100
AcDbCircle
 10
552.2073101435672
 20
956.3359664492407
 30
0.0
 40
8.0
100
AcDbArc
 50
0.0
 51
90.00000299999769
  0
LINE
  5
2A4F
330
2D6E
100
AcDbEntity
  8
AM_0
100
AcDbLine
 10
550.2073101435674
 20
964.3359664492404
 30
0.0
 11
552.2073101435672
 21
964.3359664492404
 31
0.0
  0
ARC
  5
2A50
330
2D6E
100
AcDbEntity
  8
AM_0
100
AcDbCircle
 10
577.2073101435672
 20
946.5367164492413
 30
0.0
 40
5.0
100
AcDbArc
 50
0.0
 51
87.99999999999625
  0
ARC
  5
2A51
330
2D6E
100
AcDbEntity
  8
AM_0
100
AcDbCircle
 10
585.2073101435673
 20
951.2165264492411
 30
0.0
 40
3.0
100
AcDbArc
 50
98.21320900000209
 51
180.0000100000009
  0
LINE
  5
2A52
330
2D6E
100
AcDbEntity
  8
AM_0
100
AcDbLine
 10
567.5323201435674
 20
951.877656449241
 30
0.0
 11
577.3817401435673
 21
951.5336664492407
 31
0.0
  0
ARC
  5
2A53
330
2D6E
100
AcDbEntity
  8
AM_0
100
AcDbCircle
 10
584.2073101435674
 20
958.1447464492411
 30
0.0
 40
4.0
100
AcDbArc
 50
278.2132199999964
 51
0.0
  0
LINE
  5
2A54
330
2D6E
100
AcDbEntity
  8
AM_0
100
AcDbLine
 10
514.2976401435674
 20
988.510046449241
 30
0.0
 11
532.4864801435674
 21
987.874906449241
 31
0.0
  0
LINE
  5
2A55
330
2D6E
100
AcDbEntity
  8
AM_0
100
AcDbLine
 10
475.2072401435673
 20
1005.335906449241
 30
0.0
 11
584.3468301435676
 21
1001.524686449241
 31
0.0
  0
ARC
  5
2A56
330
2D6E
100
AcDbEntity
  8
AM_0
100
AcDbCircle
 10
487.2073101435672
 20
989.894136449241
 30
0.0
 40
2.0
100
AcDbArc
 50
180.0000100000009
 51
267.9999999999963
  0
LINE
  5
2A57
330
2D6E
100
AcDbEntity
  8
AM_0
100
AcDbLine
 10
459.1374801435673
 20
994.079746449241
 30
0.0
 11
470.2072401435675
 21
994.4662764492404
 31
0.0
  0
LINE
  5
2A58
330
2D6E
100
AcDbEntity
  8
AM_0
100
AcDbLine
 10
457.2071801435671
 20
995.0829164492413
 30
0.0
 11
449.8287001435675
 21
996.0071764492411
 31
0.0
  0
ARC
  5
2A59
330
2D6E
100
AcDbEntity
  8
AM_0
100
AcDbCircle
 10
454.2073101435672
 20
986.9636564492408
 30
0.0
 40
3.0
100
AcDbArc
 50
280.0000100000013
 51
0.0
  0
ARC
  5
2A5A
330
2D6E
100
AcDbEntity
  8
AM_0
100
AcDbCircle
 10
459.2073101435672
 20
992.0809064492411
 30
0.0
 40
2.0
100
AcDbArc
 50
91.99999800000055
 51
180.0000100000009
  0
ARC
  5
2A5B
330
2D6E
100
AcDbEntity
  8
AM_0
100
AcDbCircle
 10
460.2071801435672
 20
1001.545686449241
 30
0.0
 40
3.0
100
AcDbArc
 50
92.99999900000168
 51
180.0000100000009
  0
LINE
  5
2A5C
330
2D6E
100
AcDbEntity
  8
AM_0
100
AcDbLine
 10
470.2072401435675
 20
994.4662764492404
 30
0.0
 11
483.2771301435673
 21
994.009916449241
 31
0.0
  0
ARC
  5
2A5D
330
2D6E
100
AcDbEntity
  8
AM_0
100
AcDbCircle
 10
483.2073101435672
 20
992.011076449241
 30
0.0
 40
2.0
100
AcDbArc
 50
0.0
 51
87.99999999999625
  0
LINE
  5
2A5E
330
2D6E
100
AcDbEntity
  8
AM_0
100
AcDbLine
 10
487.1374801435672
 20
987.8953564492411
 30
0.0
 11
511.7405101435675
 21
987.0362264492412
 31
0.0
  0
LINE
  5
2A5F
330
2D6E
100
AcDbEntity
  8
AM_0
100
AcDbLine
 10
498.0237701435672
 20
1001.499296449241
 30
0.0
 11
507.3908401435671
 21
991.622586449241
 31
0.0
  0
LINE
  5
2A60
330
2D6E
100
AcDbEntity
  8
AM_0
100
AcDbLine
 10
489.7073101435672
 20
989.615816449241
 30
0.0
 11
489.7073101435672
 21
1001.56924644924
 31
0.0
  0
ARC
  5
2A61
330
2D6E
100
AcDbEntity
  8
AM_0
100
AcDbCircle
 10
490.7679701435673
 20
994.6179564492407
 30
0.0
 40
10.0
100
AcDbArc
 50
43.48296499999963
 51
87.99999999999625
  0
ARC
  5
2A62
330
2D6E
100
AcDbEntity
  8
AM_0
100
AcDbCircle
 10
514.6466401435675
 20
998.5039364492411
 30
0.0
 40
10.0
100
AcDbArc
 50
223.4829600000014
 51
267.9999999999963
  0
ARC
  5
2A63
330
2D6E
100
AcDbEntity
  8
AM_0
100
AcDbCircle
 10
545.2073101435671
 20
997.8884564492407
 30
0.0
 40
5.0
100
AcDbArc
 50
87.99999999999625
 51
180.0000100000009
  0
ARC
  5
2A64
330
2D6E
100
AcDbEntity
  8
AM_0
100
AcDbCircle
 10
584.2073101435674
 20
997.5271364492407
 30
0.0
 40
4.0
100
AcDbArc
 50
0.0
 51
87.99999999999625
  0
LINE
  5
2A65
330
2D6E
100
AcDbEntity
  8
AM_0
100
AcDbLine
 10
662.2072801435673
 20
844.335966449241
 30
0.0
 11
662.2072801435673
 21
886.335966449241
 31
0.0
  0
LINE
  5
2A66
330
2D6E
100
AcDbEntity
  8
AM_0
100
AcDbLine
 10
606.2073101435673
 20
871.335906449241
 30
0.0
 11
662.2072801435673
 21
871.335906449241
 31
0.0
  0
LINE
  5
2A67
330
2D6E
100
AcDbEntity
  8
AM_0
100
AcDbLine
 10
606.2073101435673
 20
859.335906449241
 30
0.0
 11
662.2072801435673
 21
859.335906449241
 31
0.0
  0
LINE
  5
2A68
330
2D6E
100
AcDbEntity
  8
AM_0
100
AcDbLine
 10
606.2073101435673
 20
871.335906449241
 30
0.0
 11
606.2073101435673
 21
859.335906449241
 31
0.0
  0
LINE
  5
2A69
330
2D6E
100
AcDbEntity
  8
AM_0
100
AcDbLine
 10
389.6841441435674
 20
775.063489449241
 30
0.0
 11
317.5519061435674
 21
816.2819114492405
 31
0.0
  0
LINE
  5
2A6A
330
2D6E
100
AcDbEntity
  8
AM_0
100
AcDbLine
 10
392.7073101435673
 20
768.835966449241
 30
0.0
 11
392.7073101435673
 21
961.8359664492411
 31
0.0
  0
ARC
  5
2A6B
330
2D6E
100
AcDbEntity
  8
AM_0
100
AcDbCircle
 10
386.7073101435672
 20
769.854030449241
 30
0.0
 40
6.0
100
AcDbArc
 50
0.0
 51
60.25511900000238
  0
LINE
  5
2A6C
330
2D6E
100
AcDbEntity
  8
AM_0
100
AcDbLine
 10
409.7073101435673
 20
767.835966449241
 30
0.0
 11
393.7073101435672
 21
767.835966449241
 31
0.0
  0
ARC
  5
2A6D
330
2D6E
100
AcDbEntity
  8
AM_0
100
AcDbCircle
 10
393.7073101435672
 20
768.835966449241
 30
0.0
 40
1.0
100
AcDbArc
 50
180.0
 51
270.0
  0
LINE
  5
2A6E
330
2D6E
100
AcDbEntity
  8
AM_0
100
AcDbLine
 10
266.7057101435672
 20
869.335966449241
 30
0.0
 11
266.7057101435672
 21
861.335966449241
 31
0.0
  0
LINE
  5
2A6F
330
2D6E
100
AcDbEntity
  8
AM_0
100
AcDbLine
 10
291.7073101435673
 20
910.244300449241
 30
0.0
 11
291.7073101435673
 21
865.3359664492411
 31
0.0
  0
LINE
  5
2A70
330
2D6E
100
AcDbEntity
  8
AM_0
100
AcDbLine
 10
315.7073101435674
 20
913.3359664492404
 30
0.0
 11
315.7073101435674
 21
865.3359664492411
 31
0.0
  0
LINE
  5
2A71
330
2D6E
100
AcDbEntity
  8
AM_0
100
AcDbLine
 10
281.7073101435673
 20
905.253062449241
 30
0.0
 11
281.7073101435673
 21
865.3359664492411
 31
0.0
  0
LINE
  5
2A72
330
2D6E
100
AcDbEntity
  8
AM_0
100
AcDbLine
 10
234.7057101435674
 20
879.335966449241
 30
0.0
 11
234.7057101435674
 21
851.335966449241
 31
0.0
  0
LINE
  5
2A73
330
2D6E
100
AcDbEntity
  8
AM_0
100
AcDbLine
 10
279.7073101435673
 20
892.8359664492409
 30
0.0
 11
279.7073101435673
 21
865.3359664492411
 31
0.0
  0
LINE
  5
2A74
330
2D6E
100
AcDbEntity
  8
AM_0
100
AcDbLine
 10
276.7057101435672
 20
879.335966449241
 30
0.0
 11
234.7057101435674
 21
879.335966449241
 31
0.0
  0
LINE
  5
2A75
330
2D6E
100
AcDbEntity
  8
AM_0
100
AcDbLine
 10
276.7057101435672
 20
851.335966449241
 30
0.0
 11
234.7057101435674
 21
851.335966449241
 31
0.0
  0
LINE
  5
2A76
330
2D6E
100
AcDbEntity
  8
AM_0
100
AcDbLine
 10
279.7073101435673
 20
837.835966449241
 30
0.0
 11
279.7073101435673
 21
865.3359664492411
 31
0.0
  0
LINE
  5
2A77
330
2D6E
100
AcDbEntity
  8
AM_0
100
AcDbLine
 10
281.7073101435673
 20
825.4188694492409
 30
0.0
 11
281.7073101435673
 21
865.3359664492411
 31
0.0
  0
LINE
  5
2A78
330
2D6E
100
AcDbEntity
  8
AM_0
100
AcDbLine
 10
291.7073101435673
 20
820.4276324492409
 30
0.0
 11
291.7073101435673
 21
865.3359664492411
 31
0.0
  0
LINE
  5
2A79
330
2D6E
100
AcDbEntity
  8
AM_0
100
AcDbLine
 10
315.7073101435674
 20
817.335966449241
 30
0.0
 11
315.7073101435674
 21
865.3359664492411
 31
0.0
  0
LINE
  5
2A7A
330
2D6E
100
AcDbEntity
  8
AM_0
100
AcDbLine
 10
313.5827951435674
 20
817.335966449241
 30
0.0
 11
293.8509041435672
 21
817.335966449241
 31
0.0
  0
LINE
  5
2A7B
330
2D6E
100
AcDbEntity
  8
AM_0
100
AcDbLine
 10
289.8509041435672
 20
818.407762449241
 30
0.0
 11
283.7073101435673
 21
821.9547684492406
 31
0.0
  0
ARC
  5
2A7C
330
2D6E
100
AcDbEntity
  8
AM_0
100
AcDbCircle
 10
293.8509041435672
 20
825.335966449241
 30
0.0
 40
8.0
100
AcDbArc
 50
239.9999999999995
 51
270.0
  0
ARC
  5
2A7D
330
2D6E
100
AcDbEntity
  8
AM_0
100
AcDbCircle
 10
285.7073101435673
 20
825.4188694492409
 30
0.0
 40
4.0
100
AcDbArc
 50
180.0
 51
239.9999999999995
  0
LINE
  5
2A7E
330
2D6E
100
AcDbEntity
  8
AM_0
100
AcDbLine
 10
279.7073101435673
 20
837.835966449241
 30
0.0
 11
281.7073101435673
 21
835.8359664492409
 31
0.0
  0
ARC
  5
2A7F
330
2D6E
100
AcDbEntity
  8
AM_0
100
AcDbCircle
 10
313.5827951435674
 20
809.335966449241
 30
0.0
 40
8.0
100
AcDbArc
 50
60.25511900000238
 51
90.0
  0
LINE
  5
2A80
330
2D6E
100
AcDbEntity
  8
AM_0
100
AcDbLine
 10
276.7057101435672
 20
850.335966449241
 30
0.0
 11
276.7057101435672
 21
865.3359664492411
 31
0.0
  0
LINE
  5
2A81
330
2D6E
100
AcDbEntity
  8
AM_0
100
AcDbLine
 10
279.7073101435673
 20
850.335966449241
 30
0.0
 11
276.7057101435672
 21
850.335966449241
 31
0.0
  0
LINE
  5
2A82
330
2D6E
100
AcDbEntity
  8
AM_0
100
AcDbLine
 10
279.7073101435673
 20
880.3359664492409
 30
0.0
 11
276.7057101435672
 21
880.3359664492409
 31
0.0
  0
LINE
  5
2A83
330
2D6E
100
AcDbEntity
  8
AM_0
100
AcDbLine
 10
276.7057101435672
 20
880.3359664492409
 30
0.0
 11
276.7057101435672
 21
865.3359664492411
 31
0.0
  0
LINE
  5
2A84
330
2D6E
100
AcDbEntity
  8
AM_0
100
AcDbLine
 10
389.6841441435674
 20
955.6084424492404
 30
0.0
 11
317.5519061435674
 21
914.3900204492407
 31
0.0
  0
LINE
  5
2A85
330
2D6E
100
AcDbEntity
  8
AM_0
100
AcDbLine
 10
313.5827951435674
 20
913.3359664492404
 30
0.0
 11
293.8509041435672
 21
913.3359664492404
 31
0.0
  0
LINE
  5
2A86
330
2D6E
100
AcDbEntity
  8
AM_0
100
AcDbLine
 10
279.7073101435673
 20
892.8359664492409
 30
0.0
 11
281.7073101435673
 21
894.8359664492411
 31
0.0
  0
ARC
  5
2A87
330
2D6E
100
AcDbEntity
  8
AM_0
100
AcDbCircle
 10
293.8509041435672
 20
905.3359664492404
 30
0.0
 40
8.0
100
AcDbArc
 50
90.0
 51
120.0000000000005
  0
LINE
  5
2A88
330
2D6E
100
AcDbEntity
  8
AM_0
100
AcDbLine
 10
289.8509041435672
 20
912.2641694492408
 30
0.0
 11
283.7073101435673
 21
908.7171634492406
 31
0.0
  0
ARC
  5
2A89
330
2D6E
100
AcDbEntity
  8
AM_0
100
AcDbCircle
 10
285.7073101435673
 20
905.253062449241
 30
0.0
 40
4.0
100
AcDbArc
 50
120.0000000000005
 51
180.0
  0
ARC
  5
2A8A
330
2D6E
100
AcDbEntity
  8
AM_0
100
AcDbCircle
 10
313.5827951435674
 20
921.335966449241
 30
0.0
 40
8.0
100
AcDbArc
 50
270.0
 51
299.7448809999976
  0
ARC
  5
2A8B
330
2D6E
100
AcDbEntity
  8
AM_0
100
AcDbCircle
 10
386.7073101435672
 20
960.8179014492412
 30
0.0
 40
6.0
100
AcDbArc
 50
299.7448809999976
 51
0.0
  0
LINE
  5
2A8C
330
2D6E
100
AcDbEntity
  8
AM_0
100
AcDbLine
 10
408.7073101435672
 20
889.2638383445611
 30
0.0
 11
408.7073101435672
 21
841.4080945539209
 31
0.0
  0
LINE
  5
2A8D
330
2D6E
100
AcDbEntity
  8
AM_0
100
AcDbLine
 10
409.7073101435673
 20
962.835966449241
 30
0.0
 11
393.7073101435672
 21
962.835966449241
 31
0.0
  0
ARC
  5
2A8E
330
2D6E
100
AcDbEntity
  8
AM_0
100
AcDbCircle
 10
393.7073101435672
 20
961.8359664492411
 30
0.0
 40
1.0
100
AcDbArc
 50
90.00000000000005
 51
180.0
  0
LINE
  5
2A8F
330
2D6E
100
AcDbEntity
  8
AM_0
100
AcDbLine
 10
408.7073101435672
 20
948.9487494492406
 30
0.0
 11
408.7073101435672
 21
922.1117544492411
 31
0.0
  0
LINE
  5
2A90
330
2D6E
100
AcDbEntity
  8
AM_0
100
AcDbLine
 10
394.7073101435673
 20
922.1117544492411
 30
0.0
 11
408.7073101435672
 21
922.1117544492411
 31
0.0
  0
LINE
  5
2A91
330
2D6E
100
AcDbEntity
  8
AM_0
100
AcDbLine
 10
408.7073101435672
 20
948.9487494492406
 30
0.0
 11
394.7073101435673
 21
948.9487494492406
 31
0.0
  0
LINE
  5
2A92
330
2D6E
100
AcDbEntity
  8
AM_0
100
AcDbLine
 10
408.7073101435672
 20
938.3421474492411
 30
0.0
 11
394.7073101435673
 21
938.3421474492411
 31
0.0
  0
ARC
  5
2A93
330
2D6E
100
AcDbEntity
  8
AM_0
100
AcDbCircle
 10
394.7073101435673
 20
924.1117544492411
 30
0.0
 40
2.0
100
AcDbArc
 50
180.0
 51
270.0
  0
ARC
  5
2A94
330
2D6E
100
AcDbEntity
  8
AM_0
100
AcDbCircle
 10
394.7073101435673
 20
946.9487494492407
 30
0.0
 40
2.0
100
AcDbArc
 50
90.0
 51
180.0
  0
ARC
  5
2A95
330
2D6E
100
AcDbEntity
  8
AM_0
100
AcDbCircle
 10
394.7073101435673
 20
936.342147449241
 30
0.0
 40
2.0
100
AcDbArc
 50
90.0
 51
180.0
  0
LINE
  5
2A96
330
2D6E
100
AcDbEntity
  8
AM_0
100
AcDbLine
 10
408.7073101435672
 20
781.7231834492412
 30
0.0
 11
408.7073101435672
 21
808.5601784492409
 31
0.0
  0
LINE
  5
2A97
330
2D6E
100
AcDbEntity
  8
AM_0
100
AcDbLine
 10
394.7073101435673
 20
808.5601784492409
 30
0.0
 11
408.7073101435672
 21
808.5601784492409
 31
0.0
  0
ARC
  5
2A98
330
2D6E
100
AcDbEntity
  8
AM_0
100
AcDbCircle
 10
394.7073101435673
 20
806.5601784492409
 30
0.0
 40
2.0
100
AcDbArc
 50
90.00000000000005
 51
180.0
  0
LINE
  5
2A99
330
2D6E
100
AcDbEntity
  8
AM_0
100
AcDbLine
 10
408.7073101435672
 20
792.329785449241
 30
0.0
 11
394.7073101435673
 21
792.329785449241
 31
0.0
  0
LINE
  5
2A9A
330
2D6E
100
AcDbEntity
  8
AM_0
100
AcDbLine
 10
408.7073101435672
 20
781.7231834492412
 30
0.0
 11
394.7073101435673
 21
781.7231834492412
 31
0.0
  0
ARC
  5
2A9B
330
2D6E
100
AcDbEntity
  8
AM_0
100
AcDbCircle
 10
394.7073101435673
 20
794.329785449241
 30
0.0
 40
2.0
100
AcDbArc
 50
180.0
 51
270.0
  0
ARC
  5
2A9C
330
2D6E
100
AcDbEntity
  8
AM_0
100
AcDbCircle
 10
394.7073101435673
 20
783.7231834492412
 30
0.0
 40
2.0
100
AcDbArc
 50
180.0
 51
270.0
  0
LINE
  5
2A9D
330
2D6E
100
AcDbEntity
  8
AM_0
100
AcDbLine
 10
392.7073101435673
 20
880.3359664492409
 30
0.0
 11
408.7073101435672
 21
880.3359664492409
 31
0.0
  0
LINE
  5
2A9E
330
2D6E
100
AcDbEntity
  8
AM_0
100
AcDbLine
 10
392.7073101435673
 20
850.335966449241
 30
0.0
 11
408.7073101435672
 21
850.335966449241
 31
0.0
  0
LINE
  5
2A9F
330
2D6E
100
AcDbEntity
  8
AM_0
100
AcDbLine
 10
408.7073101435672
 20
889.2638383445611
 30
0.0
 11
392.7073101435673
 21
889.2638383445611
 31
0.0
  0
LINE
  5
2AA0
330
2D6E
100
AcDbEntity
  8
AM_0
100
AcDbLine
 10
408.7073101435672
 20
841.4080945539209
 30
0.0
 11
392.7073101435673
 21
841.4080945539209
 31
0.0
  0
LINE
  5
2AA1
330
2D6E
100
AcDbEntity
  8
AM_0
100
AcDbLine
 10
234.7057101435674
 20
869.3359664492405
 30
0.0
 11
266.7057101435672
 21
869.3359664492405
 31
0.0
  0
LINE
  5
2AA2
330
2D6E
100
AcDbEntity
  8
AM_0
100
AcDbLine
 10
234.7057101435674
 20
861.335966449241
 30
0.0
 11
266.7057101435672
 21
861.335966449241
 31
0.0
  0
ARC
  5
2AA3
330
2D6E
100
AcDbEntity
  8
AM_0
100
AcDbCircle
 10
266.7057101435672
 20
865.3359664492411
 30
0.0
 40
3.999999999999884
100
AcDbArc
 50
270.0
 51
90.0
  0
LINE
  5
2AA5
330
2D6E
100
AcDbEntity
  8
ﾁｭｳｼﾝｾﾝ1
100
AcDbLine
 10
567.2073101435674
 20
962.835966449241
 30
0.0
 11
567.2073101435674
 21
997.835966449241
 31
0.0
  0
LINE
  5
2AA6
330
2D6E
100
AcDbEntity
  8
ﾁｭｳｼﾝｾﾝ1
100
AcDbLine
 10
549.7073101435671
 20
980.3359664492404
 30
0.0
 11
584.7073101435674
 21
980.3359664492404
 31
0.0
  0
LINE
  5
2AA7
330
2D6E
100
AcDbEntity
  8
ﾁｭｳｼﾝｾﾝ1
100
AcDbLine
 10
417.2073101435672
 20
962.835966449241
 30
0.0
 11
417.2073101435672
 21
997.835966449241
 31
0.0
  0
LINE
  5
2AA8
330
2D6E
100
AcDbEntity
  8
ﾁｭｳｼﾝｾﾝ1
100
AcDbLine
 10
399.7073101435672
 20
980.3359664492404
 30
0.0
 11
434.7073101435673
 21
980.3359664492404
 31
0.0
  0
LINE
  5
2AA9
330
2D6E
100
AcDbEntity
  8
ﾁｭｳｼﾝｾﾝ1
100
AcDbLine
 10
417.2073101435672
 20
732.835966449241
 30
0.0
 11
417.2073101435672
 21
767.835966449241
 31
0.0
  0
LINE
  5
2AAA
330
2D6E
100
AcDbEntity
  8
ﾁｭｳｼﾝｾﾝ1
100
AcDbLine
 10
399.7073101435672
 20
750.335966449241
 30
0.0
 11
434.7073101435673
 21
750.335966449241
 31
0.0
  0
TEXT
  5
2C8F
330
2D6E
100
AcDbEntity
  8
AM_0
100
AcDbText
 10
798.2666545002371
 20
882.2911445277577
 30
0.0
 40
20.0
  1
VX37-003G~VX37-030G
100
AcDbText
  0
LINE
  5
2E90
330
2D6E
100
AcDbEntity
  8
AM_0
100
AcDbLine
 10
266.7056801435671
 20
464.298658149671
 30
0.0
 11
234.7056801435673
 21
464.298658149671
 31
0.0
  0
ENDSEC
  0
SECTION
  2
OBJECTS
  0
DICTIONARY
  5
2D0B
330
0
100
AcDbDictionary
281
     1
  3
ACAD_CIP_PREVIOUS_PRODUCT_INFO
350
2E26
  3
ACAD_COLOR
350
2D61
  3
ACAD_DETAILVIEWSTYLE
350
2D68
  3
ACAD_FIELDLIST
350
2E70
  3
ACAD_GROUP
350
2D0C
  3
ACAD_LAYOUT
350
2D60
  3
ACAD_MATERIAL
350
2D0F
  3
ACAD_MLEADERSTYLE
350
2D64
  3
ACAD_MLINESTYLE
350
2D5D
  3
ACAD_PLOTSETTINGS
350
2D5F
  3
ACAD_PLOTSTYLENAME
350
2D0D
  3
ACAD_SCALELIST
350
2D41
  3
ACAD_SECTIONVIEWSTYLE
350
2D66
  3
ACAD_TABLESTYLE
350
2D62
  3
ACAD_VISUALSTYLE
350
2D28
  3
ACDB_RECOMPOSE_DATA
350
2F2D
  3
AcDbVariableDictionary
350
2F21
  3
AcDsDecomposeData
350
2F33
  3
AcmDictionary
350
2E4C
  3
AMG
350
2E27
  3
AMGSNAPSETTINGS
350
2E88
  0
DICTIONARY
  5
2F1B
330
2D01
100
AcDbDictionary
280
     1
281
     1
  3
ACAD_LAYERSTATES
360
2F1C
  0
DICTIONARY
  5
2F0C
330
2D53
100
AcDbDictionary
280
     1
281
     1
  3
ADSK_XREC_LAYER_RECONCILED
360
2F0D
  0
DICTIONARY
  5
2F0E
330
2D72
100
AcDbDictionary
280
     1
281
     1
  3
ADSK_XREC_LAYER_RECONCILED
360
2F0F
  0
DICTIONARY
  5
2F10
330
2D8D
100
AcDbDictionary
280
     1
281
     1
  3
ADSK_XREC_LAYER_RECONCILED
360
2F11
  0
DICTIONARY
  5
2F12
330
2D8F
100
AcDbDictionary
280
     1
281
     1
  3
ADSK_XREC_LAYER_RECONCILED
360
2F13
  0
DICTIONARY
  5
2F14
330
2D90
100
AcDbDictionary
280
     1
281
     1
  3
ADSK_XREC_LAYER_RECONCILED
360
2F15
  0
DICTIONARY
  5
2F16
330
2D91
100
AcDbDictionary
280
     1
281
     1
  3
ADSK_XREC_LAYER_RECONCILED
360
2F17
  0
XRECORD
  5
2E26
102
{ACAD_REACTORS
330
2D0B
102
}
330
2D0B
100
AcDbXrecord
280
     1
300
AMECH_PP
300
2019
300

  0
DICTIONARY
  5
2D61
102
{ACAD_REACTORS
330
2D0B
102
}
330
2D0B
100
AcDbDictionary
281
     1
  0
DICTIONARY
  5
2D68
102
{ACAD_REACTORS
330
2D0B
102
}
330
2D0B
100
AcDbDictionary
281
     1
  3
Imperial24
350
2D69
  0
FIELDLIST
  5
2E70
102
{ACAD_REACTORS
330
2D0B
102
}
330
2D0B
100
AcDbIdSet
 90
        8
330
2E6E
330
2E6F
330
2E71
330
2E72
330
2E76
330
2E77
330
2E78
330
2E79
100
AcDbFieldList
  0
DICTIONARY
  5
2D0C
102
{ACAD_REACTORS
330
2D0B
102
}
330
2D0B
100
AcDbDictionary
281
     1
  0
DICTIONARY
  5
2D60
102
{ACAD_REACTORS
330
2D0B
102
}
330
2D0B
100
AcDbDictionary
281
     1
  3
Model
350
2D71
  3
レイアウト1
350
2D6D
  0
DICTIONARY
  5
2D0F
102
{ACAD_REACTORS
330
2D0B
102
}
330
2D0B
100
AcDbDictionary
281
     1
  3
ByBlock
350
2D18
  3
ByLayer
350
2D10
  3
Global
350
2D20
  0
DICTIONARY
  5
2D64
102
{ACAD_REACTORS
330
2D0B
102
}
330
2D0B
100
AcDbDictionary
281
     1
  3
Standard
350
2D65
  0
DICTIONARY
  5
2D5D
102
{ACAD_REACTORS
330
2D0B
102
}
330
2D0B
100
AcDbDictionary
281
     1
  3
Standard
350
2D5E
  0
DICTIONARY
  5
2D5F
102
{ACAD_REACTORS
330
2D0B
102
}
330
2D0B
100
AcDbDictionary
281
     1
  0
ACDBDICTIONARYWDFLT
  5
2D0D
102
{ACAD_REACTORS
330
2D0B
102
}
330
2D0B
100
AcDbDictionary
281
     1
  3
Normal
350
2D0E
100
AcDbDictionaryWithDefault
340
2D0E
  0
DICTIONARY
  5
2D41
102
{ACAD_REACTORS
330
2D0B
102
}
330
2D0B
100
AcDbDictionary
281
     1
  3
A0
350
2D42
  3
A1
350
2D43
  3
A2
350
2D44
  3
A3
350
2D45
  3
A4
350
2D46
  3
A5
350
2D47
  3
A6
350
2D48
  3
A7
350
2D49
  3
A8
350
2D4A
  3
A9
350
2D4B
  3
B0
350
2D4C
  3
B1
350
2D4D
  3
B2
350
2D4E
  3
B3
350
2D4F
  3
B4
350
2D50
  3
B5
350
2D51
  3
B6
350
2D52
  0
DICTIONARY
  5
2D66
102
{ACAD_REACTORS
330
2D0B
102
}
330
2D0B
100
AcDbDictionary
281
     1
  3
Imperial24
350
2D67
  0
DICTIONARY
  5
2D62
102
{ACAD_REACTORS
330
2D0B
102
}
330
2D0B
100
AcDbDictionary
281
     1
  3
Standard
350
2D63
  0
DICTIONARY
  5
2D28
102
{ACAD_REACTORS
330
2D0B
102
}
330
2D0B
100
AcDbDictionary
281
     1
  3
2dWireframe
350
2D2E
  3
Basic
350
2D2D
  3
Brighten
350
2D34
  3
ColorChange
350
2D38
  3
Conceptual
350
2D31
  3
Dim
350
2D33
  3
EdgeColorOff
350
2D40
  3
Facepattern
350
2D37
  3
Flat
350
2D29
  3
FlatWithEdges
350
2D2A
  3
Gouraud
350
2D2B
  3
GouraudWithEdges
350
2D2C
  3
Hidden
350
2D30
  3
JitterOff
350
2D3E
  3
Linepattern
350
2D36
  3
OverhangOff
350
2D3F
  3
Realistic
350
2D32
  3
Shaded
350
2D3D
  3
Shaded with edges
350
2D3C
  3
Shades of Gray
350
2D39
  3
Sketchy
350
2D3A
  3
Thicken
350
2D35
  3
Wireframe
350
2D2F
  3
X-Ray
350
2D3B
  0
XRECORD
  5
2F2D
102
{ACAD_REACTORS
330
2D0B
102
}
330
2D0B
100
AcDbXrecord
280
     1
 90
        1
330
2D63
  0
DICTIONARY
  5
2F21
102
{ACAD_REACTORS
330
2D0B
102
}
330
2D0B
100
AcDbDictionary
281
     1
  3
CANNOSCALE
350
2F27
  3
CMLEADERSTYLE
350
2F23
  3
CTABLESTYLE
350
2F22
  3
CVIEWDETAILSTYLE
350
2F24
  3
CVIEWSECTIONSTYLE
350
2F25
  3
LAYEREVAL
350
2F29
  3
LAYERNOTIFY
350
2F2A
  3
LIGHTINGUNITS
350
2F28
  3
MSLTSCALE
350
2F26
  0
DICTIONARY
  5
2F33
102
{ACAD_REACTORS
330
2D0B
102
}
330
2D0B
100
AcDbDictionary
281
     1
  3
AcDsRecords
350
2F35
  3
AcDsSchemas
350
2F34
1001
ACAD
1070
     2
  0
DICTIONARY
  5
2E4C
102
{ACAD_REACTORS
330
2D0B
102
}
330
2D0B
100
AcDbDictionary
281
     1
  3
AcmStdDictionary
350
2E55
  0
DICTIONARY
  5
2E27
102
{ACAD_REACTORS
330
2D0B
102
}
330
2D0B
100
AcDbDictionary
281
     1
  0
DICTIONARY
  5
2E88
102
{ACAD_REACTORS
330
2D0B
102
}
330
2D0B
100
AcDbDictionary
281
     1
  0
DICTIONARY
  5
2F1C
102
{ACAD_REACTORS
330
2F1B
102
}
330
2F1B
100
AcDbDictionary
281
     1
  0
XRECORD
  5
2F0D
102
{ACAD_REACTORS
330
2F0C
102
}
330
2F0C
100
AcDbXrecord
280
     1
290
     1
  0
XRECORD
  5
2F0F
102
{ACAD_REACTORS
330
2F0E
102
}
330
2F0E
100
AcDbXrecord
280
     1
290
     1
  0
XRECORD
  5
2F11
102
{ACAD_REACTORS
330
2F10
102
}
330
2F10
100
AcDbXrecord
280
     1
290
     1
  0
XRECORD
  5
2F13
102
{ACAD_REACTORS
330
2F12
102
}
330
2F12
100
AcDbXrecord
280
     1
290
     1
  0
XRECORD
  5
2F15
102
{ACAD_REACTORS
330
2F14
102
}
330
2F14
100
AcDbXrecord
280
     1
290
     1
  0
XRECORD
  5
2F17
102
{ACAD_REACTORS
330
2F16
102
}
330
2F16
100
AcDbXrecord
280
     1
290
     1
  0
ACDBDETAILVIEWSTYLE
  5
2D69
102
{ACAD_XDICTIONARY
360
2F68
102
}
102
{ACAD_REACTORS
330
2D68
330
2E6A
102
}
330
2D68
100
AcDbModelDocViewStyle
 70
     0
  3
Imperial24
290
     0
100
AcDbDetailViewStyle
 70
     0
 71
     0
 90
        3
 71
     1
340
2D54
 62
   256
 40
0.24
340
0
 62
   256
 40
0.24
300

 40
0.36
280
     3
 71
     2
340
2D5B
 90
       25
 62
   256
 71
     3
340
2D54
 62
   256
 40
0.24
 90
        1
 40
0.75
 90
        1
300
%<\AcVar ViewType \f "%tc1">% %<\AcVar ViewDetailId>%\PSCALE %<\AcVar ViewScale \f "%sn">%
 71
     4
340
2D5B
 90
       25
 62
   256
340
2D5B
 90
       25
 62
   256
280
     0
  0
LAYOUT
  5
2D71
102
{ACAD_REACTORS
330
2D60
102
}
330
2D60
100
AcDbPlotSettings
  1

  2
JUST PDF 3
  4

  6

 40
0.0
 41
0.0
 42
0.0
 43
0.0
 44
0.0
 45
0.0
 46
0.0
 47
0.0
 48
0.0
 49
0.0
140
0.0
141
0.0
142
1.0
143
1.0
 70
  1712
 72
     0
 73
     0
 74
     0
  7

 75
     0
147
1.0
 76
     0
 77
     2
 78
   300
148
0.0
149
0.0
100
AcDbLayout
  1
Model
 70
     1
 71
     0
 10
0.0
 20
0.0
 11
12.0
 21
9.0
 12
0.0
 22
0.0
 32
0.0
 14
0.0
 24
0.0
 34
0.0
 15
0.0
 25
0.0
 35
0.0
146
0.0
 13
0.0
 23
0.0
 33
0.0
 16
1.0
 26
0.0
 36
0.0
 17
0.0
 27
1.0
 37
0.0
 76
     0
330
2D6E
331
2D73
  0
LAYOUT
  5
2D6D
102
{ACAD_REACTORS
330
2D60
102
}
330
2D60
100
AcDbPlotSettings
  1

  2
JUST PDF 3
  4

  6

 40
0.0
 41
0.0
 42
0.0
 43
0.0
 44
0.0
 45
0.0
 46
0.0
 47
0.0
 48
0.0
 49
0.0
140
0.0
141
0.0
142
1.0
143
1.0
 70
   688
 72
     0
 73
     0
 74
     5
  7

 75
    16
147
1.0
 76
     0
 77
     2
 78
   300
148
0.0
149
0.0
100
AcDbLayout
  1
レイアウト1
 70
     1
 71
     1
 10
0.0
 20
0.0
 11
420.0
 21
297.0
 12
0.0
 22
0.0
 32
0.0
 14
1.000000000000000E+20
 24
1.000000000000000E+20
 34
1.000000000000000E+20
 15
-1.000000000000000E+20
 25
-1.000000000000000E+20
 35
-1.000000000000000E+20
146
0.0
 13
0.0
 23
0.0
 33
0.0
 16
1.0
 26
0.0
 36
0.0
 17
0.0
 27
1.0
 37
0.0
 76
     0
330
2D6A
  0
MATERIAL
  5
2D18
102
{ACAD_XDICTIONARY
360
2D19
102
}
102
{ACAD_REACTORS
330
2D0F
102
}
330
2D0F
100
AcDbMaterial
  1
ByBlock
 72
     0
 43
0.0208333333333333
 43
0.0
 43
0.0
 43
0.0
 43
0.0
 43
0.0208333333333333
 43
0.0
 43
0.0
 43
0.0
 43
0.0
 43
1.0
 43
0.0
 43
0.0
 43
0.0
 43
0.0
 43
1.0
 77
     0
 47
0.0208333333333333
 47
0.0
 47
0.0
 47
0.0
 47
0.0
 47
0.0208333333333333
 47
0.0
 47
0.0
 47
0.0
 47
0.0
 47
1.0
 47
0.0
 47
0.0
 47
0.0
 47
0.0
 47
1.0
171
     0
 49
0.0208333333333333
 49
0.0
 49
0.0
 49
0.0
 49
0.0
 49
0.0208333333333333
 49
0.0
 49
0.0
 49
0.0
 49
0.0
 49
1.0
 49
0.0
 49
0.0
 49
0.0
 49
0.0
 49
1.0
175
     0
142
0.0208333333333333
142
0.0
142
0.0
142
0.0
142
0.0
142
0.0208333333333333
142
0.0
142
0.0
142
0.0
142
0.0
142
1.0
142
0.0
142
0.0
142
0.0
142
0.0
142
1.0
179
     0
144
0.0208333333333333
144
0.0
144
0.0
144
0.0
144
0.0
144
0.0208333333333333
144
0.0
144
0.0
144
0.0
144
0.0
144
1.0
144
0.0
144
0.0
144
0.0
144
0.0
144
1.0
147
0.0208333333333333
147
0.0
147
0.0
147
0.0
147
0.0
147
0.0208333333333333
147
0.0
147
0.0
147
0.0
147
0.0
147
1.0
147
0.0
147
0.0
147
0.0
147
0.0
147
1.0
  0
MATERIAL
  5
2D10
102
{ACAD_XDICTIONARY
360
2D11
102
}
102
{ACAD_REACTORS
330
2D0F
102
}
330
2D0F
100
AcDbMaterial
  1
ByLayer
 72
     0
 43
0.0208333333333333
 43
0.0
 43
0.0
 43
0.0
 43
0.0
 43
0.0208333333333333
 43
0.0
 43
0.0
 43
0.0
 43
0.0
 43
1.0
 43
0.0
 43
0.0
 43
0.0
 43
0.0
 43
1.0
 77
     0
 47
0.0208333333333333
 47
0.0
 47
0.0
 47
0.0
 47
0.0
 47
0.0208333333333333
 47
0.0
 47
0.0
 47
0.0
 47
0.0
 47
1.0
 47
0.0
 47
0.0
 47
0.0
 47
0.0
 47
1.0
171
     0
 49
0.0208333333333333
 49
0.0
 49
0.0
 49
0.0
 49
0.0
 49
0.0208333333333333
 49
0.0
 49
0.0
 49
0.0
 49
0.0
 49
1.0
 49
0.0
 49
0.0
 49
0.0
 49
0.0
 49
1.0
175
     0
142
0.0208333333333333
142
0.0
142
0.0
142
0.0
142
0.0
142
0.0208333333333333
142
0.0
142
0.0
142
0.0
142
0.0
142
1.0
142
0.0
142
0.0
142
0.0
142
0.0
142
1.0
179
     0
144
0.0208333333333333
144
0.0
144
0.0
144
0.0
144
0.0
144
0.0208333333333333
144
0.0
144
0.0
144
0.0
144
0.0
144
1.0
144
0.0
144
0.0
144
0.0
144
0.0
144
1.0
147
0.0208333333333333
147
0.0
147
0.0
147
0.0
147
0.0
147
0.0208333333333333
147
0.0
147
0.0
147
0.0
147
0.0
147
1.0
147
0.0
147
0.0
147
0.0
147
0.0
147
1.0
  0
MATERIAL
  5
2D20
102
{ACAD_XDICTIONARY
360
2D21
102
}
102
{ACAD_REACTORS
330
2D0F
102
}
330
2D0F
100
AcDbMaterial
  1
Global
 72
     0
 43
0.0208333333333333
 43
0.0
 43
0.0
 43
0.0
 43
0.0
 43
0.0208333333333333
 43
0.0
 43
0.0
 43
0.0
 43
0.0
 43
1.0
 43
0.0
 43
0.0
 43
0.0
 43
0.0
 43
1.0
 77
     0
 47
0.0208333333333333
 47
0.0
 47
0.0
 47
0.0
 47
0.0
 47
0.0208333333333333
 47
0.0
 47
0.0
 47
0.0
 47
0.0
 47
1.0
 47
0.0
 47
0.0
 47
0.0
 47
0.0
 47
1.0
171
     0
 49
0.0208333333333333
 49
0.0
 49
0.0
 49
0.0
 49
0.0
 49
0.0208333333333333
 49
0.0
 49
0.0
 49
0.0
 49
0.0
 49
1.0
 49
0.0
 49
0.0
 49
0.0
 49
0.0
 49
1.0
175
     0
142
0.0208333333333333
142
0.0
142
0.0
142
0.0
142
0.0
142
0.0208333333333333
142
0.0
142
0.0
142
0.0
142
0.0
142
1.0
142
0.0
142
0.0
142
0.0
142
0.0
142
1.0
179
     0
144
0.0208333333333333
144
0.0
144
0.0
144
0.0
144
0.0
144
0.0208333333333333
144
0.0
144
0.0
144
0.0
144
0.0
144
1.0
144
0.0
144
0.0
144
0.0
144
0.0
144
1.0
147
0.0208333333333333
147
0.0
147
0.0
147
0.0
147
0.0
147
0.0208333333333333
147
0.0
147
0.0
147
0.0
147
0.0
147
1.0
147
0.0
147
0.0
147
0.0
147
0.0
147
1.0
  0
MLEADERSTYLE
  5
2D65
102
{ACAD_REACTORS
330
2D64
102
}
330
2D64
100
AcDbMLeaderStyle
179
     2
170
     2
171
     1
172
     0
 90
        2
 40
0.0
 41
0.0
173
     1
 91
-1056964608
340
2D59
 92
       -2
290
     1
 42
0.09
291
     1
 43
0.36
  3
Standard
 44
0.18
300

342
2D54
174
     1
178
     6
175
     1
176
     0
 93
-1056964608
 45
0.18
292
     0
297
     0
 46
0.18
 94
-1056964608
 47
1.0
 49
1.0
140
1.0
293
     1
141
0.0
294
     1
177
     0
142
1.0
295
     0
296
     0
143
0.125
271
     0
272
     9
273
     9
  0
MLINESTYLE
  5
2D5E
102
{ACAD_REACTORS
330
2D5D
102
}
330
2D5D
100
AcDbMlineStyle
  2
STANDARD
 70
     0
  3

 62
   256
 51
90.0
 52
90.0
 71
     2
 49
0.5
 62
   256
  6
BYLAYER
 49
-0.5
 62
   256
  6
BYLAYER
  0
ACDBPLACEHOLDER
  5
2D0E
102
{ACAD_REACTORS
330
2D0D
102
}
330
2D0D
  0
SCALE
  5
2D42
102
{ACAD_REACTORS
330
2D41
102
}
330
2D41
100
AcDbScale
 70
     0
300
1:1
140
1.0
141
1.0
290
     1
  0
SCALE
  5
2D43
102
{ACAD_REACTORS
330
2D41
102
}
330
2D41
100
AcDbScale
 70
     0
300
1/128" = 1'-0"
140
0.0078125
141
12.0
290
     0
  0
SCALE
  5
2D44
102
{ACAD_REACTORS
330
2D41
102
}
330
2D41
100
AcDbScale
 70
     0
300
1/64" = 1'-0"
140
0.015625
141
12.0
290
     0
  0
SCALE
  5
2D45
102
{ACAD_REACTORS
330
2D41
102
}
330
2D41
100
AcDbScale
 70
     0
300
1/32" = 1'-0"
140
0.03125
141
12.0
290
     0
  0
SCALE
  5
2D46
102
{ACAD_REACTORS
330
2D41
102
}
330
2D41
100
AcDbScale
 70
     0
300
1/16" = 1'-0"
140
0.0625
141
12.0
290
     0
  0
SCALE
  5
2D47
102
{ACAD_REACTORS
330
2D41
102
}
330
2D41
100
AcDbScale
 70
     0
300
3/32" = 1'-0"
140
0.09375
141
12.0
290
     0
  0
SCALE
  5
2D48
102
{ACAD_REACTORS
330
2D41
102
}
330
2D41
100
AcDbScale
 70
     0
300
1/8" = 1'-0"
140
0.125
141
12.0
290
     0
  0
SCALE
  5
2D49
102
{ACAD_REACTORS
330
2D41
102
}
330
2D41
100
AcDbScale
 70
     0
300
3/16" = 1'-0"
140
0.1875
141
12.0
290
     0
  0
SCALE
  5
2D4A
102
{ACAD_REACTORS
330
2D41
102
}
330
2D41
100
AcDbScale
 70
     0
300
1/4" = 1'-0"
140
0.25
141
12.0
290
     0
  0
SCALE
  5
2D4B
102
{ACAD_REACTORS
330
2D41
102
}
330
2D41
100
AcDbScale
 70
     0
300
3/8" = 1'-0"
140
0.375
141
12.0
290
     0
  0
SCALE
  5
2D4C
102
{ACAD_REACTORS
330
2D41
102
}
330
2D41
100
AcDbScale
 70
     0
300
1/2" = 1'-0"
140
0.5
141
12.0
290
     0
  0
SCALE
  5
2D4D
102
{ACAD_REACTORS
330
2D41
102
}
330
2D41
100
AcDbScale
 70
     0
300
3/4" = 1'-0"
140
0.75
141
12.0
290
     0
  0
SCALE
  5
2D4E
102
{ACAD_REACTORS
330
2D41
102
}
330
2D41
100
AcDbScale
 70
     0
300
1" = 1'-0"
140
1.0
141
12.0
290
     0
  0
SCALE
  5
2D4F
102
{ACAD_REACTORS
330
2D41
102
}
330
2D41
100
AcDbScale
 70
     0
300
1-1/2" = 1'-0"
140
1.5
141
12.0
290
     0
  0
SCALE
  5
2D50
102
{ACAD_REACTORS
330
2D41
102
}
330
2D41
100
AcDbScale
 70
     0
300
3" = 1'-0"
140
3.0
141
12.0
290
     0
  0
SCALE
  5
2D51
102
{ACAD_REACTORS
330
2D41
102
}
330
2D41
100
AcDbScale
 70
     0
300
6" = 1'-0"
140
6.0
141
12.0
290
     0
  0
SCALE
  5
2D52
102
{ACAD_REACTORS
330
2D41
102
}
330
2D41
100
AcDbScale
 70
     0
300
1'-0" = 1'-0"
140
12.0
141
12.0
290
     0
  0
ACDBSECTIONVIEWSTYLE
  5
2D67
102
{ACAD_XDICTIONARY
360
2F66
102
}
102
{ACAD_REACTORS
330
2D66
330
2E69
102
}
330
2D66
100
AcDbModelDocViewStyle
 70
     0
  3
Imperial24
290
     0
100
AcDbSectionViewStyle
 70
     0
 71
     0
 90
       78
 71
     1
340
2D54
 62
   256
 40
0.24
340
0
340
0
 62
   256
 40
0.24
300
I, O, Q, S, X, Z
 40
0.48
 90
        3
 40
0.18
 90
        1
 71
     2
340
2D5B
 90
       25
 62
   256
340
2D5B
 90
       50
 62
   256
 40
0.24
 40
0.0
 40
0.24
 71
     3
340
2D54
 62
   256
 40
0.24
 90
        1
 40
0.75
 90
        1
300
%<\AcVar ViewType \f "%tc1">% %<\AcVar ViewSectionStartId>%-%<\AcVar ViewSectionEndId>%\PSCALE %<\AcVar ViewScale \f "%sn">%
 71
     4
 62
   256
 62
   257
300
ANSI31
 40
1.0
 90
        0
290
     0
290
     0
 90
        6
 40
0.0
 40
1.570796326794896
 40
0.2617993877991494
 40
1.308996938995747
 40
-0.2617993877991494
 40
1.832595714594046
  0
TABLESTYLE
  5
2D63
102
{ACAD_XDICTIONARY
360
2F2B
102
}
102
{ACAD_REACTORS
330
2D62
102
}
330
2D62
100
AcDbTableStyle
280
     0
  3
Standard
 70
     0
 71
     0
 40
0.06
 41
0.06
280
     0
281
     0
  7
STANDARD
140
0.18
170
     2
 62
     0
 63
     7
283
     0
 90
      512
 91
        0
  1

274
    -2
284
     1
 64
     0
275
    -2
285
     1
 65
     0
276
    -2
286
     1
 66
     0
277
    -2
287
     1
 67
     0
278
    -2
288
     1
 68
     0
279
    -2
289
     1
 69
     0
  7
STANDARD
140
0.25
170
     5
 62
     0
 63
     7
283
     0
 90
      512
 91
        0
  1

274
    -2
284
     1
 64
     0
275
    -2
285
     1
 65
     0
276
    -2
286
     1
 66
     0
277
    -2
287
     1
 67
     0
278
    -2
288
     1
 68
     0
279
    -2
289
     1
 69
     0
  7
STANDARD
140
0.18
170
     5
 62
     0
 63
     7
283
     0
 90
      512
 91
        0
  1

274
    -2
284
     1
 64
     0
275
    -2
285
     1
 65
     0
276
    -2
286
     1
 66
     0
277
    -2
287
     1
 67
     0
278
    -2
288
     1
 68
     0
279
    -2
289
     1
 69
     0
  0
VISUALSTYLE
  5
2D2E
102
{ACAD_XDICTIONARY
360
2F40
102
}
102
{ACAD_REACTORS
330
2D28
102
}
330
2D28
100
AcDbVisualStyle
  2
2dWireframe
 70
     4
177
     2
291
     0
 71
     0
176
     1
 72
     2
176
     1
 73
     0
176
     1
 90
        0
176
     1
 40
0.6
176
     1
 41
30.0
176
     1
 63
     7
421
 16777215
176
     1
 74
     1
176
     1
 91
        4
176
     1
 64
     7
176
     1
 65
   257
176
     1
 75
     1
176
     1
175
     1
176
     1
 42
1.0
176
     1
 92
        0
176
     1
 66
   257
176
     1
 43
1.0
176
     1
 76
     1
176
     1
 77
     6
176
     1
 78
     2
176
     1
 67
     7
176
     1
 79
     5
176
     1
170
     0
176
     1
171
     0
176
     1
290
     0
176
     1
 93
        1
176
     1
 44
0.0
176
     1
173
     0
176
     1
1001
ACAD
1000
AcDbSavedByObjectVersion
1070
     0
  0
VISUALSTYLE
  5
2D2D
102
{ACAD_XDICTIONARY
360
2F3E
102
}
102
{ACAD_REACTORS
330
2D28
102
}
330
2D28
100
AcDbVisualStyle
  2
Basic
 70
     7
177
     2
291
     1
 71
     1
176
     1
 72
     0
176
     1
 73
     1
176
     1
 90
        0
176
     1
 40
0.6
176
     1
 41
30.0
176
     1
 63
     7
421
 16777215
176
     1
 74
     0
176
     1
 91
        4
176
     1
 64
     7
176
     1
 65
   257
176
     1
 75
     1
176
     1
175
     1
176
     1
 42
1.0
176
     1
 92
        8
176
     1
 66
     7
176
     1
 43
1.0
176
     1
 76
     1
176
     1
 77
     6
176
     1
 78
     2
176
     1
 67
     7
176
     1
 79
     5
176
     1
170
     0
176
     1
171
     0
176
     1
290
     0
176
     1
 93
        1
176
     1
 44
0.0
176
     1
173
     0
176
     1
1001
ACAD
1000
AcDbSavedByObjectVersion
1070
     0
  0
VISUALSTYLE
  5
2D34
102
{ACAD_XDICTIONARY
360
2F4C
102
}
102
{ACAD_REACTORS
330
2D28
102
}
330
2D28
100
AcDbVisualStyle
  2
Brighten
 70
    12
177
     2
291
     1
 71
     2
176
     1
 72
     2
176
     1
 73
     0
176
     1
 90
        0
176
     1
 40
0.6
176
     1
 41
30.0
176
     1
 63
     7
421
 16777215
176
     1
 74
     1
176
     1
 91
        4
176
     1
 64
     7
176
     1
 65
   257
176
     1
 75
     1
176
     1
175
     1
176
     1
 42
1.0
176
     1
 92
        8
176
     1
 66
     7
176
     1
 43
1.0
176
     1
 76
     1
176
     1
 77
     6
176
     1
 78
     2
176
     1
 67
     7
176
     1
 79
     5
176
     1
170
     0
176
     1
171
     0
176
     1
290
     0
176
     1
 93
        1
176
     1
 44
50.0
176
     1
173
     0
176
     1
1001
ACAD
1000
AcDbSavedByObjectVersion
1070
     0
  0
VISUALSTYLE
  5
2D38
102
{ACAD_XDICTIONARY
360
2F54
102
}
102
{ACAD_REACTORS
330
2D28
102
}
330
2D28
100
AcDbVisualStyle
  2
ColorChange
 70
    16
177
     2
291
     1
 71
     2
176
     1
 72
     2
176
     1
 73
     3
176
     1
 90
        0
176
     1
 40
0.6
176
     1
 41
30.0
176
     1
 63
     8
421
  8421504
176
     1
 74
     1
176
     1
 91
        4
176
     1
 64
     7
176
     1
 65
   257
176
     1
 75
     1
176
     1
175
     1
176
     1
 42
1.0
176
     1
 92
        8
176
     1
 66
     8
424
  8421504
176
     1
 43
1.0
176
     1
 76
     1
176
     1
 77
     6
176
     1
 78
     2
176
     1
 67
     7
176
     1
 79
     5
176
     1
170
     0
176
     1
171
     0
176
     1
290
     0
176
     1
 93
        1
176
     1
 44
0.0
176
     1
173
     0
176
     1
1001
ACAD
1000
AcDbSavedByObjectVersion
1070
     0
  0
VISUALSTYLE
  5
2D31
102
{ACAD_XDICTIONARY
360
2F46
102
}
102
{ACAD_REACTORS
330
2D28
102
}
330
2D28
100
AcDbVisualStyle
  2
Conceptual
 70
     9
177
     2
291
     0
 71
     3
176
     1
 72
     2
176
     1
 73
     0
176
     1
 90
        0
176
     1
 40
0.6
176
     1
 41
30.0
176
     1
 63
     7
421
 16777215
176
     1
 74
     2
176
     1
 91
        2
176
     1
 64
     7
176
     1
 65
   257
176
     1
 75
     1
176
     1
175
     1
176
     1
 42
179.0
176
     1
 92
        8
176
     1
 66
     7
176
     1
 43
1.0
176
     1
 76
     1
176
     1
 77
     6
176
     1
 78
     2
176
     1
 67
     7
176
     1
 79
     3
176
     1
170
     0
176
     1
171
     0
176
     1
290
     0
176
     1
 93
        1
176
     1
 44
0.0
176
     1
173
     0
176
     1
1001
ACAD
1000
AcDbSavedByObjectVersion
1070
     0
  0
VISUALSTYLE
  5
2D33
102
{ACAD_XDICTIONARY
360
2F4A
102
}
102
{ACAD_REACTORS
330
2D28
102
}
330
2D28
100
AcDbVisualStyle
  2
Dim
 70
    11
177
     2
291
     1
 71
     2
176
     1
 72
     2
176
     1
 73
     0
176
     1
 90
        0
176
     1
 40
0.6
176
     1
 41
30.0
176
     1
 63
     7
421
 16777215
176
     1
 74
     1
176
     1
 91
        4
176
     1
 64
     7
176
     1
 65
   257
176
     1
 75
     1
176
     1
175
     1
176
     1
 42
1.0
176
     1
 92
        8
176
     1
 66
     7
176
     1
 43
1.0
176
     1
 76
     1
176
     1
 77
     6
176
     1
 78
     2
176
     1
 67
     7
176
     1
 79
     5
176
     1
170
     0
176
     1
171
     0
176
     1
290
     0
176
     1
 93
        1
176
     1
 44
-50.0
176
     1
173
     0
176
     1
1001
ACAD
1000
AcDbSavedByObjectVersion
1070
     0
  0
VISUALSTYLE
  5
2D40
102
{ACAD_XDICTIONARY
360
2F64
102
}
102
{ACAD_REACTORS
330
2D28
102
}
330
2D28
100
AcDbVisualStyle
  2
EdgeColorOff
 70
    22
177
     2
291
     1
 71
     2
176
     0
 72
     2
176
     0
 73
     0
176
     0
 90
        0
176
     0
 40
0.6
176
     0
 41
30.0
176
     0
 63
     7
421
 16777215
176
     0
 74
     1
176
     0
 91
        4
176
     0
 64
     7
176
     0
 65
   257
176
     0
 75
     1
176
     0
175
     1
176
     0
 42
1.0
176
     0
 92
        8
176
     2
 66
     7
176
     0
 43
1.0
176
     0
 76
     1
176
     0
 77
     6
176
     0
 78
     2
176
     0
 67
     7
176
     0
 79
     5
176
     0
170
     0
176
     0
171
     0
176
     0
290
     0
176
     0
 93
        1
176
     0
 44
0.0
176
     0
173
     0
176
     0
1001
ACAD
1000
AcDbSavedByObjectVersion
1070
     0
  0
VISUALSTYLE
  5
2D37
102
{ACAD_XDICTIONARY
360
2F52
102
}
102
{ACAD_REACTORS
330
2D28
102
}
330
2D28
100
AcDbVisualStyle
  2
Facepattern
 70
    15
177
     2
291
     1
 71
     2
176
     1
 72
     2
176
     1
 73
     0
176
     1
 90
        0
176
     1
 40
0.6
176
     1
 41
30.0
176
     1
 63
     7
421
 16777215
176
     1
 74
     1
176
     1
 91
        4
176
     1
 64
     7
176
     1
 65
   257
176
     1
 75
     1
176
     1
175
     1
176
     1
 42
1.0
176
     1
 92
        8
176
     1
 66
     7
176
     1
 43
1.0
176
     1
 76
     1
176
     1
 77
     6
176
     1
 78
     2
176
     1
 67
     7
176
     1
 79
     5
176
     1
170
     0
176
     1
171
     0
176
     1
290
     0
176
     1
 93
        1
176
     1
 44
0.0
176
     1
173
     0
176
     1
1001
ACAD
1000
AcDbSavedByObjectVersion
1070
     0
  0
VISUALSTYLE
  5
2D29
102
{ACAD_XDICTIONARY
360
2F36
102
}
102
{ACAD_REACTORS
330
2D28
102
}
330
2D28
100
AcDbVisualStyle
  2
Flat
 70
     0
177
     2
291
     1
 71
     2
176
     1
 72
     1
176
     1
 73
     1
176
     1
 90
        2
176
     1
 40
0.6
176
     1
 41
30.0
176
     1
 63
     7
421
 16777215
176
     1
 74
     0
176
     1
 91
        0
176
     1
 64
     7
176
     1
 65
   257
176
     1
 75
     1
176
     1
175
     1
176
     1
 42
1.0
176
     1
 92
        8
176
     1
 66
     7
176
     1
 43
1.0
176
     1
 76
     1
176
     1
 77
     6
176
     1
 78
     2
176
     1
 67
     7
176
     1
 79
     5
176
     1
170
     0
176
     1
171
     0
176
     1
290
     0
176
     1
 93
       13
176
     1
 44
0.0
176
     1
173
     0
176
     1
1001
ACAD
1000
AcDbSavedByObjectVersion
1070
     0
  0
VISUALSTYLE
  5
2D2A
102
{ACAD_XDICTIONARY
360
2F38
102
}
102
{ACAD_REACTORS
330
2D28
102
}
330
2D28
100
AcDbVisualStyle
  2
FlatWithEdges
 70
     1
177
     2
291
     1
 71
     2
176
     1
 72
     1
176
     1
 73
     1
176
     1
 90
        2
176
     1
 40
0.6
176
     1
 41
30.0
176
     1
 63
     7
421
 16777215
176
     1
 74
     1
176
     1
 91
        0
176
     1
 64
     7
176
     1
 65
   257
176
     1
 75
     1
176
     1
175
     1
176
     1
 42
1.0
176
     1
 92
        0
176
     1
 66
   257
176
     1
 43
1.0
176
     1
 76
     1
176
     1
 77
     6
176
     1
 78
     2
176
     1
 67
     7
176
     1
 79
     5
176
     1
170
     0
176
     1
171
     0
176
     1
290
     0
176
     1
 93
       13
176
     1
 44
0.0
176
     1
173
     0
176
     1
1001
ACAD
1000
AcDbSavedByObjectVersion
1070
     0
  0
VISUALSTYLE
  5
2D2B
102
{ACAD_XDICTIONARY
360
2F3A
102
}
102
{ACAD_REACTORS
330
2D28
102
}
330
2D28
100
AcDbVisualStyle
  2
Gouraud
 70
     2
177
     2
291
     1
 71
     2
176
     1
 72
     2
176
     1
 73
     1
176
     1
 90
        2
176
     1
 40
0.6
176
     1
 41
30.0
176
     1
 63
     7
421
 16777215
176
     1
 74
     0
176
     1
 91
        0
176
     1
 64
     7
176
     1
 65
   257
176
     1
 75
     1
176
     1
175
     1
176
     1
 42
1.0
176
     1
 92
        0
176
     1
 66
     7
176
     1
 43
1.0
176
     1
 76
     1
176
     1
 77
     6
176
     1
 78
     2
176
     1
 67
     7
176
     1
 79
     5
176
     1
170
     0
176
     1
171
     0
176
     1
290
     0
176
     1
 93
       13
176
     1
 44
0.0
176
     1
173
     0
176
     1
1001
ACAD
1000
AcDbSavedByObjectVersion
1070
     0
  0
VISUALSTYLE
  5
2D2C
102
{ACAD_XDICTIONARY
360
2F3C
102
}
102
{ACAD_REACTORS
330
2D28
102
}
330
2D28
100
AcDbVisualStyle
  2
GouraudWithEdges
 70
     3
177
     2
291
     1
 71
     2
176
     1
 72
     2
176
     1
 73
     1
176
     1
 90
        2
176
     1
 40
0.6
176
     1
 41
30.0
176
     1
 63
     7
421
 16777215
176
     1
 74
     1
176
     1
 91
        0
176
     1
 64
     7
176
     1
 65
   257
176
     1
 75
     1
176
     1
175
     1
176
     1
 42
1.0
176
     1
 92
        0
176
     1
 66
   257
176
     1
 43
1.0
176
     1
 76
     1
176
     1
 77
     6
176
     1
 78
     2
176
     1
 67
     7
176
     1
 79
     5
176
     1
170
     0
176
     1
171
     0
176
     1
290
     0
176
     1
 93
       13
176
     1
 44
0.0
176
     1
173
     0
176
     1
1001
ACAD
1000
AcDbSavedByObjectVersion
1070
     0
  0
VISUALSTYLE
  5
2D30
102
{ACAD_XDICTIONARY
360
2F44
102
}
102
{ACAD_REACTORS
330
2D28
102
}
330
2D28
100
AcDbVisualStyle
  2
Hidden
 70
     6
177
     2
291
     0
 71
     1
176
     1
 72
     2
176
     1
 73
     2
176
     1
 90
        0
176
     1
 40
0.6
176
     1
 41
30.0
176
     1
 63
     7
421
 16777215
176
     1
 74
     2
176
     1
 91
        2
176
     1
 64
     7
176
     1
 65
   257
176
     1
 75
     2
176
     1
175
     1
176
     1
 42
40.0
176
     1
 92
        0
176
     1
 66
   257
176
     1
 43
1.0
176
     1
 76
     1
176
     1
 77
     6
176
     1
 78
     2
176
     1
 67
     7
176
     1
 79
     3
176
     1
170
     0
176
     1
171
     0
176
     1
290
     0
176
     1
 93
        1
176
     1
 44
0.0
176
     1
173
     0
176
     1
1001
ACAD
1000
AcDbSavedByObjectVersion
1070
     0
  0
VISUALSTYLE
  5
2D3E
102
{ACAD_XDICTIONARY
360
2F60
102
}
102
{ACAD_REACTORS
330
2D28
102
}
330
2D28
100
AcDbVisualStyle
  2
JitterOff
 70
    20
177
     2
291
     1
 71
     2
176
     0
 72
     2
176
     0
 73
     0
176
     0
 90
        0
176
     0
 40
0.6
176
     0
 41
30.0
176
     0
 63
     7
421
 16777215
176
     0
 74
     1
176
     0
 91
        4
176
     0
 64
     7
176
     0
 65
   257
176
     0
 75
     1
176
     0
175
     1
176
     0
 42
1.0
176
     0
 92
       10
176
     2
 66
     7
176
     0
 43
1.0
176
     0
 76
     1
176
     0
 77
     6
176
     0
 78
     2
176
     0
 67
     7
176
     0
 79
     5
176
     0
170
     0
176
     0
171
     0
176
     0
290
     0
176
     0
 93
        1
176
     0
 44
0.0
176
     0
173
     0
176
     0
1001
ACAD
1000
AcDbSavedByObjectVersion
1070
     0
  0
VISUALSTYLE
  5
2D36
102
{ACAD_XDICTIONARY
360
2F50
102
}
102
{ACAD_REACTORS
330
2D28
102
}
330
2D28
100
AcDbVisualStyle
  2
Linepattern
 70
    14
177
     2
291
     1
 71
     2
176
     1
 72
     2
176
     1
 73
     0
176
     1
 90
        0
176
     1
 40
0.6
176
     1
 41
30.0
176
     1
 63
     7
421
 16777215
176
     1
 74
     1
176
     1
 91
        4
176
     1
 64
     7
176
     1
 65
   257
176
     1
 75
     7
176
     1
175
     7
176
     1
 42
1.0
176
     1
 92
        8
176
     1
 66
     7
176
     1
 43
1.0
176
     1
 76
     1
176
     1
 77
     6
176
     1
 78
     2
176
     1
 67
     7
176
     1
 79
     5
176
     1
170
     0
176
     1
171
     0
176
     1
290
     0
176
     1
 93
        1
176
     1
 44
0.0
176
     1
173
     0
176
     1
1001
ACAD
1000
AcDbSavedByObjectVersion
1070
     0
  0
VISUALSTYLE
  5
2D3F
102
{ACAD_XDICTIONARY
360
2F62
102
}
102
{ACAD_REACTORS
330
2D28
102
}
330
2D28
100
AcDbVisualStyle
  2
OverhangOff
 70
    21
177
     2
291
     1
 71
     2
176
     0
 72
     2
176
     0
 73
     0
176
     0
 90
        0
176
     0
 40
0.6
176
     0
 41
30.0
176
     0
 63
     7
421
 16777215
176
     0
 74
     1
176
     0
 91
        4
176
     0
 64
     7
176
     0
 65
   257
176
     0
 75
     1
176
     0
175
     1
176
     0
 42
1.0
176
     0
 92
        9
176
     2
 66
     7
176
     0
 43
1.0
176
     0
 76
     1
176
     0
 77
     6
176
     0
 78
     2
176
     0
 67
     7
176
     0
 79
     5
176
     0
170
     0
176
     0
171
     0
176
     0
290
     0
176
     0
 93
        1
176
     0
 44
0.0
176
     0
173
     0
176
     0
1001
ACAD
1000
AcDbSavedByObjectVersion
1070
     0
  0
VISUALSTYLE
  5
2D32
102
{ACAD_XDICTIONARY
360
2F48
102
}
102
{ACAD_REACTORS
330
2D28
102
}
330
2D28
100
AcDbVisualStyle
  2
Realistic
 70
     8
177
     2
291
     0
 71
     2
176
     1
 72
     3
176
     1
 73
     0
176
     1
 90
        2
176
     1
 40
0.6
176
     1
 41
30.0
176
     1
 63
     7
421
 16777215
176
     1
 74
     0
176
     1
 91
        0
176
     1
 64
     7
176
     1
 65
   257
176
     1
 75
     1
176
     1
175
     1
176
     1
 42
1.0
176
     1
 92
        8
176
     1
 66
   257
176
     1
 43
1.0
176
     1
 76
     1
176
     1
 77
     6
176
     1
 78
     2
176
     1
 67
     7
176
     1
 79
     3
176
     1
170
     0
176
     1
171
     0
176
     1
290
     0
176
     1
 93
       13
176
     1
 44
0.0
176
     1
173
     0
176
     1
1001
ACAD
1000
AcDbSavedByObjectVersion
1070
     0
  0
VISUALSTYLE
  5
2D3D
102
{ACAD_XDICTIONARY
360
2F5E
102
}
102
{ACAD_REACTORS
330
2D28
102
}
330
2D28
100
AcDbVisualStyle
  2
Shaded
 70
    27
177
     2
291
     0
 71
     2
176
     1
 72
     2
176
     1
 73
     1
176
     1
 90
        2
176
     1
 40
0.6
176
     1
 41
30.0
176
     1
 63
     7
421
 16777215
176
     1
 74
     0
176
     1
 91
        4
176
     1
 64
     7
176
     1
 65
   257
176
     1
 75
     1
176
     1
175
     1
176
     1
 42
1.0
176
     1
 92
        8
176
     1
 66
   257
176
     1
 43
1.0
176
     1
 76
     1
176
     1
 77
     6
176
     1
 78
     2
176
     1
 67
     8
425
  7895160
176
     1
 79
     3
176
     1
170
     0
176
     1
171
     0
176
     1
290
     0
176
     1
 93
        5
176
     1
 44
0.0
176
     1
173
     0
176
     1
1001
ACAD
1000
AcDbSavedByObjectVersion
1070
     0
  0
VISUALSTYLE
  5
2D3C
102
{ACAD_XDICTIONARY
360
2F5C
102
}
102
{ACAD_REACTORS
330
2D28
102
}
330
2D28
100
AcDbVisualStyle
  2
Shaded with edges
 70
    26
177
     2
291
     0
 71
     2
176
     1
 72
     2
176
     1
 73
     1
176
     1
 90
        2
176
     1
 40
0.6
176
     1
 41
30.0
176
     1
 63
     7
421
 16777215
176
     1
 74
     1
176
     1
 91
        2
176
     1
 64
     7
176
     1
 65
   257
176
     1
 75
     2
176
     1
175
     1
176
     1
 42
1.0
176
     1
 92
        8
176
     1
 66
   257
176
     1
 43
1.0
176
     1
 76
     1
176
     1
 77
     6
176
     1
 78
     2
176
     1
 67
     7
176
     1
 79
     3
176
     1
170
     0
176
     1
171
     0
176
     1
290
     0
176
     1
 93
        5
176
     1
 44
0.0
176
     1
173
     0
176
     1
1001
ACAD
1000
AcDbSavedByObjectVersion
1070
     0
  0
VISUALSTYLE
  5
2D39
102
{ACAD_XDICTIONARY
360
2F56
102
}
102
{ACAD_REACTORS
330
2D28
102
}
330
2D28
100
AcDbVisualStyle
  2
Shades of Gray
 70
    23
177
     2
291
     0
 71
     2
176
     1
 72
     2
176
     1
 73
     3
176
     1
 90
        0
176
     1
 40
0.6
176
     1
 41
30.0
176
     1
 63
     7
421
 16777215
176
     1
 74
     2
176
     1
 91
        2
176
     1
 64
     7
176
     1
 65
     7
176
     1
 75
     1
176
     1
175
     1
176
     1
 42
40.0
176
     1
 92
        8
176
     1
 66
     7
176
     1
 43
1.0
176
     1
 76
     1
176
     1
 77
     6
176
     1
 78
     2
176
     1
 67
     7
176
     1
 79
     3
176
     1
170
     0
176
     1
171
     0
176
     1
290
     0
176
     1
 93
        1
176
     1
 44
0.0
176
     1
173
     0
176
     1
1001
ACAD
1000
AcDbSavedByObjectVersion
1070
     0
  0
VISUALSTYLE
  5
2D3A
102
{ACAD_XDICTIONARY
360
2F58
102
}
102
{ACAD_REACTORS
330
2D28
102
}
330
2D28
100
AcDbVisualStyle
  2
Sketchy
 70
    24
177
     2
291
     0
 71
     1
176
     1
 72
     2
176
     1
 73
     2
176
     1
 90
        0
176
     1
 40
0.6
176
     1
 41
30.0
176
     1
 63
     7
421
 16777215
176
     1
 74
     2
176
     1
 91
        2
176
     1
 64
     7
176
     1
 65
     7
176
     1
 75
     1
176
     1
175
     1
176
     1
 42
40.0
176
     1
 92
       11
176
     1
 66
     7
176
     1
 43
1.0
176
     1
 76
     1
176
     1
 77
     6
176
     1
 78
     2
176
     1
 67
     7
176
     1
 79
     6
176
     1
170
     0
176
     1
171
     0
176
     1
290
     0
176
     1
 93
        1
176
     1
 44
0.0
176
     1
173
     0
176
     1
1001
ACAD
1000
AcDbSavedByObjectVersion
1070
     0
  0
VISUALSTYLE
  5
2D35
102
{ACAD_XDICTIONARY
360
2F4E
102
}
102
{ACAD_REACTORS
330
2D28
102
}
330
2D28
100
AcDbVisualStyle
  2
Thicken
 70
    13
177
     2
291
     1
 71
     2
176
     1
 72
     2
176
     1
 73
     0
176
     1
 90
        0
176
     1
 40
0.6
176
     1
 41
30.0
176
     1
 63
     7
421
 16777215
176
     1
 74
     1
176
     1
 91
        4
176
     1
 64
     7
176
     1
 65
   257
176
     1
 75
     1
176
     1
175
     1
176
     1
 42
1.0
176
     1
 92
       12
176
     1
 66
     7
176
     1
 43
1.0
176
     1
 76
     1
176
     1
 77
     6
176
     1
 78
     2
176
     1
 67
     7
176
     1
 79
     5
176
     1
170
     0
176
     1
171
     0
176
     1
290
     0
176
     1
 93
        1
176
     1
 44
0.0
176
     1
173
     0
176
     1
1001
ACAD
1000
AcDbSavedByObjectVersion
1070
     0
  0
VISUALSTYLE
  5
2D2F
102
{ACAD_XDICTIONARY
360
2F42
102
}
102
{ACAD_REACTORS
330
2D28
102
}
330
2D28
100
AcDbVisualStyle
  2
Wireframe
 70
     5
177
     2
291
     0
 71
     0
176
     1
 72
     2
176
     1
 73
     0
176
     1
 90
        0
176
     1
 40
0.6
176
     1
 41
30.0
176
     1
 63
     7
421
 16777215
176
     1
 74
     1
176
     1
 91
        4
176
     1
 64
     7
176
     1
 65
   257
176
     1
 75
     1
176
     1
175
     1
176
     1
 42
1.0
176
     1
 92
        0
176
     1
 66
   257
176
     1
 43
1.0
176
     1
 76
     1
176
     1
 77
     6
176
     1
 78
     2
176
     1
 67
     7
176
     1
 79
     3
176
     1
170
     0
176
     1
171
     0
176
     1
290
     0
176
     1
 93
        1
176
     1
 44
0.0
176
     1
173
     0
176
     1
1001
ACAD
1000
AcDbSavedByObjectVersion
1070
     0
  0
VISUALSTYLE
  5
2D3B
102
{ACAD_XDICTIONARY
360
2F5A
102
}
102
{ACAD_REACTORS
330
2D28
102
}
330
2D28
100
AcDbVisualStyle
  2
X-Ray
 70
    25
177
     2
291
     0
 71
     2
176
     1
 72
     2
176
     1
 73
     1
176
     1
 90
        1
176
     1
 40
0.5
176
     1
 41
30.0
176
     1
 63
     7
421
 16777215
176
     1
 74
     1
176
     1
 91
        0
176
     1
 64
     7
176
     1
 65
   257
176
     1
 75
     1
176
     1
175
     1
176
     1
 42
1.0
176
     1
 92
        8
176
     1
 66
     7
176
     1
 43
1.0
176
     1
 76
     1
176
     1
 77
     6
176
     1
 78
     2
176
     1
 67
     7
176
     1
 79
     3
176
     1
170
     0
176
     1
171
     0
176
     1
290
     0
176
     1
 93
       13
176
     1
 44
0.0
176
     1
173
     0
176
     1
1001
ACAD
1000
AcDbSavedByObjectVersion
1070
     0
  0
DICTIONARYVAR
  5
2F27
102
{ACAD_REACTORS
330
2F21
102
}
330
2F21
100
DictionaryVariables
280
     0
  1
1:1
  0
DICTIONARYVAR
  5
2F23
102
{ACAD_REACTORS
330
2F21
102
}
330
2F21
100
DictionaryVariables
280
     0
  1
STANDARD
  0
DICTIONARYVAR
  5
2F22
102
{ACAD_REACTORS
330
2F21
102
}
330
2F21
100
DictionaryVariables
280
     0
  1
STANDARD
  0
DICTIONARYVAR
  5
2F24
102
{ACAD_REACTORS
330
2F21
102
}
330
2F21
100
DictionaryVariables
280
     0
  1
Imperial24
  0
DICTIONARYVAR
  5
2F25
102
{ACAD_REACTORS
330
2F21
102
}
330
2F21
100
DictionaryVariables
280
     0
  1
Imperial24
  0
DICTIONARYVAR
  5
2F29
102
{ACAD_REACTORS
330
2F21
102
}
330
2F21
100
DictionaryVariables
280
     0
  1
1
  0
DICTIONARYVAR
  5
2F2A
102
{ACAD_REACTORS
330
2F21
102
}
330
2F21
100
DictionaryVariables
280
     0
  1
15
  0
DICTIONARYVAR
  5
2F28
102
{ACAD_REACTORS
330
2F21
102
}
330
2F21
100
DictionaryVariables
280
     0
  1
0
  0
DICTIONARYVAR
  5
2F26
102
{ACAD_REACTORS
330
2F21
102
}
330
2F21
100
DictionaryVariables
280
     0
  1
0
  0
DICTIONARY
  5
2F35
102
{ACAD_REACTORS
330
2F33
102
}
330
2F33
100
AcDbDictionary
281
     1
  0
DICTIONARY
  5
2F34
102
{ACAD_REACTORS
330
2F33
102
}
330
2F33
100
AcDbDictionary
281
     1
  3
2129136634464
350
2F2E
  3
2129136634480
350
2F2F
  3
2129136634496
350
2F30
  3
2129136634512
350
2F31
  3
2129136634528
350
2F32
  0
DICTIONARY
  5
2E55
102
{ACAD_REACTORS
330
2E4C
102
}
330
2E4C
100
AcDbDictionary
281
     1
  0
DICTIONARY
  5
2F68
330
2D69
100
AcDbDictionary
280
     1
281
     1
  3
ACAD_XREC_ROUNDTRIP
360
2F69
  0
DICTIONARY
  5
2D19
330
2D18
100
AcDbDictionary
280
     1
281
     1
  3
BUMPTILE
360
2D1B
  3
DIFFUSETILE
360
2D1A
  3
OPACITYTILE
360
2D1E
  3
REFLECTIONTILE
360
2D1D
  3
REFRACTIONTILE
360
2D1F
  3
SPECULARTILE
360
2D1C
  0
DICTIONARY
  5
2D11
330
2D10
100
AcDbDictionary
280
     1
281
     1
  3
BUMPTILE
360
2D13
  3
DIFFUSETILE
360
2D12
  3
OPACITYTILE
360
2D16
  3
REFLECTIONTILE
360
2D15
  3
REFRACTIONTILE
360
2D17
  3
SPECULARTILE
360
2D14
  0
DICTIONARY
  5
2D21
330
2D20
100
AcDbDictionary
280
     1
281
     1
  3
BUMPTILE
360
2D23
  3
DIFFUSETILE
360
2D22
  3
OPACITYTILE
360
2D26
  3
REFLECTIONTILE
360
2D25
  3
REFRACTIONTILE
360
2D27
  3
SPECULARTILE
360
2D24
  0
DICTIONARY
  5
2F66
330
2D67
100
AcDbDictionary
280
     1
281
     1
  3
ACAD_XREC_ROUNDTRIP
360
2F67
  0
DICTIONARY
  5
2F2B
330
2D63
100
AcDbDictionary
280
     1
281
     1
  3
ACAD_ROUNDTRIP_2008_TABLESTYLE_CELLSTYLEMAP
360
2F2C
  0
DICTIONARY
  5
2F40
330
2D2E
100
AcDbDictionary
280
     1
281
     1
  3
ACAD_XREC_ROUNDTRIP
360
2F41
  0
DICTIONARY
  5
2F3E
330
2D2D
100
AcDbDictionary
280
     1
281
     1
  3
ACAD_XREC_ROUNDTRIP
360
2F3F
  0
DICTIONARY
  5
2F4C
330
2D34
100
AcDbDictionary
280
     1
281
     1
  3
ACAD_XREC_ROUNDTRIP
360
2F4D
  0
DICTIONARY
  5
2F54
330
2D38
100
AcDbDictionary
280
     1
281
     1
  3
ACAD_XREC_ROUNDTRIP
360
2F55
  0
DICTIONARY
  5
2F46
330
2D31
100
AcDbDictionary
280
     1
281
     1
  3
ACAD_XREC_ROUNDTRIP
360
2F47
  0
DICTIONARY
  5
2F4A
330
2D33
100
AcDbDictionary
280
     1
281
     1
  3
ACAD_XREC_ROUNDTRIP
360
2F4B
  0
DICTIONARY
  5
2F64
330
2D40
100
AcDbDictionary
280
     1
281
     1
  3
ACAD_XREC_ROUNDTRIP
360
2F65
  0
DICTIONARY
  5
2F52
330
2D37
100
AcDbDictionary
280
     1
281
     1
  3
ACAD_XREC_ROUNDTRIP
360
2F53
  0
DICTIONARY
  5
2F36
330
2D29
100
AcDbDictionary
280
     1
281
     1
  3
ACAD_XREC_ROUNDTRIP
360
2F37
  0
DICTIONARY
  5
2F38
330
2D2A
100
AcDbDictionary
280
     1
281
     1
  3
ACAD_XREC_ROUNDTRIP
360
2F39
  0
DICTIONARY
  5
2F3A
330
2D2B
100
AcDbDictionary
280
     1
281
     1
  3
ACAD_XREC_ROUNDTRIP
360
2F3B
  0
DICTIONARY
  5
2F3C
330
2D2C
100
AcDbDictionary
280
     1
281
     1
  3
ACAD_XREC_ROUNDTRIP
360
2F3D
  0
DICTIONARY
  5
2F44
330
2D30
100
AcDbDictionary
280
     1
281
     1
  3
ACAD_XREC_ROUNDTRIP
360
2F45
  0
DICTIONARY
  5
2F60
330
2D3E
100
AcDbDictionary
280
     1
281
     1
  3
ACAD_XREC_ROUNDTRIP
360
2F61
  0
DICTIONARY
  5
2F50
330
2D36
100
AcDbDictionary
280
     1
281
     1
  3
ACAD_XREC_ROUNDTRIP
360
2F51
  0
DICTIONARY
  5
2F62
330
2D3F
100
AcDbDictionary
280
     1
281
     1
  3
ACAD_XREC_ROUNDTRIP
360
2F63
  0
DICTIONARY
  5
2F48
330
2D32
100
AcDbDictionary
280
     1
281
     1
  3
ACAD_XREC_ROUNDTRIP
360
2F49
  0
DICTIONARY
  5
2F5E
330
2D3D
100
AcDbDictionary
280
     1
281
     1
  3
ACAD_XREC_ROUNDTRIP
360
2F5F
  0
DICTIONARY
  5
2F5C
330
2D3C
100
AcDbDictionary
280
     1
281
     1
  3
ACAD_XREC_ROUNDTRIP
360
2F5D
  0
DICTIONARY
  5
2F56
330
2D39
100
AcDbDictionary
280
     1
281
     1
  3
ACAD_XREC_ROUNDTRIP
360
2F57
  0
DICTIONARY
  5
2F58
330
2D3A
100
AcDbDictionary
280
     1
281
     1
  3
ACAD_XREC_ROUNDTRIP
360
2F59
  0
DICTIONARY
  5
2F4E
330
2D35
100
AcDbDictionary
280
     1
281
     1
  3
ACAD_XREC_ROUNDTRIP
360
2F4F
  0
DICTIONARY
  5
2F42
330
2D2F
100
AcDbDictionary
280
     1
281
     1
  3
ACAD_XREC_ROUNDTRIP
360
2F43
  0
DICTIONARY
  5
2F5A
330
2D3B
100
AcDbDictionary
280
     1
281
     1
  3
ACAD_XREC_ROUNDTRIP
360
2F5B
  0
XRECORD
  5
2F2E
102
{ACAD_REACTORS
330
2F34
102
}
330
2F34
100
AcDbXrecord
280
     1
  1
AcDb_Thumbnail_Schema
102
{ATTRRECORD
341
2F2F
  2
AcDbDs::TreatedAsObjectData
280
     1
291
     1
102
ATTRRECORD}
102
{ATTRRECORD
341
2F30
  2
AcDbDs::Legacy
280
     1
291
     1
102
ATTRRECORD}
  2
AcDbDs::ID
280
    10
 91
        8
102
{ATTRRECORD
341
2F31
  2
AcDs:Indexable
280
     1
291
     1
102
ATTRRECORD}
102
{ATTRRECORD
341
2F32
  2
AcDbDs::HandleAttribute
280
     7
282
     1
102
ATTRRECORD}
  2
Thumbnail_Data
280
    15
 91
        0
  0
XRECORD
  5
2F2F
102
{ACAD_REACTORS
330
2F34
102
}
330
2F34
100
AcDbXrecord
280
     1
  1
AcDbDs::TreatedAsObjectDataSchema
  2
AcDbDs::TreatedAsObjectData
280
     1
 91
        0
  0
XRECORD
  5
2F30
102
{ACAD_REACTORS
330
2F34
102
}
330
2F34
100
AcDbXrecord
280
     1
  1
AcDbDs::LegacySchema
  2
AcDbDs::Legacy
280
     1
 91
        0
  0
XRECORD
  5
2F31
102
{ACAD_REACTORS
330
2F34
102
}
330
2F34
100
AcDbXrecord
280
     1
  1
AcDbDs::IndexedPropertySchema
  2
AcDs:Indexable
280
     1
 91
        0
  0
XRECORD
  5
2F32
102
{ACAD_REACTORS
330
2F34
102
}
330
2F34
100
AcDbXrecord
280
     1
  1
AcDbDs::HandleAttributeSchema
  2
AcDbDs::HandleAttribute
280
     7
 91
        1
284
     1
  0
XRECORD
  5
2F69
102
{ACAD_REACTORS
330
2F68
102
}
330
2F68
100
AcDbXrecord
280
     1
102
DISPLAYNAME
  1
Imperial24
102
FLAGS
 90
        0
  0
XRECORD
  5
2D1B
102
{ACAD_REACTORS
330
2D19
102
}
330
2D19
100
AcDbXrecord
280
     1
270
     1
271
     1
  0
XRECORD
  5
2D1A
102
{ACAD_REACTORS
330
2D19
102
}
330
2D19
100
AcDbXrecord
280
     1
270
     1
271
     1
  0
XRECORD
  5
2D1E
102
{ACAD_REACTORS
330
2D19
102
}
330
2D19
100
AcDbXrecord
280
     1
270
     1
271
     1
  0
XRECORD
  5
2D1D
102
{ACAD_REACTORS
330
2D19
102
}
330
2D19
100
AcDbXrecord
280
     1
270
     1
271
     1
  0
XRECORD
  5
2D1F
102
{ACAD_REACTORS
330
2D19
102
}
330
2D19
100
AcDbXrecord
280
     1
270
     1
271
     1
  0
XRECORD
  5
2D1C
102
{ACAD_REACTORS
330
2D19
102
}
330
2D19
100
AcDbXrecord
280
     1
270
     1
271
     1
  0
XRECORD
  5
2D13
102
{ACAD_REACTORS
330
2D11
102
}
330
2D11
100
AcDbXrecord
280
     1
270
     1
271
     1
  0
XRECORD
  5
2D12
102
{ACAD_REACTORS
330
2D11
102
}
330
2D11
100
AcDbXrecord
280
     1
270
     1
271
     1
  0
XRECORD
  5
2D16
102
{ACAD_REACTORS
330
2D11
102
}
330
2D11
100
AcDbXrecord
280
     1
270
     1
271
     1
  0
XRECORD
  5
2D15
102
{ACAD_REACTORS
330
2D11
102
}
330
2D11
100
AcDbXrecord
280
     1
270
     1
271
     1
  0
XRECORD
  5
2D17
102
{ACAD_REACTORS
330
2D11
102
}
330
2D11
100
AcDbXrecord
280
     1
270
     1
271
     1
  0
XRECORD
  5
2D14
102
{ACAD_REACTORS
330
2D11
102
}
330
2D11
100
AcDbXrecord
280
     1
270
     1
271
     1
  0
XRECORD
  5
2D23
102
{ACAD_REACTORS
330
2D21
102
}
330
2D21
100
AcDbXrecord
280
     1
270
     1
271
     1
  0
XRECORD
  5
2D22
102
{ACAD_REACTORS
330
2D21
102
}
330
2D21
100
AcDbXrecord
280
     1
270
     1
271
     1
  0
XRECORD
  5
2D26
102
{ACAD_REACTORS
330
2D21
102
}
330
2D21
100
AcDbXrecord
280
     1
270
     1
271
     1
  0
XRECORD
  5
2D25
102
{ACAD_REACTORS
330
2D21
102
}
330
2D21
100
AcDbXrecord
280
     1
270
     1
271
     1
  0
XRECORD
  5
2D27
102
{ACAD_REACTORS
330
2D21
102
}
330
2D21
100
AcDbXrecord
280
     1
270
     1
271
     1
  0
XRECORD
  5
2D24
102
{ACAD_REACTORS
330
2D21
102
}
330
2D21
100
AcDbXrecord
280
     1
270
     1
271
     1
  0
XRECORD
  5
2F67
102
{ACAD_REACTORS
330
2F66
102
}
330
2F66
100
AcDbXrecord
280
     1
102
DISPLAYNAME
  1
Imperial24
102
FLAGS
 90
        0
  0
CELLSTYLEMAP
  5
2F2C
102
{ACAD_REACTORS
330
2F2B
102
}
330
2F2B
100
AcDbCellStyleMap
 90
        3
300
CELLSTYLE
  1
TABLEFORMAT_BEGIN
 90
        5
170
     1
 91
        0
 92
    32768
 62
   257
 93
        1
300
CONTENTFORMAT
  1
CONTENTFORMAT_BEGIN
 90
        0
 91
        0
 92
      512
 93
        0
300

 40
0.0
140
1.0
 94
        5
 62
     0
340
2D54
144
0.25
309
CONTENTFORMAT_END
171
     0
 94
        0
309
TABLEFORMAT_END
  1
CELLSTYLE_BEGIN
 90
        1
 91
        1
300
_TITLE
309
CELLSTYLE_END
300
CELLSTYLE
  1
TABLEFORMAT_BEGIN
 90
        5
170
     1
 91
        0
 92
        0
 62
   257
 93
        1
300
CONTENTFORMAT
  1
CONTENTFORMAT_BEGIN
 90
        0
 91
        0
 92
      512
 93
        0
300

 40
0.0
140
1.0
 94
        5
 62
     0
340
2D54
144
0.18
309
CONTENTFORMAT_END
171
     0
 94
        0
309
TABLEFORMAT_END
  1
CELLSTYLE_BEGIN
 90
        2
 91
        1
300
_HEADER
309
CELLSTYLE_END
300
CELLSTYLE
  1
TABLEFORMAT_BEGIN
 90
        5
170
     1
 91
        0
 92
        0
 62
   257
 93
        1
300
CONTENTFORMAT
  1
CONTENTFORMAT_BEGIN
 90
        0
 91
        0
 92
      512
 93
        0
300

 40
0.0
140
1.0
 94
        2
 62
     0
340
2D54
144
0.18
309
CONTENTFORMAT_END
171
     0
 94
        0
309
TABLEFORMAT_END
  1
CELLSTYLE_BEGIN
 90
        3
 91
        2
300
_DATA
309
CELLSTYLE_END
  0
XRECORD
  5
2F41
102
{ACAD_REACTORS
330
2F40
102
}
330
2F40
100
AcDbXrecord
280
     1
102
RTVSPost2010Prop28
280
     1
102
RTVSPost2010PropOp28
 70
     1
102
RTVSPost2010Prop29
280
     1
102
RTVSPost2010PropOp29
 70
     1
102
RTVSPost2010Prop30
280
     0
102
RTVSPost2010PropOp30
 70
     1
102
RTVSPost2010Prop31
280
     0
102
RTVSPost2010PropOp31
 70
     1
102
RTVSPost2010Prop32
280
     0
102
RTVSPost2010PropOp32
 70
     1
102
RTVSPost2010Prop33
280
     0
102
RTVSPost2010PropOp33
 70
     1
102
RTVSPost2010Prop34
280
     0
102
RTVSPost2010PropOp34
 70
     1
102
RTVSPost2010Prop35
280
     0
102
RTVSPost2010PropOp35
 70
     1
102
RTVSPost2010Prop36
280
     0
102
RTVSPost2010PropOp36
 70
     1
102
RTVSPost2010Prop37
 90
       50
102
RTVSPost2010PropOp37
 70
     1
102
RTVSPost2010Prop38
140
0.0
102
RTVSPost2010PropOp38
 70
     1
102
RTVSPost2010Prop39
140
1.0
102
RTVSPost2010PropOp39
 70
     1
102
RTVSPost2010Prop40
 90
        0
102
RTVSPost2010PropOp40
 70
     1
102
RTVSPost2010Prop41ColorIndex
 90
       18
102
RTVSPost2010Prop41ColorRGB
 90
        0
102
RTVSPost2010PropOp41
 70
     1
102
RTVSPost2010Prop42
 90
       50
102
RTVSPost2010PropOp42
 70
     1
102
RTVSPost2010Prop43
 90
        3
102
RTVSPost2010PropOp43
 70
     1
102
RTVSPost2010Prop44ColorIndex
 90
        5
102
RTVSPost2010Prop44ColorRGB
 90
      255
102
RTVSPost2010PropOp44
 70
     1
102
RTVSPost2010Prop45
280
     0
102
RTVSPost2010PropOp45
 70
     1
102
RTVSPost2010Prop46
 90
       50
102
RTVSPost2010PropOp46
 70
     1
102
RTVSPost2010Prop47
 90
       50
102
RTVSPost2010PropOp47
 70
     1
102
RTVSPost2010Prop48
 90
       50
102
RTVSPost2010PropOp48
 70
     1
102
RTVSPost2010Prop49
280
     0
102
RTVSPost2010PropOp49
 70
     1
102
RTVSPost2010Prop50
 90
       50
102
RTVSPost2010PropOp50
 70
     1
102
RTVSPost2010Prop51ColorIndex
 90
      256
102
RTVSPost2010Prop51ColorRGB
 90
-16777216
102
RTVSPost2010PropOp51
 70
     0
102
RTVSPost2010Prop52
140
1.0
102
RTVSPost2010PropOp52
 70
     0
102
RTVSPost2010Prop53
 90
        2
102
RTVSPost2010PropOp53
 70
     1
102
RTVSPost2010Prop54
  1
strokes_ogs.tif
102
RTVSPost2010PropOp54
 70
     1
102
RTVSPost2010Prop55
280
     0
102
RTVSPost2010PropOp55
 70
     1
102
RTVSPost2010Prop56
140
1.0
102
RTVSPost2010PropOp56
 70
     1
102
RTVSPost2010Prop57
140
1.0
102
RTVSPost2010PropOp57
 70
     1
  0
XRECORD
  5
2F3F
102
{ACAD_REACTORS
330
2F3E
102
}
330
2F3E
100
AcDbXrecord
280
     1
102
RTVSPost2010Prop28
280
     0
102
RTVSPost2010PropOp28
 70
     1
102
RTVSPost2010Prop29
280
     1
102
RTVSPost2010PropOp29
 70
     1
102
RTVSPost2010Prop30
280
     1
102
RTVSPost2010PropOp30
 70
     1
102
RTVSPost2010Prop31
280
     0
102
RTVSPost2010PropOp31
 70
     1
102
RTVSPost2010Prop32
280
     0
102
RTVSPost2010PropOp32
 70
     1
102
RTVSPost2010Prop33
280
     0
102
RTVSPost2010PropOp33
 70
     1
102
RTVSPost2010Prop34
280
     0
102
RTVSPost2010PropOp34
 70
     1
102
RTVSPost2010Prop35
280
     0
102
RTVSPost2010PropOp35
 70
     1
102
RTVSPost2010Prop36
280
     0
102
RTVSPost2010PropOp36
 70
     1
102
RTVSPost2010Prop37
 90
       50
102
RTVSPost2010PropOp37
 70
     1
102
RTVSPost2010Prop38
140
0.0
102
RTVSPost2010PropOp38
 70
     1
102
RTVSPost2010Prop39
140
1.0
102
RTVSPost2010PropOp39
 70
     1
102
RTVSPost2010Prop40
 90
        0
102
RTVSPost2010PropOp40
 70
     1
102
RTVSPost2010Prop41ColorIndex
 90
       18
102
RTVSPost2010Prop41ColorRGB
 90
        0
102
RTVSPost2010PropOp41
 70
     1
102
RTVSPost2010Prop42
 90
       50
102
RTVSPost2010PropOp42
 70
     1
102
RTVSPost2010Prop43
 90
        3
102
RTVSPost2010PropOp43
 70
     1
102
RTVSPost2010Prop44ColorIndex
 90
        5
102
RTVSPost2010Prop44ColorRGB
 90
      255
102
RTVSPost2010PropOp44
 70
     1
102
RTVSPost2010Prop45
280
     0
102
RTVSPost2010PropOp45
 70
     1
102
RTVSPost2010Prop46
 90
       50
102
RTVSPost2010PropOp46
 70
     1
102
RTVSPost2010Prop47
 90
       50
102
RTVSPost2010PropOp47
 70
     1
102
RTVSPost2010Prop48
 90
       50
102
RTVSPost2010PropOp48
 70
     1
102
RTVSPost2010Prop49
280
     0
102
RTVSPost2010PropOp49
 70
     1
102
RTVSPost2010Prop50
 90
       50
102
RTVSPost2010PropOp50
 70
     1
102
RTVSPost2010Prop51ColorIndex
 90
      256
102
RTVSPost2010Prop51ColorRGB
 90
-16777216
102
RTVSPost2010PropOp51
 70
     0
102
RTVSPost2010Prop52
140
1.0
102
RTVSPost2010PropOp52
 70
     0
102
RTVSPost2010Prop53
 90
        2
102
RTVSPost2010PropOp53
 70
     1
102
RTVSPost2010Prop54
  1
strokes_ogs.tif
102
RTVSPost2010PropOp54
 70
     1
102
RTVSPost2010Prop55
280
     0
102
RTVSPost2010PropOp55
 70
     1
102
RTVSPost2010Prop56
140
1.0
102
RTVSPost2010PropOp56
 70
     1
102
RTVSPost2010Prop57
140
1.0
102
RTVSPost2010PropOp57
 70
     1
  0
XRECORD
  5
2F4D
102
{ACAD_REACTORS
330
2F4C
102
}
330
2F4C
100
AcDbXrecord
280
     1
102
RTVSPost2010Prop28
280
     0
102
RTVSPost2010PropOp28
 70
     1
102
RTVSPost2010Prop29
280
     1
102
RTVSPost2010PropOp29
 70
     1
102
RTVSPost2010Prop30
280
     1
102
RTVSPost2010PropOp30
 70
     1
102
RTVSPost2010Prop31
280
     0
102
RTVSPost2010PropOp31
 70
     1
102
RTVSPost2010Prop32
280
     0
102
RTVSPost2010PropOp32
 70
     1
102
RTVSPost2010Prop33
280
     0
102
RTVSPost2010PropOp33
 70
     1
102
RTVSPost2010Prop34
280
     0
102
RTVSPost2010PropOp34
 70
     1
102
RTVSPost2010Prop35
280
     0
102
RTVSPost2010PropOp35
 70
     1
102
RTVSPost2010Prop36
280
     0
102
RTVSPost2010PropOp36
 70
     1
102
RTVSPost2010Prop37
 90
       50
102
RTVSPost2010PropOp37
 70
     1
102
RTVSPost2010Prop38
140
0.0
102
RTVSPost2010PropOp38
 70
     1
102
RTVSPost2010Prop39
140
1.0
102
RTVSPost2010PropOp39
 70
     1
102
RTVSPost2010Prop40
 90
        0
102
RTVSPost2010PropOp40
 70
     1
102
RTVSPost2010Prop41ColorIndex
 90
       18
102
RTVSPost2010Prop41ColorRGB
 90
        0
102
RTVSPost2010PropOp41
 70
     1
102
RTVSPost2010Prop42
 90
       50
102
RTVSPost2010PropOp42
 70
     1
102
RTVSPost2010Prop43
 90
        3
102
RTVSPost2010PropOp43
 70
     1
102
RTVSPost2010Prop44ColorIndex
 90
        5
102
RTVSPost2010Prop44ColorRGB
 90
      255
102
RTVSPost2010PropOp44
 70
     1
102
RTVSPost2010Prop45
280
     0
102
RTVSPost2010PropOp45
 70
     1
102
RTVSPost2010Prop46
 90
       50
102
RTVSPost2010PropOp46
 70
     1
102
RTVSPost2010Prop47
 90
       50
102
RTVSPost2010PropOp47
 70
     1
102
RTVSPost2010Prop48
 90
       50
102
RTVSPost2010PropOp48
 70
     1
102
RTVSPost2010Prop49
280
     0
102
RTVSPost2010PropOp49
 70
     1
102
RTVSPost2010Prop50
 90
       50
102
RTVSPost2010PropOp50
 70
     1
102
RTVSPost2010Prop51ColorIndex
 90
      256
102
RTVSPost2010Prop51ColorRGB
 90
-16777216
102
RTVSPost2010PropOp51
 70
     0
102
RTVSPost2010Prop52
140
1.0
102
RTVSPost2010PropOp52
 70
     0
102
RTVSPost2010Prop53
 90
        2
102
RTVSPost2010PropOp53
 70
     1
102
RTVSPost2010Prop54
  1
strokes_ogs.tif
102
RTVSPost2010PropOp54
 70
     1
102
RTVSPost2010Prop55
280
     0
102
RTVSPost2010PropOp55
 70
     1
102
RTVSPost2010Prop56
140
1.0
102
RTVSPost2010PropOp56
 70
     1
102
RTVSPost2010Prop57
140
1.0
102
RTVSPost2010PropOp57
 70
     1
  0
XRECORD
  5
2F55
102
{ACAD_REACTORS
330
2F54
102
}
330
2F54
100
AcDbXrecord
280
     1
102
RTVSPost2010Prop28
280
     0
102
RTVSPost2010PropOp28
 70
     1
102
RTVSPost2010Prop29
280
     1
102
RTVSPost2010PropOp29
 70
     1
102
RTVSPost2010Prop30
280
     1
102
RTVSPost2010PropOp30
 70
     1
102
RTVSPost2010Prop31
280
     0
102
RTVSPost2010PropOp31
 70
     1
102
RTVSPost2010Prop32
280
     0
102
RTVSPost2010PropOp32
 70
     1
102
RTVSPost2010Prop33
280
     0
102
RTVSPost2010PropOp33
 70
     1
102
RTVSPost2010Prop34
280
     0
102
RTVSPost2010PropOp34
 70
     1
102
RTVSPost2010Prop35
280
     0
102
RTVSPost2010PropOp35
 70
     1
102
RTVSPost2010Prop36
280
     0
102
RTVSPost2010PropOp36
 70
     1
102
RTVSPost2010Prop37
 90
       50
102
RTVSPost2010PropOp37
 70
     1
102
RTVSPost2010Prop38
140
0.0
102
RTVSPost2010PropOp38
 70
     1
102
RTVSPost2010Prop39
140
1.0
102
RTVSPost2010PropOp39
 70
     1
102
RTVSPost2010Prop40
 90
        0
102
RTVSPost2010PropOp40
 70
     1
102
RTVSPost2010Prop41ColorIndex
 90
       18
102
RTVSPost2010Prop41ColorRGB
 90
        0
102
RTVSPost2010PropOp41
 70
     1
102
RTVSPost2010Prop42
 90
       50
102
RTVSPost2010PropOp42
 70
     1
102
RTVSPost2010Prop43
 90
        3
102
RTVSPost2010PropOp43
 70
     1
102
RTVSPost2010Prop44ColorIndex
 90
        5
102
RTVSPost2010Prop44ColorRGB
 90
      255
102
RTVSPost2010PropOp44
 70
     1
102
RTVSPost2010Prop45
280
     0
102
RTVSPost2010PropOp45
 70
     1
102
RTVSPost2010Prop46
 90
       50
102
RTVSPost2010PropOp46
 70
     1
102
RTVSPost2010Prop47
 90
       50
102
RTVSPost2010PropOp47
 70
     1
102
RTVSPost2010Prop48
 90
       50
102
RTVSPost2010PropOp48
 70
     1
102
RTVSPost2010Prop49
280
     0
102
RTVSPost2010PropOp49
 70
     1
102
RTVSPost2010Prop50
 90
       50
102
RTVSPost2010PropOp50
 70
     1
102
RTVSPost2010Prop51ColorIndex
 90
      256
102
RTVSPost2010Prop51ColorRGB
 90
-16777216
102
RTVSPost2010PropOp51
 70
     0
102
RTVSPost2010Prop52
140
1.0
102
RTVSPost2010PropOp52
 70
     0
102
RTVSPost2010Prop53
 90
        2
102
RTVSPost2010PropOp53
 70
     1
102
RTVSPost2010Prop54
  1
strokes_ogs.tif
102
RTVSPost2010PropOp54
 70
     1
102
RTVSPost2010Prop55
280
     0
102
RTVSPost2010PropOp55
 70
     1
102
RTVSPost2010Prop56
140
1.0
102
RTVSPost2010PropOp56
 70
     1
102
RTVSPost2010Prop57
140
1.0
102
RTVSPost2010PropOp57
 70
     1
  0
XRECORD
  5
2F47
102
{ACAD_REACTORS
330
2F46
102
}
330
2F46
100
AcDbXrecord
280
     1
102
RTVSPost2010Prop28
280
     0
102
RTVSPost2010PropOp28
 70
     1
102
RTVSPost2010Prop29
280
     1
102
RTVSPost2010PropOp29
 70
     1
102
RTVSPost2010Prop30
280
     1
102
RTVSPost2010PropOp30
 70
     1
102
RTVSPost2010Prop31
280
     0
102
RTVSPost2010PropOp31
 70
     1
102
RTVSPost2010Prop32
280
     0
102
RTVSPost2010PropOp32
 70
     1
102
RTVSPost2010Prop33
280
     0
102
RTVSPost2010PropOp33
 70
     1
102
RTVSPost2010Prop34
280
     0
102
RTVSPost2010PropOp34
 70
     1
102
RTVSPost2010Prop35
280
     0
102
RTVSPost2010PropOp35
 70
     1
102
RTVSPost2010Prop36
280
     0
102
RTVSPost2010PropOp36
 70
     1
102
RTVSPost2010Prop37
 90
       50
102
RTVSPost2010PropOp37
 70
     1
102
RTVSPost2010Prop38
140
0.0
102
RTVSPost2010PropOp38
 70
     1
102
RTVSPost2010Prop39
140
1.0
102
RTVSPost2010PropOp39
 70
     1
102
RTVSPost2010Prop40
 90
        0
102
RTVSPost2010PropOp40
 70
     1
102
RTVSPost2010Prop41ColorIndex
 90
       18
102
RTVSPost2010Prop41ColorRGB
 90
        0
102
RTVSPost2010PropOp41
 70
     1
102
RTVSPost2010Prop42
 90
       50
102
RTVSPost2010PropOp42
 70
     1
102
RTVSPost2010Prop43
 90
        3
102
RTVSPost2010PropOp43
 70
     1
102
RTVSPost2010Prop44ColorIndex
 90
        5
102
RTVSPost2010Prop44ColorRGB
 90
      255
102
RTVSPost2010PropOp44
 70
     1
102
RTVSPost2010Prop45
280
     0
102
RTVSPost2010PropOp45
 70
     1
102
RTVSPost2010Prop46
 90
       50
102
RTVSPost2010PropOp46
 70
     1
102
RTVSPost2010Prop47
 90
       50
102
RTVSPost2010PropOp47
 70
     1
102
RTVSPost2010Prop48
 90
       50
102
RTVSPost2010PropOp48
 70
     1
102
RTVSPost2010Prop49
280
     0
102
RTVSPost2010PropOp49
 70
     1
102
RTVSPost2010Prop50
 90
       50
102
RTVSPost2010PropOp50
 70
     1
102
RTVSPost2010Prop51ColorIndex
 90
      256
102
RTVSPost2010Prop51ColorRGB
 90
-16777216
102
RTVSPost2010PropOp51
 70
     0
102
RTVSPost2010Prop52
140
1.0
102
RTVSPost2010PropOp52
 70
     0
102
RTVSPost2010Prop53
 90
        2
102
RTVSPost2010PropOp53
 70
     1
102
RTVSPost2010Prop54
  1
strokes_ogs.tif
102
RTVSPost2010PropOp54
 70
     1
102
RTVSPost2010Prop55
280
     0
102
RTVSPost2010PropOp55
 70
     1
102
RTVSPost2010Prop56
140
1.0
102
RTVSPost2010PropOp56
 70
     1
102
RTVSPost2010Prop57
140
1.0
102
RTVSPost2010PropOp57
 70
     1
  0
XRECORD
  5
2F4B
102
{ACAD_REACTORS
330
2F4A
102
}
330
2F4A
100
AcDbXrecord
280
     1
102
RTVSPost2010Prop28
280
     0
102
RTVSPost2010PropOp28
 70
     1
102
RTVSPost2010Prop29
280
     1
102
RTVSPost2010PropOp29
 70
     1
102
RTVSPost2010Prop30
280
     1
102
RTVSPost2010PropOp30
 70
     1
102
RTVSPost2010Prop31
280
     0
102
RTVSPost2010PropOp31
 70
     1
102
RTVSPost2010Prop32
280
     0
102
RTVSPost2010PropOp32
 70
     1
102
RTVSPost2010Prop33
280
     0
102
RTVSPost2010PropOp33
 70
     1
102
RTVSPost2010Prop34
280
     0
102
RTVSPost2010PropOp34
 70
     1
102
RTVSPost2010Prop35
280
     0
102
RTVSPost2010PropOp35
 70
     1
102
RTVSPost2010Prop36
280
     0
102
RTVSPost2010PropOp36
 70
     1
102
RTVSPost2010Prop37
 90
       50
102
RTVSPost2010PropOp37
 70
     1
102
RTVSPost2010Prop38
140
0.0
102
RTVSPost2010PropOp38
 70
     1
102
RTVSPost2010Prop39
140
1.0
102
RTVSPost2010PropOp39
 70
     1
102
RTVSPost2010Prop40
 90
        0
102
RTVSPost2010PropOp40
 70
     1
102
RTVSPost2010Prop41ColorIndex
 90
       18
102
RTVSPost2010Prop41ColorRGB
 90
        0
102
RTVSPost2010PropOp41
 70
     1
102
RTVSPost2010Prop42
 90
       50
102
RTVSPost2010PropOp42
 70
     1
102
RTVSPost2010Prop43
 90
        3
102
RTVSPost2010PropOp43
 70
     1
102
RTVSPost2010Prop44ColorIndex
 90
        5
102
RTVSPost2010Prop44ColorRGB
 90
      255
102
RTVSPost2010PropOp44
 70
     1
102
RTVSPost2010Prop45
280
     0
102
RTVSPost2010PropOp45
 70
     1
102
RTVSPost2010Prop46
 90
       50
102
RTVSPost2010PropOp46
 70
     1
102
RTVSPost2010Prop47
 90
       50
102
RTVSPost2010PropOp47
 70
     1
102
RTVSPost2010Prop48
 90
       50
102
RTVSPost2010PropOp48
 70
     1
102
RTVSPost2010Prop49
280
     0
102
RTVSPost2010PropOp49
 70
     1
102
RTVSPost2010Prop50
 90
       50
102
RTVSPost2010PropOp50
 70
     1
102
RTVSPost2010Prop51ColorIndex
 90
      256
102
RTVSPost2010Prop51ColorRGB
 90
-16777216
102
RTVSPost2010PropOp51
 70
     0
102
RTVSPost2010Prop52
140
1.0
102
RTVSPost2010PropOp52
 70
     0
102
RTVSPost2010Prop53
 90
        2
102
RTVSPost2010PropOp53
 70
     1
102
RTVSPost2010Prop54
  1
strokes_ogs.tif
102
RTVSPost2010PropOp54
 70
     1
102
RTVSPost2010Prop55
280
     0
102
RTVSPost2010PropOp55
 70
     1
102
RTVSPost2010Prop56
140
1.0
102
RTVSPost2010PropOp56
 70
     1
102
RTVSPost2010Prop57
140
1.0
102
RTVSPost2010PropOp57
 70
     1
  0
XRECORD
  5
2F65
102
{ACAD_REACTORS
330
2F64
102
}
330
2F64
100
AcDbXrecord
280
     1
102
RTVSPost2010Prop28
280
     0
102
RTVSPost2010PropOp28
 70
     1
102
RTVSPost2010Prop29
280
     1
102
RTVSPost2010PropOp29
 70
     1
102
RTVSPost2010Prop30
280
     1
102
RTVSPost2010PropOp30
 70
     1
102
RTVSPost2010Prop31
280
     0
102
RTVSPost2010PropOp31
 70
     1
102
RTVSPost2010Prop32
280
     0
102
RTVSPost2010PropOp32
 70
     1
102
RTVSPost2010Prop33
280
     0
102
RTVSPost2010PropOp33
 70
     1
102
RTVSPost2010Prop34
280
     0
102
RTVSPost2010PropOp34
 70
     1
102
RTVSPost2010Prop35
280
     0
102
RTVSPost2010PropOp35
 70
     1
102
RTVSPost2010Prop36
280
     0
102
RTVSPost2010PropOp36
 70
     1
102
RTVSPost2010Prop37
 90
       50
102
RTVSPost2010PropOp37
 70
     0
102
RTVSPost2010Prop38
140
0.0
102
RTVSPost2010PropOp38
 70
     0
102
RTVSPost2010Prop39
140
1.0
102
RTVSPost2010PropOp39
 70
     0
102
RTVSPost2010Prop40
 90
        0
102
RTVSPost2010PropOp40
 70
     0
102
RTVSPost2010Prop41ColorIndex
 90
       18
102
RTVSPost2010Prop41ColorRGB
 90
        0
102
RTVSPost2010PropOp41
 70
     0
102
RTVSPost2010Prop42
 90
       50
102
RTVSPost2010PropOp42
 70
     0
102
RTVSPost2010Prop43
 90
        3
102
RTVSPost2010PropOp43
 70
     0
102
RTVSPost2010Prop44ColorIndex
 90
        5
102
RTVSPost2010Prop44ColorRGB
 90
      255
102
RTVSPost2010PropOp44
 70
     0
102
RTVSPost2010Prop45
280
     0
102
RTVSPost2010PropOp45
 70
     1
102
RTVSPost2010Prop46
 90
       50
102
RTVSPost2010PropOp46
 70
     0
102
RTVSPost2010Prop47
 90
       50
102
RTVSPost2010PropOp47
 70
     0
102
RTVSPost2010Prop48
 90
       50
102
RTVSPost2010PropOp48
 70
     0
102
RTVSPost2010Prop49
280
     0
102
RTVSPost2010PropOp49
 70
     1
102
RTVSPost2010Prop50
 90
       50
102
RTVSPost2010PropOp50
 70
     0
102
RTVSPost2010Prop51ColorIndex
 90
      256
102
RTVSPost2010Prop51ColorRGB
 90
-16777216
102
RTVSPost2010PropOp51
 70
     0
102
RTVSPost2010Prop52
140
1.0
102
RTVSPost2010PropOp52
 70
     0
102
RTVSPost2010Prop53
 90
        2
102
RTVSPost2010PropOp53
 70
     0
102
RTVSPost2010Prop54
  1
strokes_ogs.tif
102
RTVSPost2010PropOp54
 70
     0
102
RTVSPost2010Prop55
280
     0
102
RTVSPost2010PropOp55
 70
     1
102
RTVSPost2010Prop56
140
1.0
102
RTVSPost2010PropOp56
 70
     0
102
RTVSPost2010Prop57
140
1.0
102
RTVSPost2010PropOp57
 70
     0
  0
XRECORD
  5
2F53
102
{ACAD_REACTORS
330
2F52
102
}
330
2F52
100
AcDbXrecord
280
     1
102
RTVSPost2010Prop28
280
     0
102
RTVSPost2010PropOp28
 70
     1
102
RTVSPost2010Prop29
280
     1
102
RTVSPost2010PropOp29
 70
     1
102
RTVSPost2010Prop30
280
     1
102
RTVSPost2010PropOp30
 70
     1
102
RTVSPost2010Prop31
280
     0
102
RTVSPost2010PropOp31
 70
     1
102
RTVSPost2010Prop32
280
     0
102
RTVSPost2010PropOp32
 70
     1
102
RTVSPost2010Prop33
280
     0
102
RTVSPost2010PropOp33
 70
     1
102
RTVSPost2010Prop34
280
     0
102
RTVSPost2010PropOp34
 70
     1
102
RTVSPost2010Prop35
280
     0
102
RTVSPost2010PropOp35
 70
     1
102
RTVSPost2010Prop36
280
     0
102
RTVSPost2010PropOp36
 70
     1
102
RTVSPost2010Prop37
 90
       50
102
RTVSPost2010PropOp37
 70
     1
102
RTVSPost2010Prop38
140
0.0
102
RTVSPost2010PropOp38
 70
     1
102
RTVSPost2010Prop39
140
1.0
102
RTVSPost2010PropOp39
 70
     1
102
RTVSPost2010Prop40
 90
        0
102
RTVSPost2010PropOp40
 70
     1
102
RTVSPost2010Prop41ColorIndex
 90
       18
102
RTVSPost2010Prop41ColorRGB
 90
        0
102
RTVSPost2010PropOp41
 70
     1
102
RTVSPost2010Prop42
 90
       50
102
RTVSPost2010PropOp42
 70
     1
102
RTVSPost2010Prop43
 90
        3
102
RTVSPost2010PropOp43
 70
     1
102
RTVSPost2010Prop44ColorIndex
 90
        5
102
RTVSPost2010Prop44ColorRGB
 90
      255
102
RTVSPost2010PropOp44
 70
     1
102
RTVSPost2010Prop45
280
     0
102
RTVSPost2010PropOp45
 70
     1
102
RTVSPost2010Prop46
 90
       50
102
RTVSPost2010PropOp46
 70
     1
102
RTVSPost2010Prop47
 90
       50
102
RTVSPost2010PropOp47
 70
     1
102
RTVSPost2010Prop48
 90
       50
102
RTVSPost2010PropOp48
 70
     1
102
RTVSPost2010Prop49
280
     0
102
RTVSPost2010PropOp49
 70
     1
102
RTVSPost2010Prop50
 90
       50
102
RTVSPost2010PropOp50
 70
     1
102
RTVSPost2010Prop51ColorIndex
 90
      256
102
RTVSPost2010Prop51ColorRGB
 90
-16777216
102
RTVSPost2010PropOp51
 70
     0
102
RTVSPost2010Prop52
140
1.0
102
RTVSPost2010PropOp52
 70
     0
102
RTVSPost2010Prop53
 90
        2
102
RTVSPost2010PropOp53
 70
     1
102
RTVSPost2010Prop54
  1
strokes_ogs.tif
102
RTVSPost2010PropOp54
 70
     1
102
RTVSPost2010Prop55
280
     0
102
RTVSPost2010PropOp55
 70
     1
102
RTVSPost2010Prop56
140
1.0
102
RTVSPost2010PropOp56
 70
     1
102
RTVSPost2010Prop57
140
1.0
102
RTVSPost2010PropOp57
 70
     1
  0
XRECORD
  5
2F37
102
{ACAD_REACTORS
330
2F36
102
}
330
2F36
100
AcDbXrecord
280
     1
102
RTVSPost2010Prop28
280
     0
102
RTVSPost2010PropOp28
 70
     1
102
RTVSPost2010Prop29
280
     1
102
RTVSPost2010PropOp29
 70
     1
102
RTVSPost2010Prop30
280
     1
102
RTVSPost2010PropOp30
 70
     1
102
RTVSPost2010Prop31
280
     0
102
RTVSPost2010PropOp31
 70
     1
102
RTVSPost2010Prop32
280
     0
102
RTVSPost2010PropOp32
 70
     1
102
RTVSPost2010Prop33
280
     0
102
RTVSPost2010PropOp33
 70
     1
102
RTVSPost2010Prop34
280
     0
102
RTVSPost2010PropOp34
 70
     1
102
RTVSPost2010Prop35
280
     0
102
RTVSPost2010PropOp35
 70
     1
102
RTVSPost2010Prop36
280
     0
102
RTVSPost2010PropOp36
 70
     1
102
RTVSPost2010Prop37
 90
       50
102
RTVSPost2010PropOp37
 70
     1
102
RTVSPost2010Prop38
140
0.0
102
RTVSPost2010PropOp38
 70
     1
102
RTVSPost2010Prop39
140
1.0
102
RTVSPost2010PropOp39
 70
     1
102
RTVSPost2010Prop40
 90
        0
102
RTVSPost2010PropOp40
 70
     1
102
RTVSPost2010Prop41ColorIndex
 90
       18
102
RTVSPost2010Prop41ColorRGB
 90
        0
102
RTVSPost2010PropOp41
 70
     1
102
RTVSPost2010Prop42
 90
       50
102
RTVSPost2010PropOp42
 70
     1
102
RTVSPost2010Prop43
 90
        3
102
RTVSPost2010PropOp43
 70
     1
102
RTVSPost2010Prop44ColorIndex
 90
        5
102
RTVSPost2010Prop44ColorRGB
 90
      255
102
RTVSPost2010PropOp44
 70
     1
102
RTVSPost2010Prop45
280
     0
102
RTVSPost2010PropOp45
 70
     1
102
RTVSPost2010Prop46
 90
       50
102
RTVSPost2010PropOp46
 70
     1
102
RTVSPost2010Prop47
 90
       50
102
RTVSPost2010PropOp47
 70
     1
102
RTVSPost2010Prop48
 90
       50
102
RTVSPost2010PropOp48
 70
     1
102
RTVSPost2010Prop49
280
     0
102
RTVSPost2010PropOp49
 70
     1
102
RTVSPost2010Prop50
 90
       50
102
RTVSPost2010PropOp50
 70
     1
102
RTVSPost2010Prop51ColorIndex
 90
      256
102
RTVSPost2010Prop51ColorRGB
 90
-16777216
102
RTVSPost2010PropOp51
 70
     0
102
RTVSPost2010Prop52
140
1.0
102
RTVSPost2010PropOp52
 70
     0
102
RTVSPost2010Prop53
 90
        2
102
RTVSPost2010PropOp53
 70
     1
102
RTVSPost2010Prop54
  1
strokes_ogs.tif
102
RTVSPost2010PropOp54
 70
     1
102
RTVSPost2010Prop55
280
     0
102
RTVSPost2010PropOp55
 70
     1
102
RTVSPost2010Prop56
140
1.0
102
RTVSPost2010PropOp56
 70
     1
102
RTVSPost2010Prop57
140
1.0
102
RTVSPost2010PropOp57
 70
     1
  0
XRECORD
  5
2F39
102
{ACAD_REACTORS
330
2F38
102
}
330
2F38
100
AcDbXrecord
280
     1
102
RTVSPost2010Prop28
280
     0
102
RTVSPost2010PropOp28
 70
     1
102
RTVSPost2010Prop29
280
     1
102
RTVSPost2010PropOp29
 70
     1
102
RTVSPost2010Prop30
280
     1
102
RTVSPost2010PropOp30
 70
     1
102
RTVSPost2010Prop31
280
     0
102
RTVSPost2010PropOp31
 70
     1
102
RTVSPost2010Prop32
280
     0
102
RTVSPost2010PropOp32
 70
     1
102
RTVSPost2010Prop33
280
     0
102
RTVSPost2010PropOp33
 70
     1
102
RTVSPost2010Prop34
280
     0
102
RTVSPost2010PropOp34
 70
     1
102
RTVSPost2010Prop35
280
     0
102
RTVSPost2010PropOp35
 70
     1
102
RTVSPost2010Prop36
280
     0
102
RTVSPost2010PropOp36
 70
     1
102
RTVSPost2010Prop37
 90
       50
102
RTVSPost2010PropOp37
 70
     1
102
RTVSPost2010Prop38
140
0.0
102
RTVSPost2010PropOp38
 70
     1
102
RTVSPost2010Prop39
140
1.0
102
RTVSPost2010PropOp39
 70
     1
102
RTVSPost2010Prop40
 90
        0
102
RTVSPost2010PropOp40
 70
     1
102
RTVSPost2010Prop41ColorIndex
 90
       18
102
RTVSPost2010Prop41ColorRGB
 90
        0
102
RTVSPost2010PropOp41
 70
     1
102
RTVSPost2010Prop42
 90
       50
102
RTVSPost2010PropOp42
 70
     1
102
RTVSPost2010Prop43
 90
        3
102
RTVSPost2010PropOp43
 70
     1
102
RTVSPost2010Prop44ColorIndex
 90
        5
102
RTVSPost2010Prop44ColorRGB
 90
      255
102
RTVSPost2010PropOp44
 70
     1
102
RTVSPost2010Prop45
280
     0
102
RTVSPost2010PropOp45
 70
     1
102
RTVSPost2010Prop46
 90
       50
102
RTVSPost2010PropOp46
 70
     1
102
RTVSPost2010Prop47
 90
       50
102
RTVSPost2010PropOp47
 70
     1
102
RTVSPost2010Prop48
 90
       50
102
RTVSPost2010PropOp48
 70
     1
102
RTVSPost2010Prop49
280
     0
102
RTVSPost2010PropOp49
 70
     1
102
RTVSPost2010Prop50
 90
       50
102
RTVSPost2010PropOp50
 70
     1
102
RTVSPost2010Prop51ColorIndex
 90
      256
102
RTVSPost2010Prop51ColorRGB
 90
-16777216
102
RTVSPost2010PropOp51
 70
     0
102
RTVSPost2010Prop52
140
1.0
102
RTVSPost2010PropOp52
 70
     0
102
RTVSPost2010Prop53
 90
        2
102
RTVSPost2010PropOp53
 70
     1
102
RTVSPost2010Prop54
  1
strokes_ogs.tif
102
RTVSPost2010PropOp54
 70
     1
102
RTVSPost2010Prop55
280
     0
102
RTVSPost2010PropOp55
 70
     1
102
RTVSPost2010Prop56
140
1.0
102
RTVSPost2010PropOp56
 70
     1
102
RTVSPost2010Prop57
140
1.0
102
RTVSPost2010PropOp57
 70
     1
  0
XRECORD
  5
2F3B
102
{ACAD_REACTORS
330
2F3A
102
}
330
2F3A
100
AcDbXrecord
280
     1
102
RTVSPost2010Prop28
280
     0
102
RTVSPost2010PropOp28
 70
     1
102
RTVSPost2010Prop29
280
     1
102
RTVSPost2010PropOp29
 70
     1
102
RTVSPost2010Prop30
280
     1
102
RTVSPost2010PropOp30
 70
     1
102
RTVSPost2010Prop31
280
     0
102
RTVSPost2010PropOp31
 70
     1
102
RTVSPost2010Prop32
280
     0
102
RTVSPost2010PropOp32
 70
     1
102
RTVSPost2010Prop33
280
     0
102
RTVSPost2010PropOp33
 70
     1
102
RTVSPost2010Prop34
280
     0
102
RTVSPost2010PropOp34
 70
     1
102
RTVSPost2010Prop35
280
     0
102
RTVSPost2010PropOp35
 70
     1
102
RTVSPost2010Prop36
280
     0
102
RTVSPost2010PropOp36
 70
     1
102
RTVSPost2010Prop37
 90
       50
102
RTVSPost2010PropOp37
 70
     1
102
RTVSPost2010Prop38
140
0.0
102
RTVSPost2010PropOp38
 70
     1
102
RTVSPost2010Prop39
140
1.0
102
RTVSPost2010PropOp39
 70
     1
102
RTVSPost2010Prop40
 90
        0
102
RTVSPost2010PropOp40
 70
     1
102
RTVSPost2010Prop41ColorIndex
 90
       18
102
RTVSPost2010Prop41ColorRGB
 90
        0
102
RTVSPost2010PropOp41
 70
     1
102
RTVSPost2010Prop42
 90
       50
102
RTVSPost2010PropOp42
 70
     1
102
RTVSPost2010Prop43
 90
        3
102
RTVSPost2010PropOp43
 70
     1
102
RTVSPost2010Prop44ColorIndex
 90
        5
102
RTVSPost2010Prop44ColorRGB
 90
      255
102
RTVSPost2010PropOp44
 70
     1
102
RTVSPost2010Prop45
280
     0
102
RTVSPost2010PropOp45
 70
     1
102
RTVSPost2010Prop46
 90
       50
102
RTVSPost2010PropOp46
 70
     1
102
RTVSPost2010Prop47
 90
       50
102
RTVSPost2010PropOp47
 70
     1
102
RTVSPost2010Prop48
 90
       50
102
RTVSPost2010PropOp48
 70
     1
102
RTVSPost2010Prop49
280
     0
102
RTVSPost2010PropOp49
 70
     1
102
RTVSPost2010Prop50
 90
       50
102
RTVSPost2010PropOp50
 70
     1
102
RTVSPost2010Prop51ColorIndex
 90
      256
102
RTVSPost2010Prop51ColorRGB
 90
-16777216
102
RTVSPost2010PropOp51
 70
     0
102
RTVSPost2010Prop52
140
1.0
102
RTVSPost2010PropOp52
 70
     0
102
RTVSPost2010Prop53
 90
        2
102
RTVSPost2010PropOp53
 70
     1
102
RTVSPost2010Prop54
  1
strokes_ogs.tif
102
RTVSPost2010PropOp54
 70
     1
102
RTVSPost2010Prop55
280
     0
102
RTVSPost2010PropOp55
 70
     1
102
RTVSPost2010Prop56
140
1.0
102
RTVSPost2010PropOp56
 70
     1
102
RTVSPost2010Prop57
140
1.0
102
RTVSPost2010PropOp57
 70
     1
  0
XRECORD
  5
2F3D
102
{ACAD_REACTORS
330
2F3C
102
}
330
2F3C
100
AcDbXrecord
280
     1
102
RTVSPost2010Prop28
280
     0
102
RTVSPost2010PropOp28
 70
     1
102
RTVSPost2010Prop29
280
     1
102
RTVSPost2010PropOp29
 70
     1
102
RTVSPost2010Prop30
280
     1
102
RTVSPost2010PropOp30
 70
     1
102
RTVSPost2010Prop31
280
     0
102
RTVSPost2010PropOp31
 70
     1
102
RTVSPost2010Prop32
280
     0
102
RTVSPost2010PropOp32
 70
     1
102
RTVSPost2010Prop33
280
     0
102
RTVSPost2010PropOp33
 70
     1
102
RTVSPost2010Prop34
280
     0
102
RTVSPost2010PropOp34
 70
     1
102
RTVSPost2010Prop35
280
     0
102
RTVSPost2010PropOp35
 70
     1
102
RTVSPost2010Prop36
280
     0
102
RTVSPost2010PropOp36
 70
     1
102
RTVSPost2010Prop37
 90
       50
102
RTVSPost2010PropOp37
 70
     1
102
RTVSPost2010Prop38
140
0.0
102
RTVSPost2010PropOp38
 70
     1
102
RTVSPost2010Prop39
140
1.0
102
RTVSPost2010PropOp39
 70
     1
102
RTVSPost2010Prop40
 90
        0
102
RTVSPost2010PropOp40
 70
     1
102
RTVSPost2010Prop41ColorIndex
 90
       18
102
RTVSPost2010Prop41ColorRGB
 90
        0
102
RTVSPost2010PropOp41
 70
     1
102
RTVSPost2010Prop42
 90
       50
102
RTVSPost2010PropOp42
 70
     1
102
RTVSPost2010Prop43
 90
        3
102
RTVSPost2010PropOp43
 70
     1
102
RTVSPost2010Prop44ColorIndex
 90
        5
102
RTVSPost2010Prop44ColorRGB
 90
      255
102
RTVSPost2010PropOp44
 70
     1
102
RTVSPost2010Prop45
280
     0
102
RTVSPost2010PropOp45
 70
     1
102
RTVSPost2010Prop46
 90
       50
102
RTVSPost2010PropOp46
 70
     1
102
RTVSPost2010Prop47
 90
       50
102
RTVSPost2010PropOp47
 70
     1
102
RTVSPost2010Prop48
 90
       50
102
RTVSPost2010PropOp48
 70
     1
102
RTVSPost2010Prop49
280
     0
102
RTVSPost2010PropOp49
 70
     1
102
RTVSPost2010Prop50
 90
       50
102
RTVSPost2010PropOp50
 70
     1
102
RTVSPost2010Prop51ColorIndex
 90
      256
102
RTVSPost2010Prop51ColorRGB
 90
-16777216
102
RTVSPost2010PropOp51
 70
     0
102
RTVSPost2010Prop52
140
1.0
102
RTVSPost2010PropOp52
 70
     0
102
RTVSPost2010Prop53
 90
        2
102
RTVSPost2010PropOp53
 70
     1
102
RTVSPost2010Prop54
  1
strokes_ogs.tif
102
RTVSPost2010PropOp54
 70
     1
102
RTVSPost2010Prop55
280
     0
102
RTVSPost2010PropOp55
 70
     1
102
RTVSPost2010Prop56
140
1.0
102
RTVSPost2010PropOp56
 70
     1
102
RTVSPost2010Prop57
140
1.0
102
RTVSPost2010PropOp57
 70
     1
  0
XRECORD
  5
2F45
102
{ACAD_REACTORS
330
2F44
102
}
330
2F44
100
AcDbXrecord
280
     1
102
RTVSPost2010Prop28
280
     0
102
RTVSPost2010PropOp28
 70
     1
102
RTVSPost2010Prop29
280
     1
102
RTVSPost2010PropOp29
 70
     1
102
RTVSPost2010Prop30
280
     1
102
RTVSPost2010PropOp30
 70
     1
102
RTVSPost2010Prop31
280
     0
102
RTVSPost2010PropOp31
 70
     1
102
RTVSPost2010Prop32
280
     0
102
RTVSPost2010PropOp32
 70
     1
102
RTVSPost2010Prop33
280
     0
102
RTVSPost2010PropOp33
 70
     1
102
RTVSPost2010Prop34
280
     0
102
RTVSPost2010PropOp34
 70
     1
102
RTVSPost2010Prop35
280
     0
102
RTVSPost2010PropOp35
 70
     1
102
RTVSPost2010Prop36
280
     0
102
RTVSPost2010PropOp36
 70
     1
102
RTVSPost2010Prop37
 90
       50
102
RTVSPost2010PropOp37
 70
     1
102
RTVSPost2010Prop38
140
0.0
102
RTVSPost2010PropOp38
 70
     1
102
RTVSPost2010Prop39
140
1.0
102
RTVSPost2010PropOp39
 70
     1
102
RTVSPost2010Prop40
 90
        0
102
RTVSPost2010PropOp40
 70
     1
102
RTVSPost2010Prop41ColorIndex
 90
       18
102
RTVSPost2010Prop41ColorRGB
 90
        0
102
RTVSPost2010PropOp41
 70
     1
102
RTVSPost2010Prop42
 90
       50
102
RTVSPost2010PropOp42
 70
     1
102
RTVSPost2010Prop43
 90
        3
102
RTVSPost2010PropOp43
 70
     1
102
RTVSPost2010Prop44ColorIndex
 90
        5
102
RTVSPost2010Prop44ColorRGB
 90
      255
102
RTVSPost2010PropOp44
 70
     1
102
RTVSPost2010Prop45
280
     0
102
RTVSPost2010PropOp45
 70
     1
102
RTVSPost2010Prop46
 90
       50
102
RTVSPost2010PropOp46
 70
     1
102
RTVSPost2010Prop47
 90
       50
102
RTVSPost2010PropOp47
 70
     1
102
RTVSPost2010Prop48
 90
       50
102
RTVSPost2010PropOp48
 70
     1
102
RTVSPost2010Prop49
280
     0
102
RTVSPost2010PropOp49
 70
     1
102
RTVSPost2010Prop50
 90
       50
102
RTVSPost2010PropOp50
 70
     1
102
RTVSPost2010Prop51ColorIndex
 90
      256
102
RTVSPost2010Prop51ColorRGB
 90
-16777216
102
RTVSPost2010PropOp51
 70
     0
102
RTVSPost2010Prop52
140
1.0
102
RTVSPost2010PropOp52
 70
     0
102
RTVSPost2010Prop53
 90
        2
102
RTVSPost2010PropOp53
 70
     1
102
RTVSPost2010Prop54
  1
strokes_ogs.tif
102
RTVSPost2010PropOp54
 70
     1
102
RTVSPost2010Prop55
280
     0
102
RTVSPost2010PropOp55
 70
     1
102
RTVSPost2010Prop56
140
1.0
102
RTVSPost2010PropOp56
 70
     1
102
RTVSPost2010Prop57
140
1.0
102
RTVSPost2010PropOp57
 70
     1
  0
XRECORD
  5
2F61
102
{ACAD_REACTORS
330
2F60
102
}
330
2F60
100
AcDbXrecord
280
     1
102
RTVSPost2010Prop28
280
     0
102
RTVSPost2010PropOp28
 70
     1
102
RTVSPost2010Prop29
280
     1
102
RTVSPost2010PropOp29
 70
     1
102
RTVSPost2010Prop30
280
     1
102
RTVSPost2010PropOp30
 70
     1
102
RTVSPost2010Prop31
280
     0
102
RTVSPost2010PropOp31
 70
     1
102
RTVSPost2010Prop32
280
     0
102
RTVSPost2010PropOp32
 70
     1
102
RTVSPost2010Prop33
280
     0
102
RTVSPost2010PropOp33
 70
     1
102
RTVSPost2010Prop34
280
     0
102
RTVSPost2010PropOp34
 70
     1
102
RTVSPost2010Prop35
280
     0
102
RTVSPost2010PropOp35
 70
     1
102
RTVSPost2010Prop36
280
     0
102
RTVSPost2010PropOp36
 70
     1
102
RTVSPost2010Prop37
 90
       50
102
RTVSPost2010PropOp37
 70
     0
102
RTVSPost2010Prop38
140
0.0
102
RTVSPost2010PropOp38
 70
     0
102
RTVSPost2010Prop39
140
1.0
102
RTVSPost2010PropOp39
 70
     0
102
RTVSPost2010Prop40
 90
        0
102
RTVSPost2010PropOp40
 70
     0
102
RTVSPost2010Prop41ColorIndex
 90
       18
102
RTVSPost2010Prop41ColorRGB
 90
        0
102
RTVSPost2010PropOp41
 70
     0
102
RTVSPost2010Prop42
 90
       50
102
RTVSPost2010PropOp42
 70
     0
102
RTVSPost2010Prop43
 90
        3
102
RTVSPost2010PropOp43
 70
     0
102
RTVSPost2010Prop44ColorIndex
 90
        5
102
RTVSPost2010Prop44ColorRGB
 90
      255
102
RTVSPost2010PropOp44
 70
     0
102
RTVSPost2010Prop45
280
     0
102
RTVSPost2010PropOp45
 70
     1
102
RTVSPost2010Prop46
 90
       50
102
RTVSPost2010PropOp46
 70
     0
102
RTVSPost2010Prop47
 90
       50
102
RTVSPost2010PropOp47
 70
     0
102
RTVSPost2010Prop48
 90
       50
102
RTVSPost2010PropOp48
 70
     0
102
RTVSPost2010Prop49
280
     0
102
RTVSPost2010PropOp49
 70
     1
102
RTVSPost2010Prop50
 90
       50
102
RTVSPost2010PropOp50
 70
     0
102
RTVSPost2010Prop51ColorIndex
 90
      256
102
RTVSPost2010Prop51ColorRGB
 90
-16777216
102
RTVSPost2010PropOp51
 70
     0
102
RTVSPost2010Prop52
140
1.0
102
RTVSPost2010PropOp52
 70
     0
102
RTVSPost2010Prop53
 90
        2
102
RTVSPost2010PropOp53
 70
     0
102
RTVSPost2010Prop54
  1
strokes_ogs.tif
102
RTVSPost2010PropOp54
 70
     0
102
RTVSPost2010Prop55
280
     0
102
RTVSPost2010PropOp55
 70
     1
102
RTVSPost2010Prop56
140
1.0
102
RTVSPost2010PropOp56
 70
     0
102
RTVSPost2010Prop57
140
1.0
102
RTVSPost2010PropOp57
 70
     0
  0
XRECORD
  5
2F51
102
{ACAD_REACTORS
330
2F50
102
}
330
2F50
100
AcDbXrecord
280
     1
102
RTVSPost2010Prop28
280
     0
102
RTVSPost2010PropOp28
 70
     1
102
RTVSPost2010Prop29
280
     1
102
RTVSPost2010PropOp29
 70
     1
102
RTVSPost2010Prop30
280
     1
102
RTVSPost2010PropOp30
 70
     1
102
RTVSPost2010Prop31
280
     0
102
RTVSPost2010PropOp31
 70
     1
102
RTVSPost2010Prop32
280
     0
102
RTVSPost2010PropOp32
 70
     1
102
RTVSPost2010Prop33
280
     0
102
RTVSPost2010PropOp33
 70
     1
102
RTVSPost2010Prop34
280
     0
102
RTVSPost2010PropOp34
 70
     1
102
RTVSPost2010Prop35
280
     0
102
RTVSPost2010PropOp35
 70
     1
102
RTVSPost2010Prop36
280
     0
102
RTVSPost2010PropOp36
 70
     1
102
RTVSPost2010Prop37
 90
       50
102
RTVSPost2010PropOp37
 70
     1
102
RTVSPost2010Prop38
140
0.0
102
RTVSPost2010PropOp38
 70
     1
102
RTVSPost2010Prop39
140
1.0
102
RTVSPost2010PropOp39
 70
     1
102
RTVSPost2010Prop40
 90
        0
102
RTVSPost2010PropOp40
 70
     1
102
RTVSPost2010Prop41ColorIndex
 90
       18
102
RTVSPost2010Prop41ColorRGB
 90
        0
102
RTVSPost2010PropOp41
 70
     1
102
RTVSPost2010Prop42
 90
       50
102
RTVSPost2010PropOp42
 70
     1
102
RTVSPost2010Prop43
 90
        3
102
RTVSPost2010PropOp43
 70
     1
102
RTVSPost2010Prop44ColorIndex
 90
        5
102
RTVSPost2010Prop44ColorRGB
 90
      255
102
RTVSPost2010PropOp44
 70
     1
102
RTVSPost2010Prop45
280
     0
102
RTVSPost2010PropOp45
 70
     1
102
RTVSPost2010Prop46
 90
       50
102
RTVSPost2010PropOp46
 70
     1
102
RTVSPost2010Prop47
 90
       50
102
RTVSPost2010PropOp47
 70
     1
102
RTVSPost2010Prop48
 90
       50
102
RTVSPost2010PropOp48
 70
     1
102
RTVSPost2010Prop49
280
     0
102
RTVSPost2010PropOp49
 70
     1
102
RTVSPost2010Prop50
 90
       50
102
RTVSPost2010PropOp50
 70
     1
102
RTVSPost2010Prop51ColorIndex
 90
      256
102
RTVSPost2010Prop51ColorRGB
 90
-16777216
102
RTVSPost2010PropOp51
 70
     0
102
RTVSPost2010Prop52
140
1.0
102
RTVSPost2010PropOp52
 70
     0
102
RTVSPost2010Prop53
 90
        2
102
RTVSPost2010PropOp53
 70
     1
102
RTVSPost2010Prop54
  1
strokes_ogs.tif
102
RTVSPost2010PropOp54
 70
     1
102
RTVSPost2010Prop55
280
     0
102
RTVSPost2010PropOp55
 70
     1
102
RTVSPost2010Prop56
140
1.0
102
RTVSPost2010PropOp56
 70
     1
102
RTVSPost2010Prop57
140
1.0
102
RTVSPost2010PropOp57
 70
     1
  0
XRECORD
  5
2F63
102
{ACAD_REACTORS
330
2F62
102
}
330
2F62
100
AcDbXrecord
280
     1
102
RTVSPost2010Prop28
280
     0
102
RTVSPost2010PropOp28
 70
     1
102
RTVSPost2010Prop29
280
     1
102
RTVSPost2010PropOp29
 70
     1
102
RTVSPost2010Prop30
280
     1
102
RTVSPost2010PropOp30
 70
     1
102
RTVSPost2010Prop31
280
     0
102
RTVSPost2010PropOp31
 70
     1
102
RTVSPost2010Prop32
280
     0
102
RTVSPost2010PropOp32
 70
     1
102
RTVSPost2010Prop33
280
     0
102
RTVSPost2010PropOp33
 70
     1
102
RTVSPost2010Prop34
280
     0
102
RTVSPost2010PropOp34
 70
     1
102
RTVSPost2010Prop35
280
     0
102
RTVSPost2010PropOp35
 70
     1
102
RTVSPost2010Prop36
280
     0
102
RTVSPost2010PropOp36
 70
     1
102
RTVSPost2010Prop37
 90
       50
102
RTVSPost2010PropOp37
 70
     0
102
RTVSPost2010Prop38
140
0.0
102
RTVSPost2010PropOp38
 70
     0
102
RTVSPost2010Prop39
140
1.0
102
RTVSPost2010PropOp39
 70
     0
102
RTVSPost2010Prop40
 90
        0
102
RTVSPost2010PropOp40
 70
     0
102
RTVSPost2010Prop41ColorIndex
 90
       18
102
RTVSPost2010Prop41ColorRGB
 90
        0
102
RTVSPost2010PropOp41
 70
     0
102
RTVSPost2010Prop42
 90
       50
102
RTVSPost2010PropOp42
 70
     0
102
RTVSPost2010Prop43
 90
        3
102
RTVSPost2010PropOp43
 70
     0
102
RTVSPost2010Prop44ColorIndex
 90
        5
102
RTVSPost2010Prop44ColorRGB
 90
      255
102
RTVSPost2010PropOp44
 70
     0
102
RTVSPost2010Prop45
280
     0
102
RTVSPost2010PropOp45
 70
     1
102
RTVSPost2010Prop46
 90
       50
102
RTVSPost2010PropOp46
 70
     0
102
RTVSPost2010Prop47
 90
       50
102
RTVSPost2010PropOp47
 70
     0
102
RTVSPost2010Prop48
 90
       50
102
RTVSPost2010PropOp48
 70
     0
102
RTVSPost2010Prop49
280
     0
102
RTVSPost2010PropOp49
 70
     1
102
RTVSPost2010Prop50
 90
       50
102
RTVSPost2010PropOp50
 70
     0
102
RTVSPost2010Prop51ColorIndex
 90
      256
102
RTVSPost2010Prop51ColorRGB
 90
-16777216
102
RTVSPost2010PropOp51
 70
     0
102
RTVSPost2010Prop52
140
1.0
102
RTVSPost2010PropOp52
 70
     0
102
RTVSPost2010Prop53
 90
        2
102
RTVSPost2010PropOp53
 70
     0
102
RTVSPost2010Prop54
  1
strokes_ogs.tif
102
RTVSPost2010PropOp54
 70
     0
102
RTVSPost2010Prop55
280
     0
102
RTVSPost2010PropOp55
 70
     1
102
RTVSPost2010Prop56
140
1.0
102
RTVSPost2010PropOp56
 70
     0
102
RTVSPost2010Prop57
140
1.0
102
RTVSPost2010PropOp57
 70
     0
  0
XRECORD
  5
2F49
102
{ACAD_REACTORS
330
2F48
102
}
330
2F48
100
AcDbXrecord
280
     1
102
RTVSPost2010Prop28
280
     0
102
RTVSPost2010PropOp28
 70
     1
102
RTVSPost2010Prop29
280
     1
102
RTVSPost2010PropOp29
 70
     1
102
RTVSPost2010Prop30
280
     1
102
RTVSPost2010PropOp30
 70
     1
102
RTVSPost2010Prop31
280
     0
102
RTVSPost2010PropOp31
 70
     1
102
RTVSPost2010Prop32
280
     0
102
RTVSPost2010PropOp32
 70
     1
102
RTVSPost2010Prop33
280
     0
102
RTVSPost2010PropOp33
 70
     1
102
RTVSPost2010Prop34
280
     0
102
RTVSPost2010PropOp34
 70
     1
102
RTVSPost2010Prop35
280
     0
102
RTVSPost2010PropOp35
 70
     1
102
RTVSPost2010Prop36
280
     0
102
RTVSPost2010PropOp36
 70
     1
102
RTVSPost2010Prop37
 90
       50
102
RTVSPost2010PropOp37
 70
     1
102
RTVSPost2010Prop38
140
0.0
102
RTVSPost2010PropOp38
 70
     1
102
RTVSPost2010Prop39
140
1.0
102
RTVSPost2010PropOp39
 70
     1
102
RTVSPost2010Prop40
 90
        0
102
RTVSPost2010PropOp40
 70
     1
102
RTVSPost2010Prop41ColorIndex
 90
       18
102
RTVSPost2010Prop41ColorRGB
 90
        0
102
RTVSPost2010PropOp41
 70
     1
102
RTVSPost2010Prop42
 90
       50
102
RTVSPost2010PropOp42
 70
     1
102
RTVSPost2010Prop43
 90
        3
102
RTVSPost2010PropOp43
 70
     1
102
RTVSPost2010Prop44ColorIndex
 90
        5
102
RTVSPost2010Prop44ColorRGB
 90
      255
102
RTVSPost2010PropOp44
 70
     1
102
RTVSPost2010Prop45
280
     0
102
RTVSPost2010PropOp45
 70
     1
102
RTVSPost2010Prop46
 90
       50
102
RTVSPost2010PropOp46
 70
     1
102
RTVSPost2010Prop47
 90
       50
102
RTVSPost2010PropOp47
 70
     1
102
RTVSPost2010Prop48
 90
       50
102
RTVSPost2010PropOp48
 70
     1
102
RTVSPost2010Prop49
280
     0
102
RTVSPost2010PropOp49
 70
     1
102
RTVSPost2010Prop50
 90
       50
102
RTVSPost2010PropOp50
 70
     1
102
RTVSPost2010Prop51ColorIndex
 90
      256
102
RTVSPost2010Prop51ColorRGB
 90
-16777216
102
RTVSPost2010PropOp51
 70
     0
102
RTVSPost2010Prop52
140
1.0
102
RTVSPost2010PropOp52
 70
     0
102
RTVSPost2010Prop53
 90
        2
102
RTVSPost2010PropOp53
 70
     1
102
RTVSPost2010Prop54
  1
strokes_ogs.tif
102
RTVSPost2010PropOp54
 70
     1
102
RTVSPost2010Prop55
280
     0
102
RTVSPost2010PropOp55
 70
     1
102
RTVSPost2010Prop56
140
1.0
102
RTVSPost2010PropOp56
 70
     1
102
RTVSPost2010Prop57
140
1.0
102
RTVSPost2010PropOp57
 70
     1
  0
XRECORD
  5
2F5F
102
{ACAD_REACTORS
330
2F5E
102
}
330
2F5E
100
AcDbXrecord
280
     1
102
RTVSPost2010Prop28
280
     0
102
RTVSPost2010PropOp28
 70
     1
102
RTVSPost2010Prop29
280
     1
102
RTVSPost2010PropOp29
 70
     1
102
RTVSPost2010Prop30
280
     1
102
RTVSPost2010PropOp30
 70
     1
102
RTVSPost2010Prop31
280
     0
102
RTVSPost2010PropOp31
 70
     1
102
RTVSPost2010Prop32
280
     0
102
RTVSPost2010PropOp32
 70
     1
102
RTVSPost2010Prop33
280
     0
102
RTVSPost2010PropOp33
 70
     1
102
RTVSPost2010Prop34
280
     0
102
RTVSPost2010PropOp34
 70
     1
102
RTVSPost2010Prop35
280
     0
102
RTVSPost2010PropOp35
 70
     1
102
RTVSPost2010Prop36
280
     0
102
RTVSPost2010PropOp36
 70
     1
102
RTVSPost2010Prop37
 90
       50
102
RTVSPost2010PropOp37
 70
     1
102
RTVSPost2010Prop38
140
0.0
102
RTVSPost2010PropOp38
 70
     1
102
RTVSPost2010Prop39
140
1.0
102
RTVSPost2010PropOp39
 70
     1
102
RTVSPost2010Prop40
 90
        0
102
RTVSPost2010PropOp40
 70
     1
102
RTVSPost2010Prop41ColorIndex
 90
       18
102
RTVSPost2010Prop41ColorRGB
 90
        0
102
RTVSPost2010PropOp41
 70
     1
102
RTVSPost2010Prop42
 90
       50
102
RTVSPost2010PropOp42
 70
     1
102
RTVSPost2010Prop43
 90
        3
102
RTVSPost2010PropOp43
 70
     1
102
RTVSPost2010Prop44ColorIndex
 90
        5
102
RTVSPost2010Prop44ColorRGB
 90
      255
102
RTVSPost2010PropOp44
 70
     1
102
RTVSPost2010Prop45
280
     0
102
RTVSPost2010PropOp45
 70
     1
102
RTVSPost2010Prop46
 90
       50
102
RTVSPost2010PropOp46
 70
     1
102
RTVSPost2010Prop47
 90
       50
102
RTVSPost2010PropOp47
 70
     1
102
RTVSPost2010Prop48
 90
       50
102
RTVSPost2010PropOp48
 70
     1
102
RTVSPost2010Prop49
280
     0
102
RTVSPost2010PropOp49
 70
     1
102
RTVSPost2010Prop50
 90
       50
102
RTVSPost2010PropOp50
 70
     1
102
RTVSPost2010Prop51ColorIndex
 90
      256
102
RTVSPost2010Prop51ColorRGB
 90
-16777216
102
RTVSPost2010PropOp51
 70
     0
102
RTVSPost2010Prop52
140
1.0
102
RTVSPost2010PropOp52
 70
     0
102
RTVSPost2010Prop53
 90
        2
102
RTVSPost2010PropOp53
 70
     1
102
RTVSPost2010Prop54
  1
strokes_ogs.tif
102
RTVSPost2010PropOp54
 70
     1
102
RTVSPost2010Prop55
280
     0
102
RTVSPost2010PropOp55
 70
     1
102
RTVSPost2010Prop56
140
1.0
102
RTVSPost2010PropOp56
 70
     1
102
RTVSPost2010Prop57
140
1.0
102
RTVSPost2010PropOp57
 70
     1
  0
XRECORD
  5
2F5D
102
{ACAD_REACTORS
330
2F5C
102
}
330
2F5C
100
AcDbXrecord
280
     1
102
RTVSPost2010Prop28
280
     0
102
RTVSPost2010PropOp28
 70
     1
102
RTVSPost2010Prop29
280
     1
102
RTVSPost2010PropOp29
 70
     1
102
RTVSPost2010Prop30
280
     1
102
RTVSPost2010PropOp30
 70
     1
102
RTVSPost2010Prop31
280
     0
102
RTVSPost2010PropOp31
 70
     1
102
RTVSPost2010Prop32
280
     0
102
RTVSPost2010PropOp32
 70
     1
102
RTVSPost2010Prop33
280
     0
102
RTVSPost2010PropOp33
 70
     1
102
RTVSPost2010Prop34
280
     0
102
RTVSPost2010PropOp34
 70
     1
102
RTVSPost2010Prop35
280
     0
102
RTVSPost2010PropOp35
 70
     1
102
RTVSPost2010Prop36
280
     0
102
RTVSPost2010PropOp36
 70
     1
102
RTVSPost2010Prop37
 90
       50
102
RTVSPost2010PropOp37
 70
     1
102
RTVSPost2010Prop38
140
0.0
102
RTVSPost2010PropOp38
 70
     1
102
RTVSPost2010Prop39
140
1.0
102
RTVSPost2010PropOp39
 70
     1
102
RTVSPost2010Prop40
 90
        0
102
RTVSPost2010PropOp40
 70
     1
102
RTVSPost2010Prop41ColorIndex
 90
       18
102
RTVSPost2010Prop41ColorRGB
 90
        0
102
RTVSPost2010PropOp41
 70
     1
102
RTVSPost2010Prop42
 90
       50
102
RTVSPost2010PropOp42
 70
     1
102
RTVSPost2010Prop43
 90
        3
102
RTVSPost2010PropOp43
 70
     1
102
RTVSPost2010Prop44ColorIndex
 90
        5
102
RTVSPost2010Prop44ColorRGB
 90
      255
102
RTVSPost2010PropOp44
 70
     1
102
RTVSPost2010Prop45
280
     0
102
RTVSPost2010PropOp45
 70
     1
102
RTVSPost2010Prop46
 90
       50
102
RTVSPost2010PropOp46
 70
     1
102
RTVSPost2010Prop47
 90
       50
102
RTVSPost2010PropOp47
 70
     1
102
RTVSPost2010Prop48
 90
       50
102
RTVSPost2010PropOp48
 70
     1
102
RTVSPost2010Prop49
280
     0
102
RTVSPost2010PropOp49
 70
     1
102
RTVSPost2010Prop50
 90
       50
102
RTVSPost2010PropOp50
 70
     1
102
RTVSPost2010Prop51ColorIndex
 90
      256
102
RTVSPost2010Prop51ColorRGB
 90
-16777216
102
RTVSPost2010PropOp51
 70
     0
102
RTVSPost2010Prop52
140
1.0
102
RTVSPost2010PropOp52
 70
     0
102
RTVSPost2010Prop53
 90
        2
102
RTVSPost2010PropOp53
 70
     1
102
RTVSPost2010Prop54
  1
strokes_ogs.tif
102
RTVSPost2010PropOp54
 70
     1
102
RTVSPost2010Prop55
280
     0
102
RTVSPost2010PropOp55
 70
     1
102
RTVSPost2010Prop56
140
1.0
102
RTVSPost2010PropOp56
 70
     1
102
RTVSPost2010Prop57
140
1.0
102
RTVSPost2010PropOp57
 70
     1
  0
XRECORD
  5
2F57
102
{ACAD_REACTORS
330
2F56
102
}
330
2F56
100
AcDbXrecord
280
     1
102
RTVSPost2010Prop28
280
     0
102
RTVSPost2010PropOp28
 70
     1
102
RTVSPost2010Prop29
280
     1
102
RTVSPost2010PropOp29
 70
     1
102
RTVSPost2010Prop30
280
     1
102
RTVSPost2010PropOp30
 70
     1
102
RTVSPost2010Prop31
280
     0
102
RTVSPost2010PropOp31
 70
     1
102
RTVSPost2010Prop32
280
     0
102
RTVSPost2010PropOp32
 70
     1
102
RTVSPost2010Prop33
280
     0
102
RTVSPost2010PropOp33
 70
     1
102
RTVSPost2010Prop34
280
     0
102
RTVSPost2010PropOp34
 70
     1
102
RTVSPost2010Prop35
280
     0
102
RTVSPost2010PropOp35
 70
     1
102
RTVSPost2010Prop36
280
     0
102
RTVSPost2010PropOp36
 70
     1
102
RTVSPost2010Prop37
 90
       50
102
RTVSPost2010PropOp37
 70
     1
102
RTVSPost2010Prop38
140
0.0
102
RTVSPost2010PropOp38
 70
     1
102
RTVSPost2010Prop39
140
1.0
102
RTVSPost2010PropOp39
 70
     1
102
RTVSPost2010Prop40
 90
        0
102
RTVSPost2010PropOp40
 70
     1
102
RTVSPost2010Prop41ColorIndex
 90
       18
102
RTVSPost2010Prop41ColorRGB
 90
        0
102
RTVSPost2010PropOp41
 70
     1
102
RTVSPost2010Prop42
 90
       50
102
RTVSPost2010PropOp42
 70
     1
102
RTVSPost2010Prop43
 90
        3
102
RTVSPost2010PropOp43
 70
     1
102
RTVSPost2010Prop44ColorIndex
 90
        5
102
RTVSPost2010Prop44ColorRGB
 90
      255
102
RTVSPost2010PropOp44
 70
     1
102
RTVSPost2010Prop45
280
     0
102
RTVSPost2010PropOp45
 70
     1
102
RTVSPost2010Prop46
 90
       50
102
RTVSPost2010PropOp46
 70
     1
102
RTVSPost2010Prop47
 90
       50
102
RTVSPost2010PropOp47
 70
     1
102
RTVSPost2010Prop48
 90
       50
102
RTVSPost2010PropOp48
 70
     1
102
RTVSPost2010Prop49
280
     0
102
RTVSPost2010PropOp49
 70
     1
102
RTVSPost2010Prop50
 90
       50
102
RTVSPost2010PropOp50
 70
     1
102
RTVSPost2010Prop51ColorIndex
 90
      256
102
RTVSPost2010Prop51ColorRGB
 90
-16777216
102
RTVSPost2010PropOp51
 70
     0
102
RTVSPost2010Prop52
140
1.0
102
RTVSPost2010PropOp52
 70
     0
102
RTVSPost2010Prop53
 90
        2
102
RTVSPost2010PropOp53
 70
     1
102
RTVSPost2010Prop54
  1
strokes_ogs.tif
102
RTVSPost2010PropOp54
 70
     1
102
RTVSPost2010Prop55
280
     0
102
RTVSPost2010PropOp55
 70
     1
102
RTVSPost2010Prop56
140
1.0
102
RTVSPost2010PropOp56
 70
     1
102
RTVSPost2010Prop57
140
1.0
102
RTVSPost2010PropOp57
 70
     1
  0
XRECORD
  5
2F59
102
{ACAD_REACTORS
330
2F58
102
}
330
2F58
100
AcDbXrecord
280
     1
102
RTVSPost2010Prop28
280
     0
102
RTVSPost2010PropOp28
 70
     1
102
RTVSPost2010Prop29
280
     1
102
RTVSPost2010PropOp29
 70
     1
102
RTVSPost2010Prop30
280
     1
102
RTVSPost2010PropOp30
 70
     1
102
RTVSPost2010Prop31
280
     0
102
RTVSPost2010PropOp31
 70
     1
102
RTVSPost2010Prop32
280
     0
102
RTVSPost2010PropOp32
 70
     1
102
RTVSPost2010Prop33
280
     0
102
RTVSPost2010PropOp33
 70
     1
102
RTVSPost2010Prop34
280
     0
102
RTVSPost2010PropOp34
 70
     1
102
RTVSPost2010Prop35
280
     0
102
RTVSPost2010PropOp35
 70
     1
102
RTVSPost2010Prop36
280
     0
102
RTVSPost2010PropOp36
 70
     1
102
RTVSPost2010Prop37
 90
       50
102
RTVSPost2010PropOp37
 70
     1
102
RTVSPost2010Prop38
140
0.0
102
RTVSPost2010PropOp38
 70
     1
102
RTVSPost2010Prop39
140
1.0
102
RTVSPost2010PropOp39
 70
     1
102
RTVSPost2010Prop40
 90
        0
102
RTVSPost2010PropOp40
 70
     1
102
RTVSPost2010Prop41ColorIndex
 90
       18
102
RTVSPost2010Prop41ColorRGB
 90
        0
102
RTVSPost2010PropOp41
 70
     1
102
RTVSPost2010Prop42
 90
       50
102
RTVSPost2010PropOp42
 70
     1
102
RTVSPost2010Prop43
 90
        3
102
RTVSPost2010PropOp43
 70
     1
102
RTVSPost2010Prop44ColorIndex
 90
        5
102
RTVSPost2010Prop44ColorRGB
 90
      255
102
RTVSPost2010PropOp44
 70
     1
102
RTVSPost2010Prop45
280
     0
102
RTVSPost2010PropOp45
 70
     1
102
RTVSPost2010Prop46
 90
       50
102
RTVSPost2010PropOp46
 70
     1
102
RTVSPost2010Prop47
 90
       50
102
RTVSPost2010PropOp47
 70
     1
102
RTVSPost2010Prop48
 90
       50
102
RTVSPost2010PropOp48
 70
     1
102
RTVSPost2010Prop49
280
     0
102
RTVSPost2010PropOp49
 70
     1
102
RTVSPost2010Prop50
 90
       50
102
RTVSPost2010PropOp50
 70
     1
102
RTVSPost2010Prop51ColorIndex
 90
      256
102
RTVSPost2010Prop51ColorRGB
 90
-16777216
102
RTVSPost2010PropOp51
 70
     0
102
RTVSPost2010Prop52
140
1.0
102
RTVSPost2010PropOp52
 70
     0
102
RTVSPost2010Prop53
 90
        2
102
RTVSPost2010PropOp53
 70
     1
102
RTVSPost2010Prop54
  1
strokes_ogs.tif
102
RTVSPost2010PropOp54
 70
     1
102
RTVSPost2010Prop55
280
     0
102
RTVSPost2010PropOp55
 70
     1
102
RTVSPost2010Prop56
140
1.0
102
RTVSPost2010PropOp56
 70
     1
102
RTVSPost2010Prop57
140
1.0
102
RTVSPost2010PropOp57
 70
     1
  0
XRECORD
  5
2F4F
102
{ACAD_REACTORS
330
2F4E
102
}
330
2F4E
100
AcDbXrecord
280
     1
102
RTVSPost2010Prop28
280
     0
102
RTVSPost2010PropOp28
 70
     1
102
RTVSPost2010Prop29
280
     1
102
RTVSPost2010PropOp29
 70
     1
102
RTVSPost2010Prop30
280
     1
102
RTVSPost2010PropOp30
 70
     1
102
RTVSPost2010Prop31
280
     0
102
RTVSPost2010PropOp31
 70
     1
102
RTVSPost2010Prop32
280
     0
102
RTVSPost2010PropOp32
 70
     1
102
RTVSPost2010Prop33
280
     0
102
RTVSPost2010PropOp33
 70
     1
102
RTVSPost2010Prop34
280
     0
102
RTVSPost2010PropOp34
 70
     1
102
RTVSPost2010Prop35
280
     0
102
RTVSPost2010PropOp35
 70
     1
102
RTVSPost2010Prop36
280
     0
102
RTVSPost2010PropOp36
 70
     1
102
RTVSPost2010Prop37
 90
       50
102
RTVSPost2010PropOp37
 70
     1
102
RTVSPost2010Prop38
140
0.0
102
RTVSPost2010PropOp38
 70
     1
102
RTVSPost2010Prop39
140
1.0
102
RTVSPost2010PropOp39
 70
     1
102
RTVSPost2010Prop40
 90
        0
102
RTVSPost2010PropOp40
 70
     1
102
RTVSPost2010Prop41ColorIndex
 90
       18
102
RTVSPost2010Prop41ColorRGB
 90
        0
102
RTVSPost2010PropOp41
 70
     1
102
RTVSPost2010Prop42
 90
       50
102
RTVSPost2010PropOp42
 70
     1
102
RTVSPost2010Prop43
 90
        3
102
RTVSPost2010PropOp43
 70
     1
102
RTVSPost2010Prop44ColorIndex
 90
        5
102
RTVSPost2010Prop44ColorRGB
 90
      255
102
RTVSPost2010PropOp44
 70
     1
102
RTVSPost2010Prop45
280
     0
102
RTVSPost2010PropOp45
 70
     1
102
RTVSPost2010Prop46
 90
       50
102
RTVSPost2010PropOp46
 70
     1
102
RTVSPost2010Prop47
 90
       50
102
RTVSPost2010PropOp47
 70
     1
102
RTVSPost2010Prop48
 90
       50
102
RTVSPost2010PropOp48
 70
     1
102
RTVSPost2010Prop49
280
     0
102
RTVSPost2010PropOp49
 70
     1
102
RTVSPost2010Prop50
 90
       50
102
RTVSPost2010PropOp50
 70
     1
102
RTVSPost2010Prop51ColorIndex
 90
      256
102
RTVSPost2010Prop51ColorRGB
 90
-16777216
102
RTVSPost2010PropOp51
 70
     0
102
RTVSPost2010Prop52
140
1.0
102
RTVSPost2010PropOp52
 70
     0
102
RTVSPost2010Prop53
 90
        2
102
RTVSPost2010PropOp53
 70
     1
102
RTVSPost2010Prop54
  1
strokes_ogs.tif
102
RTVSPost2010PropOp54
 70
     1
102
RTVSPost2010Prop55
280
     0
102
RTVSPost2010PropOp55
 70
     1
102
RTVSPost2010Prop56
140
1.0
102
RTVSPost2010PropOp56
 70
     1
102
RTVSPost2010Prop57
140
1.0
102
RTVSPost2010PropOp57
 70
     1
  0
XRECORD
  5
2F43
102
{ACAD_REACTORS
330
2F42
102
}
330
2F42
100
AcDbXrecord
280
     1
102
RTVSPost2010Prop28
280
     0
102
RTVSPost2010PropOp28
 70
     1
102
RTVSPost2010Prop29
280
     1
102
RTVSPost2010PropOp29
 70
     1
102
RTVSPost2010Prop30
280
     1
102
RTVSPost2010PropOp30
 70
     1
102
RTVSPost2010Prop31
280
     0
102
RTVSPost2010PropOp31
 70
     1
102
RTVSPost2010Prop32
280
     0
102
RTVSPost2010PropOp32
 70
     1
102
RTVSPost2010Prop33
280
     0
102
RTVSPost2010PropOp33
 70
     1
102
RTVSPost2010Prop34
280
     0
102
RTVSPost2010PropOp34
 70
     1
102
RTVSPost2010Prop35
280
     0
102
RTVSPost2010PropOp35
 70
     1
102
RTVSPost2010Prop36
280
     0
102
RTVSPost2010PropOp36
 70
     1
102
RTVSPost2010Prop37
 90
       50
102
RTVSPost2010PropOp37
 70
     1
102
RTVSPost2010Prop38
140
0.0
102
RTVSPost2010PropOp38
 70
     1
102
RTVSPost2010Prop39
140
1.0
102
RTVSPost2010PropOp39
 70
     1
102
RTVSPost2010Prop40
 90
        0
102
RTVSPost2010PropOp40
 70
     1
102
RTVSPost2010Prop41ColorIndex
 90
       18
102
RTVSPost2010Prop41ColorRGB
 90
        0
102
RTVSPost2010PropOp41
 70
     1
102
RTVSPost2010Prop42
 90
       50
102
RTVSPost2010PropOp42
 70
     1
102
RTVSPost2010Prop43
 90
        3
102
RTVSPost2010PropOp43
 70
     1
102
RTVSPost2010Prop44ColorIndex
 90
        5
102
RTVSPost2010Prop44ColorRGB
 90
      255
102
RTVSPost2010PropOp44
 70
     1
102
RTVSPost2010Prop45
280
     0
102
RTVSPost2010PropOp45
 70
     1
102
RTVSPost2010Prop46
 90
       50
102
RTVSPost2010PropOp46
 70
     1
102
RTVSPost2010Prop47
 90
       50
102
RTVSPost2010PropOp47
 70
     1
102
RTVSPost2010Prop48
 90
       50
102
RTVSPost2010PropOp48
 70
     1
102
RTVSPost2010Prop49
280
     0
102
RTVSPost2010PropOp49
 70
     1
102
RTVSPost2010Prop50
 90
       50
102
RTVSPost2010PropOp50
 70
     1
102
RTVSPost2010Prop51ColorIndex
 90
      256
102
RTVSPost2010Prop51ColorRGB
 90
-16777216
102
RTVSPost2010PropOp51
 70
     0
102
RTVSPost2010Prop52
140
1.0
102
RTVSPost2010PropOp52
 70
     0
102
RTVSPost2010Prop53
 90
        2
102
RTVSPost2010PropOp53
 70
     1
102
RTVSPost2010Prop54
  1
strokes_ogs.tif
102
RTVSPost2010PropOp54
 70
     1
102
RTVSPost2010Prop55
280
     0
102
RTVSPost2010PropOp55
 70
     1
102
RTVSPost2010Prop56
140
1.0
102
RTVSPost2010PropOp56
 70
     1
102
RTVSPost2010Prop57
140
1.0
102
RTVSPost2010PropOp57
 70
     1
  0
XRECORD
  5
2F5B
102
{ACAD_REACTORS
330
2F5A
102
}
330
2F5A
100
AcDbXrecord
280
     1
102
RTVSPost2010Prop28
280
     0
102
RTVSPost2010PropOp28
 70
     1
102
RTVSPost2010Prop29
280
     1
102
RTVSPost2010PropOp29
 70
     1
102
RTVSPost2010Prop30
280
     1
102
RTVSPost2010PropOp30
 70
     1
102
RTVSPost2010Prop31
280
     0
102
RTVSPost2010PropOp31
 70
     1
102
RTVSPost2010Prop32
280
     0
102
RTVSPost2010PropOp32
 70
     1
102
RTVSPost2010Prop33
280
     0
102
RTVSPost2010PropOp33
 70
     1
102
RTVSPost2010Prop34
280
     0
102
RTVSPost2010PropOp34
 70
     1
102
RTVSPost2010Prop35
280
     0
102
RTVSPost2010PropOp35
 70
     1
102
RTVSPost2010Prop36
280
     0
102
RTVSPost2010PropOp36
 70
     1
102
RTVSPost2010Prop37
 90
       50
102
RTVSPost2010PropOp37
 70
     1
102
RTVSPost2010Prop38
140
0.0
102
RTVSPost2010PropOp38
 70
     1
102
RTVSPost2010Prop39
140
1.0
102
RTVSPost2010PropOp39
 70
     1
102
RTVSPost2010Prop40
 90
        0
102
RTVSPost2010PropOp40
 70
     1
102
RTVSPost2010Prop41ColorIndex
 90
       18
102
RTVSPost2010Prop41ColorRGB
 90
        0
102
RTVSPost2010PropOp41
 70
     1
102
RTVSPost2010Prop42
 90
       50
102
RTVSPost2010PropOp42
 70
     1
102
RTVSPost2010Prop43
 90
        3
102
RTVSPost2010PropOp43
 70
     1
102
RTVSPost2010Prop44ColorIndex
 90
        5
102
RTVSPost2010Prop44ColorRGB
 90
      255
102
RTVSPost2010PropOp44
 70
     1
102
RTVSPost2010Prop45
280
     0
102
RTVSPost2010PropOp45
 70
     1
102
RTVSPost2010Prop46
 90
       50
102
RTVSPost2010PropOp46
 70
     1
102
RTVSPost2010Prop47
 90
       50
102
RTVSPost2010PropOp47
 70
     1
102
RTVSPost2010Prop48
 90
       50
102
RTVSPost2010PropOp48
 70
     1
102
RTVSPost2010Prop49
280
     0
102
RTVSPost2010PropOp49
 70
     1
102
RTVSPost2010Prop50
 90
       50
102
RTVSPost2010PropOp50
 70
     1
102
RTVSPost2010Prop51ColorIndex
 90
      256
102
RTVSPost2010Prop51ColorRGB
 90
-16777216
102
RTVSPost2010PropOp51
 70
     0
102
RTVSPost2010Prop52
140
1.0
102
RTVSPost2010PropOp52
 70
     0
102
RTVSPost2010Prop53
 90
        2
102
RTVSPost2010PropOp53
 70
     1
102
RTVSPost2010Prop54
  1
strokes_ogs.tif
102
RTVSPost2010PropOp54
 70
     1
102
RTVSPost2010Prop55
280
     0
102
RTVSPost2010PropOp55
 70
     1
102
RTVSPost2010Prop56
140
1.0
102
RTVSPost2010PropOp56
 70
     1
102
RTVSPost2010Prop57
140
1.0
102
RTVSPost2010PropOp57
 70
     1
  0
ENDSEC
  0
EOF
