  0
SECTION
  2
HEADER
  9
$ACADVER
  1
AC1024
  9
$ACADMAINTVER
 70
   226
  9
$DWGCODEPAGE
  3
ANSI_932
  9
$LASTSAVEDBY
  1
y-sakai
  9
$INSBASE
 10
0.0
 20
0.0
 30
0.0
  9
$EXTMIN
 10
200.2995335744917
 20
279.0757345314332
 30
-0.0000000000000058
  9
$EXTMAX
 10
1198.975451660197
 20
1080.462272338575
 30
0.0000000000000104
  9
$LIMMIN
 10
0.0
 20
0.0
  9
$LIMMAX
 10
1422.5
 20
925.0
  9
$ORTHOMODE
 70
     0
  9
$REGENMODE
 70
     1
  9
$FILLMODE
 70
     1
  9
$QTEXTMODE
 70
     0
  9
$MIRRTEXT
 70
     1
  9
$LTSCALE
 40
5.0
  9
$ATTMODE
 70
     1
  9
$TEXTSIZE
 40
2.5
  9
$TRACEWID
 40
1.0
  9
$TEXTSTYLE
  7
STANDARD
  9
$CLAYER
  8
AM_0
  9
$CELTYPE
  6
ByLayer
  9
$CECOLOR
 62
   256
  9
$CELTSCALE
 40
1.0
  9
$DISPSILH
 70
     0
  9
$DIMSCALE
 40
1.0
  9
$DIMASZ
 40
2.5
  9
$DIMEXO
 40
1.0
  9
$DIMDLI
 40
8.0
  9
$DIMRND
 40
0.0
  9
$DIMDLE
 40
0.0
  9
$DIMEXE
 40
0.6
  9
$DIMTP
 40
0.1
  9
$DIMTM
 40
0.1
  9
$DIMTXT
 40
2.5
  9
$DIMCEN
 40
0.0
  9
$DIMTSZ
 40
0.0
  9
$DIMTOL
 70
     0
  9
$DIMLIM
 70
     0
  9
$DIMTIH
 70
     0
  9
$DIMTOH
 70
     0
  9
$DIMSE1
 70
     0
  9
$DIMSE2
 70
     0
  9
$DIMTAD
 70
     1
  9
$DIMZIN
 70
     8
  9
$DIMBLK
  1

  9
$DIMASO
 70
     1
  9
$DIMSHO
 70
     1
  9
$DIMPOST
  1

  9
$DIMAPOST
  1
"
  9
$DIMALT
 70
     0
  9
$DIMALTD
 70
     2
  9
$DIMALTF
 40
0.0393701
  9
$DIMLFAC
 40
1.0
  9
$DIMTOFL
 70
     1
  9
$DIMTVP
 40
0.0
  9
$DIMTIX
 70
     0
  9
$DIMSOXD
 70
     0
  9
$DIMSAH
 70
     0
  9
$DIMBLK1
  1

  9
$DIMBLK2
  1

  9
$DIMSTYLE
  2
AM_ISO
  9
$DIMCLRD
 70
   256
  9
$DIMCLRE
 70
   256
  9
$DIMCLRT
 70
     4
  9
$DIMTFAC
 40
0.71
  9
$DIMGAP
 40
0.8
  9
$DIMJUST
 70
     0
  9
$DIMSD1
 70
     0
  9
$DIMSD2
 70
     0
  9
$DIMTOLJ
 70
     1
  9
$DIMTZIN
 70
     0
  9
$DIMALTZ
 70
     0
  9
$DIMALTTZ
 70
     0
  9
$DIMUPT
 70
     0
  9
$DIMDEC
 70
     4
  9
$DIMTDEC
 70
     4
  9
$DIMALTU
 70
     2
  9
$DIMALTTD
 70
     2
  9
$DIMTXSTY
  7
STANDARD
  9
$DIMAUNIT
 70
     0
  9
$DIMADEC
 70
     0
  9
$DIMALTRND
 40
0.0
  9
$DIMAZIN
 70
     0
  9
$DIMDSEP
 70
    46
  9
$DIMATFIT
 70
     3
  9
$DIMFRAC
 70
     0
  9
$DIMLDRBLK
  1

  9
$DIMLUNIT
 70
     2
  9
$DIMLWD
 70
    -2
  9
$DIMLWE
 70
    -2
  9
$DIMTMOVE
 70
     0
  9
$DIMFXL
 40
1.0
  9
$DIMFXLON
 70
     0
  9
$DIMJOGANG
 40
0.7853981633974483
  9
$DIMTFILL
 70
     0
  9
$DIMTFILLCLR
 70
     0
  9
$DIMARCSYM
 70
     0
  9
$DIMLTYPE
  6

  9
$DIMLTEX1
  6

  9
$DIMLTEX2
  6

  9
$DIMTXTDIRECTION
 70
     0
  9
$LUNITS
 70
     2
  9
$LUPREC
 70
     2
  9
$SKETCHINC
 40
1.0
  9
$FILLETRAD
 40
25.0
  9
$AUNITS
 70
     0
  9
$AUPREC
 70
     0
  9
$MENU
  1
.
  9
$ELEVATION
 40
0.0
  9
$PELEVATION
 40
0.0
  9
$THICKNESS
 40
0.0
  9
$LIMCHECK
 70
     0
  9
$CHAMFERA
 40
10.0
  9
$CHAMFERB
 40
5.0
  9
$CHAMFERC
 40
0.0
  9
$CHAMFERD
 40
0.0
  9
$SKPOLY
 70
     0
  9
$TDCREATE
 40
2452066.739918982
  9
$TDUCREATE
 40
2452066.364918981
  9
$TDUPDATE
 40
2460363.550821759
  9
$TDUUPDATE
 40
2460363.175821759
  9
$TDINDWG
 40
0.0876078935
  9
$TDUSRTIMER
 40
0.0876078819
  9
$USRTIMER
 70
     1
  9
$ANGBASE
 50
0.0
  9
$ANGDIR
 70
     0
  9
$PDMODE
 70
     0
  9
$PDSIZE
 40
0.0
  9
$PLINEWID
 40
0.0
  9
$SPLFRAME
 70
     0
  9
$SPLINETYPE
 70
     6
  9
$SPLINESEGS
 70
     8
  9
$HANDSEED
  5
2E97
  9
$SURFTAB1
 70
     6
  9
$SURFTAB2
 70
     6
  9
$SURFTYPE
 70
     6
  9
$SURFU
 70
     6
  9
$SURFV
 70
     6
  9
$UCSBASE
  2

  9
$UCSNAME
  2

  9
$UCSORG
 10
0.0
 20
0.0
 30
0.0
  9
$UCSXDIR
 10
1.0
 20
0.0
 30
0.0
  9
$UCSYDIR
 10
0.0
 20
1.0
 30
0.0
  9
$UCSORTHOREF
  2

  9
$UCSORTHOVIEW
 70
     0
  9
$UCSORGTOP
 10
0.0
 20
0.0
 30
0.0
  9
$UCSORGBOTTOM
 10
0.0
 20
0.0
 30
0.0
  9
$UCSORGLEFT
 10
0.0
 20
0.0
 30
0.0
  9
$UCSORGRIGHT
 10
0.0
 20
0.0
 30
0.0
  9
$UCSORGFRONT
 10
0.0
 20
0.0
 30
0.0
  9
$UCSORGBACK
 10
0.0
 20
0.0
 30
0.0
  9
$PUCSBASE
  2

  9
$PUCSNAME
  2

  9
$PUCSORG
 10
0.0
 20
0.0
 30
0.0
  9
$PUCSXDIR
 10
1.0
 20
0.0
 30
0.0
  9
$PUCSYDIR
 10
0.0
 20
1.0
 30
0.0
  9
$PUCSORTHOREF
  2

  9
$PUCSORTHOVIEW
 70
     0
  9
$PUCSORGTOP
 10
0.0
 20
0.0
 30
0.0
  9
$PUCSORGBOTTOM
 10
0.0
 20
0.0
 30
0.0
  9
$PUCSORGLEFT
 10
0.0
 20
0.0
 30
0.0
  9
$PUCSORGRIGHT
 10
0.0
 20
0.0
 30
0.0
  9
$PUCSORGFRONT
 10
0.0
 20
0.0
 30
0.0
  9
$PUCSORGBACK
 10
0.0
 20
0.0
 30
0.0
  9
$USERI1
 70
     0
  9
$USERI2
 70
     0
  9
$USERI3
 70
     0
  9
$USERI4
 70
     0
  9
$USERI5
 70
     0
  9
$USERR1
 40
0.0
  9
$USERR2
 40
0.0
  9
$USERR3
 40
0.0
  9
$USERR4
 40
0.0
  9
$USERR5
 40
0.0
  9
$WORLDVIEW
 70
     1
  9
$SHADEDGE
 70
     3
  9
$SHADEDIF
 70
    70
  9
$TILEMODE
 70
     1
  9
$MAXACTVP
 70
    64
  9
$PINSBASE
 10
0.0
 20
0.0
 30
0.0
  9
$PLIMCHECK
 70
     0
  9
$PEXTMIN
 10
1.000000000000000E+20
 20
1.000000000000000E+20
 30
1.000000000000000E+20
  9
$PEXTMAX
 10
-1.000000000000000E+20
 20
-1.000000000000000E+20
 30
-1.000000000000000E+20
  9
$PLIMMIN
 10
0.0
 20
0.0
  9
$PLIMMAX
 10
420.0
 20
297.0
  9
$UNITMODE
 70
     0
  9
$VISRETAIN
 70
     1
  9
$PLINEGEN
 70
     0
  9
$PSLTSCALE
 70
     1
  9
$TREEDEPTH
 70
  3020
  9
$CMLSTYLE
  2
Standard
  9
$CMLJUST
 70
     0
  9
$CMLSCALE
 40
1.0
  9
$PROXYGRAPHICS
 70
     1
  9
$MEASUREMENT
 70
     0
  9
$CELWEIGHT
370
    -1
  9
$ENDCAPS
280
     0
  9
$JOINSTYLE
280
     0
  9
$LWDISPLAY
290
     0
  9
$INSUNITS
 70
     0
  9
$HYPERLINKBASE
  1

  9
$STYLESHEET
  1

  9
$XEDIT
290
     1
  9
$CEPSNTYPE
380
     0
  9
$PSTYLEMODE
290
     1
  9
$FINGERPRINTGUID
  2
{3605AA05-5923-534B-A085-6C600A74D513}
  9
$VERSIONGUID
  2
{7F06363A-43C6-6841-B973-F96E31A80926}
  9
$EXTNAMES
290
     1
  9
$PSVPSCALE
 40
0.0
  9
$OLESTARTUP
290
     0
  9
$SORTENTS
280
   127
  9
$INDEXCTL
280
     0
  9
$HIDETEXT
280
     0
  9
$XCLIPFRAME
280
     2
  9
$HALOGAP
280
     0
  9
$OBSCOLOR
 70
   257
  9
$OBSLTYPE
280
     0
  9
$INTERSECTIONDISPLAY
280
     0
  9
$INTERSECTIONCOLOR
 70
   257
  9
$DIMASSOC
280
     1
  9
$PROJECTNAME
  1

  9
$CAMERADISPLAY
290
     0
  9
$LENSLENGTH
 40
50.0
  9
$CAMERAHEIGHT
 40
0.0
  9
$STEPSPERSEC
 40
2.0
  9
$STEPSIZE
 40
6.0
  9
$3DDWFPREC
 40
2.0
  9
$PSOLWIDTH
 40
0.25
  9
$PSOLHEIGHT
 40
4.0
  9
$LOFTANG1
 40
1.570796326794896
  9
$LOFTANG2
 40
1.570796326794896
  9
$LOFTMAG1
 40
0.0
  9
$LOFTMAG2
 40
0.0
  9
$LOFTPARAM
 70
     7
  9
$LOFTNORMALS
280
     1
  9
$LATITUDE
 40
37.795
  9
$LONGITUDE
 40
-122.394
  9
$NORTHDIRECTION
 40
0.0
  9
$TIMEZONE
 70
 -8000
  9
$LIGHTGLYPHDISPLAY
280
     1
  9
$TILEMODELIGHTSYNCH
280
     1
  9
$CMATERIAL
347
2C22
  9
$SOLIDHIST
280
     0
  9
$SHOWHIST
280
     1
  9
$DWFFRAME
280
     2
  9
$DGNFRAME
280
     0
  9
$REALWORLDSCALE
290
     1
  9
$INTERFERECOLOR
 62
     1
  9
$INTERFEREOBJVS
345
2C44
  9
$INTERFEREVPVS
346
2C41
  9
$CSHADOW
280
     0
  9
$SHADOWPLANELOCATION
 40
0.0
  0
ENDSEC
  0
SECTION
  2
CLASSES
  0
CLASS
  1
ACDBDICTIONARYWDFLT
  2
AcDbDictionaryWithDefault
  3
ObjectDBX Classes
 90
        0
 91
        1
280
     0
281
     0
  0
CLASS
  1
MATERIAL
  2
AcDbMaterial
  3
ObjectDBX Classes
 90
     1153
 91
        3
280
     0
281
     0
  0
CLASS
  1
VISUALSTYLE
  2
AcDbVisualStyle
  3
ObjectDBX Classes
 90
     4095
 91
       24
280
     0
281
     0
  0
CLASS
  1
SCALE
  2
AcDbScale
  3
ObjectDBX Classes
 90
     1153
 91
       17
280
     0
281
     0
  0
CLASS
  1
TABLESTYLE
  2
AcDbTableStyle
  3
ObjectDBX Classes
 90
     4095
 91
        1
280
     0
281
     0
  0
CLASS
  1
MLEADERSTYLE
  2
AcDbMLeaderStyle
  3
ACDB_MLEADERSTYLE_CLASS
 90
     4095
 91
        1
280
     0
281
     0
  0
CLASS
  1
ACDBSECTIONVIEWSTYLE
  2
AcDbSectionViewStyle
  3
ObjectDBX Classes
 90
     1025
 91
        2
280
     0
281
     0
  0
CLASS
  1
ACDBDETAILVIEWSTYLE
  2
AcDbDetailViewStyle
  3
ObjectDBX Classes
 90
     1025
 91
        2
280
     0
281
     0
  0
CLASS
  1
AMGSETTINGSOBJ
  2
AmgSettingsObj
  3
"AcadM|Product Description: AutoCAD Mechanical|Company: Autodesk, Inc."
 90
     1024
 91
        2
280
     0
281
     0
  0
CLASS
  1
ACME_DOCUMENT
  2
AcMeDbDoc
  3
AcMeServices
 90
     1024
 91
        1
280
     0
281
     0
  0
CLASS
  1
ACMESCOPE
  2
AcMeScope
  3
AcMeServices
 90
     1024
 91
        1
280
     0
281
     0
  0
CLASS
  1
ACMECOMMANDHISTORY
  2
AcMeCommandHistory
  3
AcMeServices
 90
     1024
 91
        1
280
     0
281
     0
  0
CLASS
  1
ACIMSYSVARMAN
  2
AcImSysVarManager
  3
AcMeServices
 90
     1024
 91
        3
280
     0
281
     0
  0
CLASS
  1
ACIMINTSYSVAR
  2
AcImIntSysVar
  3
AcMeServices
 90
     1024
 91
        3
280
     0
281
     0
  0
CLASS
  1
ACMESTATEMGR
  2
AcMeStateMgr
  3
AcMeServices
 90
     1024
 91
        1
280
     0
281
     0
  0
CLASS
  1
ACDBENTITYCACHE
  2
AcMeEntityCache
  3
AcMeServices
 90
     1024
 91
        1
280
     0
281
     0
  0
CLASS
  1
ACGREFMASTER
  2
AcGrefMaster
  3
AcAttribServices
 90
     1024
 91
        1
280
     0
281
     0
  0
CLASS
  1
ACME_DATABASE
  2
AcMeDbDatabase
  3
AcMeServices
 90
     1024
 91
        2
280
     0
281
     0
  0
CLASS
  1
ACRFINSADJUSTERMGR
  2
AcRfInsAdjusterMgr
  3
AcMeServices
 90
     1024
 91
        1
280
     0
281
     0
  0
CLASS
  1
ACGREFACADMASTER
  2
AcGrefacadMaster
  3
AcGrefServices
 90
     1024
 91
        1
280
     0
281
     0
  0
CLASS
  1
AMIMASTER
  2
AmiMaster
  3
AmiServices
 90
     1024
 91
        1
280
     0
281
     0
  0
CLASS
  1
AMDTMENUSTATEMGR
  2
AmdtMenuStateMgr
  3
McadcomServices
 90
     1024
 91
        1
280
     0
281
     0
  0
CLASS
  1
AMDTMCOMMENUSTATE
  2
AmdtMcomMenuState
  3
McadcomServices
 90
     1024
 91
        1
280
     0
281
     0
  0
CLASS
  1
MAPIAMMOUDLE
  2
MApiAmModule
  3
MApiAmServices
 90
     1024
 91
        1
280
     0
281
     0
  0
CLASS
  1
ACIMSTRSYSVAR
  2
AcImStrSysVar
  3
AcMeServices
 90
     1024
 91
        5
280
     0
281
     0
  0
CLASS
  1
AMDTAMMENUSTATE
  2
AmdtAmMenuState
  3
DesignerAssemblies_arx
 90
     1024
 91
        1
280
     0
281
     0
  0
CLASS
  1
ACAMPROJECT
  2
AcAmProject
  3
DesignerAssemblies
 90
     1024
 91
        1
280
     0
281
     0
  0
CLASS
  1
ACAMGRCOMPDEF
  2
AcAmGrCompDef
  3
DesignerAssemblies
 90
     1024
 91
        1
280
     0
281
     0
  0
CLASS
  1
ACAMCOMPDEF
  2
AcAmCompDef
  3
DesignerAssemblies
 90
     1024
 91
        1
280
     0
281
     0
  0
CLASS
  1
ACAMCOMPDEFMGR
  2
AcAmCompDefMgr
  3
DesignerAssemblies
 90
     1024
 91
        1
280
     0
281
     0
  0
CLASS
  1
AMCONTEXTMGR
  2
AcAmContextMgr
  3
DesignerAssemblies
 90
     1024
 91
        1
280
     0
281
     0
  0
CLASS
  1
ACAMCONTEXTMODELER
  2
AcAmContextModeler
  3
DesignerAssemblies
 90
     1024
 91
        1
280
     0
281
     0
  0
CLASS
  1
ACMDATADICTIONARY
  2
AcmDataDictionary
  3
"AcmSymBB|Product Description: AutoCAD Mechanical|Company: Autodesk, Inc."
 90
     1024
 91
        1
280
     0
281
     0
  0
CLASS
  1
ACAMGRCOMPDEFSET
  2
AcAmGrCompDefSet
  3
DesignerAssemblies
 90
     1024
 91
        1
280
     0
281
     0
  0
CLASS
  1
AMDTBROWSERDBTAB
  2
AmdtBrowserDbTab
  3
McadcomServices
 90
     1024
 91
        1
280
     0
281
     0
  0
CLASS
  1
CBROWSERAPPOBJECT
  2
CBrowserAppObject
  3
McadcomServices
 90
     1024
 91
        2
280
     0
281
     0
  0
CLASS
  1
DM_PLACEHOLDER
  2
AcDmSelsetPlaceholder
  3
McadcomServices
 90
     1024
 91
        1
280
     0
281
     0
  0
CLASS
  1
EXACXREFPANELOBJECT
  2
ExAcXREFPanelObject
  3
EXAC_ESW
 90
     1025
 91
        1
280
     0
281
     0
  0
CLASS
  1
NPOCOLLECTION
  2
AcDbImpNonPersistentObjectsCollection
  3
ObjectDBX Classes
 90
     1153
 91
        1
280
     0
281
     0
  0
CLASS
  1
ACMSTANDARDANSI
  2
AcmStandardANSI
  3
"Amdt_StdImp|Product Description: AutoCAD Mechanical|Company: Autodesk, Inc."
 90
     1024
 91
        1
280
     0
281
     0
  0
CLASS
  1
ACMSURFSTANDARDANSI
  2
AcmSurfTextStdANSI
  3
"Amdt_StdImp|Product Description: AutoCAD Mechanical|Company: Autodesk, Inc."
 90
     1024
 91
        1
280
     0
281
     0
  0
CLASS
  1
ACMFCFSTANDARDANSI
  2
AcmFCFStdANSI
  3
"Amdt_StdImp|Product Description: AutoCAD Mechanical|Company: Autodesk, Inc."
 90
     1024
 91
        1
280
     0
281
     0
  0
CLASS
  1
ACMWELDSTANDARDANSI
  2
AcmWeldingStdANSI
  3
"Amdt_StdImp|Product Description: AutoCAD Mechanical|Company: Autodesk, Inc."
 90
     1024
 91
        1
280
     0
281
     0
  0
CLASS
  1
ACMIDSTANDARDANSI
  2
AcmIdStdANSI
  3
"Amdt_StdImp|Product Description: AutoCAD Mechanical|Company: Autodesk, Inc."
 90
     1024
 91
        1
280
     0
281
     0
  0
CLASS
  1
ACMDATUMSTANDARDANSI
  2
AcmDatumStdANSI
  3
"Amdt_StdImp|Product Description: AutoCAD Mechanical|Company: Autodesk, Inc."
 90
     1024
 91
        1
280
     0
281
     0
  0
CLASS
  1
ACMBOMSTANDARDANSI
  2
AcmBOMStdANSI
  3
"Amdt_StdImp|Product Description: AutoCAD Mechanical|Company: Autodesk, Inc."
 90
     1024
 91
        1
280
     0
281
     0
  0
CLASS
  1
ACMDETAILSTANDARDANSI
  2
AmdtDetailSymStdANSI
  3
"Amdt_StdImp|Product Description: AutoCAD Mechanical|Company: Autodesk, Inc."
 90
     1024
 91
        1
280
     0
281
     0
  0
CLASS
  1
ACMSECTIONSTANDARDANSI
  2
AmdtSectionSymStdANSI
  3
"Amdt_StdImp|Product Description: AutoCAD Mechanical|Company: Autodesk, Inc."
 90
     1024
 91
        1
280
     0
281
     0
  0
CLASS
  1
ACMCENTERLINESTANDARDANSI
  2
AmdtCenterLineStdANSI
  3
"Amdt_StdImp|Product Description: AutoCAD Mechanical|Company: Autodesk, Inc."
 90
     1024
 91
        1
280
     0
281
     0
  0
CLASS
  1
ACMTHREADLINESTANDARDANSI
  2
AmdtThreadLineStdANSI
  3
"Amdt_StdImp|Product Description: AutoCAD Mechanical|Company: Autodesk, Inc."
 90
     1024
 91
        1
280
     0
281
     0
  0
CLASS
  1
ACMNOTESTANDARDANSI
  2
AmdtNoteStdANSI
  3
"Amdt_StdImp|Product Description: AutoCAD Mechanical|Company: Autodesk, Inc."
 90
     1024
 91
        1
280
     0
281
     0
  0
CLASS
  1
ACMTAPERSTANDARDANSI
  2
AcmTaperStdANSI
  3
"Amdt_StdImp|Product Description: AutoCAD Mechanical|Company: Autodesk, Inc."
 90
     1024
 91
        1
280
     0
281
     0
  0
CLASS
  1
ACMANOOTATIONVIEWSTANDARDANSI
  2
AmdtAnViewStdANSI
  3
"Amdt_StdImp|Product Description: AutoCAD Mechanical|Company: Autodesk, Inc."
 90
     1024
 91
        1
280
     0
281
     0
  0
CLASS
  1
ACAMGLAYSTD
  2
AcAmgLayStd
  3
"AmgLay|Product Description: AutoCAD Mechanical|Company: Autodesk, Inc."
 90
     1024
 91
        1
280
     0
281
     0
  0
CLASS
  1
ACAMGDIMSTD
  2
AcAmgDimStd
  3
"AmgDim|Product Description: AutoCAD Mechanical|Company: Autodesk, Inc."
 90
     1024
 91
        1
280
     0
281
     0
  0
CLASS
  1
ACAMGHOLECHARTSTDANSI
  2
AcAmgHoleChartStdANSI
  3
"AmgDim" "Product Description: AutoCAD Mechanical|Company: Autodesk, Inc."
 90
     1024
 91
        1
280
     0
281
     0
  0
CLASS
  1
AMGOBJPROPCFG
  2
AmgObjPropCfg
  3
"AmgLay|Product Description: AutoCAD Mechanical|Company: Autodesk, Inc."
 90
     1024
 91
        1
280
     0
281
     0
  0
CLASS
  1
ACAMGTITLESTD
  2
AcAmgTitleStd
  3
"AmgTitle|Product Description: AutoCAD Mechanical|Company: Autodesk, Inc."
 90
     1024
 91
        1
280
     0
281
     0
  0
CLASS
  1
ACMSECTIONSTANDARDCUSTOM
  2
AmdtSectionSymStdCustom
  3
"Amdt_StdImp|Product Description: AutoCAD Mechanical|Company: Autodesk, Inc."
 90
     1024
 91
        1
280
     0
281
     0
  0
CLASS
  1
ACMDETAILTANDARDCUSTOM
  2
AmdtDetailSymStdCustom
  3
"Amdt_StdImp|Product Description: AutoCAD Mechanical|Company: Autodesk, Inc."
 90
     1024
 91
        1
280
     0
281
     0
  0
CLASS
  1
FIELD
  2
AcDbField
  3
ObjectDBX Classes
 90
     1152
 91
        8
280
     0
281
     0
  0
CLASS
  1
FIELDLIST
  2
AcDbFieldList
  3
ObjectDBX Classes
 90
     1152
 91
        1
280
     0
281
     0
  0
CLASS
  1
AMDTNOTETEMPLATEDB
  2
AmdtNoteTemplateDB
  3
"AcmSymBB" "Product Description: AutoCAD Mechanical|Company: Autodesk, Inc."
 90
     1024
 91
        7
280
     0
281
     0
  0
CLASS
  1
SORTENTSTABLE
  2
AcDbSortentsTable
  3
ObjectDBX Classes
 90
        0
 91
        1
280
     0
281
     0
  0
CLASS
  1
ACAMGFILTERDAT
  2
AcAmgFilterDat
  3
"AcadM|Product Description: AutoCAD Mechanical|Company: Autodesk, Inc."
 90
     1024
 91
        6
280
     0
281
     0
  0
CLASS
  1
DICTIONARYVAR
  2
AcDbDictionaryVar
  3
ObjectDBX Classes
 90
        0
 91
       18
280
     0
281
     0
  0
CLASS
  1
CELLSTYLEMAP
  2
AcDbCellStyleMap
  3
ObjectDBX Classes
 90
     1152
 91
        2
280
     0
281
     0
  0
ENDSEC
  0
SECTION
  2
TABLES
  0
TABLE
  2
VPORT
  5
2C19
330
0
100
AcDbSymbolTable
 70
     1
  0
VPORT
  5
2C85
330
2C19
100
AcDbSymbolTableRecord
100
AcDbViewportTableRecord
  2
*ACTIVE
 70
     0
 10
0.0
 20
0.0
 11
1.0
 21
1.0
 12
699.6374926173444
 22
679.7690034350041
 13
0.0
 23
0.0
 14
12.5
 24
12.5
 15
50.0
 25
50.0
 16
0.0
 26
0.0
 36
1.0
 17
0.0
 27
0.0
 37
0.0
 40
808.0647589555347
 41
2.197496522948539
 42
50.0
 43
0.0
 44
0.0
 50
0.0
 51
0.0
 71
     0
 72
   100
 73
     1
 74
     3
 75
     0
 76
     0
 77
     0
 78
     0
281
     0
 65
     0
110
0.0
120
0.0
130
0.0
111
1.0
121
0.0
131
0.0
112
0.0
122
1.0
132
0.0
 79
     0
146
0.0
348
2C40
 60
     3
 61
     5
292
     1
282
     0
141
0.0
142
0.0
 63
   250
421
  3355443
1001
ACAD_NAV_VCDISPLAY
1070
     3
  0
ENDTAB
  0
TABLE
  2
LTYPE
  5
2C16
330
0
100
AcDbSymbolTable
 70
    27
  0
LTYPE
  5
2C6B
330
2C16
100
AcDbSymbolTableRecord
100
AcDbLinetypeTableRecord
  2
ByBlock
 70
     0
  3

 72
    65
 73
     0
 40
0.0
  0
LTYPE
  5
2C6C
330
2C16
100
AcDbSymbolTableRecord
100
AcDbLinetypeTableRecord
  2
ByLayer
 70
     0
  3

 72
    65
 73
     0
 40
0.0
  0
LTYPE
  5
2C6D
330
2C16
100
AcDbSymbolTableRecord
100
AcDbLinetypeTableRecord
  2
CONTINUOUS
 70
     0
  3
Solid line
 72
    65
 73
     0
 40
0.0
  0
LTYPE
  5
2C86
330
2C16
100
AcDbSymbolTableRecord
100
AcDbLinetypeTableRecord
  2
AM_ISO02W050
 70
     0
  3
__ __ __ __ __ __ __ __ __ __ __ __ __ __ __
 72
    65
 73
     2
 40
7.5
 49
6.0
 74
     0
 49
-1.5
 74
     0
  0
LTYPE
  5
2C87
330
2C16
100
AcDbSymbolTableRecord
100
AcDbLinetypeTableRecord
  2
AM_ISO08W050
 70
     0
  3
____ . ____ . ____ . ____ . ____ . ____ . ____
 72
    65
 73
     4
 40
18.0
 49
12.0
 74
     0
 49
-1.5
 74
     0
 49
3.0
 74
     0
 49
-1.5
 74
     0
  0
LTYPE
  5
2C88
330
2C16
100
AcDbSymbolTableRecord
100
AcDbLinetypeTableRecord
  2
AM_ISO09W050
 70
     0
  3
_____ . . _____ . . _____ . . ____ .. ____
 72
    65
 73
     6
 40
22.5
 49
12.0
 74
     0
 49
-1.5
 74
     0
 49
3.0
 74
     0
 49
-1.5
 74
     0
 49
3.0
 74
     0
 49
-1.5
 74
     0
  0
LTYPE
  5
2C89
330
2C16
100
AcDbSymbolTableRecord
100
AcDbLinetypeTableRecord
  2
AMCONSTR
 70
     0
  3
_______________________
 72
    65
 73
     2
 40
9999.0
 49
9999.0
 74
     0
 49
0.0
 74
     0
  0
LTYPE
  5
2C8A
330
2C16
100
AcDbSymbolTableRecord
100
AcDbLinetypeTableRecord
  2
AM_ISO08W050X2
 70
     0
  3
__ . __ . __ . __ . __ . __
 72
    65
 73
     4
 40
9.0
 49
6.0
 74
     0
 49
-0.75
 74
     0
 49
1.5
 74
     0
 49
-0.75
 74
     0
  0
LTYPE
  5
2C8B
330
2C16
100
AcDbSymbolTableRecord
100
AcDbLinetypeTableRecord
  2
AM_ISO02W050X2
 70
     0
  3
 _ _ _ _ _ _ _ _ _ _ _ _
 72
    65
 73
     2
 40
3.75
 49
3.0
 74
     0
 49
-0.75
 74
     0
  0
LTYPE
  5
2C8C
330
2C16
100
AcDbSymbolTableRecord
100
AcDbLinetypeTableRecord
  2
AMZIGZAG
 70
     0
  3
/\/-/\/-/\/-/\/-/\/-/\/
 72
    65
 73
     2
 40
11.00009999999999
 49
0.0001
 74
     0
 49
-11.0
 74
     0
  0
LTYPE
  5
2C91
330
2C16
100
AcDbSymbolTableRecord
100
AcDbLinetypeTableRecord
  2
PHANTOM2
 70
     0
  3
Phantom (.5x) ___ _ _ ___ _ _ ___ _ _ ___ _ _
 72
    65
 73
     6
 40
31.75
 49
15.875
 74
     0
 49
-3.174999999999998
 74
     0
 49
3.174999999999998
 74
     0
 49
-3.174999999999998
 74
     0
 49
3.174999999999998
 74
     0
 49
-3.174999999999998
 74
     0
  0
LTYPE
  5
2C94
330
2C16
100
AcDbSymbolTableRecord
100
AcDbLinetypeTableRecord
  2
GEN7
 70
     0
  3
____ . ____ . ____ . ____ . ____ . ____ . ____
 72
    65
 73
     4
 40
14.25
 49
9.75
 74
     0
 49
-1.5
 74
     0
 49
1.5
 74
     0
 49
-1.5
 74
     0
  0
LTYPE
  5
2C95
330
2C16
100
AcDbSymbolTableRecord
100
AcDbLinetypeTableRecord
  2
GEN3B
 70
     0
  3
 - - - - -
 72
    65
 73
     2
 40
1.0
 49
0.5
 74
     0
 49
-0.5
 74
     0
  0
LTYPE
  5
2C96
330
2C16
100
AcDbSymbolTableRecord
100
AcDbLinetypeTableRecord
  2
GEN7A
 70
     0
  3
__ . __ . __
 72
    65
 73
     4
 40
7.375
 49
4.75
 74
     0
 49
-0.875
 74
     0
 49
0.875
 74
     0
 49
-0.875
 74
     0
  0
LTYPE
  5
2C9D
330
2C16
100
AcDbSymbolTableRecord
100
AcDbLinetypeTableRecord
  2
ACANSTGB
 70
     0
  3
__ . . __ . .
 72
    65
 73
     6
 40
0.35433070866
 49
0.15748031496
 74
     0
 49
-0.03937007874
 74
     0
 49
0.03937007874
 74
     0
 49
-0.03937007874
 74
     0
 49
0.03937007874
 74
     0
 49
-0.03937007874
 74
     0
  0
LTYPE
  5
2C9E
330
2C16
100
AcDbSymbolTableRecord
100
AcDbLinetypeTableRecord
  2
ACANSTGL
 70
     0
  3
_ _ _ _ _
 72
    65
 73
     2
 40
0.11811023622
 49
0.07874015748
 74
     0
 49
-0.03937007874
 74
     0
  0
ENDTAB
  0
TABLE
  2
LAYER
  5
2C13
102
{ACAD_XDICTIONARY
360
2E48
102
}
330
0
100
AcDbSymbolTable
 70
    10
  0
LAYER
  5
2C65
102
{ACAD_XDICTIONARY
360
2E33
102
}
330
2C13
100
AcDbSymbolTableRecord
100
AcDbLayerTableRecord
  2
0
 70
     0
 62
     7
  6
CONTINUOUS
370
    -3
390
2C20
347
2C32
  0
LAYER
  5
2C84
102
{ACAD_XDICTIONARY
360
2E35
102
}
330
2C13
100
AcDbSymbolTableRecord
100
AcDbLayerTableRecord
  2
AM_0
 70
     0
 62
     7
  6
CONTINUOUS
370
    -3
390
2C20
347
2C32
  0
LAYER
  5
2C9F
102
{ACAD_XDICTIONARY
360
2E37
102
}
330
2C13
100
AcDbSymbolTableRecord
100
AcDbLayerTableRecord
  2
AM_5
 70
     0
 62
     2
  6
CONTINUOUS
370
    -3
390
2C20
347
2C32
  0
LAYER
  5
2CA0
330
2C13
100
AcDbSymbolTableRecord
100
AcDbLayerTableRecord
  2
DEFPOINTS
 70
     0
 62
     7
  6
CONTINUOUS
290
     0
370
    -3
390
2C20
347
2C32
  0
LAYER
  5
2CA1
102
{ACAD_XDICTIONARY
360
2E39
102
}
330
2C13
100
AcDbSymbolTableRecord
100
AcDbLayerTableRecord
  2
ｶｸﾚｾﾝ2
 70
     0
 62
     3
  6
GEN3B
370
    -3
390
2C20
347
2C32
  0
LAYER
  5
2CA2
102
{ACAD_XDICTIONARY
360
2E3B
102
}
330
2C13
100
AcDbSymbolTableRecord
100
AcDbLayerTableRecord
  2
ﾁｭｳｼﾝｾﾝ
 70
     0
 62
     1
  6
GEN7
370
    -3
390
2C20
347
2C32
  0
LAYER
  5
2CA3
102
{ACAD_XDICTIONARY
360
2E3D
102
}
330
2C13
100
AcDbSymbolTableRecord
100
AcDbLayerTableRecord
  2
ﾁｭｳｼﾝｾﾝ1
 70
     0
 62
     1
  6
GEN7A
370
    -3
390
2C20
347
2C32
  0
LAYER
  5
2CA4
102
{ACAD_XDICTIONARY
360
2E3F
102
}
330
2C13
100
AcDbSymbolTableRecord
100
AcDbLayerTableRecord
  2
GEV_FROZEN
 70
     1
 62
     7
  6
CONTINUOUS
370
    -3
390
2C20
347
2C32
  0
LAYER
  5
2CA5
102
{ACAD_XDICTIONARY
360
2E41
102
}
330
2C13
100
AcDbSymbolTableRecord
100
AcDbLayerTableRecord
  2
BHII
 70
     0
 62
     7
  6
CONTINUOUS
370
    -3
390
2C20
347
2C32
  0
LAYER
  5
2CA6
102
{ACAD_XDICTIONARY
360
2E43
102
}
330
2C13
100
AcDbSymbolTableRecord
100
AcDbLayerTableRecord
  2
CENN
 70
     0
 62
     7
  6
CONTINUOUS
370
    -3
390
2C20
347
2C32
  0
ENDTAB
  0
TABLE
  2
STYLE
  5
2C14
330
0
100
AcDbSymbolTable
 70
     9
  0
STYLE
  5
2C66
330
2C14
100
AcDbSymbolTableRecord
100
AcDbTextStyleTableRecord
  2
STANDARD
 70
     0
 40
0.0
 41
0.8299999999999998
 50
0.0
 71
     0
 42
2.5
  3
txt.shx
  4
bigfont.shx
  0
STYLE
  5
2CAB
330
2C14
100
AcDbSymbolTableRecord
100
AcDbTextStyleTableRecord
  2
ACANSGDT
 70
     0
 40
0.0
 41
1.0
 50
0.0
 71
     0
 42
2.5
  3
amgdt.shx
  4

  0
ENDTAB
  0
TABLE
  2
VIEW
  5
2C17
330
0
100
AcDbSymbolTable
 70
     7
  0
VIEW
  5
2CAE
330
2C17
100
AcDbSymbolTableRecord
100
AcDbViewTableRecord
  2
AM_VIEW1
 70
     0
 40
462.5
 10
416.0796500920808
 20
693.75
 41
832.1593001841621
 11
0.0
 21
0.0
 31
1.0
 12
0.0
 22
0.0
 32
0.0
 42
50.0
 43
0.0
 44
0.0
 50
0.0
 71
     0
281
     0
 72
     0
 73
     0
348
2C40
  0
VIEW
  5
2CAF
330
2C17
100
AcDbSymbolTableRecord
100
AcDbViewTableRecord
  2
AM_VIEW2
 70
     0
 40
462.5
 10
1006.420349907918
 20
693.75
 41
832.1593001841621
 11
0.0
 21
0.0
 31
1.0
 12
0.0
 22
0.0
 32
0.0
 42
50.0
 43
0.0
 44
0.0
 50
0.0
 71
     0
281
     0
 72
     0
 73
     0
348
2C40
  0
VIEW
  5
2CB0
330
2C17
100
AcDbSymbolTableRecord
100
AcDbViewTableRecord
  2
AM_VIEW3
 70
     0
 40
462.5
 10
416.0796500920808
 20
231.25
 41
832.1593001841621
 11
0.0
 21
0.0
 31
1.0
 12
0.0
 22
0.0
 32
0.0
 42
50.0
 43
0.0
 44
0.0
 50
0.0
 71
     0
281
     0
 72
     0
 73
     0
348
2C40
  0
VIEW
  5
2CB1
330
2C17
100
AcDbSymbolTableRecord
100
AcDbViewTableRecord
  2
AM_VIEW4
 70
     0
 40
462.5
 10
1006.420349907918
 20
231.25
 41
832.1593001841621
 11
0.0
 21
0.0
 31
1.0
 12
0.0
 22
0.0
 32
0.0
 42
50.0
 43
0.0
 44
0.0
 50
0.0
 71
     0
281
     0
 72
     0
 73
     0
348
2C40
  0
VIEW
  5
2CB2
330
2C17
100
AcDbSymbolTableRecord
100
AcDbViewTableRecord
  2
AM_VIEW5
 70
     0
 40
462.5
 10
711.2499999999997
 20
462.5
 41
832.1593001841618
 11
0.0
 21
0.0
 31
1.0
 12
0.0
 22
0.0
 32
0.0
 42
50.0
 43
0.0
 44
0.0
 50
0.0
 71
     0
281
     0
 72
     0
 73
     0
348
2C40
  0
VIEW
  5
2CB3
330
2C17
100
AcDbSymbolTableRecord
100
AcDbViewTableRecord
  2
AM_VIEW6
 70
     0
 40
924.99075
 10
711.2499999999997
 20
462.5
 41
1664.30195718232
 11
0.0
 21
0.0
 31
1.0
 12
0.0
 22
0.0
 32
0.0
 42
50.0
 43
0.0
 44
0.0
 50
0.0
 71
     0
281
     0
 72
     0
 73
     0
348
2C40
  0
ENDTAB
  0
TABLE
  2
UCS
  5
2C18
330
0
100
AcDbSymbolTable
 70
     0
  0
ENDTAB
  0
TABLE
  2
APPID
  5
2C1A
330
0
100
AcDbSymbolTable
 70
    95
  0
APPID
  5
2C67
330
2C1A
100
AcDbSymbolTableRecord
100
AcDbRegAppTableRecord
  2
ACAD
 70
     0
  0
APPID
  5
2C6E
330
2C1A
100
AcDbSymbolTableRecord
100
AcDbRegAppTableRecord
  2
ACADANNOTATIVE
 70
     0
  0
APPID
  5
2CB4
330
2C1A
100
AcDbSymbolTableRecord
100
AcDbRegAppTableRecord
  2
MCAD_NO_VIS
 70
     0
  0
APPID
  5
2CB5
330
2C1A
100
AcDbSymbolTableRecord
100
AcDbRegAppTableRecord
  2
ACAD_TEMP_GRAPHIC
 70
     0
  0
APPID
  5
2CB6
330
2C1A
100
AcDbSymbolTableRecord
100
AcDbRegAppTableRecord
  2
ACATTRIBSERVICES
 70
     0
  0
APPID
  5
2CB7
330
2C1A
100
AcDbSymbolTableRecord
100
AcDbRegAppTableRecord
  2
GENIUS_GENREC_14
 70
     0
  0
APPID
  5
2CB8
330
2C1A
100
AcDbSymbolTableRecord
100
AcDbRegAppTableRecord
  2
GENIUS_GENOBJ-N-REC_13
 70
     0
  0
APPID
  5
2CB9
330
2C1A
100
AcDbSymbolTableRecord
100
AcDbRegAppTableRecord
  2
GENIUS_GENODEF_13
 70
     0
  0
APPID
  5
2CBA
330
2C1A
100
AcDbSymbolTableRecord
100
AcDbRegAppTableRecord
  2
GENIUS_GENOLIS_13
 70
     0
  0
APPID
  5
2CBB
330
2C1A
100
AcDbSymbolTableRecord
100
AcDbRegAppTableRecord
  2
GENIUS_GENOBJ-N-TIT_13
 70
     0
  0
APPID
  5
2CBC
330
2C1A
100
AcDbSymbolTableRecord
100
AcDbRegAppTableRecord
  2
GENIUS_GENOENT_13
 70
     0
  0
APPID
  5
2CBD
330
2C1A
100
AcDbSymbolTableRecord
100
AcDbRegAppTableRecord
  2
GENIUS_GENTITLE_13
 70
     0
  0
APPID
  5
2CBE
330
2C1A
100
AcDbSymbolTableRecord
100
AcDbRegAppTableRecord
  2
GENIUS_GENOREF_13
 70
     0
  0
APPID
  5
2CBF
330
2C1A
100
AcDbSymbolTableRecord
100
AcDbRegAppTableRecord
  2
GENIUS_GENSCREG_15
 70
     0
  0
APPID
  5
2CC0
330
2C1A
100
AcDbSymbolTableRecord
100
AcDbRegAppTableRecord
  2
GENIUS_GENOBJ-N-SDF_13
 70
     0
  0
APPID
  5
2CC1
330
2C1A
100
AcDbSymbolTableRecord
100
AcDbRegAppTableRecord
  2
GENIUS_GENFIL_13
 70
     0
  0
APPID
  5
2CC2
330
2C1A
100
AcDbSymbolTableRecord
100
AcDbRegAppTableRecord
  2
GENIUS_GENOBJ-N-CHA_13
 70
     0
  0
APPID
  5
2CC3
330
2C1A
100
AcDbSymbolTableRecord
100
AcDbRegAppTableRecord
  2
GENIUS_GENDTOL_13
 70
     0
  0
APPID
  5
2CC4
330
2C1A
100
AcDbSymbolTableRecord
100
AcDbRegAppTableRecord
  2
GENIUS_GENOBJ-N-FIL_13
 70
     0
  0
APPID
  5
2CC5
330
2C1A
100
AcDbSymbolTableRecord
100
AcDbRegAppTableRecord
  2
AD_DRAW
 70
     0
  0
APPID
  5
2CC6
330
2C1A
100
AcDbSymbolTableRecord
100
AcDbRegAppTableRecord
  2
DESIGNERASSEMBLIES
 70
     0
  0
APPID
  5
2CC7
330
2C1A
100
AcDbSymbolTableRecord
100
AcDbRegAppTableRecord
  2
ASURF_PCURVE_APPNAME
 70
     0
  0
APPID
  5
2CC8
330
2C1A
100
AcDbSymbolTableRecord
100
AcDbRegAppTableRecord
  2
GENIUS_GE3SECT_13
 70
     0
  0
APPID
  5
2CC9
330
2C1A
100
AcDbSymbolTableRecord
100
AcDbRegAppTableRecord
  2
GENIUS_GENCFG_13
 70
     0
  0
APPID
  5
2CCA
330
2C1A
100
AcDbSymbolTableRecord
100
AcDbRegAppTableRecord
  2
GENIUS_GE3CFG0_13
 70
     0
  0
APPID
  5
2CCB
330
2C1A
100
AcDbSymbolTableRecord
100
AcDbRegAppTableRecord
  2
GENIUS_GENCFG0_13
 70
     0
  0
APPID
  5
2CCC
330
2C1A
100
AcDbSymbolTableRecord
100
AcDbRegAppTableRecord
  2
GENIUS_GENCFG1_13
 70
     0
  0
APPID
  5
2CCD
330
2C1A
100
AcDbSymbolTableRecord
100
AcDbRegAppTableRecord
  2
GENIUS_GENCFG2_13
 70
     0
  0
APPID
  5
2CCE
330
2C1A
100
AcDbSymbolTableRecord
100
AcDbRegAppTableRecord
  2
GENIUS_GENCFG3_13
 70
     0
  0
APPID
  5
2CCF
330
2C1A
100
AcDbSymbolTableRecord
100
AcDbRegAppTableRecord
  2
GENIUS_GENCFG4_13
 70
     0
  0
APPID
  5
2CD0
330
2C1A
100
AcDbSymbolTableRecord
100
AcDbRegAppTableRecord
  2
GENIUS_GEVCFG0_13
 70
     0
  0
APPID
  5
2CD1
330
2C1A
100
AcDbSymbolTableRecord
100
AcDbRegAppTableRecord
  2
GENIUS_GENHINW_13
 70
     0
  0
APPID
  5
2CD2
330
2C1A
100
AcDbSymbolTableRecord
100
AcDbRegAppTableRecord
  2
GENIUS_FIRSTVISTXT_14
 70
     0
  0
APPID
  5
2CD3
330
2C1A
100
AcDbSymbolTableRecord
100
AcDbRegAppTableRecord
  2
GENIUS_GENOBJ-N-LEADER_13
 70
     0
  0
APPID
  5
2CD4
330
2C1A
100
AcDbSymbolTableRecord
100
AcDbRegAppTableRecord
  2
GEV_VCCNULL_SWITCH_OFF
 70
     0
  0
APPID
  5
2CD5
330
2C1A
100
AcDbSymbolTableRecord
100
AcDbRegAppTableRecord
  2
GENIUS_GEFCFG0_13
 70
     0
  0
APPID
  5
2CD6
330
2C1A
100
AcDbSymbolTableRecord
100
AcDbRegAppTableRecord
  2
GENIUS_GENZVEED_13
 70
     0
  0
APPID
  5
2CD7
330
2C1A
100
AcDbSymbolTableRecord
100
AcDbRegAppTableRecord
  2
GENIUS_GENSCREG_13
 70
     0
  0
APPID
  5
2CD8
330
2C1A
100
AcDbSymbolTableRecord
100
AcDbRegAppTableRecord
  2
GENIUS_DUMCFG0_13
 70
     0
  0
APPID
  5
2CD9
330
2C1A
100
AcDbSymbolTableRecord
100
AcDbRegAppTableRecord
  2
GEVID936201362
 70
     0
  0
APPID
  5
2CDA
330
2C1A
100
AcDbSymbolTableRecord
100
AcDbRegAppTableRecord
  2
GEVDC
 70
     0
  0
APPID
  5
2CDB
330
2C1A
100
AcDbSymbolTableRecord
100
AcDbRegAppTableRecord
  2
GEVCON
 70
     0
  0
APPID
  5
2CDC
330
2C1A
100
AcDbSymbolTableRecord
100
AcDbRegAppTableRecord
  2
VCC
 70
     0
  0
APPID
  5
2CDD
330
2C1A
100
AcDbSymbolTableRecord
100
AcDbRegAppTableRecord
  2
GEVPT
 70
     0
  0
APPID
  5
2CDE
330
2C1A
100
AcDbSymbolTableRecord
100
AcDbRegAppTableRecord
  2
GEVIT
 70
     0
  0
APPID
  5
2CDF
330
2C1A
100
AcDbSymbolTableRecord
100
AcDbRegAppTableRecord
  2
GENBH
 70
     0
  0
APPID
  5
2CE0
330
2C1A
100
AcDbSymbolTableRecord
100
AcDbRegAppTableRecord
  2
GEVMK
 70
     0
  0
APPID
  5
2CE1
330
2C1A
100
AcDbSymbolTableRecord
100
AcDbRegAppTableRecord
  2
GENIUS_GENBH_13
 70
     0
  0
APPID
  5
2CE2
330
2C1A
100
AcDbSymbolTableRecord
100
AcDbRegAppTableRecord
  2
GENIUS_GENOBJ-NBEHI-BHF_13
 70
     0
  0
APPID
  5
2CE3
330
2C1A
100
AcDbSymbolTableRecord
100
AcDbRegAppTableRecord
  2
GENIUS_GENOBJ-NBEHI-BHB_13
 70
     0
  0
APPID
  5
2CE4
330
2C1A
100
AcDbSymbolTableRecord
100
AcDbRegAppTableRecord
  2
GENIUS_GENOBJ-F-DESC_13
 70
     0
  0
APPID
  5
2CE5
330
2C1A
100
AcDbSymbolTableRecord
100
AcDbRegAppTableRecord
  2
GENIUS_GEFDESC_14
 70
     0
  0
APPID
  5
2CE6
330
2C1A
100
AcDbSymbolTableRecord
100
AcDbRegAppTableRecord
  2
GENIUS_GENOBJ-F-PART_13
 70
     0
  0
APPID
  5
2CE7
330
2C1A
100
AcDbSymbolTableRecord
100
AcDbRegAppTableRecord
  2
GENIUS_GEFSTDP_13
 70
     0
  0
APPID
  5
2CE8
330
2C1A
100
AcDbSymbolTableRecord
100
AcDbRegAppTableRecord
  2
GENIUS_GEFPARTINS_13
 70
     0
  0
APPID
  5
2CE9
330
2C1A
100
AcDbSymbolTableRecord
100
AcDbRegAppTableRecord
  2
GENIUS_GENTRA_14
 70
     0
  0
APPID
  5
2CEA
330
2C1A
100
AcDbSymbolTableRecord
100
AcDbRegAppTableRecord
  2
GENIUS_GENINF13_13
 70
     0
  0
APPID
  5
2CEB
330
2C1A
100
AcDbSymbolTableRecord
100
AcDbRegAppTableRecord
  2
GENIUS_GENOBJ-N-INFOPT_13
 70
     0
  0
APPID
  5
2CEC
330
2C1A
100
AcDbSymbolTableRecord
100
AcDbRegAppTableRecord
  2
GENIUS_GENOBJ-N-RSSYM_13
 70
     0
  0
APPID
  5
2CED
330
2C1A
100
AcDbSymbolTableRecord
100
AcDbRegAppTableRecord
  2
GENIUS_GENSYMENT_13
 70
     0
  0
APPID
  5
2CEE
330
2C1A
100
AcDbSymbolTableRecord
100
AcDbRegAppTableRecord
  2
GENIUS_GENSCSYM_13
 70
     0
  0
APPID
  5
2CEF
330
2C1A
100
AcDbSymbolTableRecord
100
AcDbRegAppTableRecord
  2
GENIUS_GEFINFNAM_13
 70
     0
  0
APPID
  5
2CF0
330
2C1A
100
AcDbSymbolTableRecord
100
AcDbRegAppTableRecord
  2
GENIUS_GENOBJ-N-CEN_13
 70
     0
  0
APPID
  5
2CF1
330
2C1A
100
AcDbSymbolTableRecord
100
AcDbRegAppTableRecord
  2
GENIUS_GENOBJ-N-CRS_13
 70
     0
  0
APPID
  5
2CF2
330
2C1A
100
AcDbSymbolTableRecord
100
AcDbRegAppTableRecord
  2
GENIUS_GENOBJ-N-CRC_13
 70
     0
  0
APPID
  5
2CF3
330
2C1A
100
AcDbSymbolTableRecord
100
AcDbRegAppTableRecord
  2
GENIUS_GENCRC_14
 70
     0
  0
APPID
  5
2CF4
330
2C1A
100
AcDbSymbolTableRecord
100
AcDbRegAppTableRecord
  2
GEVID942827039
 70
     0
  0
APPID
  5
2CF5
330
2C1A
100
AcDbSymbolTableRecord
100
AcDbRegAppTableRecord
  2
GEVID942827040
 70
     0
  0
APPID
  5
2CF6
330
2C1A
100
AcDbSymbolTableRecord
100
AcDbRegAppTableRecord
  2
GEVID942827041
 70
     0
  0
APPID
  5
2CF7
330
2C1A
100
AcDbSymbolTableRecord
100
AcDbRegAppTableRecord
  2
GENIUS_GENOBJ-F-SCPASSM_13
 70
     0
  0
APPID
  5
2CF8
330
2C1A
100
AcDbSymbolTableRecord
100
AcDbRegAppTableRecord
  2
GENIUS_GENDIMSH_14
 70
     0
  0
APPID
  5
2CF9
330
2C1A
100
AcDbSymbolTableRecord
100
AcDbRegAppTableRecord
  2
GEVID942827042
 70
     0
  0
APPID
  5
2CFA
330
2C1A
100
AcDbSymbolTableRecord
100
AcDbRegAppTableRecord
  2
GEVID946020473
 70
     0
  0
APPID
  5
2CFB
330
2C1A
100
AcDbSymbolTableRecord
100
AcDbRegAppTableRecord
  2
GEVID946020474
 70
     0
  0
APPID
  5
2CFC
330
2C1A
100
AcDbSymbolTableRecord
100
AcDbRegAppTableRecord
  2
GEVID946020475
 70
     0
  0
APPID
  5
2CFD
330
2C1A
100
AcDbSymbolTableRecord
100
AcDbRegAppTableRecord
  2
GENIUS_GENOBJ-N-HTC_13
 70
     0
  0
APPID
  5
2CFE
330
2C1A
100
AcDbSymbolTableRecord
100
AcDbRegAppTableRecord
  2
GENIUS_GENHATCH_13
 70
     0
  0
APPID
  5
2CFF
330
2C1A
100
AcDbSymbolTableRecord
100
AcDbRegAppTableRecord
  2
GEVID948854295
 70
     0
  0
APPID
  5
2D00
330
2C1A
100
AcDbSymbolTableRecord
100
AcDbRegAppTableRecord
  2
GEVID939402019
 70
     0
  0
APPID
  5
2D01
330
2C1A
100
AcDbSymbolTableRecord
100
AcDbRegAppTableRecord
  2
GEVID952919491
 70
     0
  0
APPID
  5
2D02
330
2C1A
100
AcDbSymbolTableRecord
100
AcDbRegAppTableRecord
  2
GEVID952919492
 70
     0
  0
APPID
  5
2D03
330
2C1A
100
AcDbSymbolTableRecord
100
AcDbRegAppTableRecord
  2
GENIUS_GEFWELD_13
 70
     0
  0
APPID
  5
2D04
330
2C1A
100
AcDbSymbolTableRecord
100
AcDbRegAppTableRecord
  2
GENIUS_GENOBJ-F-WELS_13
 70
     0
  0
APPID
  5
2D05
330
2C1A
100
AcDbSymbolTableRecord
100
AcDbRegAppTableRecord
  2
GEVID952919493
 70
     0
  0
APPID
  5
2D06
330
2C1A
100
AcDbSymbolTableRecord
100
AcDbRegAppTableRecord
  2
GENIUS_GENOBJ-N-RSBK_13
 70
     0
  0
APPID
  5
2D07
330
2C1A
100
AcDbSymbolTableRecord
100
AcDbRegAppTableRecord
  2
GENIUS_GENOBJ-N-LIB_13
 70
     0
  0
APPID
  5
2D08
330
2C1A
100
AcDbSymbolTableRecord
100
AcDbRegAppTableRecord
  2
GENIUS_GENSCALE_13
 70
     0
  0
APPID
  5
2D09
330
2C1A
100
AcDbSymbolTableRecord
100
AcDbRegAppTableRecord
  2
GEVID986376691
 70
     0
  0
APPID
  5
2D0A
330
2C1A
100
AcDbSymbolTableRecord
100
AcDbRegAppTableRecord
  2
DCO15
 70
     0
  0
APPID
  5
2D0B
330
2C1A
100
AcDbSymbolTableRecord
100
AcDbRegAppTableRecord
  2
ACAD_DSTYLE_DIMBREAK
 70
     0
  0
APPID
  5
2D0C
330
2C1A
100
AcDbSymbolTableRecord
100
AcDbRegAppTableRecord
  2
ACAD_DSTYLE_DIMJAG
 70
     0
  0
APPID
  5
2D0D
330
2C1A
100
AcDbSymbolTableRecord
100
AcDbRegAppTableRecord
  2
ACAD_NAV_VCDISPLAY
 70
     0
  0
APPID
  5
2D0E
330
2C1A
100
AcDbSymbolTableRecord
100
AcDbRegAppTableRecord
  2
ACADANNOPO
 70
     0
  0
APPID
  5
2D0F
330
2C1A
100
AcDbSymbolTableRecord
100
AcDbRegAppTableRecord
  2
ACAD_EXEMPT_FROM_CAD_STANDARDS
 70
     0
  0
APPID
  5
2D10
330
2C1A
100
AcDbSymbolTableRecord
100
AcDbRegAppTableRecord
  2
ACAD_MLEADERVER
 70
     0
  0
ENDTAB
  0
TABLE
  2
DIMSTYLE
  5
2C1B
330
0
100
AcDbSymbolTable
 70
    23
100
AcDbDimStyleTable
 71
     1
340
2D11
  0
DIMSTYLE
105
2C68
330
2C1B
100
AcDbSymbolTableRecord
100
AcDbDimStyleTableRecord
  2
STANDARD
 70
     0
271
     2
272
     2
279
     2
284
     8
285
     8
286
     8
340
2C66
  0
DIMSTYLE
105
2D11
330
2C1B
100
AcDbSymbolTableRecord
100
AcDbDimStyleTableRecord
  2
AM_ISO
 70
     0
  4
"
 41
2.5
 42
1.0
 43
8.0
 44
0.6
 47
0.1
 48
0.1
 73
     0
 74
     0
 77
     1
 78
     8
140
2.5
141
0.0
143
0.0393701
146
0.71
147
0.8
172
     1
176
   256
177
   256
178
     4
271
     2
272
     2
279
     2
284
     8
285
     8
286
     8
340
2C66
  0
DIMSTYLE
105
2D1F
102
{ACAD_REACTORS
330
2D71
102
}
330
2C1B
100
AcDbSymbolTableRecord
100
AcDbDimStyleTableRecord
  2
AM_ANSI
 70
     0
  4
mm
 41
0.1
 42
0.05
 43
0.5
 44
0.1
 47
0.1
 48
0.1
 78
     7
140
0.12
141
0.0
146
0.71
147
0.06
176
   256
177
   256
178
     2
271
     2
272
     2
279
     2
284
     8
285
     8
286
     8
340
2C66
  0
DIMSTYLE
105
2D20
330
2C1B
100
AcDbSymbolTableRecord
100
AcDbDimStyleTableRecord
  2
AM_ANSI$3
 70
     0
  4
mm
 41
0.1
 42
0.05
 43
0.5
 44
0.1
 47
0.1
 48
0.1
 78
     7
140
0.12
141
0.0
146
0.71
147
0.06
176
   256
177
   256
178
     2
271
     2
272
     2
279
     2
284
     8
285
     8
286
     8
340
2C66
  0
DIMSTYLE
105
2D21
330
2C1B
100
AcDbSymbolTableRecord
100
AcDbDimStyleTableRecord
  2
AM_ANSI$4
 70
     0
  4
mm
 41
0.1
 42
0.05
 43
0.5
 44
0.1
 47
0.1
 48
0.1
 78
     7
140
0.12
141
0.0
146
0.71
147
0.06
176
   256
177
   256
178
     2
271
     2
272
     2
279
     2
284
     8
285
     8
286
     8
340
2C66
  0
DIMSTYLE
105
2D22
330
2C1B
100
AcDbSymbolTableRecord
100
AcDbDimStyleTableRecord
  2
AM_ANSI$7
 70
     0
  4
mm
 41
0.1
 42
0.05
 43
0.5
 44
0.1
 47
0.1
 48
0.1
 78
     7
140
0.24
141
0.0
146
0.71
147
0.06
176
   256
177
   256
178
     2
271
     2
272
     2
279
     2
284
     8
285
     8
286
     8
340
2C66
  0
DIMSTYLE
105
2D23
330
2C1B
100
AcDbSymbolTableRecord
100
AcDbDimStyleTableRecord
  2
AM_ANSI$SF
 70
     0
  4
mm
 41
0.1
 42
0.05
 43
0.5
 44
0.1
 47
0.1
 48
0.1
 75
     1
 76
     1
 78
     7
140
0.12
141
0.0
146
0.71
147
0.06
176
   256
177
   256
178
     2
271
     2
272
     2
279
     2
284
     8
285
     8
286
     8
340
2C66
  0
DIMSTYLE
105
2D24
330
2C1B
100
AcDbSymbolTableRecord
100
AcDbDimStyleTableRecord
  2
AM_ANSI$SH
 70
     0
  4
mm
 41
0.1
 42
0.05
 43
0.5
 44
0.1
 47
0.1
 48
0.1
 75
     1
 76
     1
 78
     7
140
0.12
141
0.0
146
0.71
147
0.06
173
     1
176
   256
177
   256
178
     2
271
     2
272
     2
279
     2
284
     8
285
     8
286
     8
340
2C66
  0
ENDTAB
  0
TABLE
  2
BLOCK_RECORD
  5
2C12
330
0
100
AcDbSymbolTable
 70
    13
  0
BLOCK_RECORD
  5
2C80
330
2C12
100
AcDbSymbolTableRecord
100
AcDbBlockTableRecord
  2
*Model_Space
340
2C83
 70
     0
280
     1
281
     0
  0
BLOCK_RECORD
  5
2C7C
330
2C12
100
AcDbSymbolTableRecord
100
AcDbBlockTableRecord
  2
*Paper_Space
340
2C7F
 70
     0
280
     1
281
     0
  0
BLOCK_RECORD
  5
2D34
330
2C12
100
AcDbSymbolTableRecord
100
AcDbBlockTableRecord
  2
*U4
340
0
102
{BLKREFS
331
2807
102
}
 70
     0
280
     1
281
     0
  0
BLOCK_RECORD
  5
2D36
330
2C12
100
AcDbSymbolTableRecord
100
AcDbBlockTableRecord
  2
*U5
340
0
102
{BLKREFS
331
2808
102
}
 70
     0
280
     1
281
     0
  0
BLOCK_RECORD
  5
2D3A
330
2C12
100
AcDbSymbolTableRecord
100
AcDbBlockTableRecord
  2
*U7
340
0
102
{BLKREFS
331
2809
102
}
 70
     0
280
     1
281
     0
  0
BLOCK_RECORD
  5
2D3C
330
2C12
100
AcDbSymbolTableRecord
100
AcDbBlockTableRecord
  2
*U8
340
0
102
{BLKREFS
331
280A
102
}
 70
     0
280
     1
281
     0
  0
BLOCK_RECORD
  5
2D3E
330
2C12
100
AcDbSymbolTableRecord
100
AcDbBlockTableRecord
  2
_ACMFILLEDHALF
340
0
 70
     0
280
     1
281
     0
  0
ENDTAB
  0
ENDSEC
  0
SECTION
  2
BLOCKS
  0
BLOCK
  5
2C81
330
2C80
100
AcDbEntity
  8
0
100
AcDbBlockBegin
  2
*Model_Space
 70
     0
 10
0.0
 20
0.0
 30
0.0
  3
*Model_Space
  1

  0
ENDBLK
  5
2C82
330
2C80
100
AcDbEntity
  8
0
100
AcDbBlockEnd
  0
BLOCK
  5
2C7D
330
2C7C
100
AcDbEntity
 67
     1
  8
0
100
AcDbBlockBegin
  2
*Paper_Space
 70
     0
 10
0.0
 20
0.0
 30
0.0
  3
*Paper_Space
  1

  0
ENDBLK
  5
2C7E
330
2C7C
100
AcDbEntity
 67
     1
  8
0
100
AcDbBlockEnd
  0
BLOCK
  5
2D35
330
2D34
100
AcDbEntity
  8
0
100
AcDbBlockBegin
  2
*U4
 70
     1
 10
0.0
 20
0.0
 30
0.0
  3
*U4
  1
*U
  0
LINE
  5
27D6
330
2D34
100
AcDbEntity
  8
BHII
100
AcDbLine
 10
0.0
 20
7.699999999999998
 30
0.0
 11
0.0000000000000021
 21
-0.3279404685324049
 31
0.0
  0
LINE
  5
27D7
330
2D34
100
AcDbEntity
  8
BHII
100
AcDbLine
 10
2.0
 20
7.699999999999998
 30
0.0
 11
2.000000000000002
 21
0.3999999999999986
 31
0.0
  0
LINE
  5
27D8
330
2D34
100
AcDbEntity
  8
BHII
100
AcDbLine
 10
0.0
 20
-7.699999999999998
 30
0.0
 11
2.0
 21
-7.699999999999998
 31
0.0
  0
LINE
  5
27D9
330
2D34
100
AcDbEntity
  8
BHII
100
AcDbLine
 10
2.0
 20
-0.3999999999999999
 30
0.0
 11
0.0000000000000001
 21
-1.127940468532403
 31
0.0
  0
LINE
  5
27DA
330
2D34
100
AcDbEntity
  8
BHII
100
AcDbLine
 10
2.000000000000002
 20
0.3999999999999986
 30
0.0
 11
0.0000000000000021
 21
-0.3279404685324049
 31
0.0
  0
LINE
  5
27DB
330
2D34
100
AcDbEntity
  8
BHII
100
AcDbLine
 10
2.0
 20
-0.3999999999999999
 30
0.0
 11
2.0
 21
-7.699999999999998
 31
0.0
  0
LINE
  5
27DC
330
2D34
100
AcDbEntity
  8
BHII
100
AcDbLine
 10
0.0000000000000001
 20
-1.127940468532403
 30
0.0
 11
0.0
 21
-7.699999999999998
 31
0.0
  0
LINE
  5
27DD
330
2D34
100
AcDbEntity
  8
CENN
100
AcDbLine
 10
-2.999999999999996
 20
0.0
 30
0.0
 11
5.0
 21
0.0
 31
0.0
  0
LINE
  5
27DE
330
2D34
100
AcDbEntity
  8
BHII
100
AcDbLine
 10
2.0
 20
7.699999999999998
 30
0.0
 11
0.0
 21
7.699999999999998
 31
0.0
  0
ENDBLK
  5
27DF
330
2D34
100
AcDbEntity
  8
0
100
AcDbBlockEnd
  0
BLOCK
  5
2D37
330
2D36
100
AcDbEntity
  8
0
100
AcDbBlockBegin
  2
*U5
 70
     1
 10
0.0
 20
0.0
 30
0.0
  3
*U5
  1
*U
  0
LINE
  5
27E2
330
2D36
100
AcDbEntity
  8
BHII
100
AcDbLine
 10
0.0
 20
7.699999999999998
 30
0.0
 11
0.0000000000000021
 21
-0.3279404685324049
 31
0.0
  0
LINE
  5
27E3
330
2D36
100
AcDbEntity
  8
BHII
100
AcDbLine
 10
2.0
 20
7.699999999999998
 30
0.0
 11
2.000000000000002
 21
0.3999999999999986
 31
0.0
  0
LINE
  5
27E4
330
2D36
100
AcDbEntity
  8
BHII
100
AcDbLine
 10
0.0
 20
-7.699999999999998
 30
0.0
 11
2.0
 21
-7.699999999999998
 31
0.0
  0
LINE
  5
27E5
330
2D36
100
AcDbEntity
  8
BHII
100
AcDbLine
 10
2.0
 20
-0.3999999999999999
 30
0.0
 11
0.0000000000000001
 21
-1.127940468532403
 31
0.0
  0
LINE
  5
27E6
330
2D36
100
AcDbEntity
  8
BHII
100
AcDbLine
 10
2.000000000000002
 20
0.3999999999999986
 30
0.0
 11
0.0000000000000021
 21
-0.3279404685324049
 31
0.0
  0
LINE
  5
27E7
330
2D36
100
AcDbEntity
  8
BHII
100
AcDbLine
 10
2.0
 20
-0.3999999999999999
 30
0.0
 11
2.0
 21
-7.699999999999998
 31
0.0
  0
LINE
  5
27E8
330
2D36
100
AcDbEntity
  8
BHII
100
AcDbLine
 10
0.0000000000000001
 20
-1.127940468532403
 30
0.0
 11
0.0
 21
-7.699999999999998
 31
0.0
  0
LINE
  5
27E9
330
2D36
100
AcDbEntity
  8
CENN
100
AcDbLine
 10
-2.999999999999996
 20
0.0
 30
0.0
 11
5.0
 21
0.0
 31
0.0
  0
LINE
  5
27EA
330
2D36
100
AcDbEntity
  8
BHII
100
AcDbLine
 10
2.0
 20
7.699999999999998
 30
0.0
 11
0.0
 21
7.699999999999998
 31
0.0
  0
ENDBLK
  5
27EB
330
2D36
100
AcDbEntity
  8
0
100
AcDbBlockEnd
  0
BLOCK
  5
2D3B
330
2D3A
100
AcDbEntity
  8
0
100
AcDbBlockBegin
  2
*U7
 70
     1
 10
0.0
 20
0.0
 30
0.0
  3
*U7
  1
*U
  0
LINE
  5
27F1
330
2D3A
100
AcDbEntity
  8
BHII
100
AcDbLine
 10
0.0
 20
7.699999999999998
 30
0.0
 11
0.0000000000000021
 21
-0.3279404685324049
 31
0.0
  0
LINE
  5
27F2
330
2D3A
100
AcDbEntity
  8
BHII
100
AcDbLine
 10
2.0
 20
7.699999999999998
 30
0.0
 11
2.000000000000002
 21
0.3999999999999986
 31
0.0
  0
LINE
  5
27F3
330
2D3A
100
AcDbEntity
  8
BHII
100
AcDbLine
 10
0.0
 20
-7.699999999999998
 30
0.0
 11
2.0
 21
-7.699999999999998
 31
0.0
  0
LINE
  5
27F4
330
2D3A
100
AcDbEntity
  8
BHII
100
AcDbLine
 10
2.0
 20
-0.3999999999999999
 30
0.0
 11
0.0000000000000001
 21
-1.127940468532403
 31
0.0
  0
LINE
  5
27F5
330
2D3A
100
AcDbEntity
  8
BHII
100
AcDbLine
 10
2.000000000000002
 20
0.3999999999999986
 30
0.0
 11
0.0000000000000021
 21
-0.3279404685324049
 31
0.0
  0
LINE
  5
27F6
330
2D3A
100
AcDbEntity
  8
BHII
100
AcDbLine
 10
2.0
 20
-0.3999999999999999
 30
0.0
 11
2.0
 21
-7.699999999999998
 31
0.0
  0
LINE
  5
27F7
330
2D3A
100
AcDbEntity
  8
BHII
100
AcDbLine
 10
0.0000000000000001
 20
-1.127940468532403
 30
0.0
 11
0.0
 21
-7.699999999999998
 31
0.0
  0
LINE
  5
27F8
330
2D3A
100
AcDbEntity
  8
CENN
100
AcDbLine
 10
-2.999999999999996
 20
0.0
 30
0.0
 11
5.0
 21
0.0
 31
0.0
  0
LINE
  5
27F9
330
2D3A
100
AcDbEntity
  8
BHII
100
AcDbLine
 10
2.0
 20
7.699999999999998
 30
0.0
 11
0.0
 21
7.699999999999998
 31
0.0
  0
ENDBLK
  5
27FA
330
2D3A
100
AcDbEntity
  8
0
100
AcDbBlockEnd
  0
BLOCK
  5
2D3D
330
2D3C
100
AcDbEntity
  8
0
100
AcDbBlockBegin
  2
*U8
 70
     1
 10
0.0
 20
0.0
 30
0.0
  3
*U8
  1
*U
  0
LINE
  5
27FD
330
2D3C
100
AcDbEntity
  8
BHII
100
AcDbLine
 10
0.0
 20
7.699999999999998
 30
0.0
 11
0.0000000000000021
 21
-0.3279404685324049
 31
0.0
  0
LINE
  5
27FE
330
2D3C
100
AcDbEntity
  8
BHII
100
AcDbLine
 10
2.0
 20
7.699999999999998
 30
0.0
 11
2.000000000000002
 21
0.3999999999999986
 31
0.0
  0
LINE
  5
27FF
330
2D3C
100
AcDbEntity
  8
BHII
100
AcDbLine
 10
0.0
 20
-7.699999999999998
 30
0.0
 11
2.0
 21
-7.699999999999998
 31
0.0
  0
LINE
  5
2800
330
2D3C
100
AcDbEntity
  8
BHII
100
AcDbLine
 10
2.0
 20
-0.3999999999999999
 30
0.0
 11
0.0000000000000001
 21
-1.127940468532403
 31
0.0
  0
LINE
  5
2801
330
2D3C
100
AcDbEntity
  8
BHII
100
AcDbLine
 10
2.000000000000002
 20
0.3999999999999986
 30
0.0
 11
0.0000000000000021
 21
-0.3279404685324049
 31
0.0
  0
LINE
  5
2802
330
2D3C
100
AcDbEntity
  8
BHII
100
AcDbLine
 10
2.0
 20
-0.3999999999999999
 30
0.0
 11
2.0
 21
-7.699999999999998
 31
0.0
  0
LINE
  5
2803
330
2D3C
100
AcDbEntity
  8
BHII
100
AcDbLine
 10
0.0000000000000001
 20
-1.127940468532403
 30
0.0
 11
0.0
 21
-7.699999999999998
 31
0.0
  0
LINE
  5
2804
330
2D3C
100
AcDbEntity
  8
CENN
100
AcDbLine
 10
-2.999999999999996
 20
0.0
 30
0.0
 11
5.0
 21
0.0
 31
0.0
  0
LINE
  5
2805
330
2D3C
100
AcDbEntity
  8
BHII
100
AcDbLine
 10
2.0
 20
7.699999999999998
 30
0.0
 11
0.0
 21
7.699999999999998
 31
0.0
  0
ENDBLK
  5
2806
330
2D3C
100
AcDbEntity
  8
0
100
AcDbBlockEnd
  0
BLOCK
  5
2D3F
330
2D3E
100
AcDbEntity
  8
0
100
AcDbBlockBegin
  2
_ACMFILLEDHALF
 70
     0
 10
0.0
 20
0.0
 30
0.0
  3
_ACMFILLEDHALF
  1

  0
TRACE
  5
2B74
330
2D3E
100
AcDbEntity
  8
AM_0
 62
     0
100
AcDbTrace
 10
-0.8
 20
0.0
 30
0.0
 11
-1.0
 21
0.166666666
 31
0.0
 12
0.0
 22
0.0
 32
0.0
 13
0.0
 23
0.0
 33
0.0
  0
LINE
  5
2B75
330
2D3E
100
AcDbEntity
  8
AM_0
 62
     0
100
AcDbLine
 10
-1.0
 20
0.0
 30
0.0
 11
-0.8
 21
0.0
 31
0.0
  0
ENDBLK
  5
2B73
330
2D3E
100
AcDbEntity
  8
0
100
AcDbBlockEnd
  0
ENDSEC
  0
SECTION
  2
ENTITIES
  0
INSERT
  5
2807
330
2C80
100
AcDbEntity
  8
GEV_FROZEN
100
AcDbBlockReference
  2
*U4
 10
908.6341987249387
 20
575.4107120700417
 30
0.0
 41
0.1
 42
0.1
 43
0.1
 50
179.9999999999998
1001
GENBH
1002
{
1000
-NOBRK
1002
}
  0
INSERT
  5
2808
330
2C80
100
AcDbEntity
  8
GEV_FROZEN
100
AcDbBlockReference
  2
*U5
 10
908.6341987249387
 20
575.4107120700417
 30
0.0
 41
0.1
 42
0.1
 43
0.1
 50
179.9999999999998
1001
GENBH
1002
{
1000
-NOBRK
1002
}
  0
INSERT
  5
2809
330
2C80
100
AcDbEntity
  8
GEV_FROZEN
100
AcDbBlockReference
  2
*U7
 10
908.6341987249387
 20
575.4107120700417
 30
0.0
 41
0.1
 42
0.1
 43
0.1
 50
179.9999999999998
1001
GENBH
1002
{
1000
-NOBRK
1002
}
  0
INSERT
  5
280A
330
2C80
100
AcDbEntity
  8
GEV_FROZEN
100
AcDbBlockReference
  2
*U8
 10
908.6341987249387
 20
575.4107120700417
 30
0.0
 41
0.1
 42
0.1
 43
0.1
 50
179.9999999999998
1001
GENBH
1002
{
1000
-NOBRK
1002
}
  0
LINE
  5
280B
330
2C80
100
AcDbEntity
  8
AM_0
100
AcDbLine
 10
697.4722333741429
 20
513.5891856341418
 30
0.0
 11
697.4722333741429
 21
454.5891856341417
 31
0.0
  0
LINE
  5
280C
330
2C80
100
AcDbEntity
  8
AM_0
100
AcDbLine
 10
406.4722333741427
 20
550.0731706341416
 30
0.0
 11
406.4722333741427
 21
324.6466756341416
 31
0.0
  0
LINE
  5
280D
330
2C80
100
AcDbEntity
  8
AM_0
100
AcDbLine
 10
432.4722333741431
 20
601.1102206341416
 30
0.0
 11
432.4722333741431
 21
312.2281606341417
 31
0.0
  0
LINE
  5
280E
330
2C80
100
AcDbEntity
  8
AM_0
100
AcDbLine
 10
462.4722333741431
 20
604.0891706341417
 30
0.0
 11
462.4722333741431
 21
371.4831006341417
 31
0.0
  0
LINE
  5
280F
330
2C80
100
AcDbEntity
  8
AM_0
100
AcDbLine
 10
544.4722333741428
 20
519.0468256341419
 30
0.0
 11
544.4722333741428
 21
322.0891806341418
 31
0.0
  0
LINE
  5
2810
330
2C80
100
AcDbEntity
  8
AM_0
100
AcDbLine
 10
577.4722333741427
 20
586.4163706341416
 30
0.0
 11
577.4722333741427
 21
338.3961906341417
 31
0.0
  0
LINE
  5
2811
330
2C80
100
AcDbEntity
  8
AM_0
100
AcDbLine
 10
467.472233374143
 20
474.1951706341416
 30
0.0
 11
467.472233374143
 21
384.3281656341416
 31
0.0
  0
LINE
  5
2812
330
2C80
100
AcDbEntity
  8
AM_0
100
AcDbLine
 10
609.4722333741429
 20
540.1578206341416
 30
0.0
 11
609.4722333741429
 21
424.0205806341417
 31
0.0
  0
LINE
  5
2813
330
2C80
100
AcDbEntity
  8
AM_0
100
AcDbLine
 10
604.4722333741429
 20
562.5074706341417
 30
0.0
 11
604.4722333741429
 21
315.7494306341416
 31
0.0
  0
LINE
  5
2814
330
2C80
100
AcDbEntity
  8
AM_0
100
AcDbLine
 10
383.4722833741428
 20
534.5892206341416
 30
0.0
 11
383.4722833741428
 21
339.5891806341418
 31
0.0
  0
LINE
  5
2815
330
2C80
100
AcDbEntity
  8
AM_0
100
AcDbLine
 10
615.4722333741425
 20
512.0891856341418
 30
0.0
 11
615.4722333741425
 21
452.0891856341417
 31
0.0
  0
LINE
  5
2816
330
2C80
100
AcDbEntity
  8
AM_0
100
AcDbLine
 10
366.4722833741428
 20
437.0891806341417
 30
0.0
 11
366.4722833741428
 21
546.0891806341416
 31
0.0
  0
LINE
  5
2817
330
2C80
100
AcDbEntity
  8
AM_0
100
AcDbLine
 10
265.4722833741429
 20
481.9975146341419
 30
0.0
 11
265.4722833741429
 21
437.0891806341417
 31
0.0
  0
LINE
  5
2818
330
2C80
100
AcDbEntity
  8
AM_0
100
AcDbLine
 10
289.4722833741429
 20
485.0891806341417
 30
0.0
 11
289.4722833741429
 21
437.0891806341417
 31
0.0
  0
LINE
  5
2819
330
2C80
100
AcDbEntity
  8
AM_0
100
AcDbLine
 10
255.4722833741429
 20
477.0062766341418
 30
0.0
 11
255.4722833741429
 21
437.0891806341417
 31
0.0
  0
LINE
  5
281A
330
2C80
100
AcDbEntity
  8
AM_0
100
AcDbLine
 10
253.4722833741429
 20
464.5891806341417
 30
0.0
 11
253.4722833741429
 21
437.0891806341417
 31
0.0
  0
ARC
  5
281B
330
2C80
100
AcDbEntity
  8
AM_0
100
AcDbCircle
 10
267.6158773741428
 20
397.0891806341417
 30
0.0
 40
8.0
100
AcDbArc
 50
239.9999999999995
 51
270.0
  0
LINE
  5
281C
330
2C80
100
AcDbEntity
  8
ﾁｭｳｼﾝｾﾝ
100
AcDbLine
 10
200.3221056550555
 20
437.0891806341417
 30
0.0
 11
441.7464974363959
 21
437.0891806341417
 31
0.0
  0
LINE
  5
281D
330
2C80
100
AcDbEntity
  8
AM_0
100
AcDbLine
 10
263.6158773741428
 20
390.1609766341417
 30
0.0
 11
257.4722833741429
 21
393.7079826341417
 31
0.0
  0
LINE
  5
281F
330
2C80
100
AcDbEntity
  8
AM_0
100
AcDbLine
 10
250.4706833741428
 20
451.0891806341417
 30
0.0
 11
208.4706833741428
 21
451.0891806341417
 31
0.0
  0
LINE
  5
2820
330
2C80
100
AcDbEntity
  8
AM_0
100
AcDbLine
 10
250.4706833741428
 20
423.0891806341417
 30
0.0
 11
208.4706833741428
 21
423.0891806341417
 31
0.0
  0
LINE
  5
2821
330
2C80
100
AcDbEntity
  8
AM_0
100
AcDbLine
 10
208.4706833741428
 20
454.0891806341416
 30
0.0
 11
208.4706833741428
 21
423.0891806341417
 31
0.0
  0
LINE
  5
2822
330
2C80
100
AcDbEntity
  8
AM_0
100
AcDbLine
 10
253.4722833741429
 20
409.5891806341417
 30
0.0
 11
253.4722833741429
 21
437.0891806341417
 31
0.0
  0
LINE
  5
2823
330
2C80
100
AcDbEntity
  8
AM_0
100
AcDbLine
 10
255.4722833741429
 20
397.1720836341417
 30
0.0
 11
255.4722833741429
 21
437.0891806341417
 31
0.0
  0
LINE
  5
2824
330
2C80
100
AcDbEntity
  8
AM_0
100
AcDbLine
 10
265.4722833741429
 20
392.1808466341419
 30
0.0
 11
265.4722833741429
 21
437.0891806341417
 31
0.0
  0
LINE
  5
2825
330
2C80
100
AcDbEntity
  8
AM_0
100
AcDbLine
 10
250.4706833741428
 20
422.0891806341417
 30
0.0
 11
250.4706833741428
 21
437.0891806341417
 31
0.0
  0
LINE
  5
2826
330
2C80
100
AcDbEntity
  8
AM_0
100
AcDbLine
 10
253.4722833741429
 20
409.5891806341417
 30
0.0
 11
255.4722833741429
 21
407.5891806341418
 31
0.0
  0
ARC
  5
2827
330
2C80
100
AcDbEntity
  8
AM_0
100
AcDbCircle
 10
259.4722833741429
 20
397.1720836341417
 30
0.0
 40
4.0
100
AcDbArc
 50
180.0
 51
239.9999999999995
  0
LINE
  5
2828
330
2C80
100
AcDbEntity
  8
AM_0
100
AcDbLine
 10
253.4722833741429
 20
422.0891806341417
 30
0.0
 11
250.4706833741428
 21
422.0891806341417
 31
0.0
  0
LINE
  5
2829
330
2C80
100
AcDbEntity
  8
AM_0
100
AcDbLine
 10
250.4706833741428
 20
452.0891806341417
 30
0.0
 11
250.4706833741428
 21
437.0891806341417
 31
0.0
  0
LINE
  5
282A
330
2C80
100
AcDbEntity
  8
AM_0
100
AcDbLine
 10
253.4722833741429
 20
452.0891806341417
 30
0.0
 11
250.4706833741428
 21
452.0891806341417
 31
0.0
  0
LINE
  5
282B
330
2C80
100
AcDbEntity
  8
AM_0
100
AcDbLine
 10
240.4706833741426
 20
454.0891806341416
 30
0.0
 11
240.4706833741428
 21
451.0891806341417
 31
0.0
  0
LINE
  5
282C
330
2C80
100
AcDbEntity
  8
AM_0
100
AcDbLine
 10
379.4722333741428
 20
282.0891806341417
 30
0.0
 11
609.4722333741429
 21
282.0891806341417
 31
0.0
  0
LINE
  5
282D
330
2C80
100
AcDbEntity
  8
AM_0
100
AcDbLine
 10
435.8241833741431
 20
314.9571006341417
 30
0.0
 11
466.517483374143
 21
380.0640056341416
 31
0.0
  0
LINE
  5
282E
330
2C80
100
AcDbEntity
  8
AM_0
100
AcDbLine
 10
420.3272333741428
 20
312.0891806341418
 30
0.0
 11
408.5459833741428
 21
320.5924456341417
 31
0.0
  0
ARC
  5
282F
330
2C80
100
AcDbEntity
  8
AM_0
100
AcDbCircle
 10
431.3016333741428
 20
317.0891806341418
 30
0.0
 40
5.0
100
AcDbArc
 50
270.0
 51
334.75947
  0
LINE
  5
2830
330
2C80
100
AcDbEntity
  8
ﾁｭｳｼﾝｾﾝ1
100
AcDbLine
 10
409.4722333741428
 20
315.9970506341417
 30
0.0
 11
409.4722333741428
 21
279.0891806341416
 31
0.0
  0
LINE
  5
2831
330
2C80
100
AcDbEntity
  8
AM_0
100
AcDbLine
 10
384.4722333741428
 20
312.0891806341418
 30
0.0
 11
431.3016333741428
 21
312.0891806341418
 31
0.0
  0
LINE
  5
2832
330
2C80
100
AcDbEntity
  8
ｶｸﾚｾﾝ2
100
AcDbLine
 10
399.9722333741431
 20
312.0891806341418
 30
0.0
 11
399.9722333741431
 21
282.0891806341417
 31
0.0
  0
LINE
  5
2833
330
2C80
100
AcDbEntity
  8
AM_0
100
AcDbLine
 10
379.4722333741428
 20
307.0891806341418
 30
0.0
 11
379.4722333741428
 21
282.0891806341417
 31
0.0
  0
ARC
  5
2834
330
2C80
100
AcDbEntity
  8
AM_0
100
AcDbCircle
 10
384.4722333741428
 20
307.0891806341418
 30
0.0
 40
5.0
100
AcDbArc
 50
90.00000300000001
 51
180.00001
  0
LINE
  5
2835
330
2C80
100
AcDbEntity
  8
ｶｸﾚｾﾝ2
100
AcDbLine
 10
418.9722333741427
 20
312.0891806341418
 30
0.0
 11
418.9722333741427
 21
282.0891806341417
 31
0.0
  0
LINE
  5
2836
330
2C80
100
AcDbEntity
  8
AM_0
100
AcDbLine
 10
368.4722833741428
 20
410.5521806341418
 30
0.0
 11
382.4722833741428
 21
410.5521806341418
 31
0.0
  0
LINE
  5
2837
330
2C80
100
AcDbEntity
  8
AM_0
100
AcDbLine
 10
368.4722833741428
 20
395.0886526341418
 30
0.0
 11
382.4722833741428
 21
395.0886526341418
 31
0.0
  0
LINE
  5
2838
330
2C80
100
AcDbEntity
  8
AM_0
100
AcDbLine
 10
383.4722833741428
 20
339.5891806341418
 30
0.0
 11
367.4722833741428
 21
339.5891806341418
 31
0.0
  0
LINE
  5
2839
330
2C80
100
AcDbEntity
  8
AM_0
100
AcDbLine
 10
382.4722833741428
 20
353.4763976341417
 30
0.0
 11
368.4722833741428
 21
353.4763976341417
 31
0.0
  0
LINE
  5
283A
330
2C80
100
AcDbEntity
  8
AM_0
100
AcDbLine
 10
366.4722833741428
 20
340.5891806341418
 30
0.0
 11
366.4722833741428
 21
437.0891806341417
 31
0.0
  0
LINE
  5
283B
330
2C80
100
AcDbEntity
  8
AM_0
100
AcDbLine
 10
289.4722833741429
 20
389.0891806341418
 30
0.0
 11
289.4722833741429
 21
437.0891806341417
 31
0.0
  0
LINE
  5
283C
330
2C80
100
AcDbEntity
  8
AM_0
100
AcDbLine
 10
363.4491173741428
 20
346.8167036341418
 30
0.0
 11
291.3168793741429
 21
388.0351256341417
 31
0.0
  0
LINE
  5
283D
330
2C80
100
AcDbEntity
  8
AM_0
100
AcDbLine
 10
287.3477683741431
 20
389.0891806341418
 30
0.0
 11
267.6158773741428
 21
389.0891806341418
 31
0.0
  0
ARC
  5
283E
330
2C80
100
AcDbEntity
  8
AM_0
100
AcDbCircle
 10
287.3477683741431
 20
381.0891806341417
 30
0.0
 40
8.0
100
AcDbArc
 50
60.25511900000238
 51
90.0
  0
ARC
  5
283F
330
2C80
100
AcDbEntity
  8
AM_0
100
AcDbCircle
 10
368.4722833741428
 20
355.4763976341417
 30
0.0
 40
2.0
100
AcDbArc
 50
180.0
 51
270.0
  0
ARC
  5
2840
330
2C80
100
AcDbEntity
  8
AM_0
100
AcDbCircle
 10
360.4722833741428
 20
341.6072446341418
 30
0.0
 40
6.0
100
AcDbArc
 50
0.0
 51
60.25511900000238
  0
ARC
  5
2841
330
2C80
100
AcDbEntity
  8
AM_0
100
AcDbCircle
 10
367.4722833741428
 20
340.5891806341418
 30
0.0
 40
1.0
100
AcDbArc
 50
180.0
 51
270.0
  0
ARC
  5
2842
330
2C80
100
AcDbEntity
  8
AM_0
100
AcDbCircle
 10
368.4722833741428
 20
393.0886526341418
 30
0.0
 40
2.0
100
AcDbArc
 50
90.0
 51
180.0
  0
ARC
  5
2843
330
2C80
100
AcDbEntity
  8
AM_0
100
AcDbCircle
 10
368.4722833741428
 20
408.5521806341416
 30
0.0
 40
2.0
100
AcDbArc
 50
90.0
 51
180.0
  0
LINE
  5
2844
330
2C80
100
AcDbEntity
  8
AM_0
100
AcDbLine
 10
382.4722833741428
 20
410.5521806341418
 30
0.0
 11
382.4722833741428
 21
353.4763976341417
 31
0.0
  0
LINE
  5
2845
330
2C80
100
AcDbEntity
  8
AM_0
100
AcDbLine
 10
385.4722333741428
 20
380.3133656341417
 30
0.0
 11
385.4722333741428
 21
353.8939906341417
 31
0.0
  0
ARC
  5
2846
330
2C80
100
AcDbEntity
  8
AM_0
100
AcDbCircle
 10
401.4722333741428
 20
333.9575606341417
 30
0.0
 40
5.0
100
AcDbArc
 50
0.0
 51
88.0
  0
LINE
  5
2847
330
2C80
100
AcDbEntity
  8
AM_0
100
AcDbLine
 10
385.4722333741428
 20
353.8939906341417
 30
0.0
 11
406.4722333741427
 21
353.8939906341417
 31
0.0
  0
LINE
  5
2848
330
2C80
100
AcDbEntity
  8
AM_0
100
AcDbLine
 10
383.4722333741428
 20
339.5891806341418
 30
0.0
 11
401.6467333741428
 21
338.9545056341416
 31
0.0
  0
ARC
  5
2849
330
2C80
100
AcDbEntity
  8
AM_0
100
AcDbCircle
 10
411.4722333741428
 20
324.6466756341416
 30
0.0
 40
5.0
100
AcDbArc
 50
179.9999899999999
 51
234.17957
  0
LINE
  5
284A
330
2C80
100
AcDbEntity
  8
AM_0
100
AcDbLine
 10
385.4722333741428
 20
364.0829856341417
 30
0.0
 11
406.4722333741427
 21
364.0829856341417
 31
0.0
  0
LINE
  5
284B
330
2C80
100
AcDbEntity
  8
AM_0
100
AcDbLine
 10
385.4722333741428
 20
380.3133656341417
 30
0.0
 11
406.4722333741427
 21
380.3133656341417
 31
0.0
  0
ARC
  5
284C
330
2C80
100
AcDbEntity
  8
AM_0
100
AcDbCircle
 10
457.4722333741431
 20
384.3281656341416
 30
0.0
 40
10.0
100
AcDbArc
 50
334.75947
 51
0.0
  0
ARC
  5
284D
330
2C80
100
AcDbEntity
  8
AM_0
100
AcDbCircle
 10
554.4722333741429
 20
322.0891806341418
 30
0.0
 40
10.0
100
AcDbArc
 50
179.9999899999999
 51
270.0
  0
LINE
  5
284E
330
2C80
100
AcDbEntity
  8
AM_0
100
AcDbLine
 10
554.4722333741429
 20
312.0891806341418
 30
0.0
 11
604.4722333741429
 21
312.0891806341418
 31
0.0
  0
LINE
  5
284F
330
2C80
100
AcDbEntity
  8
ﾁｭｳｼﾝｾﾝ1
100
AcDbLine
 10
579.4722333741429
 20
315.9970506341417
 30
0.0
 11
579.4722333741429
 21
279.0891806341416
 31
0.0
  0
LINE
  5
2850
330
2C80
100
AcDbEntity
  8
ｶｸﾚｾﾝ2
100
AcDbLine
 10
569.9722333741426
 20
312.0891806341418
 30
0.0
 11
569.9722333741426
 21
282.0891806341417
 31
0.0
  0
LINE
  5
2851
330
2C80
100
AcDbEntity
  8
ｶｸﾚｾﾝ2
100
AcDbLine
 10
588.9722333741429
 20
312.0891806341418
 30
0.0
 11
588.9722333741429
 21
282.0891806341417
 31
0.0
  0
LINE
  5
2852
330
2C80
100
AcDbEntity
  8
AM_0
100
AcDbLine
 10
609.4722333741429
 20
307.0891806341418
 30
0.0
 11
609.4722333741429
 21
282.0891806341417
 31
0.0
  0
ARC
  5
2853
330
2C80
100
AcDbEntity
  8
AM_0
100
AcDbCircle
 10
609.4722333741429
 20
315.7494306341416
 30
0.0
 40
5.0
100
AcDbArc
 50
179.9999899999999
 51
240.00001
  0
ARC
  5
2854
330
2C80
100
AcDbEntity
  8
AM_0
100
AcDbCircle
 10
604.4722333741429
 20
307.0891806341418
 30
0.0
 40
5.0
100
AcDbArc
 50
0.0
 51
90.00000300000001
  0
LINE
  5
2855
330
2C80
100
AcDbEntity
  8
AM_0
100
AcDbLine
 10
544.4722333741428
 20
328.3961906341417
 30
0.0
 11
567.4722333741429
 21
328.3961906341417
 31
0.0
  0
ARC
  5
2856
330
2C80
100
AcDbEntity
  8
AM_0
100
AcDbCircle
 10
567.4722333741429
 20
338.3961906341417
 30
0.0
 40
10.0
100
AcDbArc
 50
270.0
 51
0.0
  0
LINE
  5
2857
330
2C80
100
AcDbEntity
  8
AM_0
100
AcDbLine
 10
615.4722333741425
 20
454.5891856341417
 30
0.0
 11
697.4722333741429
 21
454.5891856341417
 31
0.0
  0
ARC
  5
2858
330
2C80
100
AcDbEntity
  8
AM_0
100
AcDbCircle
 10
607.4722333741426
 20
424.0205806341417
 30
0.0
 40
2.00000005
100
AcDbArc
 50
272.0
 51
0.0
  0
ARC
  5
2859
330
2C80
100
AcDbEntity
  8
AM_0
100
AcDbCircle
 10
606.4722333741427
 20
419.9832256341418
 30
0.0
 40
2.00000005
100
AcDbArc
 50
91.99999799999995
 51
180.00001
  0
LINE
  5
285A
330
2C80
100
AcDbEntity
  8
AM_0
100
AcDbLine
 10
606.4024333741431
 20
421.9819756341417
 30
0.0
 11
607.5419833741428
 21
422.0217706341418
 31
0.0
  0
LINE
  5
285B
330
2C80
100
AcDbEntity
  8
AM_0
100
AcDbLine
 10
609.4722333741429
 20
452.0891856341417
 30
0.0
 11
615.4722333741425
 21
452.0891856341417
 31
0.0
  0
ARC
  5
285C
330
2C80
100
AcDbEntity
  8
AM_0
100
AcDbCircle
 10
267.6158773741428
 20
477.0891806341417
 30
0.0
 40
8.0
100
AcDbArc
 50
90.0
 51
120.0000000000005
  0
LINE
  5
285D
330
2C80
100
AcDbEntity
  8
AM_0
100
AcDbLine
 10
263.6158773741428
 20
484.0173836341417
 30
0.0
 11
257.4722833741429
 21
480.4703776341416
 31
0.0
  0
ARC
  5
285E
330
2C80
100
AcDbEntity
  8
AM_0
100
AcDbCircle
 10
259.4722833741429
 20
477.0062766341418
 30
0.0
 40
4.0
100
AcDbArc
 50
120.0000000000005
 51
180.0
  0
LINE
  5
285F
330
2C80
100
AcDbEntity
  8
AM_0
100
AcDbLine
 10
253.4722833741429
 20
464.5891806341417
 30
0.0
 11
255.4722833741429
 21
466.5891806341416
 31
0.0
  0
ARC
  5
2860
330
2C80
100
AcDbEntity
  8
AM_0
100
AcDbCircle
 10
490.6750333741428
 20
604.1074206341418
 30
0.0
 40
5.0
100
AcDbArc
 50
214.8873399999999
 51
268.0
  0
LINE
  5
2861
330
2C80
100
AcDbEntity
  8
ﾁｭｳｼﾝｾﾝ
100
AcDbLine
 10
394.8873733510882
 20
482.0891856341416
 30
0.0
 11
702.901083374143
 21
482.0891856341416
 31
0.0
  0
ARC
  5
2862
330
2C80
100
AcDbEntity
  8
AM_0
100
AcDbCircle
 10
444.4722333741428
 20
630.0891706341417
 30
0.0
 40
25.0000005
100
AcDbArc
 50
306.46672
 51
233.53329
  0
ARC
  5
2863
330
2C80
100
AcDbEntity
  8
AM_0
100
AcDbCircle
 10
426.047183374143
 20
605.1588706341417
 30
0.0
 40
6.0
100
AcDbArc
 50
349.72995
 51
53.53329100000001
  0
LINE
  5
2864
330
2C80
100
AcDbEntity
  8
AM_0
100
AcDbLine
 10
431.9722833741428
 20
604.0891706341417
 30
0.0
 11
434.2227833741429
 21
612.4880706341416
 31
0.0
  0
ARC
  5
2865
330
2C80
100
AcDbEntity
  8
AM_0
100
AcDbCircle
 10
462.8972333741431
 20
605.1588706341417
 30
0.0
 40
6.0
100
AcDbArc
 50
126.4666999999999
 51
190.27006
  0
LINE
  5
2866
330
2C80
100
AcDbEntity
  8
AM_0
100
AcDbLine
 10
456.9722333741428
 20
604.0891706341417
 30
0.0
 11
454.7217333741428
 21
612.4880706341416
 31
0.0
  0
LINE
  5
2867
330
2C80
100
AcDbEntity
  8
AM_0
100
AcDbLine
 10
382.4722833741428
 20
548.0891806341417
 30
0.0
 11
368.4722833741428
 21
548.0891806341417
 31
0.0
  0
LINE
  5
2868
330
2C80
100
AcDbEntity
  8
AM_0
100
AcDbLine
 10
382.4722833741428
 20
520.7019636341417
 30
0.0
 11
368.4722833741428
 21
520.7019636341417
 31
0.0
  0
LINE
  5
2869
330
2C80
100
AcDbEntity
  8
AM_0
100
AcDbLine
 10
383.4722833741428
 20
534.5891806341419
 30
0.0
 11
367.4722833741428
 21
534.5891806341419
 31
0.0
  0
LINE
  5
286A
330
2C80
100
AcDbEntity
  8
AM_0
100
AcDbLine
 10
382.4722833741428
 20
510.0953616341419
 30
0.0
 11
368.4722833741428
 21
510.0953616341419
 31
0.0
  0
LINE
  5
286B
330
2C80
100
AcDbEntity
  8
AM_0
100
AcDbLine
 10
368.4722833741428
 20
493.8649686341419
 30
0.0
 11
382.4722833741428
 21
493.8649686341419
 31
0.0
  0
ARC
  5
286C
330
2C80
100
AcDbEntity
  8
AM_0
100
AcDbCircle
 10
367.4722833741428
 20
533.5891806341419
 30
0.0
 40
1.0
100
AcDbArc
 50
90.0
 51
180.0
  0
LINE
  5
286D
330
2C80
100
AcDbEntity
  8
AM_0
100
AcDbLine
 10
363.4491173741428
 20
527.3616566341416
 30
0.0
 11
291.3168793741429
 21
486.1432346341417
 31
0.0
  0
LINE
  5
286E
330
2C80
100
AcDbEntity
  8
AM_0
100
AcDbLine
 10
287.3477683741431
 20
485.0891806341417
 30
0.0
 11
267.6158773741428
 21
485.0891806341417
 31
0.0
  0
ARC
  5
286F
330
2C80
100
AcDbEntity
  8
AM_0
100
AcDbCircle
 10
287.3477683741431
 20
493.0891806341417
 30
0.0
 40
8.0
100
AcDbArc
 50
270.0
 51
299.7448809999976
  0
ARC
  5
2870
330
2C80
100
AcDbEntity
  8
AM_0
100
AcDbCircle
 10
368.4722833741428
 20
495.8649686341419
 30
0.0
 40
2.0
100
AcDbArc
 50
180.0
 51
270.0
  0
ARC
  5
2871
330
2C80
100
AcDbEntity
  8
AM_0
100
AcDbCircle
 10
368.4722833741428
 20
508.0953616341418
 30
0.0
 40
2.0
100
AcDbArc
 50
90.0
 51
180.0
  0
ARC
  5
2872
330
2C80
100
AcDbEntity
  8
AM_0
100
AcDbCircle
 10
360.4722833741428
 20
532.5711156341419
 30
0.0
 40
6.0
100
AcDbArc
 50
299.7448809999976
 51
0.0
  0
ARC
  5
2873
330
2C80
100
AcDbEntity
  8
AM_0
100
AcDbCircle
 10
368.4722833741428
 20
518.7019636341417
 30
0.0
 40
2.0
100
AcDbArc
 50
90.0
 51
180.0
  0
ARC
  5
2874
330
2C80
100
AcDbEntity
  8
AM_0
100
AcDbCircle
 10
368.4722833741428
 20
546.0891806341416
 30
0.0
 40
2.0
100
AcDbArc
 50
90.0
 51
180.0
  0
LINE
  5
2875
330
2C80
100
AcDbEntity
  8
AM_0
100
AcDbLine
 10
487.4722333741428
 20
598.3877206341416
 30
0.0
 11
487.4722333741428
 21
474.1951706341416
 31
0.0
  0
ARC
  5
2876
330
2C80
100
AcDbEntity
  8
AM_0
100
AcDbCircle
 10
401.4722333741428
 20
540.2208206341416
 30
0.0
 40
5.0
100
AcDbArc
 50
272.0
 51
0.0
  0
LINE
  5
2877
330
2C80
100
AcDbEntity
  8
AM_0
100
AcDbLine
 10
383.4722333741428
 20
534.5891706341417
 30
0.0
 11
401.6467333741428
 21
535.2238706341418
 31
0.0
  0
LINE
  5
2878
330
2C80
100
AcDbEntity
  8
AM_0
100
AcDbLine
 10
382.4722833741428
 20
534.5891806341419
 30
0.0
 11
382.4722833741428
 21
548.0891806341417
 31
0.0
  0
LINE
  5
2879
330
2C80
100
AcDbEntity
  8
AM_0
100
AcDbLine
 10
385.4722333741428
 20
520.2843456341418
 30
0.0
 11
385.4722333741428
 21
493.8649706341418
 31
0.0
  0
LINE
  5
287A
330
2C80
100
AcDbEntity
  8
AM_0
100
AcDbLine
 10
382.4722833741428
 20
520.7019636341417
 30
0.0
 11
382.4722833741428
 21
493.8649686341419
 31
0.0
  0
LINE
  5
287B
330
2C80
100
AcDbEntity
  8
AM_0
100
AcDbLine
 10
385.4722333741428
 20
493.8649706341418
 30
0.0
 11
406.4722333741427
 21
493.8649706341418
 31
0.0
  0
LINE
  5
287C
330
2C80
100
AcDbEntity
  8
AM_0
100
AcDbLine
 10
385.4722333741428
 20
510.0953806341417
 30
0.0
 11
406.4722333741427
 21
510.0953806341417
 31
0.0
  0
LINE
  5
287D
330
2C80
100
AcDbEntity
  8
AM_0
100
AcDbLine
 10
385.4722333741428
 20
520.2843456341418
 30
0.0
 11
406.4722333741427
 21
520.2843456341418
 31
0.0
  0
LINE
  5
287E
330
2C80
100
AcDbEntity
  8
AM_0
100
AcDbLine
 10
467.472233374143
 20
474.1951706341416
 30
0.0
 11
487.4722333741428
 21
474.1951706341416
 31
0.0
  0
ARC
  5
287F
330
2C80
100
AcDbEntity
  8
AM_0
100
AcDbCircle
 10
434.4722333741428
 20
601.1102206341416
 30
0.0
 40
2.00000005
100
AcDbArc
 50
91.99999799999995
 51
180.00001
  0
LINE
  5
2880
330
2C80
100
AcDbEntity
  8
AM_0
100
AcDbLine
 10
431.4722333741427
 20
604.0891706341417
 30
0.0
 11
462.4722333741431
 21
604.0891706341417
 31
0.0
  0
LINE
  5
2881
330
2C80
100
AcDbEntity
  8
AM_0
100
AcDbLine
 10
407.8706333741425
 20
553.5413706341412
 30
0.0
 11
428.0737833741429
 21
574.5215706341416
 31
0.0
  0
ARC
  5
2882
330
2C80
100
AcDbEntity
  8
AM_0
100
AcDbCircle
 10
411.4722333741428
 20
550.0731706341416
 30
0.0
 40
5.0
100
AcDbArc
 50
136.08092
 51
180.00001
  0
LINE
  5
2883
330
2C80
100
AcDbEntity
  8
AM_0
100
AcDbLine
 10
429.4722333741428
 20
602.0892206341414
 30
0.0
 11
429.4722333741428
 21
577.9897706341418
 31
0.0
  0
ARC
  5
2884
330
2C80
100
AcDbEntity
  8
AM_0
100
AcDbCircle
 10
427.4722333741431
 20
581.1052206341416
 30
0.0
 40
5.0
100
AcDbArc
 50
316.08092
 51
0.0
  0
ARC
  5
2885
330
2C80
100
AcDbEntity
  8
AM_0
100
AcDbCircle
 10
424.4722333741428
 20
577.9897706341418
 30
0.0
 40
5.0
100
AcDbArc
 50
316.08092
 51
0.0
  0
LINE
  5
2886
330
2C80
100
AcDbEntity
  8
AM_0
100
AcDbLine
 10
428.0737833741429
 20
574.5215706341416
 30
0.0
 11
431.0737833741431
 21
577.6369206341413
 31
0.0
  0
ARC
  5
2887
330
2C80
100
AcDbEntity
  8
AM_0
100
AcDbCircle
 10
431.4722333741427
 20
602.0892206341414
 30
0.0
 40
2.00000005
100
AcDbArc
 50
90.00000300000001
 51
180.00001
  0
LINE
  5
2888
330
2C80
100
AcDbEntity
  8
AM_0
100
AcDbLine
 10
434.4024833741428
 20
603.1089206341416
 30
0.0
 11
462.4722833741428
 21
604.0891706341417
 31
0.0
  0
LINE
  5
2889
330
2C80
100
AcDbEntity
  8
AM_0
100
AcDbLine
 10
462.4722333741431
 20
604.0891706341417
 30
0.0
 11
482.646733374143
 21
603.3846206341418
 31
0.0
  0
ARC
  5
288A
330
2C80
100
AcDbEntity
  8
AM_0
100
AcDbCircle
 10
482.4722333741428
 20
598.3877206341416
 30
0.0
 40
5.0
100
AcDbArc
 50
34.88735
 51
88.0
  0
CIRCLE
  5
288B
330
2C80
100
AcDbEntity
  8
AM_0
100
AcDbCircle
 10
444.4722333741428
 20
630.0891706341417
 30
0.0
 40
15.0
  0
LINE
  5
288C
330
2C80
100
AcDbEntity
  8
AM_0
100
AcDbLine
 10
444.4722333741428
 20
615.0891706341417
 30
0.0
 11
453.9503333741431
 21
613.2101706341416
 31
0.0
  0
LINE
  5
288D
330
2C80
100
AcDbEntity
  8
AM_0
100
AcDbLine
 10
434.6781833741431
 20
613.0891706341417
 30
0.0
 11
454.2662333741431
 21
613.0891706341417
 31
0.0
  0
ARC
  5
288E
330
2C80
100
AcDbEntity
  8
AM_0
100
AcDbCircle
 10
435.1886833741432
 20
612.2292706341418
 30
0.0
 40
1.0
100
AcDbArc
 50
101.21329
 51
164.99999
  0
LINE
  5
288F
330
2C80
100
AcDbEntity
  8
AM_0
100
AcDbLine
 10
434.9941833741431
 20
613.2101706341416
 30
0.0
 11
444.4722333741428
 21
615.0892206341416
 31
0.0
  0
ARC
  5
2890
330
2C80
100
AcDbEntity
  8
AM_0
100
AcDbCircle
 10
453.7558833741432
 20
612.2292706341418
 30
0.0
 40
1.0
100
AcDbArc
 50
15.0
 51
78.78671
  0
ARC
  5
2891
330
2C80
100
AcDbEntity
  8
AM_0
100
AcDbCircle
 10
599.4722333741425
 20
562.5074706341417
 30
0.0
 40
5.0
100
AcDbArc
 50
0.0
 51
84.99999699999998
  0
ARC
  5
2892
330
2C80
100
AcDbEntity
  8
AM_0
100
AcDbCircle
 10
559.4722333741429
 20
519.0468256341419
 30
0.0
 40
15.0
100
AcDbArc
 50
90.00000300000001
 51
180.00001
  0
LINE
  5
2893
330
2C80
100
AcDbEntity
  8
AM_0
100
AcDbLine
 10
559.4722333741429
 20
534.0468206341418
 30
0.0
 11
577.4722333741427
 21
534.0468206341418
 31
0.0
  0
LINE
  5
2894
330
2C80
100
AcDbEntity
  8
AM_0
100
AcDbLine
 10
490.5005333741428
 20
599.1103706341418
 30
0.0
 11
567.8212333741432
 21
596.4103206341416
 31
0.0
  0
ARC
  5
2895
330
2C80
100
AcDbEntity
  8
AM_0
100
AcDbCircle
 10
587.4722333741429
 20
578.6146706341416
 30
0.0
 40
10.0
100
AcDbArc
 50
179.9999899999999
 51
265.0
  0
LINE
  5
2896
330
2C80
100
AcDbEntity
  8
AM_0
100
AcDbLine
 10
586.6006333741426
 20
568.6527706341418
 30
0.0
 11
599.9079833741426
 21
567.4885206341419
 31
0.0
  0
ARC
  5
2897
330
2C80
100
AcDbEntity
  8
AM_0
100
AcDbCircle
 10
567.4722333741429
 20
586.4163706341416
 30
0.0
 40
10.0
100
AcDbArc
 50
0.0
 51
88.0
  0
LINE
  5
2898
330
2C80
100
AcDbEntity
  8
AM_0
100
AcDbLine
 10
615.4722333741425
 20
509.5891856341417
 30
0.0
 11
697.4722333741429
 21
509.5891856341417
 31
0.0
  0
LINE
  5
2899
330
2C80
100
AcDbEntity
  8
AM_0
100
AcDbLine
 10
635.4722333741428
 20
513.5891856341418
 30
0.0
 11
697.4722333741429
 21
513.5891856341418
 31
0.0
  0
LINE
  5
289A
330
2C80
100
AcDbEntity
  8
AM_0
100
AcDbLine
 10
609.4722333741429
 20
512.0891856341418
 30
0.0
 11
615.4722333741425
 21
512.0891856341418
 31
0.0
  0
LINE
  5
289B
330
2C80
100
AcDbEntity
  8
AM_0
100
AcDbLine
 10
635.4722333741428
 20
513.5891856341418
 30
0.0
 11
635.4722333741428
 21
509.5891856341417
 31
0.0
  0
ARC
  5
289C
330
2C80
100
AcDbEntity
  8
AM_0
100
AcDbCircle
 10
607.4722333741426
 20
540.1578206341416
 30
0.0
 40
2.00000005
100
AcDbArc
 50
0.0
 51
88.0
  0
ARC
  5
289D
330
2C80
100
AcDbEntity
  8
AM_0
100
AcDbCircle
 10
606.4722333741427
 20
544.1951706341417
 30
0.0
 40
2.00000005
100
AcDbArc
 50
179.9999899999999
 51
268.0000099999999
  0
LINE
  5
289E
330
2C80
100
AcDbEntity
  8
AM_0
100
AcDbLine
 10
606.4024833741432
 20
542.1963706341418
 30
0.0
 11
607.5420833741432
 21
542.1566206341417
 31
0.0
  0
ARC
  5
289F
330
2C80
100
AcDbEntity
  8
AM_0
100
AcDbCircle
 10
993.572003374143
 20
482.0891856341416
 30
0.0
 40
60.0
100
AcDbArc
 50
270.0
 51
90.00000300000001
  0
ARC
  5
28A0
330
2C80
100
AcDbEntity
  8
AM_0
100
AcDbCircle
 10
993.572003374143
 20
482.0891856341416
 30
0.0
 40
60.0
100
AcDbArc
 50
90.00000300000001
 51
270.0
  0
ARC
  5
28A1
330
2C80
100
AcDbEntity
  8
AM_0
100
AcDbCircle
 10
993.572003374143
 20
482.0891856341416
 30
0.0
 40
27.5000005
100
AcDbArc
 50
106.91239
 51
73.087597
  0
LINE
  5
28A2
330
2C80
100
AcDbEntity
  8
AM_0
100
AcDbLine
 10
1158.571993374142
 20
312.0891806341418
 30
0.0
 11
1120.374633374142
 21
508.5975156341417
 31
0.0
  0
LINE
  5
28A3
330
2C80
100
AcDbEntity
  8
AM_0
100
AcDbLine
 10
1110.571973374143
 20
389.0530806341416
 30
0.0
 11
1110.571973374143
 21
533.0229706341417
 31
0.0
  0
LINE
  5
28A4
330
2C80
100
AcDbEntity
  8
AM_0
100
AcDbLine
 10
1093.571973374143
 20
324.0891506341417
 30
0.0
 11
1093.571973374143
 21
467.0891856341417
 31
0.0
  0
LINE
  5
28A5
330
2C80
100
AcDbEntity
  8
AM_0
100
AcDbLine
 10
828.5720333741425
 20
312.0891806341418
 30
0.0
 11
866.769358374143
 21
508.5974856341417
 31
0.0
  0
LINE
  5
28A6
330
2C80
100
AcDbEntity
  8
AM_0
100
AcDbLine
 10
876.571973374143
 20
389.0530806341416
 30
0.0
 11
876.571973374143
 21
533.0229706341417
 31
0.0
  0
LINE
  5
28A7
330
2C80
100
AcDbEntity
  8
ﾁｭｳｼﾝｾﾝ
100
AcDbLine
 10
993.572003374143
 20
283.3622052599753
 30
0.0
 11
993.572003374143
 21
658.0884706341412
 31
0.0
  0
LINE
  5
28A8
330
2C80
100
AcDbEntity
  8
AM_0
100
AcDbLine
 10
893.572003374143
 20
324.0891506341417
 30
0.0
 11
893.572003374143
 21
467.0891856341417
 31
0.0
  0
ARC
  5
28A9
330
2C80
100
AcDbEntity
  8
AM_0
100
AcDbCircle
 10
1153.571978374143
 20
307.0891806341418
 30
0.0
 40
5.0
100
AcDbArc
 50
0.0
 51
90.00000300000001
  0
LINE
  5
28AA
330
2C80
100
AcDbEntity
  8
AM_0
100
AcDbLine
 10
1088.571973374143
 20
282.0891806341417
 30
0.0
 11
1158.571978374143
 21
282.0891806341417
 31
0.0
  0
ARC
  5
28AB
330
2C80
100
AcDbEntity
  8
AM_0
100
AcDbCircle
 10
934.5626633741428
 20
308.0891806341417
 30
0.0
 40
10.0
100
AcDbArc
 50
235.0
 51
270.0
  0
LINE
  5
28AC
330
2C80
100
AcDbEntity
  8
ﾁｭｳｼﾝｾﾝ
100
AcDbLine
 10
861.381894226125
 20
437.0891806341417
 30
0.0
 11
1125.754539351293
 21
437.0891806341417
 31
0.0
  0
LINE
  5
28AD
330
2C80
100
AcDbEntity
  8
AM_0
100
AcDbLine
 10
993.572003374143
 20
289.0891506341417
 30
0.0
 11
903.5720033741432
 21
289.0891506341417
 31
0.0
  0
ARC
  5
28AE
330
2C80
100
AcDbEntity
  8
AM_0
100
AcDbCircle
 10
881.5719733741429
 20
324.0891506341417
 30
0.0
 40
12.0
100
AcDbArc
 50
270.0
 51
0.0
  0
LINE
  5
28AF
330
2C80
100
AcDbEntity
  8
AM_0
100
AcDbLine
 10
898.5720033741429
 20
282.0891806341417
 30
0.0
 11
828.5719833741431
 21
282.0891806341417
 31
0.0
  0
LINE
  5
28B0
330
2C80
100
AcDbEntity
  8
AM_0
100
AcDbLine
 10
893.572003374143
 20
312.0891806341418
 30
0.0
 11
833.5719833741432
 21
312.0891806341418
 31
0.0
  0
LINE
  5
28B1
330
2C80
100
AcDbEntity
  8
ﾁｭｳｼﾝｾﾝ1
100
AcDbLine
 10
861.0720033741429
 20
316.7504356341418
 30
0.0
 11
861.0720033741429
 21
279.0891806341416
 31
0.0
  0
LINE
  5
28B2
330
2C80
100
AcDbEntity
  8
AM_0
100
AcDbLine
 10
828.5719833741431
 20
312.0891806341418
 30
0.0
 11
828.5719833741431
 21
282.0891806341417
 31
0.0
  0
ARC
  5
28B3
330
2C80
100
AcDbEntity
  8
AM_0
100
AcDbCircle
 10
833.5719833741432
 20
307.0891806341418
 30
0.0
 40
5.0
100
AcDbArc
 50
90.00000300000001
 51
180.00001
  0
LINE
  5
28B4
330
2C80
100
AcDbEntity
  8
ｶｸﾚｾﾝ2
100
AcDbLine
 10
870.571973374143
 20
312.0891806341418
 30
0.0
 11
870.571973374143
 21
282.0891806341417
 31
0.0
  0
LINE
  5
28B5
330
2C80
100
AcDbEntity
  8
ｶｸﾚｾﾝ2
100
AcDbLine
 10
851.571973374143
 20
312.0891806341418
 30
0.0
 11
851.571973374143
 21
282.0891806341417
 31
0.0
  0
LINE
  5
28B6
330
2C80
100
AcDbEntity
  8
AM_0
100
AcDbLine
 10
901.5009283741427
 20
295.0181056341417
 30
0.0
 11
909.691388374143
 21
303.2085956341417
 31
0.0
  0
LINE
  5
28B7
330
2C80
100
AcDbEntity
  8
AM_0
100
AcDbLine
 10
898.5720033741429
 20
307.0891806341418
 30
0.0
 11
898.5720033741429
 21
282.0891806341417
 31
0.0
  0
ARC
  5
28B8
330
2C80
100
AcDbEntity
  8
AM_0
100
AcDbCircle
 10
908.5720033741432
 20
287.9470306341417
 30
0.0
 40
10.0
100
AcDbArc
 50
135.0
 51
180.00001
  0
ARC
  5
28B9
330
2C80
100
AcDbEntity
  8
AM_0
100
AcDbCircle
 10
903.5720033741432
 20
284.0891506341416
 30
0.0
 40
5.0
100
AcDbArc
 50
90.00000300000001
 51
180.00001
  0
ARC
  5
28BA
330
2C80
100
AcDbEntity
  8
AM_0
100
AcDbCircle
 10
893.572003374143
 20
307.0891806341418
 30
0.0
 40
5.0
100
AcDbArc
 50
0.0
 51
90.00000300000001
  0
ARC
  5
28BB
330
2C80
100
AcDbEntity
  8
AM_0
100
AcDbCircle
 10
916.7624633741427
 20
296.1374906341417
 30
0.0
 40
10.0
100
AcDbArc
 50
54.999999
 51
135.0
  0
LINE
  5
28BC
330
2C80
100
AcDbEntity
  8
AM_0
100
AcDbLine
 10
928.8268533741428
 20
299.8976856341417
 30
0.0
 11
922.4982133741432
 21
304.3290506341417
 31
0.0
  0
ARC
  5
28BD
330
2C80
100
AcDbEntity
  8
AM_0
100
AcDbCircle
 10
993.572003374143
 20
389.0891506341418
 30
0.0
 40
117.0
100
AcDbArc
 50
179.9999899999999
 51
211.2732999999999
  0
ARC
  5
28BE
330
2C80
100
AcDbEntity
  8
AM_0
100
AcDbCircle
 10
1105.571973374143
 20
324.0891506341417
 30
0.0
 40
12.0
100
AcDbArc
 50
180.00001
 51
270.0
  0
LINE
  5
28BF
330
2C80
100
AcDbEntity
  8
AM_0
100
AcDbLine
 10
993.572003374143
 20
298.0891806341417
 30
0.0
 11
1052.581313374143
 21
298.0891806341417
 31
0.0
  0
LINE
  5
28C0
330
2C80
100
AcDbEntity
  8
AM_0
100
AcDbLine
 10
993.572003374143
 20
289.0891506341417
 30
0.0
 11
1083.571973374142
 21
289.0891506341417
 31
0.0
  0
LINE
  5
28C1
330
2C80
100
AcDbEntity
  8
AM_0
100
AcDbLine
 10
993.572003374143
 20
298.0891806341417
 30
0.0
 11
934.5626633741428
 21
298.0891806341417
 31
0.0
  0
LINE
  5
28C2
330
2C80
100
AcDbEntity
  8
AM_0
100
AcDbLine
 10
1093.571973374143
 20
312.0891806341418
 30
0.0
 11
1153.571978374143
 21
312.0891806341418
 31
0.0
  0
ARC
  5
28C3
330
2C80
100
AcDbEntity
  8
AM_0
100
AcDbCircle
 10
1070.381483374143
 20
296.1374906341417
 30
0.0
 40
10.0
100
AcDbArc
 50
45.00000099999999
 51
125.0
  0
ARC
  5
28C4
330
2C80
100
AcDbEntity
  8
AM_0
100
AcDbCircle
 10
1052.581313374143
 20
308.0891806341417
 30
0.0
 40
10.0
100
AcDbArc
 50
270.0
 51
305.0
  0
LINE
  5
28C5
330
2C80
100
AcDbEntity
  8
AM_0
100
AcDbLine
 10
1058.317063374141
 20
299.8976506341417
 30
0.0
 11
1064.645738374143
 21
304.3290506341417
 31
0.0
  0
LINE
  5
28C6
330
2C80
100
AcDbEntity
  8
AM_0
100
AcDbLine
 10
1088.571973374143
 20
307.0891806341418
 30
0.0
 11
1088.571973374143
 21
282.0891806341417
 31
0.0
  0
LINE
  5
28C7
330
2C80
100
AcDbEntity
  8
AM_0
100
AcDbLine
 10
1085.643083374143
 20
295.0181056341417
 30
0.0
 11
1077.452588374143
 21
303.2085956341417
 31
0.0
  0
ARC
  5
28C8
330
2C80
100
AcDbEntity
  8
AM_0
100
AcDbCircle
 10
1083.571973374142
 20
284.0891506341416
 30
0.0
 40
5.0
100
AcDbArc
 50
0.0
 51
90.00000300000001
  0
ARC
  5
28C9
330
2C80
100
AcDbEntity
  8
AM_0
100
AcDbCircle
 10
1078.571973374143
 20
287.9470306341417
 30
0.0
 40
10.0
100
AcDbArc
 50
0.0
 51
45.00000099999999
  0
ARC
  5
28CA
330
2C80
100
AcDbEntity
  8
AM_0
100
AcDbCircle
 10
1093.571973374143
 20
307.0891806341418
 30
0.0
 40
5.0
100
AcDbArc
 50
90.00000300000001
 51
180.00001
  0
LINE
  5
28CB
330
2C80
100
AcDbEntity
  8
ﾁｭｳｼﾝｾﾝ1
100
AcDbLine
 10
1126.071978374143
 20
316.7504356341418
 30
0.0
 11
1126.071978374143
 21
279.0891806341416
 31
0.0
  0
LINE
  5
28CC
330
2C80
100
AcDbEntity
  8
ｶｸﾚｾﾝ2
100
AcDbLine
 10
1116.571993374142
 20
312.0891806341418
 30
0.0
 11
1116.571993374142
 21
282.0891806341417
 31
0.0
  0
LINE
  5
28CD
330
2C80
100
AcDbEntity
  8
ｶｸﾚｾﾝ2
100
AcDbLine
 10
1135.571978374143
 20
312.0891806341418
 30
0.0
 11
1135.571978374143
 21
282.0891806341417
 31
0.0
  0
ARC
  5
28CE
330
2C80
100
AcDbEntity
  8
AM_0
100
AcDbCircle
 10
993.572003374143
 20
389.0891506341418
 30
0.0
 40
117.0
100
AcDbArc
 50
328.7266999999999
 51
0.0
  0
LINE
  5
28CF
330
2C80
100
AcDbEntity
  8
AM_0
100
AcDbLine
 10
1158.571978374143
 20
312.0891806341418
 30
0.0
 11
1158.571978374143
 21
282.0891806341417
 31
0.0
  0
ARC
  5
28D0
330
2C80
100
AcDbEntity
  8
AM_0
100
AcDbCircle
 10
993.572003374143
 20
457.0891856341416
 30
0.0
 40
142.0
100
AcDbArc
 50
90.00000300000001
 51
136.4456399999999
  0
ARC
  5
28D1
330
2C80
100
AcDbEntity
  8
AM_0
100
AcDbCircle
 10
993.572003374143
 20
457.0891856341416
 30
0.0
 40
147.0
100
AcDbArc
 50
90.00000300000001
 51
134.5979599999998
  0
ARC
  5
28D2
330
2C80
100
AcDbEntity
  8
AM_0
100
AcDbCircle
 10
993.572003374143
 20
467.0891856341417
 30
0.0
 40
100.0
100
AcDbArc
 50
90.00000300000001
 51
180.00001
  0
LINE
  5
28D3
330
2C80
100
AcDbEntity
  8
ﾁｭｳｼﾝｾﾝ
100
AcDbLine
 10
1081.891809466674
 20
482.0891856341416
 30
0.0
 11
905.6433779365816
 21
482.0891856341416
 31
0.0
  0
ARC
  5
28D4
330
2C80
100
AcDbEntity
  8
AM_0
100
AcDbCircle
 10
960.571973374143
 20
490.5555856341416
 30
0.0
 40
100.0
100
AcDbArc
 50
134.5979599999998
 51
180.00001
  0
ARC
  5
28D5
330
2C80
100
AcDbEntity
  8
AM_0
100
AcDbCircle
 10
886.571973374143
 20
533.0229706341417
 30
0.0
 40
10.0
100
AcDbArc
 50
149.4639199999998
 51
180.00001
  0
ARC
  5
28D6
330
2C80
100
AcDbEntity
  8
AM_0
100
AcDbCircle
 10
958.0606833741427
 20
490.8522756341418
 30
0.0
 40
93.0
100
AcDbArc
 50
136.4456399999999
 51
169.0
  0
LINE
  5
28D7
330
2C80
100
AcDbEntity
  8
AM_0
100
AcDbLine
 10
860.571973374143
 20
490.5555856341416
 30
0.0
 11
860.571973374143
 21
476.7148856341417
 31
0.0
  0
ARC
  5
28D8
330
2C80
100
AcDbEntity
  8
AM_0
100
AcDbCircle
 10
993.572003374143
 20
457.0891856341416
 30
0.0
 40
142.0
100
AcDbArc
 50
43.554364
 51
90.00000300000001
  0
ARC
  5
28D9
330
2C80
100
AcDbEntity
  8
AM_0
100
AcDbCircle
 10
993.572003374143
 20
457.0891856341416
 30
0.0
 40
147.0
100
AcDbArc
 50
45.40204299999999
 51
90.00000300000001
  0
ARC
  5
28DA
330
2C80
100
AcDbEntity
  8
AM_0
100
AcDbCircle
 10
1000.571973374142
 20
608.0891706341417
 30
0.0
 40
2.00000005
100
AcDbArc
 50
179.9999899999999
 51
270.0
  0
ARC
  5
28DB
330
2C80
100
AcDbEntity
  8
AM_0
100
AcDbCircle
 10
986.571973374143
 20
608.0891706341417
 30
0.0
 40
2.00000005
100
AcDbArc
 50
270.0
 51
0.0
  0
LINE
  5
28DC
330
2C80
100
AcDbEntity
  8
AM_0
100
AcDbLine
 10
1006.217998374143
 20
603.5442206341416
 30
0.0
 11
1003.821483374143
 21
612.4881206341417
 31
0.0
  0
LINE
  5
28DD
330
2C80
100
AcDbEntity
  8
AM_0
100
AcDbLine
 10
980.9259483741428
 20
603.5442206341416
 30
0.0
 11
983.3224633741428
 21
612.4880706341416
 31
0.0
  0
ARC
  5
28DE
330
2C80
100
AcDbEntity
  8
AM_0
100
AcDbCircle
 10
993.572003374143
 20
467.0891856341417
 30
0.0
 40
100.0
100
AcDbArc
 50
0.0
 51
90.00000300000001
  0
LINE
  5
28DF
330
2C80
100
AcDbEntity
  8
AM_0
100
AcDbLine
 10
985.571973374143
 20
513.5891856341418
 30
0.0
 11
1001.571973374143
 21
513.5891856341418
 31
0.0
  0
LINE
  5
28E0
330
2C80
100
AcDbEntity
  8
AM_0
100
AcDbLine
 10
985.571973374143
 20
503.5891856341416
 30
0.0
 11
1001.571973374143
 21
503.5891856341416
 31
0.0
  0
CIRCLE
  5
28E1
330
2C80
100
AcDbEntity
  8
AM_5
100
AcDbCircle
 10
993.572003374143
 20
482.0891856341416
 30
0.0
 40
6.0
  0
CIRCLE
  5
28E2
330
2C80
100
AcDbEntity
  8
AM_0
100
AcDbCircle
 10
993.572003374143
 20
482.0891856341416
 30
0.0
 40
4.500000049999997
  0
LINE
  5
28E3
330
2C80
100
AcDbEntity
  8
AM_0
100
AcDbLine
 10
985.571973374143
 20
503.5891856341416
 30
0.0
 11
985.571973374143
 21
513.5891856341418
 31
0.0
  0
LINE
  5
28E4
330
2C80
100
AcDbEntity
  8
AM_0
100
AcDbLine
 10
1001.571973374143
 20
503.5891856341416
 30
0.0
 11
1001.571973374143
 21
513.5891856341418
 31
0.0
  0
ARC
  5
28E5
330
2C80
100
AcDbEntity
  8
AM_0
100
AcDbCircle
 10
1026.571973374143
 20
490.5555856341416
 30
0.0
 40
100.0
100
AcDbArc
 50
0.0
 51
45.40204299999999
  0
ARC
  5
28E6
330
2C80
100
AcDbEntity
  8
AM_0
100
AcDbCircle
 10
1029.083298374142
 20
490.8522756341418
 30
0.0
 40
93.0
100
AcDbArc
 50
11.0
 51
43.554364
  0
ARC
  5
28E7
330
2C80
100
AcDbEntity
  8
AM_0
100
AcDbCircle
 10
1100.571973374143
 20
533.0229706341417
 30
0.0
 40
10.0
100
AcDbArc
 50
0.0
 51
30.53608499999999
  0
LINE
  5
28E8
330
2C80
100
AcDbEntity
  8
AM_0
100
AcDbLine
 10
1126.571993374142
 20
490.5555856341416
 30
0.0
 11
1126.571993374142
 21
476.7148856341417
 31
0.0
  0
ARC
  5
28E9
330
2C80
100
AcDbEntity
  8
AM_0
100
AcDbCircle
 10
993.572003374143
 20
650.0891706341417
 30
0.0
 40
5.0
100
AcDbArc
 50
359.9999899999999
 51
179.9999899999999
  0
LINE
  5
28EA
330
2C80
100
AcDbEntity
  8
AM_0
100
AcDbLine
 10
988.5720033741433
 20
650.0891706341417
 30
0.0
 11
988.5720033741433
 21
608.0891706341417
 31
0.0
  0
ARC
  5
28EB
330
2C80
100
AcDbEntity
  8
AM_0
100
AcDbCircle
 10
984.2884033741427
 20
612.2292706341418
 30
0.0
 40
1.0
100
AcDbArc
 50
101.21329
 51
164.99999
  0
LINE
  5
28EC
330
2C80
100
AcDbEntity
  8
AM_0
100
AcDbLine
 10
984.0939183741427
 20
613.2102706341416
 30
0.0
 11
988.5719733741431
 21
614.0980206341414
 31
0.0
  0
LINE
  5
28ED
330
2C80
100
AcDbEntity
  8
AM_0
100
AcDbLine
 10
998.5720033741433
 20
650.0891706341417
 30
0.0
 11
998.5720033741433
 21
608.0891706341417
 31
0.0
  0
LINE
  5
28EE
330
2C80
100
AcDbEntity
  8
AM_0
100
AcDbLine
 10
998.5719733741429
 20
614.0979206341418
 30
0.0
 11
1003.050033374143
 21
613.2101706341416
 31
0.0
  0
ARC
  5
28EF
330
2C80
100
AcDbEntity
  8
AM_0
100
AcDbCircle
 10
1002.855543374143
 20
612.2292706341418
 30
0.0
 40
1.0
100
AcDbArc
 50
15.0
 51
78.78671
  0
LINE
  5
28F0
330
2C80
100
AcDbEntity
  8
AM_0
100
AcDbLine
 10
208.4707533741426
 20
919.4128064121315
 30
0.0
 11
240.4707533741426
 21
919.4128064121315
 31
0.0
  0
LINE
  5
28F1
330
2C80
100
AcDbEntity
  8
AM_0
100
AcDbLine
 10
208.4707533741426
 20
911.4128064121315
 30
0.0
 11
240.4707533741426
 21
911.4128064121315
 31
0.0
  0
LINE
  5
28F2
330
2C80
100
AcDbEntity
  8
AM_0
100
AcDbLine
 10
250.4707533741425
 20
901.4128064121315
 30
0.0
 11
208.4707533741426
 21
901.4128064121315
 31
0.0
  0
LINE
  5
28F3
330
2C80
100
AcDbEntity
  8
AM_0
100
AcDbLine
 10
250.4707533741425
 20
929.4128064121315
 30
0.0
 11
208.4707533741426
 21
929.4128064121315
 31
0.0
  0
LINE
  5
28F4
330
2C80
100
AcDbEntity
  8
AM_0
100
AcDbLine
 10
208.4707533741426
 20
929.4128064121315
 30
0.0
 11
208.4707533741426
 21
901.4128064121315
 31
0.0
  0
LINE
  5
28F5
330
2C80
100
AcDbEntity
  8
AM_0
100
AcDbLine
 10
366.4723533741427
 20
818.9128064121316
 30
0.0
 11
366.4723533741427
 21
1011.912806412131
 31
0.0
  0
LINE
  5
28F6
330
2C80
100
AcDbEntity
  8
AM_0
100
AcDbLine
 10
255.4723533741428
 20
955.3299024121312
 30
0.0
 11
255.4723533741428
 21
915.4128064121316
 31
0.0
  0
LINE
  5
28F7
330
2C80
100
AcDbEntity
  8
AM_0
100
AcDbLine
 10
289.4723533741428
 20
963.4128064121311
 30
0.0
 11
289.4723533741428
 21
915.4128064121316
 31
0.0
  0
LINE
  5
28F8
330
2C80
100
AcDbEntity
  8
AM_0
100
AcDbLine
 10
265.4723533741428
 20
960.3211404121315
 30
0.0
 11
265.4723533741428
 21
915.4128064121316
 31
0.0
  0
LINE
  5
28F9
330
2C80
100
AcDbEntity
  8
AM_0
100
AcDbLine
 10
363.4491873741425
 20
825.1403294121313
 30
0.0
 11
291.3169493741428
 21
866.3587514121315
 31
0.0
  0
ARC
  5
28FA
330
2C80
100
AcDbEntity
  8
AM_0
100
AcDbCircle
 10
259.4723533741428
 20
875.4957094121316
 30
0.0
 40
4.0
100
AcDbArc
 50
180.0
 51
239.9999999999995
  0
LINE
  5
28FB
330
2C80
100
AcDbEntity
  8
AM_0
100
AcDbLine
 10
289.4723533741428
 20
867.4128064121315
 30
0.0
 11
289.4723533741428
 21
915.4128064121316
 31
0.0
  0
LINE
  5
28FC
330
2C80
100
AcDbEntity
  8
AM_0
100
AcDbLine
 10
265.4723533741428
 20
870.5044724121313
 30
0.0
 11
265.4723533741428
 21
915.4128064121316
 31
0.0
  0
LINE
  5
28FD
330
2C80
100
AcDbEntity
  8
AM_0
100
AcDbLine
 10
287.3478383741428
 20
867.4128064121315
 30
0.0
 11
267.6159473741427
 21
867.4128064121315
 31
0.0
  0
ARC
  5
28FE
330
2C80
100
AcDbEntity
  8
AM_0
100
AcDbCircle
 10
267.6159473741427
 20
875.4128064121315
 30
0.0
 40
8.0
100
AcDbArc
 50
239.9999999999995
 51
270.0
  0
LINE
  5
28FF
330
2C80
100
AcDbEntity
  8
AM_0
100
AcDbLine
 10
263.6159473741427
 20
868.4846024121315
 30
0.0
 11
257.4723533741428
 21
872.0316084121314
 31
0.0
  0
ARC
  5
2900
330
2C80
100
AcDbEntity
  8
AM_0
100
AcDbCircle
 10
287.3478383741428
 20
859.4128064121315
 30
0.0
 40
8.0
100
AcDbArc
 50
60.25511900000097
 51
90.0
  0
LINE
  5
2901
330
2C80
100
AcDbEntity
  8
AM_0
100
AcDbLine
 10
250.4707533741425
 20
900.4128064121315
 30
0.0
 11
250.4707533741425
 21
915.4128064121316
 31
0.0
  0
LINE
  5
2902
330
2C80
100
AcDbEntity
  8
AM_0
100
AcDbLine
 10
255.4723533741428
 20
875.4957094121316
 30
0.0
 11
255.4723533741428
 21
915.4128064121316
 31
0.0
  0
LINE
  5
2903
330
2C80
100
AcDbEntity
  8
AM_0
100
AcDbLine
 10
253.4723533741428
 20
887.9128064121315
 30
0.0
 11
253.4723533741428
 21
915.4128064121316
 31
0.0
  0
LINE
  5
2904
330
2C80
100
AcDbEntity
  8
AM_0
100
AcDbLine
 10
253.4723533741428
 20
887.9128064121315
 30
0.0
 11
255.4723533741428
 21
885.9128064121316
 31
0.0
  0
LINE
  5
2905
330
2C80
100
AcDbEntity
  8
AM_0
100
AcDbLine
 10
253.4723533741428
 20
900.4128064121315
 30
0.0
 11
250.4707533741425
 21
900.4128064121315
 31
0.0
  0
LINE
  5
2906
330
2C80
100
AcDbEntity
  8
AM_0
100
AcDbLine
 10
250.4707533741425
 20
930.4128064121313
 30
0.0
 11
250.4707533741425
 21
915.4128064121316
 31
0.0
  0
LINE
  5
2907
330
2C80
100
AcDbEntity
  8
AM_0
100
AcDbLine
 10
253.4723533741428
 20
942.9128064121313
 30
0.0
 11
253.4723533741428
 21
915.4128064121316
 31
0.0
  0
ARC
  5
2908
330
2C80
100
AcDbEntity
  8
AM_0
100
AcDbCircle
 10
240.4707533741426
 20
915.4128064121316
 30
0.0
 40
3.999999999999884
100
AcDbArc
 50
270.0
 51
90.0
  0
LINE
  5
2909
330
2C80
100
AcDbEntity
  8
AM_0
100
AcDbLine
 10
240.4707533741426
 20
919.4128064121315
 30
0.0
 11
240.4707533741426
 21
911.4128064121315
 31
0.0
  0
LINE
  5
290A
330
2C80
100
AcDbEntity
  8
AM_0
100
AcDbLine
 10
253.4723533741428
 20
942.9128064121313
 30
0.0
 11
255.4723533741428
 21
944.9128064121316
 31
0.0
  0
LINE
  5
290B
330
2C80
100
AcDbEntity
  8
AM_0
100
AcDbLine
 10
253.4723533741428
 20
930.4128064121313
 30
0.0
 11
250.4707533741425
 21
930.4128064121313
 31
0.0
  0
LINE
  5
290C
330
2C80
100
AcDbEntity
  8
AM_0
100
AcDbLine
 10
382.4723533741427
 20
831.8000234121315
 30
0.0
 11
382.4723533741427
 21
858.6370184121316
 31
0.0
  0
LINE
  5
290D
330
2C80
100
AcDbEntity
  8
AM_0
100
AcDbLine
 10
382.4723533741427
 20
831.8000234121315
 30
0.0
 11
368.4723533741427
 21
831.8000234121315
 31
0.0
  0
LINE
  5
290E
330
2C80
100
AcDbEntity
  8
AM_0
100
AcDbLine
 10
383.4723533741425
 20
817.9128064121313
 30
0.0
 11
367.4723533741427
 21
817.9128064121313
 31
0.0
  0
ARC
  5
290F
330
2C80
100
AcDbEntity
  8
AM_0
100
AcDbCircle
 10
367.4723533741427
 20
818.9128064121316
 30
0.0
 40
1.0
100
AcDbArc
 50
180.0
 51
270.0
  0
ARC
  5
2910
330
2C80
100
AcDbEntity
  8
AM_0
100
AcDbCircle
 10
360.4723533741425
 20
819.9308704121316
 30
0.0
 40
6.0
100
AcDbArc
 50
0.0
 51
60.25511900000097
  0
ARC
  5
2911
330
2C80
100
AcDbEntity
  8
AM_0
100
AcDbCircle
 10
368.4723533741427
 20
833.8000234121317
 30
0.0
 40
2.0
100
AcDbArc
 50
180.0
 51
270.0
  0
LINE
  5
2912
330
2C80
100
AcDbEntity
  8
AM_0
100
AcDbLine
 10
382.4723533741427
 20
842.4066254121314
 30
0.0
 11
368.4723533741427
 21
842.4066254121314
 31
0.0
  0
LINE
  5
2913
330
2C80
100
AcDbEntity
  8
AM_0
100
AcDbLine
 10
368.4723533741427
 20
858.6370184121316
 30
0.0
 11
382.4723533741427
 21
858.6370184121316
 31
0.0
  0
ARC
  5
2914
330
2C80
100
AcDbEntity
  8
AM_0
100
AcDbCircle
 10
368.4723533741427
 20
844.4066254121313
 30
0.0
 40
2.0
100
AcDbArc
 50
180.0
 51
270.0
  0
ARC
  5
2915
330
2C80
100
AcDbEntity
  8
AM_0
100
AcDbCircle
 10
368.4723533741427
 20
856.6370184121314
 30
0.0
 40
2.0
100
AcDbArc
 50
90.0
 51
180.0
  0
LINE
  5
2916
330
2C80
100
AcDbEntity
  8
AM_0
100
AcDbLine
 10
382.4723533741427
 20
939.3406783074516
 30
0.0
 11
382.4723533741427
 21
891.4849345168116
 31
0.0
  0
LINE
  5
2917
330
2C80
100
AcDbEntity
  8
AM_0
100
AcDbLine
 10
382.4723533741427
 20
891.4849345168116
 30
0.0
 11
366.4723533741427
 21
891.4849345168116
 31
0.0
  0
LINE
  5
2918
330
2C80
100
AcDbEntity
  8
AM_0
100
AcDbLine
 10
366.4723533741427
 20
900.4128064121315
 30
0.0
 11
382.4723533741427
 21
900.4128064121315
 31
0.0
  0
LINE
  5
2919
330
2C80
100
AcDbEntity
  8
AM_0
100
AcDbLine
 10
366.4723533741427
 20
930.4128064121313
 30
0.0
 11
382.4723533741427
 21
930.4128064121313
 31
0.0
  0
LINE
  5
291A
330
2C80
100
AcDbEntity
  8
AM_0
100
AcDbLine
 10
382.4723533741427
 20
939.3406783074516
 30
0.0
 11
366.4723533741427
 21
939.3406783074516
 31
0.0
  0
LINE
  5
291B
330
2C80
100
AcDbEntity
  8
AM_0
100
AcDbLine
 10
363.4491873741425
 20
1005.685282412131
 30
0.0
 11
291.3169493741428
 21
964.4668604121315
 31
0.0
  0
LINE
  5
291C
330
2C80
100
AcDbEntity
  8
AM_0
100
AcDbLine
 10
287.3478383741428
 20
963.4128064121311
 30
0.0
 11
267.6159473741427
 21
963.4128064121311
 31
0.0
  0
ARC
  5
291D
330
2C80
100
AcDbEntity
  8
AM_0
100
AcDbCircle
 10
259.4723533741428
 20
955.3299024121312
 30
0.0
 40
4.0
100
AcDbArc
 50
120.0000000000005
 51
180.0
  0
LINE
  5
291E
330
2C80
100
AcDbEntity
  8
AM_0
100
AcDbLine
 10
263.6159473741427
 20
962.3410094121316
 30
0.0
 11
257.4723533741428
 21
958.7940034121317
 31
0.0
  0
ARC
  5
291F
330
2C80
100
AcDbEntity
  8
AM_0
100
AcDbCircle
 10
267.6159473741427
 20
955.4128064121313
 30
0.0
 40
8.0
100
AcDbArc
 50
90.0
 51
120.0000000000005
  0
ARC
  5
2920
330
2C80
100
AcDbEntity
  8
AM_0
100
AcDbCircle
 10
287.3478383741428
 20
971.4128064121315
 30
0.0
 40
8.0
100
AcDbArc
 50
270.0
 51
299.744880999999
  0
LINE
  5
2921
330
2C80
100
AcDbEntity
  8
AM_0
100
AcDbLine
 10
382.4723533741427
 20
999.0255894121313
 30
0.0
 11
382.4723533741427
 21
972.1885944121313
 31
0.0
  0
LINE
  5
2922
330
2C80
100
AcDbEntity
  8
AM_0
100
AcDbLine
 10
368.4723533741427
 20
972.1885944121313
 30
0.0
 11
382.4723533741427
 21
972.1885944121313
 31
0.0
  0
ARC
  5
2923
330
2C80
100
AcDbEntity
  8
AM_0
100
AcDbCircle
 10
368.4723533741427
 20
974.1885944121317
 30
0.0
 40
2.0
100
AcDbArc
 50
180.0
 51
270.0
  0
LINE
  5
2924
330
2C80
100
AcDbEntity
  8
AM_0
100
AcDbLine
 10
382.4723533741427
 20
988.4189874121315
 30
0.0
 11
368.4723533741427
 21
988.4189874121315
 31
0.0
  0
LINE
  5
2925
330
2C80
100
AcDbEntity
  8
AM_0
100
AcDbLine
 10
382.4723533741427
 20
999.0255894121313
 30
0.0
 11
368.4723533741427
 21
999.0255894121313
 31
0.0
  0
LINE
  5
2926
330
2C80
100
AcDbEntity
  8
AM_0
100
AcDbLine
 10
383.4723533741425
 20
1012.912806412131
 30
0.0
 11
367.4723533741427
 21
1012.912806412131
 31
0.0
  0
ARC
  5
2927
330
2C80
100
AcDbEntity
  8
AM_0
100
AcDbCircle
 10
368.4723533741427
 20
986.4189874121315
 30
0.0
 40
2.0
100
AcDbArc
 50
90.0
 51
180.0
  0
ARC
  5
2928
330
2C80
100
AcDbEntity
  8
AM_0
100
AcDbCircle
 10
368.4723533741427
 20
997.0255894121311
 30
0.0
 40
2.0
100
AcDbArc
 50
90.0
 51
180.0
  0
ARC
  5
2929
330
2C80
100
AcDbEntity
  8
AM_0
100
AcDbCircle
 10
360.4723533741425
 20
1010.89474141213
 30
0.0
 40
6.0
100
AcDbArc
 50
299.744880999999
 51
0.0
  0
ARC
  5
292A
330
2C80
100
AcDbEntity
  8
AM_0
100
AcDbCircle
 10
367.4723533741427
 20
1011.912806412131
 30
0.0
 40
1.0
100
AcDbArc
 50
90.0
 51
180.0
  0
LINE
  5
292C
330
2C80
100
AcDbEntity
  8
ﾁｭｳｼﾝｾﾝ
100
AcDbLine
 10
200.3221056550556
 20
915.4128064121316
 30
0.0
 11
708.0894833741429
 21
915.4128064121316
 31
0.0
  0
LINE
  5
292D
330
2C80
100
AcDbEntity
  8
AM_0
100
AcDbLine
 10
615.4722333741425
 20
887.9128064121315
 30
0.0
 11
697.4722333741429
 21
887.9128064121315
 31
0.0
  0
LINE
  5
292E
330
2C80
100
AcDbEntity
  8
AM_0
100
AcDbLine
 10
615.4722333741425
 20
942.9128064121313
 30
0.0
 11
697.4722333741429
 21
942.9128064121313
 31
0.0
  0
LINE
  5
292F
330
2C80
100
AcDbEntity
  8
AM_0
100
AcDbLine
 10
615.4722333741425
 20
945.4128064121315
 30
0.0
 11
615.4722333741425
 21
885.4128064121315
 31
0.0
  0
LINE
  5
2930
330
2C80
100
AcDbEntity
  8
AM_0
100
AcDbLine
 10
609.4722933741429
 20
973.4814064121318
 30
0.0
 11
609.4722933741429
 21
857.3441964121315
 31
0.0
  0
LINE
  5
2931
330
2C80
100
AcDbEntity
  8
AM_0
100
AcDbLine
 10
604.4722933741428
 20
1012.783776412131
 30
0.0
 11
604.4722933741428
 21
818.0418364121315
 31
0.0
  0
LINE
  5
2932
330
2C80
100
AcDbEntity
  8
AM_0
100
AcDbLine
 10
577.4722933741428
 20
807.2906764121317
 30
0.0
 11
577.4722933741428
 21
1023.534876412131
 31
0.0
  0
LINE
  5
2933
330
2C80
100
AcDbEntity
  8
AM_0
100
AcDbLine
 10
487.4722333741428
 20
783.2857864121315
 30
0.0
 11
487.4722333741428
 21
1047.539756412131
 31
0.0
  0
LINE
  5
2934
330
2C80
100
AcDbEntity
  8
AM_0
100
AcDbLine
 10
406.4722333741427
 20
808.9571164121315
 30
0.0
 11
406.4722333741427
 21
1021.868496412131
 31
0.0
  0
LINE
  5
2935
330
2C80
100
AcDbEntity
  8
AM_0
100
AcDbLine
 10
462.4722933741428
 20
910.4128064121315
 30
0.0
 11
462.4722933741428
 21
782.4128064121315
 31
0.0
  0
LINE
  5
2936
330
2C80
100
AcDbEntity
  8
AM_0
100
AcDbLine
 10
383.4723533741428
 20
1012.912806412131
 30
0.0
 11
383.4723533741428
 21
817.9128064121313
 31
0.0
  0
ARC
  5
2937
330
2C80
100
AcDbEntity
  8
AM_0
100
AcDbCircle
 10
444.4722933741428
 20
915.4128064121316
 30
0.0
 40
12.5
100
AcDbArc
 50
203.5781799999973
 51
336.4218300000007
  0
ARC
  5
2938
330
2C80
100
AcDbEntity
  8
AM_0
100
AcDbCircle
 10
427.4722333741428
 20
904.8772164121317
 30
0.0
 40
5.0
100
AcDbArc
 50
0.0
 51
31.78801800000311
  0
LINE
  5
2939
330
2C80
100
AcDbEntity
  8
AM_0
100
AcDbLine
 10
467.4722933741428
 20
750.4128064121315
 30
0.0
 11
384.2977333741428
 21
753.3172864121317
 31
0.0
  0
LINE
  5
293A
330
2C80
100
AcDbEntity
  8
AM_0
100
AcDbLine
 10
435.0085433741428
 20
751.7547864121317
 30
0.0
 11
465.4722933741428
 21
762.5258364121312
 31
0.0
  0
LINE
  5
293B
330
2C80
100
AcDbEntity
  8
AM_0
100
AcDbLine
 10
438.4722933741428
 20
763.5860864121315
 30
0.0
 11
465.4723533741428
 21
773.1324664121315
 31
0.0
  0
LINE
  5
293C
330
2C80
100
AcDbEntity
  8
AM_0
100
AcDbLine
 10
462.4722933741428
 20
782.4128064121315
 30
0.0
 11
437.2977933741428
 21
783.2918964121313
 31
0.0
  0
LINE
  5
293D
330
2C80
100
AcDbEntity
  8
AM_0
100
AcDbLine
 10
379.4722933741429
 20
758.3142964121313
 30
0.0
 11
379.4722933741429
 21
800.7005264121314
 31
0.0
  0
ARC
  5
293E
330
2C80
100
AcDbEntity
  8
AM_0
100
AcDbCircle
 10
384.4722933741429
 20
758.3142964121313
 30
0.0
 40
5.0
100
AcDbArc
 50
180.0000100000009
 51
268.0000000000026
  0
LINE
  5
293F
330
2C80
100
AcDbEntity
  8
AM_0
100
AcDbLine
 10
432.4722333741428
 20
788.2889064121314
 30
0.0
 11
432.4722333741428
 21
904.8772164121317
 31
0.0
  0
LINE
  5
2940
330
2C80
100
AcDbEntity
  8
AM_0
100
AcDbLine
 10
385.4722333741428
 20
858.6369864121317
 30
0.0
 11
385.4722333741428
 21
832.2176164121312
 31
0.0
  0
LINE
  5
2941
330
2C80
100
AcDbEntity
  8
AM_0
100
AcDbLine
 10
427.6467333741428
 20
803.3891864121315
 30
0.0
 11
411.2977333741429
 21
803.9601064121315
 31
0.0
  0
CIRCLE
  5
2942
330
2C80
100
AcDbEntity
  8
AM_0
100
AcDbCircle
 10
409.4722933741428
 20
782.9128064121315
 30
0.0
 40
9.5
  0
LINE
  5
2943
330
2C80
100
AcDbEntity
  8
AM_0
100
AcDbLine
 10
383.6040033741428
 20
805.6245364121313
 30
0.0
 11
406.4722333741427
 21
809.6568264121312
 31
0.0
  0
LINE
  5
2944
330
2C80
100
AcDbEntity
  8
AM_0
100
AcDbLine
 10
385.4722333741428
 20
832.2176164121312
 30
0.0
 11
406.4722333741427
 21
832.2176164121312
 31
0.0
  0
LINE
  5
2945
330
2C80
100
AcDbEntity
  8
AM_0
100
AcDbLine
 10
383.4722333741428
 20
817.9127464121313
 30
0.0
 11
401.6467933741428
 21
817.2780964121315
 31
0.0
  0
ARC
  5
2946
330
2C80
100
AcDbEntity
  8
AM_0
100
AcDbCircle
 10
384.4722933741429
 20
800.7005264121314
 30
0.0
 40
5.0
100
AcDbArc
 50
99.99999999999859
 51
180.0000100000009
  0
ARC
  5
2947
330
2C80
100
AcDbEntity
  8
AM_0
100
AcDbCircle
 10
401.4722933741428
 20
812.2811464121316
 30
0.0
 40
5.0
100
AcDbArc
 50
0.0
 51
88.00000000000279
  0
ARC
  5
2948
330
2C80
100
AcDbEntity
  8
AM_0
100
AcDbCircle
 10
411.4722333741428
 20
808.9571164121315
 30
0.0
 40
5.0
100
AcDbArc
 50
180.0000100000009
 51
268.0000000000026
  0
ARC
  5
2949
330
2C80
100
AcDbEntity
  8
AM_0
100
AcDbCircle
 10
437.4722933741428
 20
766.4145164121315
 30
0.0
 40
3.0
100
AcDbArc
 50
180.0000100000009
 51
289.4720299999971
  0
ARC
  5
294A
330
2C80
100
AcDbEntity
  8
AM_0
100
AcDbCircle
 10
437.4722333741428
 20
788.2889064121314
 30
0.0
 40
5.0
100
AcDbArc
 50
180.0000100000009
 51
268.0000000000026
  0
ARC
  5
294B
330
2C80
100
AcDbEntity
  8
AM_0
100
AcDbCircle
 10
427.4722333741428
 20
798.3922964121314
 30
0.0
 40
5.0
100
AcDbArc
 50
0.0
 51
88.00000000000279
  0
LINE
  5
294C
330
2C80
100
AcDbEntity
  8
AM_0
100
AcDbLine
 10
385.4722333741428
 20
842.4065764121317
 30
0.0
 11
406.4722333741427
 21
842.4065764121317
 31
0.0
  0
LINE
  5
294D
330
2C80
100
AcDbEntity
  8
AM_0
100
AcDbLine
 10
385.4722333741428
 20
858.6369864121317
 30
0.0
 11
406.4722333741427
 21
858.6369864121317
 31
0.0
  0
LINE
  5
294E
330
2C80
100
AcDbEntity
  8
AM_0
100
AcDbLine
 10
609.4722933741429
 20
760.1999764121316
 30
0.0
 11
609.4722933741429
 21
810.6255764121312
 31
0.0
  0
LINE
  5
294F
330
2C80
100
AcDbEntity
  8
AM_0
100
AcDbLine
 10
544.4722933741428
 20
758.2793164121315
 30
0.0
 11
544.4722933741428
 21
786.8245464121315
 31
0.0
  0
LINE
  5
2950
330
2C80
100
AcDbEntity
  8
AM_0
100
AcDbLine
 10
467.4722933741428
 20
750.4128064121315
 30
0.0
 11
604.6467933741427
 21
755.2030264121315
 31
0.0
  0
ARC
  5
2951
330
2C80
100
AcDbEntity
  8
AM_0
100
AcDbCircle
 10
549.4722933741428
 20
758.2793164121315
 30
0.0
 40
5.0
100
AcDbArc
 50
180.0000100000009
 51
271.9999900000014
  0
ARC
  5
2952
330
2C80
100
AcDbEntity
  8
AM_0
100
AcDbCircle
 10
604.4722933741428
 20
760.1999764121316
 30
0.0
 40
5.0
100
AcDbArc
 50
271.9999999999971
 51
0.0
  0
LINE
  5
2953
330
2C80
100
AcDbEntity
  8
AM_0
100
AcDbLine
 10
491.6170033741428
 20
787.4305064121315
 30
0.0
 11
541.3122533741428
 21
789.1659164121315
 31
0.0
  0
LINE
  5
2954
330
2C80
100
AcDbEntity
  8
AM_0
100
AcDbLine
 10
462.4722333741428
 20
782.4127464121318
 30
0.0
 11
487.4722933741428
 21
783.2857864121315
 31
0.0
  0
LINE
  5
2955
330
2C80
100
AcDbEntity
  8
AM_0
100
AcDbLine
 10
467.4722933741428
 20
765.3542064121316
 30
0.0
 11
467.4722933741428
 21
782.5873664121318
 31
0.0
  0
ARC
  5
2956
330
2C80
100
AcDbEntity
  8
AM_0
100
AcDbCircle
 10
464.4722933741428
 20
765.3542064121316
 30
0.0
 40
3.0
100
AcDbArc
 50
289.4720200000018
 51
0.0
  0
ARC
  5
2957
330
2C80
100
AcDbEntity
  8
AM_0
100
AcDbCircle
 10
464.4722933741428
 20
775.9608964121315
 30
0.0
 40
3.0
100
AcDbArc
 50
289.4720200000018
 51
0.0
  0
LINE
  5
2958
330
2C80
100
AcDbEntity
  8
AM_0
100
AcDbLine
 10
487.4722333741428
 20
783.2857864121315
 30
0.0
 11
491.6170033741428
 21
787.4305664121314
 31
0.0
  0
LINE
  5
2959
330
2C80
100
AcDbEntity
  8
ﾁｭｳｼﾝｾﾝ1
100
AcDbLine
 10
559.9722933741428
 20
782.9128064121315
 30
0.0
 11
598.9722933741428
 21
782.9128064121315
 31
0.0
  0
CIRCLE
  5
295A
330
2C80
100
AcDbEntity
  8
AM_0
100
AcDbCircle
 10
579.4722933741428
 20
782.9128064121315
 30
0.0
 40
9.5
  0
ARC
  5
295B
330
2C80
100
AcDbEntity
  8
AM_0
100
AcDbCircle
 10
585.4722933741428
 20
807.6872764121315
 30
0.0
 40
8.0
100
AcDbArc
 50
91.99999800000055
 51
180.0000100000009
  0
LINE
  5
295C
330
2C80
100
AcDbEntity
  8
ﾁｭｳｼﾝｾﾝ1
100
AcDbLine
 10
579.4722933741428
 20
763.4128064121315
 30
0.0
 11
579.4722933741428
 21
802.4128064121315
 31
0.0
  0
ARC
  5
295D
330
2C80
100
AcDbEntity
  8
AM_0
100
AcDbCircle
 10
556.4722933741428
 20
786.8245464121315
 30
0.0
 40
12.0
100
AcDbArc
 50
91.99999800000055
 51
180.0000100000009
  0
ARC
  5
295E
330
2C80
100
AcDbEntity
  8
AM_0
100
AcDbCircle
 10
541.1376933741428
 20
794.1629264121318
 30
0.0
 40
5.0
100
AcDbArc
 50
271.9999999999971
 51
334.4264800000029
  0
LINE
  5
295F
330
2C80
100
AcDbEntity
  8
AM_0
100
AcDbLine
 10
556.0534633741428
 20
798.8172264121315
 30
0.0
 11
569.7515233741427
 21
799.2955564121315
 31
0.0
  0
ARC
  5
2960
330
2C80
100
AcDbEntity
  8
AM_0
100
AcDbCircle
 10
569.4722933741428
 20
807.2906764121317
 30
0.0
 40
8.0
100
AcDbArc
 50
271.9999999999971
 51
0.0
  0
ARC
  5
2961
330
2C80
100
AcDbEntity
  8
AM_0
100
AcDbCircle
 10
596.4722933741428
 20
824.0811364121315
 30
0.0
 40
8.0
100
AcDbArc
 50
271.9999999999971
 51
0.0
  0
LINE
  5
2962
330
2C80
100
AcDbEntity
  8
AM_0
100
AcDbLine
 10
585.1931133741429
 20
815.6823964121315
 30
0.0
 11
596.7514633741426
 21
816.0860164121313
 31
0.0
  0
ARC
  5
2963
330
2C80
100
AcDbEntity
  8
AM_0
100
AcDbCircle
 10
604.4722933741428
 20
810.6255764121312
 30
0.0
 40
5.0
100
AcDbArc
 50
0.0
 51
67.97568899999639
  0
ARC
  5
2964
330
2C80
100
AcDbEntity
  8
AM_0
100
AcDbCircle
 10
607.4722933741428
 20
818.0418364121315
 30
0.0
 40
3.0
100
AcDbArc
 50
180.0000100000009
 51
247.9756900000006
  0
LINE
  5
2965
330
2C80
100
AcDbEntity
  8
AM_0
100
AcDbLine
 10
606.4024633741427
 20
855.3055664121314
 30
0.0
 11
607.5421133741428
 21
855.3453564121316
 31
0.0
  0
ARC
  5
2966
330
2C80
100
AcDbEntity
  8
AM_0
100
AcDbCircle
 10
606.4722933741428
 20
853.3068464121313
 30
0.0
 40
2.0
100
AcDbArc
 50
91.99999800000055
 51
180.0000100000009
  0
ARC
  5
2967
330
2C80
100
AcDbEntity
  8
AM_0
100
AcDbCircle
 10
607.4722933741428
 20
857.3441964121315
 30
0.0
 40
2.0
100
AcDbArc
 50
271.9999999999971
 51
0.0
  0
LINE
  5
2968
330
2C80
100
AcDbEntity
  8
AM_0
100
AcDbLine
 10
609.4722933741429
 20
885.4128064121315
 30
0.0
 11
615.4722333741425
 21
885.4128064121315
 31
0.0
  0
LINE
  5
2969
330
2C80
100
AcDbEntity
  8
AM_0
100
AcDbLine
 10
467.4722933741428
 20
1080.41280641213
 30
0.0
 11
384.2977333741428
 21
1077.508266412131
 31
0.0
  0
LINE
  5
296A
330
2C80
100
AcDbEntity
  8
AM_0
100
AcDbLine
 10
438.4723533741428
 20
1067.23946641213
 30
0.0
 11
465.4723533741428
 21
1057.69307641213
 31
0.0
  0
LINE
  5
296B
330
2C80
100
AcDbEntity
  8
AM_0
100
AcDbLine
 10
435.0085433741428
 20
1079.070766412131
 30
0.0
 11
465.4723533741428
 21
1068.29970641213
 31
0.0
  0
LINE
  5
296C
330
2C80
100
AcDbEntity
  8
AM_0
100
AcDbLine
 10
462.4722333741428
 20
1048.41280641213
 30
0.0
 11
437.2977333741425
 21
1047.533716412131
 31
0.0
  0
LINE
  5
296D
330
2C80
100
AcDbEntity
  8
AM_0
100
AcDbLine
 10
424.4722933741428
 20
910.4128064121315
 30
0.0
 11
464.4722933741428
 21
910.4128064121315
 31
0.0
  0
LINE
  5
296E
330
2C80
100
AcDbEntity
  8
AM_0
100
AcDbLine
 10
424.4722933741428
 20
920.4128064121315
 30
0.0
 11
464.4722933741428
 21
920.4128064121315
 31
0.0
  0
ARC
  5
296F
330
2C80
100
AcDbEntity
  8
AM_0
100
AcDbCircle
 10
444.4722933741428
 20
915.4128064121316
 30
0.0
 40
12.5
100
AcDbArc
 50
23.57817999999753
 51
156.4218200000024
  0
LINE
  5
2970
330
2C80
100
AcDbEntity
  8
AM_0
100
AcDbLine
 10
379.4722933741429
 20
1072.511316412131
 30
0.0
 11
379.4722933741429
 21
1030.12508641213
 31
0.0
  0
CIRCLE
  5
2971
330
2C80
100
AcDbEntity
  8
AM_0
100
AcDbCircle
 10
409.4722933741428
 20
1047.912806412131
 30
0.0
 40
9.5
  0
LINE
  5
2972
330
2C80
100
AcDbEntity
  8
AM_0
100
AcDbLine
 10
432.4722333741428
 20
925.9483264121312
 30
0.0
 11
432.4722333741428
 21
1042.536706412131
 31
0.0
  0
LINE
  5
2973
330
2C80
100
AcDbEntity
  8
AM_0
100
AcDbLine
 10
385.4722333741428
 20
998.6079364121318
 30
0.0
 11
385.4722333741428
 21
972.1885564121311
 31
0.0
  0
LINE
  5
2974
330
2C80
100
AcDbEntity
  8
AM_0
100
AcDbLine
 10
385.4722333741428
 20
972.1885564121311
 30
0.0
 11
406.4722333741427
 21
972.1885564121311
 31
0.0
  0
ARC
  5
2975
330
2C80
100
AcDbEntity
  8
AM_0
100
AcDbCircle
 10
427.4722333741428
 20
925.9483264121312
 30
0.0
 40
5.0
100
AcDbArc
 50
328.2119800000008
 51
0.0
  0
ARC
  5
2976
330
2C80
100
AcDbEntity
  8
AM_0
100
AcDbCircle
 10
424.4722933741428
 20
915.4128064121316
 30
0.0
 40
5.0
100
AcDbArc
 50
90.00000299999769
 51
270.0
  0
ARC
  5
2977
330
2C80
100
AcDbEntity
  8
AM_0
100
AcDbCircle
 10
444.4722933741428
 20
915.4128064121316
 30
0.0
 40
15.0
100
AcDbArc
 50
148.2119800000004
 51
160.528769999999
  0
ARC
  5
2978
330
2C80
100
AcDbEntity
  8
AM_0
100
AcDbCircle
 10
444.4722933741428
 20
915.4128064121316
 30
0.0
 40
15.0
100
AcDbArc
 50
199.4712300000005
 51
211.7880199999992
  0
LINE
  5
2979
330
2C80
100
AcDbEntity
  8
AM_0
100
AcDbLine
 10
427.6467333741428
 20
1027.436366412131
 30
0.0
 11
411.2977333741429
 21
1026.865436412131
 31
0.0
  0
ARC
  5
297A
330
2C80
100
AcDbEntity
  8
AM_0
100
AcDbCircle
 10
401.4722933741428
 20
1018.544396412131
 30
0.0
 40
5.0
100
AcDbArc
 50
271.9999999999971
 51
0.0
  0
LINE
  5
297B
330
2C80
100
AcDbEntity
  8
AM_0
100
AcDbLine
 10
385.4722333741428
 20
998.6079364121318
 30
0.0
 11
406.4722333741427
 21
998.6079364121318
 31
0.0
  0
LINE
  5
297C
330
2C80
100
AcDbEntity
  8
AM_0
100
AcDbLine
 10
385.4722333741428
 20
988.4189664121313
 30
0.0
 11
406.4722333741427
 21
988.4189664121313
 31
0.0
  0
LINE
  5
297D
330
2C80
100
AcDbEntity
  8
AM_0
100
AcDbLine
 10
383.4723533741428
 20
1012.912746412131
 30
0.0
 11
401.6468533741428
 21
1013.547446412131
 31
0.0
  0
LINE
  5
297E
330
2C80
100
AcDbEntity
  8
AM_0
100
AcDbLine
 10
383.6040633741428
 20
1025.20100641213
 30
0.0
 11
406.4722333741427
 21
1021.168786412131
 31
0.0
  0
ARC
  5
297F
330
2C80
100
AcDbEntity
  8
AM_0
100
AcDbCircle
 10
384.4722933741429
 20
1030.12508641213
 30
0.0
 40
5.0
100
AcDbArc
 50
180.0000100000009
 51
259.9999899999987
  0
ARC
  5
2980
330
2C80
100
AcDbEntity
  8
AM_0
100
AcDbCircle
 10
411.4722333741428
 20
1021.868496412131
 30
0.0
 40
5.0
100
AcDbArc
 50
91.99999800000055
 51
180.0000100000009
  0
ARC
  5
2981
330
2C80
100
AcDbEntity
  8
AM_0
100
AcDbCircle
 10
437.4722333741428
 20
1042.536706412131
 30
0.0
 40
5.0
100
AcDbArc
 50
91.99999800000055
 51
180.0000100000009
  0
ARC
  5
2982
330
2C80
100
AcDbEntity
  8
AM_0
100
AcDbCircle
 10
427.4722333741428
 20
1032.433306412131
 30
0.0
 40
5.0
100
AcDbArc
 50
271.9999999999971
 51
0.0
  0
ARC
  5
2983
330
2C80
100
AcDbEntity
  8
AM_0
100
AcDbCircle
 10
384.4722933741429
 20
1072.511316412131
 30
0.0
 40
5.0
100
AcDbArc
 50
91.99999800000055
 51
180.0000100000009
  0
ARC
  5
2984
330
2C80
100
AcDbEntity
  8
AM_0
100
AcDbCircle
 10
437.4722933741428
 20
1064.41103641213
 30
0.0
 40
3.0
100
AcDbArc
 50
70.52797299999963
 51
180.0000100000009
  0
LINE
  5
2985
330
2C80
100
AcDbEntity
  8
AM_0
100
AcDbLine
 10
544.4722933741428
 20
1072.546226412131
 30
0.0
 11
544.4722933741428
 21
1044.001056412131
 31
0.0
  0
LINE
  5
2986
330
2C80
100
AcDbEntity
  8
AM_0
100
AcDbLine
 10
467.4722933741428
 20
1065.471336412131
 30
0.0
 11
467.4722933741428
 21
1048.238186412131
 31
0.0
  0
LINE
  5
2987
330
2C80
100
AcDbEntity
  8
AM_0
100
AcDbLine
 10
609.4722933741429
 20
1070.625576412131
 30
0.0
 11
609.4722933741429
 21
1020.199976412131
 31
0.0
  0
CIRCLE
  5
2988
330
2C80
100
AcDbEntity
  8
AM_0
100
AcDbCircle
 10
579.4722933741428
 20
1047.912806412131
 30
0.0
 40
9.5
  0
LINE
  5
2989
330
2C80
100
AcDbEntity
  8
AM_0
100
AcDbLine
 10
491.6170033741428
 20
1043.395046412131
 30
0.0
 11
541.3122533741428
 21
1041.65962641213
 31
0.0
  0
LINE
  5
298A
330
2C80
100
AcDbEntity
  8
AM_0
100
AcDbLine
 10
462.4722933741428
 20
1048.41280641213
 30
0.0
 11
462.4722933741428
 21
920.4128064121315
 31
0.0
  0
ARC
  5
298B
330
2C80
100
AcDbEntity
  8
AM_0
100
AcDbCircle
 10
464.4722933741428
 20
915.4128064121316
 30
0.0
 40
5.0
100
AcDbArc
 50
270.0
 51
90.00000299999769
  0
LINE
  5
298C
330
2C80
100
AcDbEntity
  8
AM_0
100
AcDbLine
 10
462.4722933741428
 20
1048.41280641213
 30
0.0
 11
487.4722933741428
 21
1047.539756412131
 31
0.0
  0
LINE
  5
298D
330
2C80
100
AcDbEntity
  8
AM_0
100
AcDbLine
 10
487.4722933741428
 20
1047.539756412131
 30
0.0
 11
491.6169433741428
 21
1043.395046412131
 31
0.0
  0
LINE
  5
298E
330
2C80
100
AcDbEntity
  8
AM_0
100
AcDbLine
 10
609.4722933741429
 20
945.4128064121315
 30
0.0
 11
615.4722333741425
 21
945.4128064121315
 31
0.0
  0
LINE
  5
298F
330
2C80
100
AcDbEntity
  8
AM_0
100
AcDbLine
 10
606.4024633741427
 20
975.5199764121313
 30
0.0
 11
607.5421133741428
 21
975.4801864121315
 31
0.0
  0
ARC
  5
2990
330
2C80
100
AcDbEntity
  8
AM_0
100
AcDbCircle
 10
607.4722933741428
 20
973.4814064121318
 30
0.0
 40
2.0
100
AcDbArc
 50
0.0
 51
88.00000000000279
  0
ARC
  5
2991
330
2C80
100
AcDbEntity
  8
AM_0
100
AcDbCircle
 10
606.4722933741428
 20
977.5187564121315
 30
0.0
 40
2.0
100
AcDbArc
 50
180.0000100000009
 51
268.0000000000026
  0
ARC
  5
2992
330
2C80
100
AcDbEntity
  8
AM_0
100
AcDbCircle
 10
585.4722933741428
 20
1023.138266412131
 30
0.0
 40
8.0
100
AcDbArc
 50
180.0000100000009
 51
268.0000000000026
  0
LINE
  5
2993
330
2C80
100
AcDbEntity
  8
AM_0
100
AcDbLine
 10
556.0534633741428
 20
1032.00838641213
 30
0.0
 11
569.7515233741427
 21
1031.530056412131
 31
0.0
  0
ARC
  5
2994
330
2C80
100
AcDbEntity
  8
AM_0
100
AcDbCircle
 10
556.4722933741428
 20
1044.001056412131
 30
0.0
 40
12.0
100
AcDbArc
 50
180.0000100000009
 51
268.0000000000026
  0
ARC
  5
2995
330
2C80
100
AcDbEntity
  8
AM_0
100
AcDbCircle
 10
541.1376933741428
 20
1036.662676412131
 30
0.0
 40
5.0
100
AcDbArc
 50
25.5735169999985
 51
88.00000000000279
  0
ARC
  5
2996
330
2C80
100
AcDbEntity
  8
AM_0
100
AcDbCircle
 10
569.4722933741428
 20
1023.534876412131
 30
0.0
 40
8.0
100
AcDbArc
 50
0.0
 51
88.00000000000279
  0
LINE
  5
2997
330
2C80
100
AcDbEntity
  8
AM_0
100
AcDbLine
 10
585.1931133741429
 20
1015.143146412131
 30
0.0
 11
596.7514633741426
 21
1014.739526412131
 31
0.0
  0
ARC
  5
2998
330
2C80
100
AcDbEntity
  8
AM_0
100
AcDbCircle
 10
596.4722933741428
 20
1006.744406412131
 30
0.0
 40
8.0
100
AcDbArc
 50
0.0
 51
88.00000000000279
  0
ARC
  5
2999
330
2C80
100
AcDbEntity
  8
AM_0
100
AcDbCircle
 10
604.4722933741428
 20
1020.199976412131
 30
0.0
 40
5.0
100
AcDbArc
 50
292.0243099999992
 51
0.0
  0
ARC
  5
299A
330
2C80
100
AcDbEntity
  8
AM_0
100
AcDbCircle
 10
607.4722933741428
 20
1012.783776412131
 30
0.0
 40
3.0
100
AcDbArc
 50
112.0243099999992
 51
180.0000100000009
  0
LINE
  5
299B
330
2C80
100
AcDbEntity
  8
AM_0
100
AcDbLine
 10
467.4722933741428
 20
1080.41274641213
 30
0.0
 11
604.6467933741427
 21
1075.622516412131
 31
0.0
  0
ARC
  5
299C
330
2C80
100
AcDbEntity
  8
AM_0
100
AcDbCircle
 10
464.4722933741428
 20
1054.86464641213
 30
0.0
 40
3.0
100
AcDbArc
 50
0.0
 51
70.52797299999963
  0
ARC
  5
299D
330
2C80
100
AcDbEntity
  8
AM_0
100
AcDbCircle
 10
464.4722933741428
 20
1065.471336412131
 30
0.0
 40
3.0
100
AcDbArc
 50
0.0
 51
70.52797299999963
  0
ARC
  5
299E
330
2C80
100
AcDbEntity
  8
AM_0
100
AcDbCircle
 10
549.4722933741428
 20
1072.546226412131
 30
0.0
 40
5.0
100
AcDbArc
 50
88.00000000000279
 51
180.0000100000009
  0
ARC
  5
299F
330
2C80
100
AcDbEntity
  8
AM_0
100
AcDbCircle
 10
604.4722933741428
 20
1070.625576412131
 30
0.0
 40
5.0
100
AcDbArc
 50
0.0
 51
88.00000000000279
  0
LINE
  5
29A0
330
2C80
100
AcDbEntity
  8
AM_0
100
AcDbLine
 10
697.4722333741429
 20
942.9128064121313
 30
0.0
 11
697.4722333741429
 21
887.9128064121315
 31
0.0
  0
LINE
  5
29A1
330
2C80
100
AcDbEntity
  8
AM_0
100
AcDbLine
 10
635.4722933741428
 20
907.4127464121312
 30
0.0
 11
697.4722333741429
 21
907.4127464121312
 31
0.0
  0
LINE
  5
29A2
330
2C80
100
AcDbEntity
  8
AM_0
100
AcDbLine
 10
635.4722933741428
 20
923.4128064121316
 30
0.0
 11
697.4722333741429
 21
923.4128064121316
 31
0.0
  0
ARC
  5
29A3
330
2C80
100
AcDbEntity
  8
AM_0
100
AcDbCircle
 10
635.4722933741428
 20
915.4127464121312
 30
0.0
 40
8.000011
100
AcDbArc
 50
90.00000299999769
 51
270.0
  0
LINE
  5
29A4
330
2C80
100
AcDbEntity
  8
AM_0
100
AcDbLine
 10
635.4722333741428
 20
923.4128064121316
 30
0.0
 11
635.4722333741428
 21
907.4127464121312
 31
0.0
  0
LINE
  5
29A5
330
2C80
100
AcDbEntity
  8
ﾁｭｳｼﾝｾﾝ1
100
AcDbLine
 10
409.4722933741428
 20
763.4128064121315
 30
0.0
 11
409.4722933741428
 21
802.4128064121315
 31
0.0
  0
LINE
  5
29A6
330
2C80
100
AcDbEntity
  8
ﾁｭｳｼﾝｾﾝ1
100
AcDbLine
 10
389.9722933741429
 20
782.9128064121315
 30
0.0
 11
428.9722933741428
 21
782.9128064121315
 31
0.0
  0
LINE
  5
29A7
330
2C80
100
AcDbEntity
  8
ﾁｭｳｼﾝｾﾝ1
100
AcDbLine
 10
409.4722933741428
 20
1028.41280641213
 30
0.0
 11
409.4722933741428
 21
1067.412806412131
 31
0.0
  0
LINE
  5
29A8
330
2C80
100
AcDbEntity
  8
ﾁｭｳｼﾝｾﾝ1
100
AcDbLine
 10
389.9722933741429
 20
1047.912806412131
 30
0.0
 11
428.9722933741428
 21
1047.912806412131
 31
0.0
  0
LINE
  5
29A9
330
2C80
100
AcDbEntity
  8
ﾁｭｳｼﾝｾﾝ1
100
AcDbLine
 10
579.4722933741428
 20
1028.41280641213
 30
0.0
 11
579.4722933741428
 21
1067.412806412131
 31
0.0
  0
LINE
  5
29AA
330
2C80
100
AcDbEntity
  8
ﾁｭｳｼﾝｾﾝ1
100
AcDbLine
 10
559.9722933741428
 20
1047.912806412131
 30
0.0
 11
598.9722933741428
 21
1047.912806412131
 31
0.0
  0
TEXT
  5
2B9B
330
2C80
100
AcDbEntity
  8
AM_0
100
AcDbText
 10
825.5690185357433
 20
923.1513015414501
 30
0.0
 40
20.0
  1
VX37-040G~VX37-060G
100
AcDbText
  0
LINE
  5
2DAB
330
2C80
100
AcDbEntity
  8
AM_0
100
AcDbLine
 10
240.4706833741426
 20
454.0891806341416
 30
0.0
 11
208.4706833741428
 21
454.0891806341416
 31
0.0
  0
ENDSEC
  0
SECTION
  2
OBJECTS
  0
DICTIONARY
  5
2C1D
330
0
100
AcDbDictionary
281
     1
  3
ACAD_CIP_PREVIOUS_PRODUCT_INFO
350
2D41
  3
ACAD_COLOR
350
2C73
  3
ACAD_DETAILVIEWSTYLE
350
2C7A
  3
ACAD_FIELDLIST
350
2D8B
  3
ACAD_GROUP
350
2C1E
  3
ACAD_LAYOUT
350
2C72
  3
ACAD_MATERIAL
350
2C21
  3
ACAD_MLEADERSTYLE
350
2C76
  3
ACAD_MLINESTYLE
350
2C6F
  3
ACAD_PLOTSETTINGS
350
2C71
  3
ACAD_PLOTSTYLENAME
350
2C1F
  3
ACAD_SCALELIST
350
2C53
  3
ACAD_SECTIONVIEWSTYLE
350
2C78
  3
ACAD_TABLESTYLE
350
2C74
  3
ACAD_VISUALSTYLE
350
2C3A
  3
ACDB_RECOMPOSE_DATA
350
2E5A
  3
AcDbVariableDictionary
350
2E4E
  3
AcDsDecomposeData
350
2E60
  3
AcmDictionary
350
2D67
  3
AMG
350
2D42
  3
AMGSNAPSETTINGS
350
2DA3
  0
DICTIONARY
  5
2E48
330
2C13
100
AcDbDictionary
280
     1
281
     1
  3
ACAD_LAYERSTATES
360
2E49
  0
DICTIONARY
  5
2E33
330
2C65
100
AcDbDictionary
280
     1
281
     1
  3
ADSK_XREC_LAYER_RECONCILED
360
2E34
  0
DICTIONARY
  5
2E35
330
2C84
100
AcDbDictionary
280
     1
281
     1
  3
ADSK_XREC_LAYER_RECONCILED
360
2E36
  0
DICTIONARY
  5
2E37
330
2C9F
100
AcDbDictionary
280
     1
281
     1
  3
ADSK_XREC_LAYER_RECONCILED
360
2E38
  0
DICTIONARY
  5
2E39
330
2CA1
100
AcDbDictionary
280
     1
281
     1
  3
ADSK_XREC_LAYER_RECONCILED
360
2E3A
  0
DICTIONARY
  5
2E3B
330
2CA2
100
AcDbDictionary
280
     1
281
     1
  3
ADSK_XREC_LAYER_RECONCILED
360
2E3C
  0
DICTIONARY
  5
2E3D
330
2CA3
100
AcDbDictionary
280
     1
281
     1
  3
ADSK_XREC_LAYER_RECONCILED
360
2E3E
  0
DICTIONARY
  5
2E3F
330
2CA4
100
AcDbDictionary
280
     1
281
     1
  3
ADSK_XREC_LAYER_RECONCILED
360
2E40
  0
DICTIONARY
  5
2E41
330
2CA5
100
AcDbDictionary
280
     1
281
     1
  3
ADSK_XREC_LAYER_RECONCILED
360
2E42
  0
DICTIONARY
  5
2E43
330
2CA6
100
AcDbDictionary
280
     1
281
     1
  3
ADSK_XREC_LAYER_RECONCILED
360
2E44
  0
XRECORD
  5
2D41
102
{ACAD_REACTORS
330
2C1D
102
}
330
2C1D
100
AcDbXrecord
280
     1
300
AMECH_PP
300
2019
300

  0
DICTIONARY
  5
2C73
102
{ACAD_REACTORS
330
2C1D
102
}
330
2C1D
100
AcDbDictionary
281
     1
  0
DICTIONARY
  5
2C7A
102
{ACAD_REACTORS
330
2C1D
102
}
330
2C1D
100
AcDbDictionary
281
     1
  3
Imperial24
350
2C7B
  0
FIELDLIST
  5
2D8B
102
{ACAD_REACTORS
330
2C1D
102
}
330
2C1D
100
AcDbIdSet
 90
        8
330
2D89
330
2D8A
330
2D8C
330
2D8D
330
2D91
330
2D92
330
2D93
330
2D94
100
AcDbFieldList
  0
DICTIONARY
  5
2C1E
102
{ACAD_REACTORS
330
2C1D
102
}
330
2C1D
100
AcDbDictionary
281
     1
  0
DICTIONARY
  5
2C72
102
{ACAD_REACTORS
330
2C1D
102
}
330
2C1D
100
AcDbDictionary
281
     1
  3
Model
350
2C83
  3
レイアウト1
350
2C7F
  0
DICTIONARY
  5
2C21
102
{ACAD_REACTORS
330
2C1D
102
}
330
2C1D
100
AcDbDictionary
281
     1
  3
ByBlock
350
2C2A
  3
ByLayer
350
2C22
  3
Global
350
2C32
  0
DICTIONARY
  5
2C76
102
{ACAD_REACTORS
330
2C1D
102
}
330
2C1D
100
AcDbDictionary
281
     1
  3
Standard
350
2C77
  0
DICTIONARY
  5
2C6F
102
{ACAD_REACTORS
330
2C1D
102
}
330
2C1D
100
AcDbDictionary
281
     1
  3
Standard
350
2C70
  0
DICTIONARY
  5
2C71
102
{ACAD_REACTORS
330
2C1D
102
}
330
2C1D
100
AcDbDictionary
281
     1
  0
ACDBDICTIONARYWDFLT
  5
2C1F
102
{ACAD_REACTORS
330
2C1D
102
}
330
2C1D
100
AcDbDictionary
281
     1
  3
Normal
350
2C20
100
AcDbDictionaryWithDefault
340
2C20
  0
DICTIONARY
  5
2C53
102
{ACAD_REACTORS
330
2C1D
102
}
330
2C1D
100
AcDbDictionary
281
     1
  3
A0
350
2C54
  3
A1
350
2C55
  3
A2
350
2C56
  3
A3
350
2C57
  3
A4
350
2C58
  3
A5
350
2C59
  3
A6
350
2C5A
  3
A7
350
2C5B
  3
A8
350
2C5C
  3
A9
350
2C5D
  3
B0
350
2C5E
  3
B1
350
2C5F
  3
B2
350
2C60
  3
B3
350
2C61
  3
B4
350
2C62
  3
B5
350
2C63
  3
B6
350
2C64
  0
DICTIONARY
  5
2C78
102
{ACAD_REACTORS
330
2C1D
102
}
330
2C1D
100
AcDbDictionary
281
     1
  3
Imperial24
350
2C79
  0
DICTIONARY
  5
2C74
102
{ACAD_REACTORS
330
2C1D
102
}
330
2C1D
100
AcDbDictionary
281
     1
  3
Standard
350
2C75
  0
DICTIONARY
  5
2C3A
102
{ACAD_REACTORS
330
2C1D
102
}
330
2C1D
100
AcDbDictionary
281
     1
  3
2dWireframe
350
2C40
  3
Basic
350
2C3F
  3
Brighten
350
2C46
  3
ColorChange
350
2C4A
  3
Conceptual
350
2C43
  3
Dim
350
2C45
  3
EdgeColorOff
350
2C52
  3
Facepattern
350
2C49
  3
Flat
350
2C3B
  3
FlatWithEdges
350
2C3C
  3
Gouraud
350
2C3D
  3
GouraudWithEdges
350
2C3E
  3
Hidden
350
2C42
  3
JitterOff
350
2C50
  3
Linepattern
350
2C48
  3
OverhangOff
350
2C51
  3
Realistic
350
2C44
  3
Shaded
350
2C4F
  3
Shaded with edges
350
2C4E
  3
Shades of Gray
350
2C4B
  3
Sketchy
350
2C4C
  3
Thicken
350
2C47
  3
Wireframe
350
2C41
  3
X-Ray
350
2C4D
  0
XRECORD
  5
2E5A
102
{ACAD_REACTORS
330
2C1D
102
}
330
2C1D
100
AcDbXrecord
280
     1
 90
        1
330
2C75
  0
DICTIONARY
  5
2E4E
102
{ACAD_REACTORS
330
2C1D
102
}
330
2C1D
100
AcDbDictionary
281
     1
  3
CANNOSCALE
350
2E54
  3
CMLEADERSTYLE
350
2E50
  3
CTABLESTYLE
350
2E4F
  3
CVIEWDETAILSTYLE
350
2E51
  3
CVIEWSECTIONSTYLE
350
2E52
  3
LAYEREVAL
350
2E56
  3
LAYERNOTIFY
350
2E57
  3
LIGHTINGUNITS
350
2E55
  3
MSLTSCALE
350
2E53
  0
DICTIONARY
  5
2E60
102
{ACAD_REACTORS
330
2C1D
102
}
330
2C1D
100
AcDbDictionary
281
     1
  3
AcDsRecords
350
2E62
  3
AcDsSchemas
350
2E61
1001
ACAD
1070
     2
  0
DICTIONARY
  5
2D67
102
{ACAD_REACTORS
330
2C1D
102
}
330
2C1D
100
AcDbDictionary
281
     1
  3
AcmStdDictionary
350
2D70
  0
DICTIONARY
  5
2D42
102
{ACAD_REACTORS
330
2C1D
102
}
330
2C1D
100
AcDbDictionary
281
     1
  0
DICTIONARY
  5
2DA3
102
{ACAD_REACTORS
330
2C1D
102
}
330
2C1D
100
AcDbDictionary
281
     1
  0
DICTIONARY
  5
2E49
102
{ACAD_REACTORS
330
2E48
102
}
330
2E48
100
AcDbDictionary
281
     1
  0
XRECORD
  5
2E34
102
{ACAD_REACTORS
330
2E33
102
}
330
2E33
100
AcDbXrecord
280
     1
290
     1
  0
XRECORD
  5
2E36
102
{ACAD_REACTORS
330
2E35
102
}
330
2E35
100
AcDbXrecord
280
     1
290
     1
  0
XRECORD
  5
2E38
102
{ACAD_REACTORS
330
2E37
102
}
330
2E37
100
AcDbXrecord
280
     1
290
     1
  0
XRECORD
  5
2E3A
102
{ACAD_REACTORS
330
2E39
102
}
330
2E39
100
AcDbXrecord
280
     1
290
     1
  0
XRECORD
  5
2E3C
102
{ACAD_REACTORS
330
2E3B
102
}
330
2E3B
100
AcDbXrecord
280
     1
290
     1
  0
XRECORD
  5
2E3E
102
{ACAD_REACTORS
330
2E3D
102
}
330
2E3D
100
AcDbXrecord
280
     1
290
     1
  0
XRECORD
  5
2E40
102
{ACAD_REACTORS
330
2E3F
102
}
330
2E3F
100
AcDbXrecord
280
     1
290
     1
  0
XRECORD
  5
2E42
102
{ACAD_REACTORS
330
2E41
102
}
330
2E41
100
AcDbXrecord
280
     1
290
     1
  0
XRECORD
  5
2E44
102
{ACAD_REACTORS
330
2E43
102
}
330
2E43
100
AcDbXrecord
280
     1
290
     1
  0
ACDBDETAILVIEWSTYLE
  5
2C7B
102
{ACAD_XDICTIONARY
360
2E95
102
}
102
{ACAD_REACTORS
330
2C7A
330
2D85
102
}
330
2C7A
100
AcDbModelDocViewStyle
 70
     0
  3
Imperial24
290
     0
100
AcDbDetailViewStyle
 70
     0
 71
     0
 90
        3
 71
     1
340
2C66
 62
   256
 40
0.24
340
0
 62
   256
 40
0.24
300

 40
0.36
280
     3
 71
     2
340
2C6D
 90
       25
 62
   256
 71
     3
340
2C66
 62
   256
 40
0.24
 90
        1
 40
0.75
 90
        1
300
%<\AcVar ViewType \f "%tc1">% %<\AcVar ViewDetailId>%\PSCALE %<\AcVar ViewScale \f "%sn">%
 71
     4
340
2C6D
 90
       25
 62
   256
340
2C6D
 90
       25
 62
   256
280
     0
  0
LAYOUT
  5
2C83
102
{ACAD_REACTORS
330
2C72
102
}
330
2C72
100
AcDbPlotSettings
  1

  2
JUST PDF 3
  4

  6

 40
0.0
 41
0.0
 42
0.0
 43
0.0
 44
0.0
 45
0.0
 46
0.0
 47
0.0
 48
0.0
 49
0.0
140
0.0
141
0.0
142
1.0
143
1.0
 70
  1712
 72
     0
 73
     0
 74
     0
  7

 75
     0
147
1.0
 76
     0
 77
     2
 78
   300
148
0.0
149
0.0
100
AcDbLayout
  1
Model
 70
     1
 71
     0
 10
0.0
 20
0.0
 11
12.0
 21
9.0
 12
0.0
 22
0.0
 32
0.0
 14
0.0
 24
0.0
 34
0.0
 15
0.0
 25
0.0
 35
0.0
146
0.0
 13
0.0
 23
0.0
 33
0.0
 16
1.0
 26
0.0
 36
0.0
 17
0.0
 27
1.0
 37
0.0
 76
     0
330
2C80
331
2C85
  0
LAYOUT
  5
2C7F
102
{ACAD_REACTORS
330
2C72
102
}
330
2C72
100
AcDbPlotSettings
  1

  2
JUST PDF 3
  4

  6

 40
0.0
 41
0.0
 42
0.0
 43
0.0
 44
0.0
 45
0.0
 46
0.0
 47
0.0
 48
0.0
 49
0.0
140
0.0
141
0.0
142
1.0
143
1.0
 70
   688
 72
     0
 73
     0
 74
     5
  7

 75
    16
147
1.0
 76
     0
 77
     2
 78
   300
148
0.0
149
0.0
100
AcDbLayout
  1
レイアウト1
 70
     1
 71
     1
 10
0.0
 20
0.0
 11
420.0
 21
297.0
 12
0.0
 22
0.0
 32
0.0
 14
1.000000000000000E+20
 24
1.000000000000000E+20
 34
1.000000000000000E+20
 15
-1.000000000000000E+20
 25
-1.000000000000000E+20
 35
-1.000000000000000E+20
146
0.0
 13
0.0
 23
0.0
 33
0.0
 16
1.0
 26
0.0
 36
0.0
 17
0.0
 27
1.0
 37
0.0
 76
     0
330
2C7C
  0
MATERIAL
  5
2C2A
102
{ACAD_XDICTIONARY
360
2C2B
102
}
102
{ACAD_REACTORS
330
2C21
102
}
330
2C21
100
AcDbMaterial
  1
ByBlock
 72
     0
 43
0.0208333333333333
 43
0.0
 43
0.0
 43
0.0
 43
0.0
 43
0.0208333333333333
 43
0.0
 43
0.0
 43
0.0
 43
0.0
 43
1.0
 43
0.0
 43
0.0
 43
0.0
 43
0.0
 43
1.0
 77
     0
 47
0.0208333333333333
 47
0.0
 47
0.0
 47
0.0
 47
0.0
 47
0.0208333333333333
 47
0.0
 47
0.0
 47
0.0
 47
0.0
 47
1.0
 47
0.0
 47
0.0
 47
0.0
 47
0.0
 47
1.0
171
     0
 49
0.0208333333333333
 49
0.0
 49
0.0
 49
0.0
 49
0.0
 49
0.0208333333333333
 49
0.0
 49
0.0
 49
0.0
 49
0.0
 49
1.0
 49
0.0
 49
0.0
 49
0.0
 49
0.0
 49
1.0
175
     0
142
0.0208333333333333
142
0.0
142
0.0
142
0.0
142
0.0
142
0.0208333333333333
142
0.0
142
0.0
142
0.0
142
0.0
142
1.0
142
0.0
142
0.0
142
0.0
142
0.0
142
1.0
179
     0
144
0.0208333333333333
144
0.0
144
0.0
144
0.0
144
0.0
144
0.0208333333333333
144
0.0
144
0.0
144
0.0
144
0.0
144
1.0
144
0.0
144
0.0
144
0.0
144
0.0
144
1.0
147
0.0208333333333333
147
0.0
147
0.0
147
0.0
147
0.0
147
0.0208333333333333
147
0.0
147
0.0
147
0.0
147
0.0
147
1.0
147
0.0
147
0.0
147
0.0
147
0.0
147
1.0
  0
MATERIAL
  5
2C22
102
{ACAD_XDICTIONARY
360
2C23
102
}
102
{ACAD_REACTORS
330
2C21
102
}
330
2C21
100
AcDbMaterial
  1
ByLayer
 72
     0
 43
0.0208333333333333
 43
0.0
 43
0.0
 43
0.0
 43
0.0
 43
0.0208333333333333
 43
0.0
 43
0.0
 43
0.0
 43
0.0
 43
1.0
 43
0.0
 43
0.0
 43
0.0
 43
0.0
 43
1.0
 77
     0
 47
0.0208333333333333
 47
0.0
 47
0.0
 47
0.0
 47
0.0
 47
0.0208333333333333
 47
0.0
 47
0.0
 47
0.0
 47
0.0
 47
1.0
 47
0.0
 47
0.0
 47
0.0
 47
0.0
 47
1.0
171
     0
 49
0.0208333333333333
 49
0.0
 49
0.0
 49
0.0
 49
0.0
 49
0.0208333333333333
 49
0.0
 49
0.0
 49
0.0
 49
0.0
 49
1.0
 49
0.0
 49
0.0
 49
0.0
 49
0.0
 49
1.0
175
     0
142
0.0208333333333333
142
0.0
142
0.0
142
0.0
142
0.0
142
0.0208333333333333
142
0.0
142
0.0
142
0.0
142
0.0
142
1.0
142
0.0
142
0.0
142
0.0
142
0.0
142
1.0
179
     0
144
0.0208333333333333
144
0.0
144
0.0
144
0.0
144
0.0
144
0.0208333333333333
144
0.0
144
0.0
144
0.0
144
0.0
144
1.0
144
0.0
144
0.0
144
0.0
144
0.0
144
1.0
147
0.0208333333333333
147
0.0
147
0.0
147
0.0
147
0.0
147
0.0208333333333333
147
0.0
147
0.0
147
0.0
147
0.0
147
1.0
147
0.0
147
0.0
147
0.0
147
0.0
147
1.0
  0
MATERIAL
  5
2C32
102
{ACAD_XDICTIONARY
360
2C33
102
}
102
{ACAD_REACTORS
330
2C21
102
}
330
2C21
100
AcDbMaterial
  1
Global
 72
     0
 43
0.0208333333333333
 43
0.0
 43
0.0
 43
0.0
 43
0.0
 43
0.0208333333333333
 43
0.0
 43
0.0
 43
0.0
 43
0.0
 43
1.0
 43
0.0
 43
0.0
 43
0.0
 43
0.0
 43
1.0
 77
     0
 47
0.0208333333333333
 47
0.0
 47
0.0
 47
0.0
 47
0.0
 47
0.0208333333333333
 47
0.0
 47
0.0
 47
0.0
 47
0.0
 47
1.0
 47
0.0
 47
0.0
 47
0.0
 47
0.0
 47
1.0
171
     0
 49
0.0208333333333333
 49
0.0
 49
0.0
 49
0.0
 49
0.0
 49
0.0208333333333333
 49
0.0
 49
0.0
 49
0.0
 49
0.0
 49
1.0
 49
0.0
 49
0.0
 49
0.0
 49
0.0
 49
1.0
175
     0
142
0.0208333333333333
142
0.0
142
0.0
142
0.0
142
0.0
142
0.0208333333333333
142
0.0
142
0.0
142
0.0
142
0.0
142
1.0
142
0.0
142
0.0
142
0.0
142
0.0
142
1.0
179
     0
144
0.0208333333333333
144
0.0
144
0.0
144
0.0
144
0.0
144
0.0208333333333333
144
0.0
144
0.0
144
0.0
144
0.0
144
1.0
144
0.0
144
0.0
144
0.0
144
0.0
144
1.0
147
0.0208333333333333
147
0.0
147
0.0
147
0.0
147
0.0
147
0.0208333333333333
147
0.0
147
0.0
147
0.0
147
0.0
147
1.0
147
0.0
147
0.0
147
0.0
147
0.0
147
1.0
  0
MLEADERSTYLE
  5
2C77
102
{ACAD_REACTORS
330
2C76
102
}
330
2C76
100
AcDbMLeaderStyle
179
     2
170
     2
171
     1
172
     0
 90
        2
 40
0.0
 41
0.0
173
     1
 91
-1056964608
340
2C6B
 92
       -2
290
     1
 42
0.09
291
     1
 43
0.36
  3
Standard
 44
0.18
300

342
2C66
174
     1
178
     6
175
     1
176
     0
 93
-1056964608
 45
0.18
292
     0
297
     0
 46
0.18
 94
-1056964608
 47
1.0
 49
1.0
140
1.0
293
     1
141
0.0
294
     1
177
     0
142
1.0
295
     0
296
     0
143
0.125
271
     0
272
     9
273
     9
  0
MLINESTYLE
  5
2C70
102
{ACAD_REACTORS
330
2C6F
102
}
330
2C6F
100
AcDbMlineStyle
  2
STANDARD
 70
     0
  3

 62
   256
 51
90.0
 52
90.0
 71
     2
 49
0.5
 62
   256
  6
BYLAYER
 49
-0.5
 62
   256
  6
BYLAYER
  0
ACDBPLACEHOLDER
  5
2C20
102
{ACAD_REACTORS
330
2C1F
102
}
330
2C1F
  0
SCALE
  5
2C54
102
{ACAD_REACTORS
330
2C53
102
}
330
2C53
100
AcDbScale
 70
     0
300
1:1
140
1.0
141
1.0
290
     1
  0
SCALE
  5
2C55
102
{ACAD_REACTORS
330
2C53
102
}
330
2C53
100
AcDbScale
 70
     0
300
1/128" = 1'-0"
140
0.0078125
141
12.0
290
     0
  0
SCALE
  5
2C56
102
{ACAD_REACTORS
330
2C53
102
}
330
2C53
100
AcDbScale
 70
     0
300
1/64" = 1'-0"
140
0.015625
141
12.0
290
     0
  0
SCALE
  5
2C57
102
{ACAD_REACTORS
330
2C53
102
}
330
2C53
100
AcDbScale
 70
     0
300
1/32" = 1'-0"
140
0.03125
141
12.0
290
     0
  0
SCALE
  5
2C58
102
{ACAD_REACTORS
330
2C53
102
}
330
2C53
100
AcDbScale
 70
     0
300
1/16" = 1'-0"
140
0.0625
141
12.0
290
     0
  0
SCALE
  5
2C59
102
{ACAD_REACTORS
330
2C53
102
}
330
2C53
100
AcDbScale
 70
     0
300
3/32" = 1'-0"
140
0.09375
141
12.0
290
     0
  0
SCALE
  5
2C5A
102
{ACAD_REACTORS
330
2C53
102
}
330
2C53
100
AcDbScale
 70
     0
300
1/8" = 1'-0"
140
0.125
141
12.0
290
     0
  0
SCALE
  5
2C5B
102
{ACAD_REACTORS
330
2C53
102
}
330
2C53
100
AcDbScale
 70
     0
300
3/16" = 1'-0"
140
0.1875
141
12.0
290
     0
  0
SCALE
  5
2C5C
102
{ACAD_REACTORS
330
2C53
102
}
330
2C53
100
AcDbScale
 70
     0
300
1/4" = 1'-0"
140
0.25
141
12.0
290
     0
  0
SCALE
  5
2C5D
102
{ACAD_REACTORS
330
2C53
102
}
330
2C53
100
AcDbScale
 70
     0
300
3/8" = 1'-0"
140
0.375
141
12.0
290
     0
  0
SCALE
  5
2C5E
102
{ACAD_REACTORS
330
2C53
102
}
330
2C53
100
AcDbScale
 70
     0
300
1/2" = 1'-0"
140
0.5
141
12.0
290
     0
  0
SCALE
  5
2C5F
102
{ACAD_REACTORS
330
2C53
102
}
330
2C53
100
AcDbScale
 70
     0
300
3/4" = 1'-0"
140
0.75
141
12.0
290
     0
  0
SCALE
  5
2C60
102
{ACAD_REACTORS
330
2C53
102
}
330
2C53
100
AcDbScale
 70
     0
300
1" = 1'-0"
140
1.0
141
12.0
290
     0
  0
SCALE
  5
2C61
102
{ACAD_REACTORS
330
2C53
102
}
330
2C53
100
AcDbScale
 70
     0
300
1-1/2" = 1'-0"
140
1.5
141
12.0
290
     0
  0
SCALE
  5
2C62
102
{ACAD_REACTORS
330
2C53
102
}
330
2C53
100
AcDbScale
 70
     0
300
3" = 1'-0"
140
3.0
141
12.0
290
     0
  0
SCALE
  5
2C63
102
{ACAD_REACTORS
330
2C53
102
}
330
2C53
100
AcDbScale
 70
     0
300
6" = 1'-0"
140
6.0
141
12.0
290
     0
  0
SCALE
  5
2C64
102
{ACAD_REACTORS
330
2C53
102
}
330
2C53
100
AcDbScale
 70
     0
300
1'-0" = 1'-0"
140
12.0
141
12.0
290
     0
  0
ACDBSECTIONVIEWSTYLE
  5
2C79
102
{ACAD_XDICTIONARY
360
2E93
102
}
102
{ACAD_REACTORS
330
2C78
330
2D84
102
}
330
2C78
100
AcDbModelDocViewStyle
 70
     0
  3
Imperial24
290
     0
100
AcDbSectionViewStyle
 70
     0
 71
     0
 90
       78
 71
     1
340
2C66
 62
   256
 40
0.24
340
0
340
0
 62
   256
 40
0.24
300
I, O, Q, S, X, Z
 40
0.48
 90
        3
 40
0.18
 90
        1
 71
     2
340
2C6D
 90
       25
 62
   256
340
2C6D
 90
       50
 62
   256
 40
0.24
 40
0.0
 40
0.24
 71
     3
340
2C66
 62
   256
 40
0.24
 90
        1
 40
0.75
 90
        1
300
%<\AcVar ViewType \f "%tc1">% %<\AcVar ViewSectionStartId>%-%<\AcVar ViewSectionEndId>%\PSCALE %<\AcVar ViewScale \f "%sn">%
 71
     4
 62
   256
 62
   257
300
ANSI31
 40
1.0
 90
        0
290
     0
290
     0
 90
        6
 40
0.0
 40
1.570796326794896
 40
0.2617993877991494
 40
1.308996938995747
 40
-0.2617993877991494
 40
1.832595714594046
  0
TABLESTYLE
  5
2C75
102
{ACAD_XDICTIONARY
360
2E58
102
}
102
{ACAD_REACTORS
330
2C74
102
}
330
2C74
100
AcDbTableStyle
280
     0
  3
Standard
 70
     0
 71
     0
 40
0.06
 41
0.06
280
     0
281
     0
  7
STANDARD
140
0.18
170
     2
 62
     0
 63
     7
283
     0
 90
      512
 91
        0
  1

274
    -2
284
     1
 64
     0
275
    -2
285
     1
 65
     0
276
    -2
286
     1
 66
     0
277
    -2
287
     1
 67
     0
278
    -2
288
     1
 68
     0
279
    -2
289
     1
 69
     0
  7
STANDARD
140
0.25
170
     5
 62
     0
 63
     7
283
     0
 90
      512
 91
        0
  1

274
    -2
284
     1
 64
     0
275
    -2
285
     1
 65
     0
276
    -2
286
     1
 66
     0
277
    -2
287
     1
 67
     0
278
    -2
288
     1
 68
     0
279
    -2
289
     1
 69
     0
  7
STANDARD
140
0.18
170
     5
 62
     0
 63
     7
283
     0
 90
      512
 91
        0
  1

274
    -2
284
     1
 64
     0
275
    -2
285
     1
 65
     0
276
    -2
286
     1
 66
     0
277
    -2
287
     1
 67
     0
278
    -2
288
     1
 68
     0
279
    -2
289
     1
 69
     0
  0
VISUALSTYLE
  5
2C40
102
{ACAD_XDICTIONARY
360
2E6D
102
}
102
{ACAD_REACTORS
330
2C3A
102
}
330
2C3A
100
AcDbVisualStyle
  2
2dWireframe
 70
     4
177
     2
291
     0
 71
     0
176
     1
 72
     2
176
     1
 73
     0
176
     1
 90
        0
176
     1
 40
0.6
176
     1
 41
30.0
176
     1
 63
     7
421
 16777215
176
     1
 74
     1
176
     1
 91
        4
176
     1
 64
     7
176
     1
 65
   257
176
     1
 75
     1
176
     1
175
     1
176
     1
 42
1.0
176
     1
 92
        0
176
     1
 66
   257
176
     1
 43
1.0
176
     1
 76
     1
176
     1
 77
     6
176
     1
 78
     2
176
     1
 67
     7
176
     1
 79
     5
176
     1
170
     0
176
     1
171
     0
176
     1
290
     0
176
     1
 93
        1
176
     1
 44
0.0
176
     1
173
     0
176
     1
1001
ACAD
1000
AcDbSavedByObjectVersion
1070
     0
  0
VISUALSTYLE
  5
2C3F
102
{ACAD_XDICTIONARY
360
2E6B
102
}
102
{ACAD_REACTORS
330
2C3A
102
}
330
2C3A
100
AcDbVisualStyle
  2
Basic
 70
     7
177
     2
291
     1
 71
     1
176
     1
 72
     0
176
     1
 73
     1
176
     1
 90
        0
176
     1
 40
0.6
176
     1
 41
30.0
176
     1
 63
     7
421
 16777215
176
     1
 74
     0
176
     1
 91
        4
176
     1
 64
     7
176
     1
 65
   257
176
     1
 75
     1
176
     1
175
     1
176
     1
 42
1.0
176
     1
 92
        8
176
     1
 66
     7
176
     1
 43
1.0
176
     1
 76
     1
176
     1
 77
     6
176
     1
 78
     2
176
     1
 67
     7
176
     1
 79
     5
176
     1
170
     0
176
     1
171
     0
176
     1
290
     0
176
     1
 93
        1
176
     1
 44
0.0
176
     1
173
     0
176
     1
1001
ACAD
1000
AcDbSavedByObjectVersion
1070
     0
  0
VISUALSTYLE
  5
2C46
102
{ACAD_XDICTIONARY
360
2E79
102
}
102
{ACAD_REACTORS
330
2C3A
102
}
330
2C3A
100
AcDbVisualStyle
  2
Brighten
 70
    12
177
     2
291
     1
 71
     2
176
     1
 72
     2
176
     1
 73
     0
176
     1
 90
        0
176
     1
 40
0.6
176
     1
 41
30.0
176
     1
 63
     7
421
 16777215
176
     1
 74
     1
176
     1
 91
        4
176
     1
 64
     7
176
     1
 65
   257
176
     1
 75
     1
176
     1
175
     1
176
     1
 42
1.0
176
     1
 92
        8
176
     1
 66
     7
176
     1
 43
1.0
176
     1
 76
     1
176
     1
 77
     6
176
     1
 78
     2
176
     1
 67
     7
176
     1
 79
     5
176
     1
170
     0
176
     1
171
     0
176
     1
290
     0
176
     1
 93
        1
176
     1
 44
50.0
176
     1
173
     0
176
     1
1001
ACAD
1000
AcDbSavedByObjectVersion
1070
     0
  0
VISUALSTYLE
  5
2C4A
102
{ACAD_XDICTIONARY
360
2E81
102
}
102
{ACAD_REACTORS
330
2C3A
102
}
330
2C3A
100
AcDbVisualStyle
  2
ColorChange
 70
    16
177
     2
291
     1
 71
     2
176
     1
 72
     2
176
     1
 73
     3
176
     1
 90
        0
176
     1
 40
0.6
176
     1
 41
30.0
176
     1
 63
     8
421
  8421504
176
     1
 74
     1
176
     1
 91
        4
176
     1
 64
     7
176
     1
 65
   257
176
     1
 75
     1
176
     1
175
     1
176
     1
 42
1.0
176
     1
 92
        8
176
     1
 66
     8
424
  8421504
176
     1
 43
1.0
176
     1
 76
     1
176
     1
 77
     6
176
     1
 78
     2
176
     1
 67
     7
176
     1
 79
     5
176
     1
170
     0
176
     1
171
     0
176
     1
290
     0
176
     1
 93
        1
176
     1
 44
0.0
176
     1
173
     0
176
     1
1001
ACAD
1000
AcDbSavedByObjectVersion
1070
     0
  0
VISUALSTYLE
  5
2C43
102
{ACAD_XDICTIONARY
360
2E73
102
}
102
{ACAD_REACTORS
330
2C3A
102
}
330
2C3A
100
AcDbVisualStyle
  2
Conceptual
 70
     9
177
     2
291
     0
 71
     3
176
     1
 72
     2
176
     1
 73
     0
176
     1
 90
        0
176
     1
 40
0.6
176
     1
 41
30.0
176
     1
 63
     7
421
 16777215
176
     1
 74
     2
176
     1
 91
        2
176
     1
 64
     7
176
     1
 65
   257
176
     1
 75
     1
176
     1
175
     1
176
     1
 42
179.0
176
     1
 92
        8
176
     1
 66
     7
176
     1
 43
1.0
176
     1
 76
     1
176
     1
 77
     6
176
     1
 78
     2
176
     1
 67
     7
176
     1
 79
     3
176
     1
170
     0
176
     1
171
     0
176
     1
290
     0
176
     1
 93
        1
176
     1
 44
0.0
176
     1
173
     0
176
     1
1001
ACAD
1000
AcDbSavedByObjectVersion
1070
     0
  0
VISUALSTYLE
  5
2C45
102
{ACAD_XDICTIONARY
360
2E77
102
}
102
{ACAD_REACTORS
330
2C3A
102
}
330
2C3A
100
AcDbVisualStyle
  2
Dim
 70
    11
177
     2
291
     1
 71
     2
176
     1
 72
     2
176
     1
 73
     0
176
     1
 90
        0
176
     1
 40
0.6
176
     1
 41
30.0
176
     1
 63
     7
421
 16777215
176
     1
 74
     1
176
     1
 91
        4
176
     1
 64
     7
176
     1
 65
   257
176
     1
 75
     1
176
     1
175
     1
176
     1
 42
1.0
176
     1
 92
        8
176
     1
 66
     7
176
     1
 43
1.0
176
     1
 76
     1
176
     1
 77
     6
176
     1
 78
     2
176
     1
 67
     7
176
     1
 79
     5
176
     1
170
     0
176
     1
171
     0
176
     1
290
     0
176
     1
 93
        1
176
     1
 44
-50.0
176
     1
173
     0
176
     1
1001
ACAD
1000
AcDbSavedByObjectVersion
1070
     0
  0
VISUALSTYLE
  5
2C52
102
{ACAD_XDICTIONARY
360
2E91
102
}
102
{ACAD_REACTORS
330
2C3A
102
}
330
2C3A
100
AcDbVisualStyle
  2
EdgeColorOff
 70
    22
177
     2
291
     1
 71
     2
176
     0
 72
     2
176
     0
 73
     0
176
     0
 90
        0
176
     0
 40
0.6
176
     0
 41
30.0
176
     0
 63
     7
421
 16777215
176
     0
 74
     1
176
     0
 91
        4
176
     0
 64
     7
176
     0
 65
   257
176
     0
 75
     1
176
     0
175
     1
176
     0
 42
1.0
176
     0
 92
        8
176
     2
 66
     7
176
     0
 43
1.0
176
     0
 76
     1
176
     0
 77
     6
176
     0
 78
     2
176
     0
 67
     7
176
     0
 79
     5
176
     0
170
     0
176
     0
171
     0
176
     0
290
     0
176
     0
 93
        1
176
     0
 44
0.0
176
     0
173
     0
176
     0
1001
ACAD
1000
AcDbSavedByObjectVersion
1070
     0
  0
VISUALSTYLE
  5
2C49
102
{ACAD_XDICTIONARY
360
2E7F
102
}
102
{ACAD_REACTORS
330
2C3A
102
}
330
2C3A
100
AcDbVisualStyle
  2
Facepattern
 70
    15
177
     2
291
     1
 71
     2
176
     1
 72
     2
176
     1
 73
     0
176
     1
 90
        0
176
     1
 40
0.6
176
     1
 41
30.0
176
     1
 63
     7
421
 16777215
176
     1
 74
     1
176
     1
 91
        4
176
     1
 64
     7
176
     1
 65
   257
176
     1
 75
     1
176
     1
175
     1
176
     1
 42
1.0
176
     1
 92
        8
176
     1
 66
     7
176
     1
 43
1.0
176
     1
 76
     1
176
     1
 77
     6
176
     1
 78
     2
176
     1
 67
     7
176
     1
 79
     5
176
     1
170
     0
176
     1
171
     0
176
     1
290
     0
176
     1
 93
        1
176
     1
 44
0.0
176
     1
173
     0
176
     1
1001
ACAD
1000
AcDbSavedByObjectVersion
1070
     0
  0
VISUALSTYLE
  5
2C3B
102
{ACAD_XDICTIONARY
360
2E63
102
}
102
{ACAD_REACTORS
330
2C3A
102
}
330
2C3A
100
AcDbVisualStyle
  2
Flat
 70
     0
177
     2
291
     1
 71
     2
176
     1
 72
     1
176
     1
 73
     1
176
     1
 90
        2
176
     1
 40
0.6
176
     1
 41
30.0
176
     1
 63
     7
421
 16777215
176
     1
 74
     0
176
     1
 91
        0
176
     1
 64
     7
176
     1
 65
   257
176
     1
 75
     1
176
     1
175
     1
176
     1
 42
1.0
176
     1
 92
        8
176
     1
 66
     7
176
     1
 43
1.0
176
     1
 76
     1
176
     1
 77
     6
176
     1
 78
     2
176
     1
 67
     7
176
     1
 79
     5
176
     1
170
     0
176
     1
171
     0
176
     1
290
     0
176
     1
 93
       13
176
     1
 44
0.0
176
     1
173
     0
176
     1
1001
ACAD
1000
AcDbSavedByObjectVersion
1070
     0
  0
VISUALSTYLE
  5
2C3C
102
{ACAD_XDICTIONARY
360
2E65
102
}
102
{ACAD_REACTORS
330
2C3A
102
}
330
2C3A
100
AcDbVisualStyle
  2
FlatWithEdges
 70
     1
177
     2
291
     1
 71
     2
176
     1
 72
     1
176
     1
 73
     1
176
     1
 90
        2
176
     1
 40
0.6
176
     1
 41
30.0
176
     1
 63
     7
421
 16777215
176
     1
 74
     1
176
     1
 91
        0
176
     1
 64
     7
176
     1
 65
   257
176
     1
 75
     1
176
     1
175
     1
176
     1
 42
1.0
176
     1
 92
        0
176
     1
 66
   257
176
     1
 43
1.0
176
     1
 76
     1
176
     1
 77
     6
176
     1
 78
     2
176
     1
 67
     7
176
     1
 79
     5
176
     1
170
     0
176
     1
171
     0
176
     1
290
     0
176
     1
 93
       13
176
     1
 44
0.0
176
     1
173
     0
176
     1
1001
ACAD
1000
AcDbSavedByObjectVersion
1070
     0
  0
VISUALSTYLE
  5
2C3D
102
{ACAD_XDICTIONARY
360
2E67
102
}
102
{ACAD_REACTORS
330
2C3A
102
}
330
2C3A
100
AcDbVisualStyle
  2
Gouraud
 70
     2
177
     2
291
     1
 71
     2
176
     1
 72
     2
176
     1
 73
     1
176
     1
 90
        2
176
     1
 40
0.6
176
     1
 41
30.0
176
     1
 63
     7
421
 16777215
176
     1
 74
     0
176
     1
 91
        0
176
     1
 64
     7
176
     1
 65
   257
176
     1
 75
     1
176
     1
175
     1
176
     1
 42
1.0
176
     1
 92
        0
176
     1
 66
     7
176
     1
 43
1.0
176
     1
 76
     1
176
     1
 77
     6
176
     1
 78
     2
176
     1
 67
     7
176
     1
 79
     5
176
     1
170
     0
176
     1
171
     0
176
     1
290
     0
176
     1
 93
       13
176
     1
 44
0.0
176
     1
173
     0
176
     1
1001
ACAD
1000
AcDbSavedByObjectVersion
1070
     0
  0
VISUALSTYLE
  5
2C3E
102
{ACAD_XDICTIONARY
360
2E69
102
}
102
{ACAD_REACTORS
330
2C3A
102
}
330
2C3A
100
AcDbVisualStyle
  2
GouraudWithEdges
 70
     3
177
     2
291
     1
 71
     2
176
     1
 72
     2
176
     1
 73
     1
176
     1
 90
        2
176
     1
 40
0.6
176
     1
 41
30.0
176
     1
 63
     7
421
 16777215
176
     1
 74
     1
176
     1
 91
        0
176
     1
 64
     7
176
     1
 65
   257
176
     1
 75
     1
176
     1
175
     1
176
     1
 42
1.0
176
     1
 92
        0
176
     1
 66
   257
176
     1
 43
1.0
176
     1
 76
     1
176
     1
 77
     6
176
     1
 78
     2
176
     1
 67
     7
176
     1
 79
     5
176
     1
170
     0
176
     1
171
     0
176
     1
290
     0
176
     1
 93
       13
176
     1
 44
0.0
176
     1
173
     0
176
     1
1001
ACAD
1000
AcDbSavedByObjectVersion
1070
     0
  0
VISUALSTYLE
  5
2C42
102
{ACAD_XDICTIONARY
360
2E71
102
}
102
{ACAD_REACTORS
330
2C3A
102
}
330
2C3A
100
AcDbVisualStyle
  2
Hidden
 70
     6
177
     2
291
     0
 71
     1
176
     1
 72
     2
176
     1
 73
     2
176
     1
 90
        0
176
     1
 40
0.6
176
     1
 41
30.0
176
     1
 63
     7
421
 16777215
176
     1
 74
     2
176
     1
 91
        2
176
     1
 64
     7
176
     1
 65
   257
176
     1
 75
     2
176
     1
175
     1
176
     1
 42
40.0
176
     1
 92
        0
176
     1
 66
   257
176
     1
 43
1.0
176
     1
 76
     1
176
     1
 77
     6
176
     1
 78
     2
176
     1
 67
     7
176
     1
 79
     3
176
     1
170
     0
176
     1
171
     0
176
     1
290
     0
176
     1
 93
        1
176
     1
 44
0.0
176
     1
173
     0
176
     1
1001
ACAD
1000
AcDbSavedByObjectVersion
1070
     0
  0
VISUALSTYLE
  5
2C50
102
{ACAD_XDICTIONARY
360
2E8D
102
}
102
{ACAD_REACTORS
330
2C3A
102
}
330
2C3A
100
AcDbVisualStyle
  2
JitterOff
 70
    20
177
     2
291
     1
 71
     2
176
     0
 72
     2
176
     0
 73
     0
176
     0
 90
        0
176
     0
 40
0.6
176
     0
 41
30.0
176
     0
 63
     7
421
 16777215
176
     0
 74
     1
176
     0
 91
        4
176
     0
 64
     7
176
     0
 65
   257
176
     0
 75
     1
176
     0
175
     1
176
     0
 42
1.0
176
     0
 92
       10
176
     2
 66
     7
176
     0
 43
1.0
176
     0
 76
     1
176
     0
 77
     6
176
     0
 78
     2
176
     0
 67
     7
176
     0
 79
     5
176
     0
170
     0
176
     0
171
     0
176
     0
290
     0
176
     0
 93
        1
176
     0
 44
0.0
176
     0
173
     0
176
     0
1001
ACAD
1000
AcDbSavedByObjectVersion
1070
     0
  0
VISUALSTYLE
  5
2C48
102
{ACAD_XDICTIONARY
360
2E7D
102
}
102
{ACAD_REACTORS
330
2C3A
102
}
330
2C3A
100
AcDbVisualStyle
  2
Linepattern
 70
    14
177
     2
291
     1
 71
     2
176
     1
 72
     2
176
     1
 73
     0
176
     1
 90
        0
176
     1
 40
0.6
176
     1
 41
30.0
176
     1
 63
     7
421
 16777215
176
     1
 74
     1
176
     1
 91
        4
176
     1
 64
     7
176
     1
 65
   257
176
     1
 75
     7
176
     1
175
     7
176
     1
 42
1.0
176
     1
 92
        8
176
     1
 66
     7
176
     1
 43
1.0
176
     1
 76
     1
176
     1
 77
     6
176
     1
 78
     2
176
     1
 67
     7
176
     1
 79
     5
176
     1
170
     0
176
     1
171
     0
176
     1
290
     0
176
     1
 93
        1
176
     1
 44
0.0
176
     1
173
     0
176
     1
1001
ACAD
1000
AcDbSavedByObjectVersion
1070
     0
  0
VISUALSTYLE
  5
2C51
102
{ACAD_XDICTIONARY
360
2E8F
102
}
102
{ACAD_REACTORS
330
2C3A
102
}
330
2C3A
100
AcDbVisualStyle
  2
OverhangOff
 70
    21
177
     2
291
     1
 71
     2
176
     0
 72
     2
176
     0
 73
     0
176
     0
 90
        0
176
     0
 40
0.6
176
     0
 41
30.0
176
     0
 63
     7
421
 16777215
176
     0
 74
     1
176
     0
 91
        4
176
     0
 64
     7
176
     0
 65
   257
176
     0
 75
     1
176
     0
175
     1
176
     0
 42
1.0
176
     0
 92
        9
176
     2
 66
     7
176
     0
 43
1.0
176
     0
 76
     1
176
     0
 77
     6
176
     0
 78
     2
176
     0
 67
     7
176
     0
 79
     5
176
     0
170
     0
176
     0
171
     0
176
     0
290
     0
176
     0
 93
        1
176
     0
 44
0.0
176
     0
173
     0
176
     0
1001
ACAD
1000
AcDbSavedByObjectVersion
1070
     0
  0
VISUALSTYLE
  5
2C44
102
{ACAD_XDICTIONARY
360
2E75
102
}
102
{ACAD_REACTORS
330
2C3A
102
}
330
2C3A
100
AcDbVisualStyle
  2
Realistic
 70
     8
177
     2
291
     0
 71
     2
176
     1
 72
     3
176
     1
 73
     0
176
     1
 90
        2
176
     1
 40
0.6
176
     1
 41
30.0
176
     1
 63
     7
421
 16777215
176
     1
 74
     0
176
     1
 91
        0
176
     1
 64
     7
176
     1
 65
   257
176
     1
 75
     1
176
     1
175
     1
176
     1
 42
1.0
176
     1
 92
        8
176
     1
 66
   257
176
     1
 43
1.0
176
     1
 76
     1
176
     1
 77
     6
176
     1
 78
     2
176
     1
 67
     7
176
     1
 79
     3
176
     1
170
     0
176
     1
171
     0
176
     1
290
     0
176
     1
 93
       13
176
     1
 44
0.0
176
     1
173
     0
176
     1
1001
ACAD
1000
AcDbSavedByObjectVersion
1070
     0
  0
VISUALSTYLE
  5
2C4F
102
{ACAD_XDICTIONARY
360
2E8B
102
}
102
{ACAD_REACTORS
330
2C3A
102
}
330
2C3A
100
AcDbVisualStyle
  2
Shaded
 70
    27
177
     2
291
     0
 71
     2
176
     1
 72
     2
176
     1
 73
     1
176
     1
 90
        2
176
     1
 40
0.6
176
     1
 41
30.0
176
     1
 63
     7
421
 16777215
176
     1
 74
     0
176
     1
 91
        4
176
     1
 64
     7
176
     1
 65
   257
176
     1
 75
     1
176
     1
175
     1
176
     1
 42
1.0
176
     1
 92
        8
176
     1
 66
   257
176
     1
 43
1.0
176
     1
 76
     1
176
     1
 77
     6
176
     1
 78
     2
176
     1
 67
     8
425
  7895160
176
     1
 79
     3
176
     1
170
     0
176
     1
171
     0
176
     1
290
     0
176
     1
 93
        5
176
     1
 44
0.0
176
     1
173
     0
176
     1
1001
ACAD
1000
AcDbSavedByObjectVersion
1070
     0
  0
VISUALSTYLE
  5
2C4E
102
{ACAD_XDICTIONARY
360
2E89
102
}
102
{ACAD_REACTORS
330
2C3A
102
}
330
2C3A
100
AcDbVisualStyle
  2
Shaded with edges
 70
    26
177
     2
291
     0
 71
     2
176
     1
 72
     2
176
     1
 73
     1
176
     1
 90
        2
176
     1
 40
0.6
176
     1
 41
30.0
176
     1
 63
     7
421
 16777215
176
     1
 74
     1
176
     1
 91
        2
176
     1
 64
     7
176
     1
 65
   257
176
     1
 75
     2
176
     1
175
     1
176
     1
 42
1.0
176
     1
 92
        8
176
     1
 66
   257
176
     1
 43
1.0
176
     1
 76
     1
176
     1
 77
     6
176
     1
 78
     2
176
     1
 67
     7
176
     1
 79
     3
176
     1
170
     0
176
     1
171
     0
176
     1
290
     0
176
     1
 93
        5
176
     1
 44
0.0
176
     1
173
     0
176
     1
1001
ACAD
1000
AcDbSavedByObjectVersion
1070
     0
  0
VISUALSTYLE
  5
2C4B
102
{ACAD_XDICTIONARY
360
2E83
102
}
102
{ACAD_REACTORS
330
2C3A
102
}
330
2C3A
100
AcDbVisualStyle
  2
Shades of Gray
 70
    23
177
     2
291
     0
 71
     2
176
     1
 72
     2
176
     1
 73
     3
176
     1
 90
        0
176
     1
 40
0.6
176
     1
 41
30.0
176
     1
 63
     7
421
 16777215
176
     1
 74
     2
176
     1
 91
        2
176
     1
 64
     7
176
     1
 65
     7
176
     1
 75
     1
176
     1
175
     1
176
     1
 42
40.0
176
     1
 92
        8
176
     1
 66
     7
176
     1
 43
1.0
176
     1
 76
     1
176
     1
 77
     6
176
     1
 78
     2
176
     1
 67
     7
176
     1
 79
     3
176
     1
170
     0
176
     1
171
     0
176
     1
290
     0
176
     1
 93
        1
176
     1
 44
0.0
176
     1
173
     0
176
     1
1001
ACAD
1000
AcDbSavedByObjectVersion
1070
     0
  0
VISUALSTYLE
  5
2C4C
102
{ACAD_XDICTIONARY
360
2E85
102
}
102
{ACAD_REACTORS
330
2C3A
102
}
330
2C3A
100
AcDbVisualStyle
  2
Sketchy
 70
    24
177
     2
291
     0
 71
     1
176
     1
 72
     2
176
     1
 73
     2
176
     1
 90
        0
176
     1
 40
0.6
176
     1
 41
30.0
176
     1
 63
     7
421
 16777215
176
     1
 74
     2
176
     1
 91
        2
176
     1
 64
     7
176
     1
 65
     7
176
     1
 75
     1
176
     1
175
     1
176
     1
 42
40.0
176
     1
 92
       11
176
     1
 66
     7
176
     1
 43
1.0
176
     1
 76
     1
176
     1
 77
     6
176
     1
 78
     2
176
     1
 67
     7
176
     1
 79
     6
176
     1
170
     0
176
     1
171
     0
176
     1
290
     0
176
     1
 93
        1
176
     1
 44
0.0
176
     1
173
     0
176
     1
1001
ACAD
1000
AcDbSavedByObjectVersion
1070
     0
  0
VISUALSTYLE
  5
2C47
102
{ACAD_XDICTIONARY
360
2E7B
102
}
102
{ACAD_REACTORS
330
2C3A
102
}
330
2C3A
100
AcDbVisualStyle
  2
Thicken
 70
    13
177
     2
291
     1
 71
     2
176
     1
 72
     2
176
     1
 73
     0
176
     1
 90
        0
176
     1
 40
0.6
176
     1
 41
30.0
176
     1
 63
     7
421
 16777215
176
     1
 74
     1
176
     1
 91
        4
176
     1
 64
     7
176
     1
 65
   257
176
     1
 75
     1
176
     1
175
     1
176
     1
 42
1.0
176
     1
 92
       12
176
     1
 66
     7
176
     1
 43
1.0
176
     1
 76
     1
176
     1
 77
     6
176
     1
 78
     2
176
     1
 67
     7
176
     1
 79
     5
176
     1
170
     0
176
     1
171
     0
176
     1
290
     0
176
     1
 93
        1
176
     1
 44
0.0
176
     1
173
     0
176
     1
1001
ACAD
1000
AcDbSavedByObjectVersion
1070
     0
  0
VISUALSTYLE
  5
2C41
102
{ACAD_XDICTIONARY
360
2E6F
102
}
102
{ACAD_REACTORS
330
2C3A
102
}
330
2C3A
100
AcDbVisualStyle
  2
Wireframe
 70
     5
177
     2
291
     0
 71
     0
176
     1
 72
     2
176
     1
 73
     0
176
     1
 90
        0
176
     1
 40
0.6
176
     1
 41
30.0
176
     1
 63
     7
421
 16777215
176
     1
 74
     1
176
     1
 91
        4
176
     1
 64
     7
176
     1
 65
   257
176
     1
 75
     1
176
     1
175
     1
176
     1
 42
1.0
176
     1
 92
        0
176
     1
 66
   257
176
     1
 43
1.0
176
     1
 76
     1
176
     1
 77
     6
176
     1
 78
     2
176
     1
 67
     7
176
     1
 79
     3
176
     1
170
     0
176
     1
171
     0
176
     1
290
     0
176
     1
 93
        1
176
     1
 44
0.0
176
     1
173
     0
176
     1
1001
ACAD
1000
AcDbSavedByObjectVersion
1070
     0
  0
VISUALSTYLE
  5
2C4D
102
{ACAD_XDICTIONARY
360
2E87
102
}
102
{ACAD_REACTORS
330
2C3A
102
}
330
2C3A
100
AcDbVisualStyle
  2
X-Ray
 70
    25
177
     2
291
     0
 71
     2
176
     1
 72
     2
176
     1
 73
     1
176
     1
 90
        1
176
     1
 40
0.5
176
     1
 41
30.0
176
     1
 63
     7
421
 16777215
176
     1
 74
     1
176
     1
 91
        0
176
     1
 64
     7
176
     1
 65
   257
176
     1
 75
     1
176
     1
175
     1
176
     1
 42
1.0
176
     1
 92
        8
176
     1
 66
     7
176
     1
 43
1.0
176
     1
 76
     1
176
     1
 77
     6
176
     1
 78
     2
176
     1
 67
     7
176
     1
 79
     3
176
     1
170
     0
176
     1
171
     0
176
     1
290
     0
176
     1
 93
       13
176
     1
 44
0.0
176
     1
173
     0
176
     1
1001
ACAD
1000
AcDbSavedByObjectVersion
1070
     0
  0
DICTIONARYVAR
  5
2E54
102
{ACAD_REACTORS
330
2E4E
102
}
330
2E4E
100
DictionaryVariables
280
     0
  1
1:1
  0
DICTIONARYVAR
  5
2E50
102
{ACAD_REACTORS
330
2E4E
102
}
330
2E4E
100
DictionaryVariables
280
     0
  1
STANDARD
  0
DICTIONARYVAR
  5
2E4F
102
{ACAD_REACTORS
330
2E4E
102
}
330
2E4E
100
DictionaryVariables
280
     0
  1
STANDARD
  0
DICTIONARYVAR
  5
2E51
102
{ACAD_REACTORS
330
2E4E
102
}
330
2E4E
100
DictionaryVariables
280
     0
  1
Imperial24
  0
DICTIONARYVAR
  5
2E52
102
{ACAD_REACTORS
330
2E4E
102
}
330
2E4E
100
DictionaryVariables
280
     0
  1
Imperial24
  0
DICTIONARYVAR
  5
2E56
102
{ACAD_REACTORS
330
2E4E
102
}
330
2E4E
100
DictionaryVariables
280
     0
  1
1
  0
DICTIONARYVAR
  5
2E57
102
{ACAD_REACTORS
330
2E4E
102
}
330
2E4E
100
DictionaryVariables
280
     0
  1
15
  0
DICTIONARYVAR
  5
2E55
102
{ACAD_REACTORS
330
2E4E
102
}
330
2E4E
100
DictionaryVariables
280
     0
  1
0
  0
DICTIONARYVAR
  5
2E53
102
{ACAD_REACTORS
330
2E4E
102
}
330
2E4E
100
DictionaryVariables
280
     0
  1
0
  0
DICTIONARY
  5
2E62
102
{ACAD_REACTORS
330
2E60
102
}
330
2E60
100
AcDbDictionary
281
     1
  0
DICTIONARY
  5
2E61
102
{ACAD_REACTORS
330
2E60
102
}
330
2E60
100
AcDbDictionary
281
     1
  3
2129136712112
350
2E5B
  3
2129136712128
350
2E5C
  3
2129136712144
350
2E5D
  3
2129136712160
350
2E5E
  3
2129136712176
350
2E5F
  0
DICTIONARY
  5
2D70
102
{ACAD_REACTORS
330
2D67
102
}
330
2D67
100
AcDbDictionary
281
     1
  0
DICTIONARY
  5
2E95
330
2C7B
100
AcDbDictionary
280
     1
281
     1
  3
ACAD_XREC_ROUNDTRIP
360
2E96
  0
DICTIONARY
  5
2C2B
330
2C2A
100
AcDbDictionary
280
     1
281
     1
  3
BUMPTILE
360
2C2D
  3
DIFFUSETILE
360
2C2C
  3
OPACITYTILE
360
2C30
  3
REFLECTIONTILE
360
2C2F
  3
REFRACTIONTILE
360
2C31
  3
SPECULARTILE
360
2C2E
  0
DICTIONARY
  5
2C23
330
2C22
100
AcDbDictionary
280
     1
281
     1
  3
BUMPTILE
360
2C25
  3
DIFFUSETILE
360
2C24
  3
OPACITYTILE
360
2C28
  3
REFLECTIONTILE
360
2C27
  3
REFRACTIONTILE
360
2C29
  3
SPECULARTILE
360
2C26
  0
DICTIONARY
  5
2C33
330
2C32
100
AcDbDictionary
280
     1
281
     1
  3
BUMPTILE
360
2C35
  3
DIFFUSETILE
360
2C34
  3
OPACITYTILE
360
2C38
  3
REFLECTIONTILE
360
2C37
  3
REFRACTIONTILE
360
2C39
  3
SPECULARTILE
360
2C36
  0
DICTIONARY
  5
2E93
330
2C79
100
AcDbDictionary
280
     1
281
     1
  3
ACAD_XREC_ROUNDTRIP
360
2E94
  0
DICTIONARY
  5
2E58
330
2C75
100
AcDbDictionary
280
     1
281
     1
  3
ACAD_ROUNDTRIP_2008_TABLESTYLE_CELLSTYLEMAP
360
2E59
  0
DICTIONARY
  5
2E6D
330
2C40
100
AcDbDictionary
280
     1
281
     1
  3
ACAD_XREC_ROUNDTRIP
360
2E6E
  0
DICTIONARY
  5
2E6B
330
2C3F
100
AcDbDictionary
280
     1
281
     1
  3
ACAD_XREC_ROUNDTRIP
360
2E6C
  0
DICTIONARY
  5
2E79
330
2C46
100
AcDbDictionary
280
     1
281
     1
  3
ACAD_XREC_ROUNDTRIP
360
2E7A
  0
DICTIONARY
  5
2E81
330
2C4A
100
AcDbDictionary
280
     1
281
     1
  3
ACAD_XREC_ROUNDTRIP
360
2E82
  0
DICTIONARY
  5
2E73
330
2C43
100
AcDbDictionary
280
     1
281
     1
  3
ACAD_XREC_ROUNDTRIP
360
2E74
  0
DICTIONARY
  5
2E77
330
2C45
100
AcDbDictionary
280
     1
281
     1
  3
ACAD_XREC_ROUNDTRIP
360
2E78
  0
DICTIONARY
  5
2E91
330
2C52
100
AcDbDictionary
280
     1
281
     1
  3
ACAD_XREC_ROUNDTRIP
360
2E92
  0
DICTIONARY
  5
2E7F
330
2C49
100
AcDbDictionary
280
     1
281
     1
  3
ACAD_XREC_ROUNDTRIP
360
2E80
  0
DICTIONARY
  5
2E63
330
2C3B
100
AcDbDictionary
280
     1
281
     1
  3
ACAD_XREC_ROUNDTRIP
360
2E64
  0
DICTIONARY
  5
2E65
330
2C3C
100
AcDbDictionary
280
     1
281
     1
  3
ACAD_XREC_ROUNDTRIP
360
2E66
  0
DICTIONARY
  5
2E67
330
2C3D
100
AcDbDictionary
280
     1
281
     1
  3
ACAD_XREC_ROUNDTRIP
360
2E68
  0
DICTIONARY
  5
2E69
330
2C3E
100
AcDbDictionary
280
     1
281
     1
  3
ACAD_XREC_ROUNDTRIP
360
2E6A
  0
DICTIONARY
  5
2E71
330
2C42
100
AcDbDictionary
280
     1
281
     1
  3
ACAD_XREC_ROUNDTRIP
360
2E72
  0
DICTIONARY
  5
2E8D
330
2C50
100
AcDbDictionary
280
     1
281
     1
  3
ACAD_XREC_ROUNDTRIP
360
2E8E
  0
DICTIONARY
  5
2E7D
330
2C48
100
AcDbDictionary
280
     1
281
     1
  3
ACAD_XREC_ROUNDTRIP
360
2E7E
  0
DICTIONARY
  5
2E8F
330
2C51
100
AcDbDictionary
280
     1
281
     1
  3
ACAD_XREC_ROUNDTRIP
360
2E90
  0
DICTIONARY
  5
2E75
330
2C44
100
AcDbDictionary
280
     1
281
     1
  3
ACAD_XREC_ROUNDTRIP
360
2E76
  0
DICTIONARY
  5
2E8B
330
2C4F
100
AcDbDictionary
280
     1
281
     1
  3
ACAD_XREC_ROUNDTRIP
360
2E8C
  0
DICTIONARY
  5
2E89
330
2C4E
100
AcDbDictionary
280
     1
281
     1
  3
ACAD_XREC_ROUNDTRIP
360
2E8A
  0
DICTIONARY
  5
2E83
330
2C4B
100
AcDbDictionary
280
     1
281
     1
  3
ACAD_XREC_ROUNDTRIP
360
2E84
  0
DICTIONARY
  5
2E85
330
2C4C
100
AcDbDictionary
280
     1
281
     1
  3
ACAD_XREC_ROUNDTRIP
360
2E86
  0
DICTIONARY
  5
2E7B
330
2C47
100
AcDbDictionary
280
     1
281
     1
  3
ACAD_XREC_ROUNDTRIP
360
2E7C
  0
DICTIONARY
  5
2E6F
330
2C41
100
AcDbDictionary
280
     1
281
     1
  3
ACAD_XREC_ROUNDTRIP
360
2E70
  0
DICTIONARY
  5
2E87
330
2C4D
100
AcDbDictionary
280
     1
281
     1
  3
ACAD_XREC_ROUNDTRIP
360
2E88
  0
XRECORD
  5
2E5B
102
{ACAD_REACTORS
330
2E61
102
}
330
2E61
100
AcDbXrecord
280
     1
  1
AcDb_Thumbnail_Schema
102
{ATTRRECORD
341
2E5C
  2
AcDbDs::TreatedAsObjectData
280
     1
291
     1
102
ATTRRECORD}
102
{ATTRRECORD
341
2E5D
  2
AcDbDs::Legacy
280
     1
291
     1
102
ATTRRECORD}
  2
AcDbDs::ID
280
    10
 91
        8
102
{ATTRRECORD
341
2E5E
  2
AcDs:Indexable
280
     1
291
     1
102
ATTRRECORD}
102
{ATTRRECORD
341
2E5F
  2
AcDbDs::HandleAttribute
280
     7
282
     1
102
ATTRRECORD}
  2
Thumbnail_Data
280
    15
 91
        0
  0
XRECORD
  5
2E5C
102
{ACAD_REACTORS
330
2E61
102
}
330
2E61
100
AcDbXrecord
280
     1
  1
AcDbDs::TreatedAsObjectDataSchema
  2
AcDbDs::TreatedAsObjectData
280
     1
 91
        0
  0
XRECORD
  5
2E5D
102
{ACAD_REACTORS
330
2E61
102
}
330
2E61
100
AcDbXrecord
280
     1
  1
AcDbDs::LegacySchema
  2
AcDbDs::Legacy
280
     1
 91
        0
  0
XRECORD
  5
2E5E
102
{ACAD_REACTORS
330
2E61
102
}
330
2E61
100
AcDbXrecord
280
     1
  1
AcDbDs::IndexedPropertySchema
  2
AcDs:Indexable
280
     1
 91
        0
  0
XRECORD
  5
2E5F
102
{ACAD_REACTORS
330
2E61
102
}
330
2E61
100
AcDbXrecord
280
     1
  1
AcDbDs::HandleAttributeSchema
  2
AcDbDs::HandleAttribute
280
     7
 91
        1
284
     1
  0
XRECORD
  5
2E96
102
{ACAD_REACTORS
330
2E95
102
}
330
2E95
100
AcDbXrecord
280
     1
102
DISPLAYNAME
  1
Imperial24
102
FLAGS
 90
        0
  0
XRECORD
  5
2C2D
102
{ACAD_REACTORS
330
2C2B
102
}
330
2C2B
100
AcDbXrecord
280
     1
270
     1
271
     1
  0
XRECORD
  5
2C2C
102
{ACAD_REACTORS
330
2C2B
102
}
330
2C2B
100
AcDbXrecord
280
     1
270
     1
271
     1
  0
XRECORD
  5
2C30
102
{ACAD_REACTORS
330
2C2B
102
}
330
2C2B
100
AcDbXrecord
280
     1
270
     1
271
     1
  0
XRECORD
  5
2C2F
102
{ACAD_REACTORS
330
2C2B
102
}
330
2C2B
100
AcDbXrecord
280
     1
270
     1
271
     1
  0
XRECORD
  5
2C31
102
{ACAD_REACTORS
330
2C2B
102
}
330
2C2B
100
AcDbXrecord
280
     1
270
     1
271
     1
  0
XRECORD
  5
2C2E
102
{ACAD_REACTORS
330
2C2B
102
}
330
2C2B
100
AcDbXrecord
280
     1
270
     1
271
     1
  0
XRECORD
  5
2C25
102
{ACAD_REACTORS
330
2C23
102
}
330
2C23
100
AcDbXrecord
280
     1
270
     1
271
     1
  0
XRECORD
  5
2C24
102
{ACAD_REACTORS
330
2C23
102
}
330
2C23
100
AcDbXrecord
280
     1
270
     1
271
     1
  0
XRECORD
  5
2C28
102
{ACAD_REACTORS
330
2C23
102
}
330
2C23
100
AcDbXrecord
280
     1
270
     1
271
     1
  0
XRECORD
  5
2C27
102
{ACAD_REACTORS
330
2C23
102
}
330
2C23
100
AcDbXrecord
280
     1
270
     1
271
     1
  0
XRECORD
  5
2C29
102
{ACAD_REACTORS
330
2C23
102
}
330
2C23
100
AcDbXrecord
280
     1
270
     1
271
     1
  0
XRECORD
  5
2C26
102
{ACAD_REACTORS
330
2C23
102
}
330
2C23
100
AcDbXrecord
280
     1
270
     1
271
     1
  0
XRECORD
  5
2C35
102
{ACAD_REACTORS
330
2C33
102
}
330
2C33
100
AcDbXrecord
280
     1
270
     1
271
     1
  0
XRECORD
  5
2C34
102
{ACAD_REACTORS
330
2C33
102
}
330
2C33
100
AcDbXrecord
280
     1
270
     1
271
     1
  0
XRECORD
  5
2C38
102
{ACAD_REACTORS
330
2C33
102
}
330
2C33
100
AcDbXrecord
280
     1
270
     1
271
     1
  0
XRECORD
  5
2C37
102
{ACAD_REACTORS
330
2C33
102
}
330
2C33
100
AcDbXrecord
280
     1
270
     1
271
     1
  0
XRECORD
  5
2C39
102
{ACAD_REACTORS
330
2C33
102
}
330
2C33
100
AcDbXrecord
280
     1
270
     1
271
     1
  0
XRECORD
  5
2C36
102
{ACAD_REACTORS
330
2C33
102
}
330
2C33
100
AcDbXrecord
280
     1
270
     1
271
     1
  0
XRECORD
  5
2E94
102
{ACAD_REACTORS
330
2E93
102
}
330
2E93
100
AcDbXrecord
280
     1
102
DISPLAYNAME
  1
Imperial24
102
FLAGS
 90
        0
  0
CELLSTYLEMAP
  5
2E59
102
{ACAD_REACTORS
330
2E58
102
}
330
2E58
100
AcDbCellStyleMap
 90
        3
300
CELLSTYLE
  1
TABLEFORMAT_BEGIN
 90
        5
170
     1
 91
        0
 92
    32768
 62
   257
 93
        1
300
CONTENTFORMAT
  1
CONTENTFORMAT_BEGIN
 90
        0
 91
        0
 92
      512
 93
        0
300

 40
0.0
140
1.0
 94
        5
 62
     0
340
2C66
144
0.25
309
CONTENTFORMAT_END
171
     0
 94
        0
309
TABLEFORMAT_END
  1
CELLSTYLE_BEGIN
 90
        1
 91
        1
300
_TITLE
309
CELLSTYLE_END
300
CELLSTYLE
  1
TABLEFORMAT_BEGIN
 90
        5
170
     1
 91
        0
 92
        0
 62
   257
 93
        1
300
CONTENTFORMAT
  1
CONTENTFORMAT_BEGIN
 90
        0
 91
        0
 92
      512
 93
        0
300

 40
0.0
140
1.0
 94
        5
 62
     0
340
2C66
144
0.18
309
CONTENTFORMAT_END
171
     0
 94
        0
309
TABLEFORMAT_END
  1
CELLSTYLE_BEGIN
 90
        2
 91
        1
300
_HEADER
309
CELLSTYLE_END
300
CELLSTYLE
  1
TABLEFORMAT_BEGIN
 90
        5
170
     1
 91
        0
 92
        0
 62
   257
 93
        1
300
CONTENTFORMAT
  1
CONTENTFORMAT_BEGIN
 90
        0
 91
        0
 92
      512
 93
        0
300

 40
0.0
140
1.0
 94
        2
 62
     0
340
2C66
144
0.18
309
CONTENTFORMAT_END
171
     0
 94
        0
309
TABLEFORMAT_END
  1
CELLSTYLE_BEGIN
 90
        3
 91
        2
300
_DATA
309
CELLSTYLE_END
  0
XRECORD
  5
2E6E
102
{ACAD_REACTORS
330
2E6D
102
}
330
2E6D
100
AcDbXrecord
280
     1
102
RTVSPost2010Prop28
280
     1
102
RTVSPost2010PropOp28
 70
     1
102
RTVSPost2010Prop29
280
     1
102
RTVSPost2010PropOp29
 70
     1
102
RTVSPost2010Prop30
280
     0
102
RTVSPost2010PropOp30
 70
     1
102
RTVSPost2010Prop31
280
     0
102
RTVSPost2010PropOp31
 70
     1
102
RTVSPost2010Prop32
280
     0
102
RTVSPost2010PropOp32
 70
     1
102
RTVSPost2010Prop33
280
     0
102
RTVSPost2010PropOp33
 70
     1
102
RTVSPost2010Prop34
280
     0
102
RTVSPost2010PropOp34
 70
     1
102
RTVSPost2010Prop35
280
     0
102
RTVSPost2010PropOp35
 70
     1
102
RTVSPost2010Prop36
280
     0
102
RTVSPost2010PropOp36
 70
     1
102
RTVSPost2010Prop37
 90
       50
102
RTVSPost2010PropOp37
 70
     1
102
RTVSPost2010Prop38
140
0.0
102
RTVSPost2010PropOp38
 70
     1
102
RTVSPost2010Prop39
140
1.0
102
RTVSPost2010PropOp39
 70
     1
102
RTVSPost2010Prop40
 90
        0
102
RTVSPost2010PropOp40
 70
     1
102
RTVSPost2010Prop41ColorIndex
 90
       18
102
RTVSPost2010Prop41ColorRGB
 90
        0
102
RTVSPost2010PropOp41
 70
     1
102
RTVSPost2010Prop42
 90
       50
102
RTVSPost2010PropOp42
 70
     1
102
RTVSPost2010Prop43
 90
        3
102
RTVSPost2010PropOp43
 70
     1
102
RTVSPost2010Prop44ColorIndex
 90
        5
102
RTVSPost2010Prop44ColorRGB
 90
      255
102
RTVSPost2010PropOp44
 70
     1
102
RTVSPost2010Prop45
280
     0
102
RTVSPost2010PropOp45
 70
     1
102
RTVSPost2010Prop46
 90
       50
102
RTVSPost2010PropOp46
 70
     1
102
RTVSPost2010Prop47
 90
       50
102
RTVSPost2010PropOp47
 70
     1
102
RTVSPost2010Prop48
 90
       50
102
RTVSPost2010PropOp48
 70
     1
102
RTVSPost2010Prop49
280
     0
102
RTVSPost2010PropOp49
 70
     1
102
RTVSPost2010Prop50
 90
       50
102
RTVSPost2010PropOp50
 70
     1
102
RTVSPost2010Prop51ColorIndex
 90
      256
102
RTVSPost2010Prop51ColorRGB
 90
-16777216
102
RTVSPost2010PropOp51
 70
     0
102
RTVSPost2010Prop52
140
1.0
102
RTVSPost2010PropOp52
 70
     0
102
RTVSPost2010Prop53
 90
        2
102
RTVSPost2010PropOp53
 70
     1
102
RTVSPost2010Prop54
  1
strokes_ogs.tif
102
RTVSPost2010PropOp54
 70
     1
102
RTVSPost2010Prop55
280
     0
102
RTVSPost2010PropOp55
 70
     1
102
RTVSPost2010Prop56
140
1.0
102
RTVSPost2010PropOp56
 70
     1
102
RTVSPost2010Prop57
140
1.0
102
RTVSPost2010PropOp57
 70
     1
  0
XRECORD
  5
2E6C
102
{ACAD_REACTORS
330
2E6B
102
}
330
2E6B
100
AcDbXrecord
280
     1
102
RTVSPost2010Prop28
280
     0
102
RTVSPost2010PropOp28
 70
     1
102
RTVSPost2010Prop29
280
     1
102
RTVSPost2010PropOp29
 70
     1
102
RTVSPost2010Prop30
280
     1
102
RTVSPost2010PropOp30
 70
     1
102
RTVSPost2010Prop31
280
     0
102
RTVSPost2010PropOp31
 70
     1
102
RTVSPost2010Prop32
280
     0
102
RTVSPost2010PropOp32
 70
     1
102
RTVSPost2010Prop33
280
     0
102
RTVSPost2010PropOp33
 70
     1
102
RTVSPost2010Prop34
280
     0
102
RTVSPost2010PropOp34
 70
     1
102
RTVSPost2010Prop35
280
     0
102
RTVSPost2010PropOp35
 70
     1
102
RTVSPost2010Prop36
280
     0
102
RTVSPost2010PropOp36
 70
     1
102
RTVSPost2010Prop37
 90
       50
102
RTVSPost2010PropOp37
 70
     1
102
RTVSPost2010Prop38
140
0.0
102
RTVSPost2010PropOp38
 70
     1
102
RTVSPost2010Prop39
140
1.0
102
RTVSPost2010PropOp39
 70
     1
102
RTVSPost2010Prop40
 90
        0
102
RTVSPost2010PropOp40
 70
     1
102
RTVSPost2010Prop41ColorIndex
 90
       18
102
RTVSPost2010Prop41ColorRGB
 90
        0
102
RTVSPost2010PropOp41
 70
     1
102
RTVSPost2010Prop42
 90
       50
102
RTVSPost2010PropOp42
 70
     1
102
RTVSPost2010Prop43
 90
        3
102
RTVSPost2010PropOp43
 70
     1
102
RTVSPost2010Prop44ColorIndex
 90
        5
102
RTVSPost2010Prop44ColorRGB
 90
      255
102
RTVSPost2010PropOp44
 70
     1
102
RTVSPost2010Prop45
280
     0
102
RTVSPost2010PropOp45
 70
     1
102
RTVSPost2010Prop46
 90
       50
102
RTVSPost2010PropOp46
 70
     1
102
RTVSPost2010Prop47
 90
       50
102
RTVSPost2010PropOp47
 70
     1
102
RTVSPost2010Prop48
 90
       50
102
RTVSPost2010PropOp48
 70
     1
102
RTVSPost2010Prop49
280
     0
102
RTVSPost2010PropOp49
 70
     1
102
RTVSPost2010Prop50
 90
       50
102
RTVSPost2010PropOp50
 70
     1
102
RTVSPost2010Prop51ColorIndex
 90
      256
102
RTVSPost2010Prop51ColorRGB
 90
-16777216
102
RTVSPost2010PropOp51
 70
     0
102
RTVSPost2010Prop52
140
1.0
102
RTVSPost2010PropOp52
 70
     0
102
RTVSPost2010Prop53
 90
        2
102
RTVSPost2010PropOp53
 70
     1
102
RTVSPost2010Prop54
  1
strokes_ogs.tif
102
RTVSPost2010PropOp54
 70
     1
102
RTVSPost2010Prop55
280
     0
102
RTVSPost2010PropOp55
 70
     1
102
RTVSPost2010Prop56
140
1.0
102
RTVSPost2010PropOp56
 70
     1
102
RTVSPost2010Prop57
140
1.0
102
RTVSPost2010PropOp57
 70
     1
  0
XRECORD
  5
2E7A
102
{ACAD_REACTORS
330
2E79
102
}
330
2E79
100
AcDbXrecord
280
     1
102
RTVSPost2010Prop28
280
     0
102
RTVSPost2010PropOp28
 70
     1
102
RTVSPost2010Prop29
280
     1
102
RTVSPost2010PropOp29
 70
     1
102
RTVSPost2010Prop30
280
     1
102
RTVSPost2010PropOp30
 70
     1
102
RTVSPost2010Prop31
280
     0
102
RTVSPost2010PropOp31
 70
     1
102
RTVSPost2010Prop32
280
     0
102
RTVSPost2010PropOp32
 70
     1
102
RTVSPost2010Prop33
280
     0
102
RTVSPost2010PropOp33
 70
     1
102
RTVSPost2010Prop34
280
     0
102
RTVSPost2010PropOp34
 70
     1
102
RTVSPost2010Prop35
280
     0
102
RTVSPost2010PropOp35
 70
     1
102
RTVSPost2010Prop36
280
     0
102
RTVSPost2010PropOp36
 70
     1
102
RTVSPost2010Prop37
 90
       50
102
RTVSPost2010PropOp37
 70
     1
102
RTVSPost2010Prop38
140
0.0
102
RTVSPost2010PropOp38
 70
     1
102
RTVSPost2010Prop39
140
1.0
102
RTVSPost2010PropOp39
 70
     1
102
RTVSPost2010Prop40
 90
        0
102
RTVSPost2010PropOp40
 70
     1
102
RTVSPost2010Prop41ColorIndex
 90
       18
102
RTVSPost2010Prop41ColorRGB
 90
        0
102
RTVSPost2010PropOp41
 70
     1
102
RTVSPost2010Prop42
 90
       50
102
RTVSPost2010PropOp42
 70
     1
102
RTVSPost2010Prop43
 90
        3
102
RTVSPost2010PropOp43
 70
     1
102
RTVSPost2010Prop44ColorIndex
 90
        5
102
RTVSPost2010Prop44ColorRGB
 90
      255
102
RTVSPost2010PropOp44
 70
     1
102
RTVSPost2010Prop45
280
     0
102
RTVSPost2010PropOp45
 70
     1
102
RTVSPost2010Prop46
 90
       50
102
RTVSPost2010PropOp46
 70
     1
102
RTVSPost2010Prop47
 90
       50
102
RTVSPost2010PropOp47
 70
     1
102
RTVSPost2010Prop48
 90
       50
102
RTVSPost2010PropOp48
 70
     1
102
RTVSPost2010Prop49
280
     0
102
RTVSPost2010PropOp49
 70
     1
102
RTVSPost2010Prop50
 90
       50
102
RTVSPost2010PropOp50
 70
     1
102
RTVSPost2010Prop51ColorIndex
 90
      256
102
RTVSPost2010Prop51ColorRGB
 90
-16777216
102
RTVSPost2010PropOp51
 70
     0
102
RTVSPost2010Prop52
140
1.0
102
RTVSPost2010PropOp52
 70
     0
102
RTVSPost2010Prop53
 90
        2
102
RTVSPost2010PropOp53
 70
     1
102
RTVSPost2010Prop54
  1
strokes_ogs.tif
102
RTVSPost2010PropOp54
 70
     1
102
RTVSPost2010Prop55
280
     0
102
RTVSPost2010PropOp55
 70
     1
102
RTVSPost2010Prop56
140
1.0
102
RTVSPost2010PropOp56
 70
     1
102
RTVSPost2010Prop57
140
1.0
102
RTVSPost2010PropOp57
 70
     1
  0
XRECORD
  5
2E82
102
{ACAD_REACTORS
330
2E81
102
}
330
2E81
100
AcDbXrecord
280
     1
102
RTVSPost2010Prop28
280
     0
102
RTVSPost2010PropOp28
 70
     1
102
RTVSPost2010Prop29
280
     1
102
RTVSPost2010PropOp29
 70
     1
102
RTVSPost2010Prop30
280
     1
102
RTVSPost2010PropOp30
 70
     1
102
RTVSPost2010Prop31
280
     0
102
RTVSPost2010PropOp31
 70
     1
102
RTVSPost2010Prop32
280
     0
102
RTVSPost2010PropOp32
 70
     1
102
RTVSPost2010Prop33
280
     0
102
RTVSPost2010PropOp33
 70
     1
102
RTVSPost2010Prop34
280
     0
102
RTVSPost2010PropOp34
 70
     1
102
RTVSPost2010Prop35
280
     0
102
RTVSPost2010PropOp35
 70
     1
102
RTVSPost2010Prop36
280
     0
102
RTVSPost2010PropOp36
 70
     1
102
RTVSPost2010Prop37
 90
       50
102
RTVSPost2010PropOp37
 70
     1
102
RTVSPost2010Prop38
140
0.0
102
RTVSPost2010PropOp38
 70
     1
102
RTVSPost2010Prop39
140
1.0
102
RTVSPost2010PropOp39
 70
     1
102
RTVSPost2010Prop40
 90
        0
102
RTVSPost2010PropOp40
 70
     1
102
RTVSPost2010Prop41ColorIndex
 90
       18
102
RTVSPost2010Prop41ColorRGB
 90
        0
102
RTVSPost2010PropOp41
 70
     1
102
RTVSPost2010Prop42
 90
       50
102
RTVSPost2010PropOp42
 70
     1
102
RTVSPost2010Prop43
 90
        3
102
RTVSPost2010PropOp43
 70
     1
102
RTVSPost2010Prop44ColorIndex
 90
        5
102
RTVSPost2010Prop44ColorRGB
 90
      255
102
RTVSPost2010PropOp44
 70
     1
102
RTVSPost2010Prop45
280
     0
102
RTVSPost2010PropOp45
 70
     1
102
RTVSPost2010Prop46
 90
       50
102
RTVSPost2010PropOp46
 70
     1
102
RTVSPost2010Prop47
 90
       50
102
RTVSPost2010PropOp47
 70
     1
102
RTVSPost2010Prop48
 90
       50
102
RTVSPost2010PropOp48
 70
     1
102
RTVSPost2010Prop49
280
     0
102
RTVSPost2010PropOp49
 70
     1
102
RTVSPost2010Prop50
 90
       50
102
RTVSPost2010PropOp50
 70
     1
102
RTVSPost2010Prop51ColorIndex
 90
      256
102
RTVSPost2010Prop51ColorRGB
 90
-16777216
102
RTVSPost2010PropOp51
 70
     0
102
RTVSPost2010Prop52
140
1.0
102
RTVSPost2010PropOp52
 70
     0
102
RTVSPost2010Prop53
 90
        2
102
RTVSPost2010PropOp53
 70
     1
102
RTVSPost2010Prop54
  1
strokes_ogs.tif
102
RTVSPost2010PropOp54
 70
     1
102
RTVSPost2010Prop55
280
     0
102
RTVSPost2010PropOp55
 70
     1
102
RTVSPost2010Prop56
140
1.0
102
RTVSPost2010PropOp56
 70
     1
102
RTVSPost2010Prop57
140
1.0
102
RTVSPost2010PropOp57
 70
     1
  0
XRECORD
  5
2E74
102
{ACAD_REACTORS
330
2E73
102
}
330
2E73
100
AcDbXrecord
280
     1
102
RTVSPost2010Prop28
280
     0
102
RTVSPost2010PropOp28
 70
     1
102
RTVSPost2010Prop29
280
     1
102
RTVSPost2010PropOp29
 70
     1
102
RTVSPost2010Prop30
280
     1
102
RTVSPost2010PropOp30
 70
     1
102
RTVSPost2010Prop31
280
     0
102
RTVSPost2010PropOp31
 70
     1
102
RTVSPost2010Prop32
280
     0
102
RTVSPost2010PropOp32
 70
     1
102
RTVSPost2010Prop33
280
     0
102
RTVSPost2010PropOp33
 70
     1
102
RTVSPost2010Prop34
280
     0
102
RTVSPost2010PropOp34
 70
     1
102
RTVSPost2010Prop35
280
     0
102
RTVSPost2010PropOp35
 70
     1
102
RTVSPost2010Prop36
280
     0
102
RTVSPost2010PropOp36
 70
     1
102
RTVSPost2010Prop37
 90
       50
102
RTVSPost2010PropOp37
 70
     1
102
RTVSPost2010Prop38
140
0.0
102
RTVSPost2010PropOp38
 70
     1
102
RTVSPost2010Prop39
140
1.0
102
RTVSPost2010PropOp39
 70
     1
102
RTVSPost2010Prop40
 90
        0
102
RTVSPost2010PropOp40
 70
     1
102
RTVSPost2010Prop41ColorIndex
 90
       18
102
RTVSPost2010Prop41ColorRGB
 90
        0
102
RTVSPost2010PropOp41
 70
     1
102
RTVSPost2010Prop42
 90
       50
102
RTVSPost2010PropOp42
 70
     1
102
RTVSPost2010Prop43
 90
        3
102
RTVSPost2010PropOp43
 70
     1
102
RTVSPost2010Prop44ColorIndex
 90
        5
102
RTVSPost2010Prop44ColorRGB
 90
      255
102
RTVSPost2010PropOp44
 70
     1
102
RTVSPost2010Prop45
280
     0
102
RTVSPost2010PropOp45
 70
     1
102
RTVSPost2010Prop46
 90
       50
102
RTVSPost2010PropOp46
 70
     1
102
RTVSPost2010Prop47
 90
       50
102
RTVSPost2010PropOp47
 70
     1
102
RTVSPost2010Prop48
 90
       50
102
RTVSPost2010PropOp48
 70
     1
102
RTVSPost2010Prop49
280
     0
102
RTVSPost2010PropOp49
 70
     1
102
RTVSPost2010Prop50
 90
       50
102
RTVSPost2010PropOp50
 70
     1
102
RTVSPost2010Prop51ColorIndex
 90
      256
102
RTVSPost2010Prop51ColorRGB
 90
-16777216
102
RTVSPost2010PropOp51
 70
     0
102
RTVSPost2010Prop52
140
1.0
102
RTVSPost2010PropOp52
 70
     0
102
RTVSPost2010Prop53
 90
        2
102
RTVSPost2010PropOp53
 70
     1
102
RTVSPost2010Prop54
  1
strokes_ogs.tif
102
RTVSPost2010PropOp54
 70
     1
102
RTVSPost2010Prop55
280
     0
102
RTVSPost2010PropOp55
 70
     1
102
RTVSPost2010Prop56
140
1.0
102
RTVSPost2010PropOp56
 70
     1
102
RTVSPost2010Prop57
140
1.0
102
RTVSPost2010PropOp57
 70
     1
  0
XRECORD
  5
2E78
102
{ACAD_REACTORS
330
2E77
102
}
330
2E77
100
AcDbXrecord
280
     1
102
RTVSPost2010Prop28
280
     0
102
RTVSPost2010PropOp28
 70
     1
102
RTVSPost2010Prop29
280
     1
102
RTVSPost2010PropOp29
 70
     1
102
RTVSPost2010Prop30
280
     1
102
RTVSPost2010PropOp30
 70
     1
102
RTVSPost2010Prop31
280
     0
102
RTVSPost2010PropOp31
 70
     1
102
RTVSPost2010Prop32
280
     0
102
RTVSPost2010PropOp32
 70
     1
102
RTVSPost2010Prop33
280
     0
102
RTVSPost2010PropOp33
 70
     1
102
RTVSPost2010Prop34
280
     0
102
RTVSPost2010PropOp34
 70
     1
102
RTVSPost2010Prop35
280
     0
102
RTVSPost2010PropOp35
 70
     1
102
RTVSPost2010Prop36
280
     0
102
RTVSPost2010PropOp36
 70
     1
102
RTVSPost2010Prop37
 90
       50
102
RTVSPost2010PropOp37
 70
     1
102
RTVSPost2010Prop38
140
0.0
102
RTVSPost2010PropOp38
 70
     1
102
RTVSPost2010Prop39
140
1.0
102
RTVSPost2010PropOp39
 70
     1
102
RTVSPost2010Prop40
 90
        0
102
RTVSPost2010PropOp40
 70
     1
102
RTVSPost2010Prop41ColorIndex
 90
       18
102
RTVSPost2010Prop41ColorRGB
 90
        0
102
RTVSPost2010PropOp41
 70
     1
102
RTVSPost2010Prop42
 90
       50
102
RTVSPost2010PropOp42
 70
     1
102
RTVSPost2010Prop43
 90
        3
102
RTVSPost2010PropOp43
 70
     1
102
RTVSPost2010Prop44ColorIndex
 90
        5
102
RTVSPost2010Prop44ColorRGB
 90
      255
102
RTVSPost2010PropOp44
 70
     1
102
RTVSPost2010Prop45
280
     0
102
RTVSPost2010PropOp45
 70
     1
102
RTVSPost2010Prop46
 90
       50
102
RTVSPost2010PropOp46
 70
     1
102
RTVSPost2010Prop47
 90
       50
102
RTVSPost2010PropOp47
 70
     1
102
RTVSPost2010Prop48
 90
       50
102
RTVSPost2010PropOp48
 70
     1
102
RTVSPost2010Prop49
280
     0
102
RTVSPost2010PropOp49
 70
     1
102
RTVSPost2010Prop50
 90
       50
102
RTVSPost2010PropOp50
 70
     1
102
RTVSPost2010Prop51ColorIndex
 90
      256
102
RTVSPost2010Prop51ColorRGB
 90
-16777216
102
RTVSPost2010PropOp51
 70
     0
102
RTVSPost2010Prop52
140
1.0
102
RTVSPost2010PropOp52
 70
     0
102
RTVSPost2010Prop53
 90
        2
102
RTVSPost2010PropOp53
 70
     1
102
RTVSPost2010Prop54
  1
strokes_ogs.tif
102
RTVSPost2010PropOp54
 70
     1
102
RTVSPost2010Prop55
280
     0
102
RTVSPost2010PropOp55
 70
     1
102
RTVSPost2010Prop56
140
1.0
102
RTVSPost2010PropOp56
 70
     1
102
RTVSPost2010Prop57
140
1.0
102
RTVSPost2010PropOp57
 70
     1
  0
XRECORD
  5
2E92
102
{ACAD_REACTORS
330
2E91
102
}
330
2E91
100
AcDbXrecord
280
     1
102
RTVSPost2010Prop28
280
     0
102
RTVSPost2010PropOp28
 70
     1
102
RTVSPost2010Prop29
280
     1
102
RTVSPost2010PropOp29
 70
     1
102
RTVSPost2010Prop30
280
     1
102
RTVSPost2010PropOp30
 70
     1
102
RTVSPost2010Prop31
280
     0
102
RTVSPost2010PropOp31
 70
     1
102
RTVSPost2010Prop32
280
     0
102
RTVSPost2010PropOp32
 70
     1
102
RTVSPost2010Prop33
280
     0
102
RTVSPost2010PropOp33
 70
     1
102
RTVSPost2010Prop34
280
     0
102
RTVSPost2010PropOp34
 70
     1
102
RTVSPost2010Prop35
280
     0
102
RTVSPost2010PropOp35
 70
     1
102
RTVSPost2010Prop36
280
     0
102
RTVSPost2010PropOp36
 70
     1
102
RTVSPost2010Prop37
 90
       50
102
RTVSPost2010PropOp37
 70
     0
102
RTVSPost2010Prop38
140
0.0
102
RTVSPost2010PropOp38
 70
     0
102
RTVSPost2010Prop39
140
1.0
102
RTVSPost2010PropOp39
 70
     0
102
RTVSPost2010Prop40
 90
        0
102
RTVSPost2010PropOp40
 70
     0
102
RTVSPost2010Prop41ColorIndex
 90
       18
102
RTVSPost2010Prop41ColorRGB
 90
        0
102
RTVSPost2010PropOp41
 70
     0
102
RTVSPost2010Prop42
 90
       50
102
RTVSPost2010PropOp42
 70
     0
102
RTVSPost2010Prop43
 90
        3
102
RTVSPost2010PropOp43
 70
     0
102
RTVSPost2010Prop44ColorIndex
 90
        5
102
RTVSPost2010Prop44ColorRGB
 90
      255
102
RTVSPost2010PropOp44
 70
     0
102
RTVSPost2010Prop45
280
     0
102
RTVSPost2010PropOp45
 70
     1
102
RTVSPost2010Prop46
 90
       50
102
RTVSPost2010PropOp46
 70
     0
102
RTVSPost2010Prop47
 90
       50
102
RTVSPost2010PropOp47
 70
     0
102
RTVSPost2010Prop48
 90
       50
102
RTVSPost2010PropOp48
 70
     0
102
RTVSPost2010Prop49
280
     0
102
RTVSPost2010PropOp49
 70
     1
102
RTVSPost2010Prop50
 90
       50
102
RTVSPost2010PropOp50
 70
     0
102
RTVSPost2010Prop51ColorIndex
 90
      256
102
RTVSPost2010Prop51ColorRGB
 90
-16777216
102
RTVSPost2010PropOp51
 70
     0
102
RTVSPost2010Prop52
140
1.0
102
RTVSPost2010PropOp52
 70
     0
102
RTVSPost2010Prop53
 90
        2
102
RTVSPost2010PropOp53
 70
     0
102
RTVSPost2010Prop54
  1
strokes_ogs.tif
102
RTVSPost2010PropOp54
 70
     0
102
RTVSPost2010Prop55
280
     0
102
RTVSPost2010PropOp55
 70
     1
102
RTVSPost2010Prop56
140
1.0
102
RTVSPost2010PropOp56
 70
     0
102
RTVSPost2010Prop57
140
1.0
102
RTVSPost2010PropOp57
 70
     0
  0
XRECORD
  5
2E80
102
{ACAD_REACTORS
330
2E7F
102
}
330
2E7F
100
AcDbXrecord
280
     1
102
RTVSPost2010Prop28
280
     0
102
RTVSPost2010PropOp28
 70
     1
102
RTVSPost2010Prop29
280
     1
102
RTVSPost2010PropOp29
 70
     1
102
RTVSPost2010Prop30
280
     1
102
RTVSPost2010PropOp30
 70
     1
102
RTVSPost2010Prop31
280
     0
102
RTVSPost2010PropOp31
 70
     1
102
RTVSPost2010Prop32
280
     0
102
RTVSPost2010PropOp32
 70
     1
102
RTVSPost2010Prop33
280
     0
102
RTVSPost2010PropOp33
 70
     1
102
RTVSPost2010Prop34
280
     0
102
RTVSPost2010PropOp34
 70
     1
102
RTVSPost2010Prop35
280
     0
102
RTVSPost2010PropOp35
 70
     1
102
RTVSPost2010Prop36
280
     0
102
RTVSPost2010PropOp36
 70
     1
102
RTVSPost2010Prop37
 90
       50
102
RTVSPost2010PropOp37
 70
     1
102
RTVSPost2010Prop38
140
0.0
102
RTVSPost2010PropOp38
 70
     1
102
RTVSPost2010Prop39
140
1.0
102
RTVSPost2010PropOp39
 70
     1
102
RTVSPost2010Prop40
 90
        0
102
RTVSPost2010PropOp40
 70
     1
102
RTVSPost2010Prop41ColorIndex
 90
       18
102
RTVSPost2010Prop41ColorRGB
 90
        0
102
RTVSPost2010PropOp41
 70
     1
102
RTVSPost2010Prop42
 90
       50
102
RTVSPost2010PropOp42
 70
     1
102
RTVSPost2010Prop43
 90
        3
102
RTVSPost2010PropOp43
 70
     1
102
RTVSPost2010Prop44ColorIndex
 90
        5
102
RTVSPost2010Prop44ColorRGB
 90
      255
102
RTVSPost2010PropOp44
 70
     1
102
RTVSPost2010Prop45
280
     0
102
RTVSPost2010PropOp45
 70
     1
102
RTVSPost2010Prop46
 90
       50
102
RTVSPost2010PropOp46
 70
     1
102
RTVSPost2010Prop47
 90
       50
102
RTVSPost2010PropOp47
 70
     1
102
RTVSPost2010Prop48
 90
       50
102
RTVSPost2010PropOp48
 70
     1
102
RTVSPost2010Prop49
280
     0
102
RTVSPost2010PropOp49
 70
     1
102
RTVSPost2010Prop50
 90
       50
102
RTVSPost2010PropOp50
 70
     1
102
RTVSPost2010Prop51ColorIndex
 90
      256
102
RTVSPost2010Prop51ColorRGB
 90
-16777216
102
RTVSPost2010PropOp51
 70
     0
102
RTVSPost2010Prop52
140
1.0
102
RTVSPost2010PropOp52
 70
     0
102
RTVSPost2010Prop53
 90
        2
102
RTVSPost2010PropOp53
 70
     1
102
RTVSPost2010Prop54
  1
strokes_ogs.tif
102
RTVSPost2010PropOp54
 70
     1
102
RTVSPost2010Prop55
280
     0
102
RTVSPost2010PropOp55
 70
     1
102
RTVSPost2010Prop56
140
1.0
102
RTVSPost2010PropOp56
 70
     1
102
RTVSPost2010Prop57
140
1.0
102
RTVSPost2010PropOp57
 70
     1
  0
XRECORD
  5
2E64
102
{ACAD_REACTORS
330
2E63
102
}
330
2E63
100
AcDbXrecord
280
     1
102
RTVSPost2010Prop28
280
     0
102
RTVSPost2010PropOp28
 70
     1
102
RTVSPost2010Prop29
280
     1
102
RTVSPost2010PropOp29
 70
     1
102
RTVSPost2010Prop30
280
     1
102
RTVSPost2010PropOp30
 70
     1
102
RTVSPost2010Prop31
280
     0
102
RTVSPost2010PropOp31
 70
     1
102
RTVSPost2010Prop32
280
     0
102
RTVSPost2010PropOp32
 70
     1
102
RTVSPost2010Prop33
280
     0
102
RTVSPost2010PropOp33
 70
     1
102
RTVSPost2010Prop34
280
     0
102
RTVSPost2010PropOp34
 70
     1
102
RTVSPost2010Prop35
280
     0
102
RTVSPost2010PropOp35
 70
     1
102
RTVSPost2010Prop36
280
     0
102
RTVSPost2010PropOp36
 70
     1
102
RTVSPost2010Prop37
 90
       50
102
RTVSPost2010PropOp37
 70
     1
102
RTVSPost2010Prop38
140
0.0
102
RTVSPost2010PropOp38
 70
     1
102
RTVSPost2010Prop39
140
1.0
102
RTVSPost2010PropOp39
 70
     1
102
RTVSPost2010Prop40
 90
        0
102
RTVSPost2010PropOp40
 70
     1
102
RTVSPost2010Prop41ColorIndex
 90
       18
102
RTVSPost2010Prop41ColorRGB
 90
        0
102
RTVSPost2010PropOp41
 70
     1
102
RTVSPost2010Prop42
 90
       50
102
RTVSPost2010PropOp42
 70
     1
102
RTVSPost2010Prop43
 90
        3
102
RTVSPost2010PropOp43
 70
     1
102
RTVSPost2010Prop44ColorIndex
 90
        5
102
RTVSPost2010Prop44ColorRGB
 90
      255
102
RTVSPost2010PropOp44
 70
     1
102
RTVSPost2010Prop45
280
     0
102
RTVSPost2010PropOp45
 70
     1
102
RTVSPost2010Prop46
 90
       50
102
RTVSPost2010PropOp46
 70
     1
102
RTVSPost2010Prop47
 90
       50
102
RTVSPost2010PropOp47
 70
     1
102
RTVSPost2010Prop48
 90
       50
102
RTVSPost2010PropOp48
 70
     1
102
RTVSPost2010Prop49
280
     0
102
RTVSPost2010PropOp49
 70
     1
102
RTVSPost2010Prop50
 90
       50
102
RTVSPost2010PropOp50
 70
     1
102
RTVSPost2010Prop51ColorIndex
 90
      256
102
RTVSPost2010Prop51ColorRGB
 90
-16777216
102
RTVSPost2010PropOp51
 70
     0
102
RTVSPost2010Prop52
140
1.0
102
RTVSPost2010PropOp52
 70
     0
102
RTVSPost2010Prop53
 90
        2
102
RTVSPost2010PropOp53
 70
     1
102
RTVSPost2010Prop54
  1
strokes_ogs.tif
102
RTVSPost2010PropOp54
 70
     1
102
RTVSPost2010Prop55
280
     0
102
RTVSPost2010PropOp55
 70
     1
102
RTVSPost2010Prop56
140
1.0
102
RTVSPost2010PropOp56
 70
     1
102
RTVSPost2010Prop57
140
1.0
102
RTVSPost2010PropOp57
 70
     1
  0
XRECORD
  5
2E66
102
{ACAD_REACTORS
330
2E65
102
}
330
2E65
100
AcDbXrecord
280
     1
102
RTVSPost2010Prop28
280
     0
102
RTVSPost2010PropOp28
 70
     1
102
RTVSPost2010Prop29
280
     1
102
RTVSPost2010PropOp29
 70
     1
102
RTVSPost2010Prop30
280
     1
102
RTVSPost2010PropOp30
 70
     1
102
RTVSPost2010Prop31
280
     0
102
RTVSPost2010PropOp31
 70
     1
102
RTVSPost2010Prop32
280
     0
102
RTVSPost2010PropOp32
 70
     1
102
RTVSPost2010Prop33
280
     0
102
RTVSPost2010PropOp33
 70
     1
102
RTVSPost2010Prop34
280
     0
102
RTVSPost2010PropOp34
 70
     1
102
RTVSPost2010Prop35
280
     0
102
RTVSPost2010PropOp35
 70
     1
102
RTVSPost2010Prop36
280
     0
102
RTVSPost2010PropOp36
 70
     1
102
RTVSPost2010Prop37
 90
       50
102
RTVSPost2010PropOp37
 70
     1
102
RTVSPost2010Prop38
140
0.0
102
RTVSPost2010PropOp38
 70
     1
102
RTVSPost2010Prop39
140
1.0
102
RTVSPost2010PropOp39
 70
     1
102
RTVSPost2010Prop40
 90
        0
102
RTVSPost2010PropOp40
 70
     1
102
RTVSPost2010Prop41ColorIndex
 90
       18
102
RTVSPost2010Prop41ColorRGB
 90
        0
102
RTVSPost2010PropOp41
 70
     1
102
RTVSPost2010Prop42
 90
       50
102
RTVSPost2010PropOp42
 70
     1
102
RTVSPost2010Prop43
 90
        3
102
RTVSPost2010PropOp43
 70
     1
102
RTVSPost2010Prop44ColorIndex
 90
        5
102
RTVSPost2010Prop44ColorRGB
 90
      255
102
RTVSPost2010PropOp44
 70
     1
102
RTVSPost2010Prop45
280
     0
102
RTVSPost2010PropOp45
 70
     1
102
RTVSPost2010Prop46
 90
       50
102
RTVSPost2010PropOp46
 70
     1
102
RTVSPost2010Prop47
 90
       50
102
RTVSPost2010PropOp47
 70
     1
102
RTVSPost2010Prop48
 90
       50
102
RTVSPost2010PropOp48
 70
     1
102
RTVSPost2010Prop49
280
     0
102
RTVSPost2010PropOp49
 70
     1
102
RTVSPost2010Prop50
 90
       50
102
RTVSPost2010PropOp50
 70
     1
102
RTVSPost2010Prop51ColorIndex
 90
      256
102
RTVSPost2010Prop51ColorRGB
 90
-16777216
102
RTVSPost2010PropOp51
 70
     0
102
RTVSPost2010Prop52
140
1.0
102
RTVSPost2010PropOp52
 70
     0
102
RTVSPost2010Prop53
 90
        2
102
RTVSPost2010PropOp53
 70
     1
102
RTVSPost2010Prop54
  1
strokes_ogs.tif
102
RTVSPost2010PropOp54
 70
     1
102
RTVSPost2010Prop55
280
     0
102
RTVSPost2010PropOp55
 70
     1
102
RTVSPost2010Prop56
140
1.0
102
RTVSPost2010PropOp56
 70
     1
102
RTVSPost2010Prop57
140
1.0
102
RTVSPost2010PropOp57
 70
     1
  0
XRECORD
  5
2E68
102
{ACAD_REACTORS
330
2E67
102
}
330
2E67
100
AcDbXrecord
280
     1
102
RTVSPost2010Prop28
280
     0
102
RTVSPost2010PropOp28
 70
     1
102
RTVSPost2010Prop29
280
     1
102
RTVSPost2010PropOp29
 70
     1
102
RTVSPost2010Prop30
280
     1
102
RTVSPost2010PropOp30
 70
     1
102
RTVSPost2010Prop31
280
     0
102
RTVSPost2010PropOp31
 70
     1
102
RTVSPost2010Prop32
280
     0
102
RTVSPost2010PropOp32
 70
     1
102
RTVSPost2010Prop33
280
     0
102
RTVSPost2010PropOp33
 70
     1
102
RTVSPost2010Prop34
280
     0
102
RTVSPost2010PropOp34
 70
     1
102
RTVSPost2010Prop35
280
     0
102
RTVSPost2010PropOp35
 70
     1
102
RTVSPost2010Prop36
280
     0
102
RTVSPost2010PropOp36
 70
     1
102
RTVSPost2010Prop37
 90
       50
102
RTVSPost2010PropOp37
 70
     1
102
RTVSPost2010Prop38
140
0.0
102
RTVSPost2010PropOp38
 70
     1
102
RTVSPost2010Prop39
140
1.0
102
RTVSPost2010PropOp39
 70
     1
102
RTVSPost2010Prop40
 90
        0
102
RTVSPost2010PropOp40
 70
     1
102
RTVSPost2010Prop41ColorIndex
 90
       18
102
RTVSPost2010Prop41ColorRGB
 90
        0
102
RTVSPost2010PropOp41
 70
     1
102
RTVSPost2010Prop42
 90
       50
102
RTVSPost2010PropOp42
 70
     1
102
RTVSPost2010Prop43
 90
        3
102
RTVSPost2010PropOp43
 70
     1
102
RTVSPost2010Prop44ColorIndex
 90
        5
102
RTVSPost2010Prop44ColorRGB
 90
      255
102
RTVSPost2010PropOp44
 70
     1
102
RTVSPost2010Prop45
280
     0
102
RTVSPost2010PropOp45
 70
     1
102
RTVSPost2010Prop46
 90
       50
102
RTVSPost2010PropOp46
 70
     1
102
RTVSPost2010Prop47
 90
       50
102
RTVSPost2010PropOp47
 70
     1
102
RTVSPost2010Prop48
 90
       50
102
RTVSPost2010PropOp48
 70
     1
102
RTVSPost2010Prop49
280
     0
102
RTVSPost2010PropOp49
 70
     1
102
RTVSPost2010Prop50
 90
       50
102
RTVSPost2010PropOp50
 70
     1
102
RTVSPost2010Prop51ColorIndex
 90
      256
102
RTVSPost2010Prop51ColorRGB
 90
-16777216
102
RTVSPost2010PropOp51
 70
     0
102
RTVSPost2010Prop52
140
1.0
102
RTVSPost2010PropOp52
 70
     0
102
RTVSPost2010Prop53
 90
        2
102
RTVSPost2010PropOp53
 70
     1
102
RTVSPost2010Prop54
  1
strokes_ogs.tif
102
RTVSPost2010PropOp54
 70
     1
102
RTVSPost2010Prop55
280
     0
102
RTVSPost2010PropOp55
 70
     1
102
RTVSPost2010Prop56
140
1.0
102
RTVSPost2010PropOp56
 70
     1
102
RTVSPost2010Prop57
140
1.0
102
RTVSPost2010PropOp57
 70
     1
  0
XRECORD
  5
2E6A
102
{ACAD_REACTORS
330
2E69
102
}
330
2E69
100
AcDbXrecord
280
     1
102
RTVSPost2010Prop28
280
     0
102
RTVSPost2010PropOp28
 70
     1
102
RTVSPost2010Prop29
280
     1
102
RTVSPost2010PropOp29
 70
     1
102
RTVSPost2010Prop30
280
     1
102
RTVSPost2010PropOp30
 70
     1
102
RTVSPost2010Prop31
280
     0
102
RTVSPost2010PropOp31
 70
     1
102
RTVSPost2010Prop32
280
     0
102
RTVSPost2010PropOp32
 70
     1
102
RTVSPost2010Prop33
280
     0
102
RTVSPost2010PropOp33
 70
     1
102
RTVSPost2010Prop34
280
     0
102
RTVSPost2010PropOp34
 70
     1
102
RTVSPost2010Prop35
280
     0
102
RTVSPost2010PropOp35
 70
     1
102
RTVSPost2010Prop36
280
     0
102
RTVSPost2010PropOp36
 70
     1
102
RTVSPost2010Prop37
 90
       50
102
RTVSPost2010PropOp37
 70
     1
102
RTVSPost2010Prop38
140
0.0
102
RTVSPost2010PropOp38
 70
     1
102
RTVSPost2010Prop39
140
1.0
102
RTVSPost2010PropOp39
 70
     1
102
RTVSPost2010Prop40
 90
        0
102
RTVSPost2010PropOp40
 70
     1
102
RTVSPost2010Prop41ColorIndex
 90
       18
102
RTVSPost2010Prop41ColorRGB
 90
        0
102
RTVSPost2010PropOp41
 70
     1
102
RTVSPost2010Prop42
 90
       50
102
RTVSPost2010PropOp42
 70
     1
102
RTVSPost2010Prop43
 90
        3
102
RTVSPost2010PropOp43
 70
     1
102
RTVSPost2010Prop44ColorIndex
 90
        5
102
RTVSPost2010Prop44ColorRGB
 90
      255
102
RTVSPost2010PropOp44
 70
     1
102
RTVSPost2010Prop45
280
     0
102
RTVSPost2010PropOp45
 70
     1
102
RTVSPost2010Prop46
 90
       50
102
RTVSPost2010PropOp46
 70
     1
102
RTVSPost2010Prop47
 90
       50
102
RTVSPost2010PropOp47
 70
     1
102
RTVSPost2010Prop48
 90
       50
102
RTVSPost2010PropOp48
 70
     1
102
RTVSPost2010Prop49
280
     0
102
RTVSPost2010PropOp49
 70
     1
102
RTVSPost2010Prop50
 90
       50
102
RTVSPost2010PropOp50
 70
     1
102
RTVSPost2010Prop51ColorIndex
 90
      256
102
RTVSPost2010Prop51ColorRGB
 90
-16777216
102
RTVSPost2010PropOp51
 70
     0
102
RTVSPost2010Prop52
140
1.0
102
RTVSPost2010PropOp52
 70
     0
102
RTVSPost2010Prop53
 90
        2
102
RTVSPost2010PropOp53
 70
     1
102
RTVSPost2010Prop54
  1
strokes_ogs.tif
102
RTVSPost2010PropOp54
 70
     1
102
RTVSPost2010Prop55
280
     0
102
RTVSPost2010PropOp55
 70
     1
102
RTVSPost2010Prop56
140
1.0
102
RTVSPost2010PropOp56
 70
     1
102
RTVSPost2010Prop57
140
1.0
102
RTVSPost2010PropOp57
 70
     1
  0
XRECORD
  5
2E72
102
{ACAD_REACTORS
330
2E71
102
}
330
2E71
100
AcDbXrecord
280
     1
102
RTVSPost2010Prop28
280
     0
102
RTVSPost2010PropOp28
 70
     1
102
RTVSPost2010Prop29
280
     1
102
RTVSPost2010PropOp29
 70
     1
102
RTVSPost2010Prop30
280
     1
102
RTVSPost2010PropOp30
 70
     1
102
RTVSPost2010Prop31
280
     0
102
RTVSPost2010PropOp31
 70
     1
102
RTVSPost2010Prop32
280
     0
102
RTVSPost2010PropOp32
 70
     1
102
RTVSPost2010Prop33
280
     0
102
RTVSPost2010PropOp33
 70
     1
102
RTVSPost2010Prop34
280
     0
102
RTVSPost2010PropOp34
 70
     1
102
RTVSPost2010Prop35
280
     0
102
RTVSPost2010PropOp35
 70
     1
102
RTVSPost2010Prop36
280
     0
102
RTVSPost2010PropOp36
 70
     1
102
RTVSPost2010Prop37
 90
       50
102
RTVSPost2010PropOp37
 70
     1
102
RTVSPost2010Prop38
140
0.0
102
RTVSPost2010PropOp38
 70
     1
102
RTVSPost2010Prop39
140
1.0
102
RTVSPost2010PropOp39
 70
     1
102
RTVSPost2010Prop40
 90
        0
102
RTVSPost2010PropOp40
 70
     1
102
RTVSPost2010Prop41ColorIndex
 90
       18
102
RTVSPost2010Prop41ColorRGB
 90
        0
102
RTVSPost2010PropOp41
 70
     1
102
RTVSPost2010Prop42
 90
       50
102
RTVSPost2010PropOp42
 70
     1
102
RTVSPost2010Prop43
 90
        3
102
RTVSPost2010PropOp43
 70
     1
102
RTVSPost2010Prop44ColorIndex
 90
        5
102
RTVSPost2010Prop44ColorRGB
 90
      255
102
RTVSPost2010PropOp44
 70
     1
102
RTVSPost2010Prop45
280
     0
102
RTVSPost2010PropOp45
 70
     1
102
RTVSPost2010Prop46
 90
       50
102
RTVSPost2010PropOp46
 70
     1
102
RTVSPost2010Prop47
 90
       50
102
RTVSPost2010PropOp47
 70
     1
102
RTVSPost2010Prop48
 90
       50
102
RTVSPost2010PropOp48
 70
     1
102
RTVSPost2010Prop49
280
     0
102
RTVSPost2010PropOp49
 70
     1
102
RTVSPost2010Prop50
 90
       50
102
RTVSPost2010PropOp50
 70
     1
102
RTVSPost2010Prop51ColorIndex
 90
      256
102
RTVSPost2010Prop51ColorRGB
 90
-16777216
102
RTVSPost2010PropOp51
 70
     0
102
RTVSPost2010Prop52
140
1.0
102
RTVSPost2010PropOp52
 70
     0
102
RTVSPost2010Prop53
 90
        2
102
RTVSPost2010PropOp53
 70
     1
102
RTVSPost2010Prop54
  1
strokes_ogs.tif
102
RTVSPost2010PropOp54
 70
     1
102
RTVSPost2010Prop55
280
     0
102
RTVSPost2010PropOp55
 70
     1
102
RTVSPost2010Prop56
140
1.0
102
RTVSPost2010PropOp56
 70
     1
102
RTVSPost2010Prop57
140
1.0
102
RTVSPost2010PropOp57
 70
     1
  0
XRECORD
  5
2E8E
102
{ACAD_REACTORS
330
2E8D
102
}
330
2E8D
100
AcDbXrecord
280
     1
102
RTVSPost2010Prop28
280
     0
102
RTVSPost2010PropOp28
 70
     1
102
RTVSPost2010Prop29
280
     1
102
RTVSPost2010PropOp29
 70
     1
102
RTVSPost2010Prop30
280
     1
102
RTVSPost2010PropOp30
 70
     1
102
RTVSPost2010Prop31
280
     0
102
RTVSPost2010PropOp31
 70
     1
102
RTVSPost2010Prop32
280
     0
102
RTVSPost2010PropOp32
 70
     1
102
RTVSPost2010Prop33
280
     0
102
RTVSPost2010PropOp33
 70
     1
102
RTVSPost2010Prop34
280
     0
102
RTVSPost2010PropOp34
 70
     1
102
RTVSPost2010Prop35
280
     0
102
RTVSPost2010PropOp35
 70
     1
102
RTVSPost2010Prop36
280
     0
102
RTVSPost2010PropOp36
 70
     1
102
RTVSPost2010Prop37
 90
       50
102
RTVSPost2010PropOp37
 70
     0
102
RTVSPost2010Prop38
140
0.0
102
RTVSPost2010PropOp38
 70
     0
102
RTVSPost2010Prop39
140
1.0
102
RTVSPost2010PropOp39
 70
     0
102
RTVSPost2010Prop40
 90
        0
102
RTVSPost2010PropOp40
 70
     0
102
RTVSPost2010Prop41ColorIndex
 90
       18
102
RTVSPost2010Prop41ColorRGB
 90
        0
102
RTVSPost2010PropOp41
 70
     0
102
RTVSPost2010Prop42
 90
       50
102
RTVSPost2010PropOp42
 70
     0
102
RTVSPost2010Prop43
 90
        3
102
RTVSPost2010PropOp43
 70
     0
102
RTVSPost2010Prop44ColorIndex
 90
        5
102
RTVSPost2010Prop44ColorRGB
 90
      255
102
RTVSPost2010PropOp44
 70
     0
102
RTVSPost2010Prop45
280
     0
102
RTVSPost2010PropOp45
 70
     1
102
RTVSPost2010Prop46
 90
       50
102
RTVSPost2010PropOp46
 70
     0
102
RTVSPost2010Prop47
 90
       50
102
RTVSPost2010PropOp47
 70
     0
102
RTVSPost2010Prop48
 90
       50
102
RTVSPost2010PropOp48
 70
     0
102
RTVSPost2010Prop49
280
     0
102
RTVSPost2010PropOp49
 70
     1
102
RTVSPost2010Prop50
 90
       50
102
RTVSPost2010PropOp50
 70
     0
102
RTVSPost2010Prop51ColorIndex
 90
      256
102
RTVSPost2010Prop51ColorRGB
 90
-16777216
102
RTVSPost2010PropOp51
 70
     0
102
RTVSPost2010Prop52
140
1.0
102
RTVSPost2010PropOp52
 70
     0
102
RTVSPost2010Prop53
 90
        2
102
RTVSPost2010PropOp53
 70
     0
102
RTVSPost2010Prop54
  1
strokes_ogs.tif
102
RTVSPost2010PropOp54
 70
     0
102
RTVSPost2010Prop55
280
     0
102
RTVSPost2010PropOp55
 70
     1
102
RTVSPost2010Prop56
140
1.0
102
RTVSPost2010PropOp56
 70
     0
102
RTVSPost2010Prop57
140
1.0
102
RTVSPost2010PropOp57
 70
     0
  0
XRECORD
  5
2E7E
102
{ACAD_REACTORS
330
2E7D
102
}
330
2E7D
100
AcDbXrecord
280
     1
102
RTVSPost2010Prop28
280
     0
102
RTVSPost2010PropOp28
 70
     1
102
RTVSPost2010Prop29
280
     1
102
RTVSPost2010PropOp29
 70
     1
102
RTVSPost2010Prop30
280
     1
102
RTVSPost2010PropOp30
 70
     1
102
RTVSPost2010Prop31
280
     0
102
RTVSPost2010PropOp31
 70
     1
102
RTVSPost2010Prop32
280
     0
102
RTVSPost2010PropOp32
 70
     1
102
RTVSPost2010Prop33
280
     0
102
RTVSPost2010PropOp33
 70
     1
102
RTVSPost2010Prop34
280
     0
102
RTVSPost2010PropOp34
 70
     1
102
RTVSPost2010Prop35
280
     0
102
RTVSPost2010PropOp35
 70
     1
102
RTVSPost2010Prop36
280
     0
102
RTVSPost2010PropOp36
 70
     1
102
RTVSPost2010Prop37
 90
       50
102
RTVSPost2010PropOp37
 70
     1
102
RTVSPost2010Prop38
140
0.0
102
RTVSPost2010PropOp38
 70
     1
102
RTVSPost2010Prop39
140
1.0
102
RTVSPost2010PropOp39
 70
     1
102
RTVSPost2010Prop40
 90
        0
102
RTVSPost2010PropOp40
 70
     1
102
RTVSPost2010Prop41ColorIndex
 90
       18
102
RTVSPost2010Prop41ColorRGB
 90
        0
102
RTVSPost2010PropOp41
 70
     1
102
RTVSPost2010Prop42
 90
       50
102
RTVSPost2010PropOp42
 70
     1
102
RTVSPost2010Prop43
 90
        3
102
RTVSPost2010PropOp43
 70
     1
102
RTVSPost2010Prop44ColorIndex
 90
        5
102
RTVSPost2010Prop44ColorRGB
 90
      255
102
RTVSPost2010PropOp44
 70
     1
102
RTVSPost2010Prop45
280
     0
102
RTVSPost2010PropOp45
 70
     1
102
RTVSPost2010Prop46
 90
       50
102
RTVSPost2010PropOp46
 70
     1
102
RTVSPost2010Prop47
 90
       50
102
RTVSPost2010PropOp47
 70
     1
102
RTVSPost2010Prop48
 90
       50
102
RTVSPost2010PropOp48
 70
     1
102
RTVSPost2010Prop49
280
     0
102
RTVSPost2010PropOp49
 70
     1
102
RTVSPost2010Prop50
 90
       50
102
RTVSPost2010PropOp50
 70
     1
102
RTVSPost2010Prop51ColorIndex
 90
      256
102
RTVSPost2010Prop51ColorRGB
 90
-16777216
102
RTVSPost2010PropOp51
 70
     0
102
RTVSPost2010Prop52
140
1.0
102
RTVSPost2010PropOp52
 70
     0
102
RTVSPost2010Prop53
 90
        2
102
RTVSPost2010PropOp53
 70
     1
102
RTVSPost2010Prop54
  1
strokes_ogs.tif
102
RTVSPost2010PropOp54
 70
     1
102
RTVSPost2010Prop55
280
     0
102
RTVSPost2010PropOp55
 70
     1
102
RTVSPost2010Prop56
140
1.0
102
RTVSPost2010PropOp56
 70
     1
102
RTVSPost2010Prop57
140
1.0
102
RTVSPost2010PropOp57
 70
     1
  0
XRECORD
  5
2E90
102
{ACAD_REACTORS
330
2E8F
102
}
330
2E8F
100
AcDbXrecord
280
     1
102
RTVSPost2010Prop28
280
     0
102
RTVSPost2010PropOp28
 70
     1
102
RTVSPost2010Prop29
280
     1
102
RTVSPost2010PropOp29
 70
     1
102
RTVSPost2010Prop30
280
     1
102
RTVSPost2010PropOp30
 70
     1
102
RTVSPost2010Prop31
280
     0
102
RTVSPost2010PropOp31
 70
     1
102
RTVSPost2010Prop32
280
     0
102
RTVSPost2010PropOp32
 70
     1
102
RTVSPost2010Prop33
280
     0
102
RTVSPost2010PropOp33
 70
     1
102
RTVSPost2010Prop34
280
     0
102
RTVSPost2010PropOp34
 70
     1
102
RTVSPost2010Prop35
280
     0
102
RTVSPost2010PropOp35
 70
     1
102
RTVSPost2010Prop36
280
     0
102
RTVSPost2010PropOp36
 70
     1
102
RTVSPost2010Prop37
 90
       50
102
RTVSPost2010PropOp37
 70
     0
102
RTVSPost2010Prop38
140
0.0
102
RTVSPost2010PropOp38
 70
     0
102
RTVSPost2010Prop39
140
1.0
102
RTVSPost2010PropOp39
 70
     0
102
RTVSPost2010Prop40
 90
        0
102
RTVSPost2010PropOp40
 70
     0
102
RTVSPost2010Prop41ColorIndex
 90
       18
102
RTVSPost2010Prop41ColorRGB
 90
        0
102
RTVSPost2010PropOp41
 70
     0
102
RTVSPost2010Prop42
 90
       50
102
RTVSPost2010PropOp42
 70
     0
102
RTVSPost2010Prop43
 90
        3
102
RTVSPost2010PropOp43
 70
     0
102
RTVSPost2010Prop44ColorIndex
 90
        5
102
RTVSPost2010Prop44ColorRGB
 90
      255
102
RTVSPost2010PropOp44
 70
     0
102
RTVSPost2010Prop45
280
     0
102
RTVSPost2010PropOp45
 70
     1
102
RTVSPost2010Prop46
 90
       50
102
RTVSPost2010PropOp46
 70
     0
102
RTVSPost2010Prop47
 90
       50
102
RTVSPost2010PropOp47
 70
     0
102
RTVSPost2010Prop48
 90
       50
102
RTVSPost2010PropOp48
 70
     0
102
RTVSPost2010Prop49
280
     0
102
RTVSPost2010PropOp49
 70
     1
102
RTVSPost2010Prop50
 90
       50
102
RTVSPost2010PropOp50
 70
     0
102
RTVSPost2010Prop51ColorIndex
 90
      256
102
RTVSPost2010Prop51ColorRGB
 90
-16777216
102
RTVSPost2010PropOp51
 70
     0
102
RTVSPost2010Prop52
140
1.0
102
RTVSPost2010PropOp52
 70
     0
102
RTVSPost2010Prop53
 90
        2
102
RTVSPost2010PropOp53
 70
     0
102
RTVSPost2010Prop54
  1
strokes_ogs.tif
102
RTVSPost2010PropOp54
 70
     0
102
RTVSPost2010Prop55
280
     0
102
RTVSPost2010PropOp55
 70
     1
102
RTVSPost2010Prop56
140
1.0
102
RTVSPost2010PropOp56
 70
     0
102
RTVSPost2010Prop57
140
1.0
102
RTVSPost2010PropOp57
 70
     0
  0
XRECORD
  5
2E76
102
{ACAD_REACTORS
330
2E75
102
}
330
2E75
100
AcDbXrecord
280
     1
102
RTVSPost2010Prop28
280
     0
102
RTVSPost2010PropOp28
 70
     1
102
RTVSPost2010Prop29
280
     1
102
RTVSPost2010PropOp29
 70
     1
102
RTVSPost2010Prop30
280
     1
102
RTVSPost2010PropOp30
 70
     1
102
RTVSPost2010Prop31
280
     0
102
RTVSPost2010PropOp31
 70
     1
102
RTVSPost2010Prop32
280
     0
102
RTVSPost2010PropOp32
 70
     1
102
RTVSPost2010Prop33
280
     0
102
RTVSPost2010PropOp33
 70
     1
102
RTVSPost2010Prop34
280
     0
102
RTVSPost2010PropOp34
 70
     1
102
RTVSPost2010Prop35
280
     0
102
RTVSPost2010PropOp35
 70
     1
102
RTVSPost2010Prop36
280
     0
102
RTVSPost2010PropOp36
 70
     1
102
RTVSPost2010Prop37
 90
       50
102
RTVSPost2010PropOp37
 70
     1
102
RTVSPost2010Prop38
140
0.0
102
RTVSPost2010PropOp38
 70
     1
102
RTVSPost2010Prop39
140
1.0
102
RTVSPost2010PropOp39
 70
     1
102
RTVSPost2010Prop40
 90
        0
102
RTVSPost2010PropOp40
 70
     1
102
RTVSPost2010Prop41ColorIndex
 90
       18
102
RTVSPost2010Prop41ColorRGB
 90
        0
102
RTVSPost2010PropOp41
 70
     1
102
RTVSPost2010Prop42
 90
       50
102
RTVSPost2010PropOp42
 70
     1
102
RTVSPost2010Prop43
 90
        3
102
RTVSPost2010PropOp43
 70
     1
102
RTVSPost2010Prop44ColorIndex
 90
        5
102
RTVSPost2010Prop44ColorRGB
 90
      255
102
RTVSPost2010PropOp44
 70
     1
102
RTVSPost2010Prop45
280
     0
102
RTVSPost2010PropOp45
 70
     1
102
RTVSPost2010Prop46
 90
       50
102
RTVSPost2010PropOp46
 70
     1
102
RTVSPost2010Prop47
 90
       50
102
RTVSPost2010PropOp47
 70
     1
102
RTVSPost2010Prop48
 90
       50
102
RTVSPost2010PropOp48
 70
     1
102
RTVSPost2010Prop49
280
     0
102
RTVSPost2010PropOp49
 70
     1
102
RTVSPost2010Prop50
 90
       50
102
RTVSPost2010PropOp50
 70
     1
102
RTVSPost2010Prop51ColorIndex
 90
      256
102
RTVSPost2010Prop51ColorRGB
 90
-16777216
102
RTVSPost2010PropOp51
 70
     0
102
RTVSPost2010Prop52
140
1.0
102
RTVSPost2010PropOp52
 70
     0
102
RTVSPost2010Prop53
 90
        2
102
RTVSPost2010PropOp53
 70
     1
102
RTVSPost2010Prop54
  1
strokes_ogs.tif
102
RTVSPost2010PropOp54
 70
     1
102
RTVSPost2010Prop55
280
     0
102
RTVSPost2010PropOp55
 70
     1
102
RTVSPost2010Prop56
140
1.0
102
RTVSPost2010PropOp56
 70
     1
102
RTVSPost2010Prop57
140
1.0
102
RTVSPost2010PropOp57
 70
     1
  0
XRECORD
  5
2E8C
102
{ACAD_REACTORS
330
2E8B
102
}
330
2E8B
100
AcDbXrecord
280
     1
102
RTVSPost2010Prop28
280
     0
102
RTVSPost2010PropOp28
 70
     1
102
RTVSPost2010Prop29
280
     1
102
RTVSPost2010PropOp29
 70
     1
102
RTVSPost2010Prop30
280
     1
102
RTVSPost2010PropOp30
 70
     1
102
RTVSPost2010Prop31
280
     0
102
RTVSPost2010PropOp31
 70
     1
102
RTVSPost2010Prop32
280
     0
102
RTVSPost2010PropOp32
 70
     1
102
RTVSPost2010Prop33
280
     0
102
RTVSPost2010PropOp33
 70
     1
102
RTVSPost2010Prop34
280
     0
102
RTVSPost2010PropOp34
 70
     1
102
RTVSPost2010Prop35
280
     0
102
RTVSPost2010PropOp35
 70
     1
102
RTVSPost2010Prop36
280
     0
102
RTVSPost2010PropOp36
 70
     1
102
RTVSPost2010Prop37
 90
       50
102
RTVSPost2010PropOp37
 70
     1
102
RTVSPost2010Prop38
140
0.0
102
RTVSPost2010PropOp38
 70
     1
102
RTVSPost2010Prop39
140
1.0
102
RTVSPost2010PropOp39
 70
     1
102
RTVSPost2010Prop40
 90
        0
102
RTVSPost2010PropOp40
 70
     1
102
RTVSPost2010Prop41ColorIndex
 90
       18
102
RTVSPost2010Prop41ColorRGB
 90
        0
102
RTVSPost2010PropOp41
 70
     1
102
RTVSPost2010Prop42
 90
       50
102
RTVSPost2010PropOp42
 70
     1
102
RTVSPost2010Prop43
 90
        3
102
RTVSPost2010PropOp43
 70
     1
102
RTVSPost2010Prop44ColorIndex
 90
        5
102
RTVSPost2010Prop44ColorRGB
 90
      255
102
RTVSPost2010PropOp44
 70
     1
102
RTVSPost2010Prop45
280
     0
102
RTVSPost2010PropOp45
 70
     1
102
RTVSPost2010Prop46
 90
       50
102
RTVSPost2010PropOp46
 70
     1
102
RTVSPost2010Prop47
 90
       50
102
RTVSPost2010PropOp47
 70
     1
102
RTVSPost2010Prop48
 90
       50
102
RTVSPost2010PropOp48
 70
     1
102
RTVSPost2010Prop49
280
     0
102
RTVSPost2010PropOp49
 70
     1
102
RTVSPost2010Prop50
 90
       50
102
RTVSPost2010PropOp50
 70
     1
102
RTVSPost2010Prop51ColorIndex
 90
      256
102
RTVSPost2010Prop51ColorRGB
 90
-16777216
102
RTVSPost2010PropOp51
 70
     0
102
RTVSPost2010Prop52
140
1.0
102
RTVSPost2010PropOp52
 70
     0
102
RTVSPost2010Prop53
 90
        2
102
RTVSPost2010PropOp53
 70
     1
102
RTVSPost2010Prop54
  1
strokes_ogs.tif
102
RTVSPost2010PropOp54
 70
     1
102
RTVSPost2010Prop55
280
     0
102
RTVSPost2010PropOp55
 70
     1
102
RTVSPost2010Prop56
140
1.0
102
RTVSPost2010PropOp56
 70
     1
102
RTVSPost2010Prop57
140
1.0
102
RTVSPost2010PropOp57
 70
     1
  0
XRECORD
  5
2E8A
102
{ACAD_REACTORS
330
2E89
102
}
330
2E89
100
AcDbXrecord
280
     1
102
RTVSPost2010Prop28
280
     0
102
RTVSPost2010PropOp28
 70
     1
102
RTVSPost2010Prop29
280
     1
102
RTVSPost2010PropOp29
 70
     1
102
RTVSPost2010Prop30
280
     1
102
RTVSPost2010PropOp30
 70
     1
102
RTVSPost2010Prop31
280
     0
102
RTVSPost2010PropOp31
 70
     1
102
RTVSPost2010Prop32
280
     0
102
RTVSPost2010PropOp32
 70
     1
102
RTVSPost2010Prop33
280
     0
102
RTVSPost2010PropOp33
 70
     1
102
RTVSPost2010Prop34
280
     0
102
RTVSPost2010PropOp34
 70
     1
102
RTVSPost2010Prop35
280
     0
102
RTVSPost2010PropOp35
 70
     1
102
RTVSPost2010Prop36
280
     0
102
RTVSPost2010PropOp36
 70
     1
102
RTVSPost2010Prop37
 90
       50
102
RTVSPost2010PropOp37
 70
     1
102
RTVSPost2010Prop38
140
0.0
102
RTVSPost2010PropOp38
 70
     1
102
RTVSPost2010Prop39
140
1.0
102
RTVSPost2010PropOp39
 70
     1
102
RTVSPost2010Prop40
 90
        0
102
RTVSPost2010PropOp40
 70
     1
102
RTVSPost2010Prop41ColorIndex
 90
       18
102
RTVSPost2010Prop41ColorRGB
 90
        0
102
RTVSPost2010PropOp41
 70
     1
102
RTVSPost2010Prop42
 90
       50
102
RTVSPost2010PropOp42
 70
     1
102
RTVSPost2010Prop43
 90
        3
102
RTVSPost2010PropOp43
 70
     1
102
RTVSPost2010Prop44ColorIndex
 90
        5
102
RTVSPost2010Prop44ColorRGB
 90
      255
102
RTVSPost2010PropOp44
 70
     1
102
RTVSPost2010Prop45
280
     0
102
RTVSPost2010PropOp45
 70
     1
102
RTVSPost2010Prop46
 90
       50
102
RTVSPost2010PropOp46
 70
     1
102
RTVSPost2010Prop47
 90
       50
102
RTVSPost2010PropOp47
 70
     1
102
RTVSPost2010Prop48
 90
       50
102
RTVSPost2010PropOp48
 70
     1
102
RTVSPost2010Prop49
280
     0
102
RTVSPost2010PropOp49
 70
     1
102
RTVSPost2010Prop50
 90
       50
102
RTVSPost2010PropOp50
 70
     1
102
RTVSPost2010Prop51ColorIndex
 90
      256
102
RTVSPost2010Prop51ColorRGB
 90
-16777216
102
RTVSPost2010PropOp51
 70
     0
102
RTVSPost2010Prop52
140
1.0
102
RTVSPost2010PropOp52
 70
     0
102
RTVSPost2010Prop53
 90
        2
102
RTVSPost2010PropOp53
 70
     1
102
RTVSPost2010Prop54
  1
strokes_ogs.tif
102
RTVSPost2010PropOp54
 70
     1
102
RTVSPost2010Prop55
280
     0
102
RTVSPost2010PropOp55
 70
     1
102
RTVSPost2010Prop56
140
1.0
102
RTVSPost2010PropOp56
 70
     1
102
RTVSPost2010Prop57
140
1.0
102
RTVSPost2010PropOp57
 70
     1
  0
XRECORD
  5
2E84
102
{ACAD_REACTORS
330
2E83
102
}
330
2E83
100
AcDbXrecord
280
     1
102
RTVSPost2010Prop28
280
     0
102
RTVSPost2010PropOp28
 70
     1
102
RTVSPost2010Prop29
280
     1
102
RTVSPost2010PropOp29
 70
     1
102
RTVSPost2010Prop30
280
     1
102
RTVSPost2010PropOp30
 70
     1
102
RTVSPost2010Prop31
280
     0
102
RTVSPost2010PropOp31
 70
     1
102
RTVSPost2010Prop32
280
     0
102
RTVSPost2010PropOp32
 70
     1
102
RTVSPost2010Prop33
280
     0
102
RTVSPost2010PropOp33
 70
     1
102
RTVSPost2010Prop34
280
     0
102
RTVSPost2010PropOp34
 70
     1
102
RTVSPost2010Prop35
280
     0
102
RTVSPost2010PropOp35
 70
     1
102
RTVSPost2010Prop36
280
     0
102
RTVSPost2010PropOp36
 70
     1
102
RTVSPost2010Prop37
 90
       50
102
RTVSPost2010PropOp37
 70
     1
102
RTVSPost2010Prop38
140
0.0
102
RTVSPost2010PropOp38
 70
     1
102
RTVSPost2010Prop39
140
1.0
102
RTVSPost2010PropOp39
 70
     1
102
RTVSPost2010Prop40
 90
        0
102
RTVSPost2010PropOp40
 70
     1
102
RTVSPost2010Prop41ColorIndex
 90
       18
102
RTVSPost2010Prop41ColorRGB
 90
        0
102
RTVSPost2010PropOp41
 70
     1
102
RTVSPost2010Prop42
 90
       50
102
RTVSPost2010PropOp42
 70
     1
102
RTVSPost2010Prop43
 90
        3
102
RTVSPost2010PropOp43
 70
     1
102
RTVSPost2010Prop44ColorIndex
 90
        5
102
RTVSPost2010Prop44ColorRGB
 90
      255
102
RTVSPost2010PropOp44
 70
     1
102
RTVSPost2010Prop45
280
     0
102
RTVSPost2010PropOp45
 70
     1
102
RTVSPost2010Prop46
 90
       50
102
RTVSPost2010PropOp46
 70
     1
102
RTVSPost2010Prop47
 90
       50
102
RTVSPost2010PropOp47
 70
     1
102
RTVSPost2010Prop48
 90
       50
102
RTVSPost2010PropOp48
 70
     1
102
RTVSPost2010Prop49
280
     0
102
RTVSPost2010PropOp49
 70
     1
102
RTVSPost2010Prop50
 90
       50
102
RTVSPost2010PropOp50
 70
     1
102
RTVSPost2010Prop51ColorIndex
 90
      256
102
RTVSPost2010Prop51ColorRGB
 90
-16777216
102
RTVSPost2010PropOp51
 70
     0
102
RTVSPost2010Prop52
140
1.0
102
RTVSPost2010PropOp52
 70
     0
102
RTVSPost2010Prop53
 90
        2
102
RTVSPost2010PropOp53
 70
     1
102
RTVSPost2010Prop54
  1
strokes_ogs.tif
102
RTVSPost2010PropOp54
 70
     1
102
RTVSPost2010Prop55
280
     0
102
RTVSPost2010PropOp55
 70
     1
102
RTVSPost2010Prop56
140
1.0
102
RTVSPost2010PropOp56
 70
     1
102
RTVSPost2010Prop57
140
1.0
102
RTVSPost2010PropOp57
 70
     1
  0
XRECORD
  5
2E86
102
{ACAD_REACTORS
330
2E85
102
}
330
2E85
100
AcDbXrecord
280
     1
102
RTVSPost2010Prop28
280
     0
102
RTVSPost2010PropOp28
 70
     1
102
RTVSPost2010Prop29
280
     1
102
RTVSPost2010PropOp29
 70
     1
102
RTVSPost2010Prop30
280
     1
102
RTVSPost2010PropOp30
 70
     1
102
RTVSPost2010Prop31
280
     0
102
RTVSPost2010PropOp31
 70
     1
102
RTVSPost2010Prop32
280
     0
102
RTVSPost2010PropOp32
 70
     1
102
RTVSPost2010Prop33
280
     0
102
RTVSPost2010PropOp33
 70
     1
102
RTVSPost2010Prop34
280
     0
102
RTVSPost2010PropOp34
 70
     1
102
RTVSPost2010Prop35
280
     0
102
RTVSPost2010PropOp35
 70
     1
102
RTVSPost2010Prop36
280
     0
102
RTVSPost2010PropOp36
 70
     1
102
RTVSPost2010Prop37
 90
       50
102
RTVSPost2010PropOp37
 70
     1
102
RTVSPost2010Prop38
140
0.0
102
RTVSPost2010PropOp38
 70
     1
102
RTVSPost2010Prop39
140
1.0
102
RTVSPost2010PropOp39
 70
     1
102
RTVSPost2010Prop40
 90
        0
102
RTVSPost2010PropOp40
 70
     1
102
RTVSPost2010Prop41ColorIndex
 90
       18
102
RTVSPost2010Prop41ColorRGB
 90
        0
102
RTVSPost2010PropOp41
 70
     1
102
RTVSPost2010Prop42
 90
       50
102
RTVSPost2010PropOp42
 70
     1
102
RTVSPost2010Prop43
 90
        3
102
RTVSPost2010PropOp43
 70
     1
102
RTVSPost2010Prop44ColorIndex
 90
        5
102
RTVSPost2010Prop44ColorRGB
 90
      255
102
RTVSPost2010PropOp44
 70
     1
102
RTVSPost2010Prop45
280
     0
102
RTVSPost2010PropOp45
 70
     1
102
RTVSPost2010Prop46
 90
       50
102
RTVSPost2010PropOp46
 70
     1
102
RTVSPost2010Prop47
 90
       50
102
RTVSPost2010PropOp47
 70
     1
102
RTVSPost2010Prop48
 90
       50
102
RTVSPost2010PropOp48
 70
     1
102
RTVSPost2010Prop49
280
     0
102
RTVSPost2010PropOp49
 70
     1
102
RTVSPost2010Prop50
 90
       50
102
RTVSPost2010PropOp50
 70
     1
102
RTVSPost2010Prop51ColorIndex
 90
      256
102
RTVSPost2010Prop51ColorRGB
 90
-16777216
102
RTVSPost2010PropOp51
 70
     0
102
RTVSPost2010Prop52
140
1.0
102
RTVSPost2010PropOp52
 70
     0
102
RTVSPost2010Prop53
 90
        2
102
RTVSPost2010PropOp53
 70
     1
102
RTVSPost2010Prop54
  1
strokes_ogs.tif
102
RTVSPost2010PropOp54
 70
     1
102
RTVSPost2010Prop55
280
     0
102
RTVSPost2010PropOp55
 70
     1
102
RTVSPost2010Prop56
140
1.0
102
RTVSPost2010PropOp56
 70
     1
102
RTVSPost2010Prop57
140
1.0
102
RTVSPost2010PropOp57
 70
     1
  0
XRECORD
  5
2E7C
102
{ACAD_REACTORS
330
2E7B
102
}
330
2E7B
100
AcDbXrecord
280
     1
102
RTVSPost2010Prop28
280
     0
102
RTVSPost2010PropOp28
 70
     1
102
RTVSPost2010Prop29
280
     1
102
RTVSPost2010PropOp29
 70
     1
102
RTVSPost2010Prop30
280
     1
102
RTVSPost2010PropOp30
 70
     1
102
RTVSPost2010Prop31
280
     0
102
RTVSPost2010PropOp31
 70
     1
102
RTVSPost2010Prop32
280
     0
102
RTVSPost2010PropOp32
 70
     1
102
RTVSPost2010Prop33
280
     0
102
RTVSPost2010PropOp33
 70
     1
102
RTVSPost2010Prop34
280
     0
102
RTVSPost2010PropOp34
 70
     1
102
RTVSPost2010Prop35
280
     0
102
RTVSPost2010PropOp35
 70
     1
102
RTVSPost2010Prop36
280
     0
102
RTVSPost2010PropOp36
 70
     1
102
RTVSPost2010Prop37
 90
       50
102
RTVSPost2010PropOp37
 70
     1
102
RTVSPost2010Prop38
140
0.0
102
RTVSPost2010PropOp38
 70
     1
102
RTVSPost2010Prop39
140
1.0
102
RTVSPost2010PropOp39
 70
     1
102
RTVSPost2010Prop40
 90
        0
102
RTVSPost2010PropOp40
 70
     1
102
RTVSPost2010Prop41ColorIndex
 90
       18
102
RTVSPost2010Prop41ColorRGB
 90
        0
102
RTVSPost2010PropOp41
 70
     1
102
RTVSPost2010Prop42
 90
       50
102
RTVSPost2010PropOp42
 70
     1
102
RTVSPost2010Prop43
 90
        3
102
RTVSPost2010PropOp43
 70
     1
102
RTVSPost2010Prop44ColorIndex
 90
        5
102
RTVSPost2010Prop44ColorRGB
 90
      255
102
RTVSPost2010PropOp44
 70
     1
102
RTVSPost2010Prop45
280
     0
102
RTVSPost2010PropOp45
 70
     1
102
RTVSPost2010Prop46
 90
       50
102
RTVSPost2010PropOp46
 70
     1
102
RTVSPost2010Prop47
 90
       50
102
RTVSPost2010PropOp47
 70
     1
102
RTVSPost2010Prop48
 90
       50
102
RTVSPost2010PropOp48
 70
     1
102
RTVSPost2010Prop49
280
     0
102
RTVSPost2010PropOp49
 70
     1
102
RTVSPost2010Prop50
 90
       50
102
RTVSPost2010PropOp50
 70
     1
102
RTVSPost2010Prop51ColorIndex
 90
      256
102
RTVSPost2010Prop51ColorRGB
 90
-16777216
102
RTVSPost2010PropOp51
 70
     0
102
RTVSPost2010Prop52
140
1.0
102
RTVSPost2010PropOp52
 70
     0
102
RTVSPost2010Prop53
 90
        2
102
RTVSPost2010PropOp53
 70
     1
102
RTVSPost2010Prop54
  1
strokes_ogs.tif
102
RTVSPost2010PropOp54
 70
     1
102
RTVSPost2010Prop55
280
     0
102
RTVSPost2010PropOp55
 70
     1
102
RTVSPost2010Prop56
140
1.0
102
RTVSPost2010PropOp56
 70
     1
102
RTVSPost2010Prop57
140
1.0
102
RTVSPost2010PropOp57
 70
     1
  0
XRECORD
  5
2E70
102
{ACAD_REACTORS
330
2E6F
102
}
330
2E6F
100
AcDbXrecord
280
     1
102
RTVSPost2010Prop28
280
     0
102
RTVSPost2010PropOp28
 70
     1
102
RTVSPost2010Prop29
280
     1
102
RTVSPost2010PropOp29
 70
     1
102
RTVSPost2010Prop30
280
     1
102
RTVSPost2010PropOp30
 70
     1
102
RTVSPost2010Prop31
280
     0
102
RTVSPost2010PropOp31
 70
     1
102
RTVSPost2010Prop32
280
     0
102
RTVSPost2010PropOp32
 70
     1
102
RTVSPost2010Prop33
280
     0
102
RTVSPost2010PropOp33
 70
     1
102
RTVSPost2010Prop34
280
     0
102
RTVSPost2010PropOp34
 70
     1
102
RTVSPost2010Prop35
280
     0
102
RTVSPost2010PropOp35
 70
     1
102
RTVSPost2010Prop36
280
     0
102
RTVSPost2010PropOp36
 70
     1
102
RTVSPost2010Prop37
 90
       50
102
RTVSPost2010PropOp37
 70
     1
102
RTVSPost2010Prop38
140
0.0
102
RTVSPost2010PropOp38
 70
     1
102
RTVSPost2010Prop39
140
1.0
102
RTVSPost2010PropOp39
 70
     1
102
RTVSPost2010Prop40
 90
        0
102
RTVSPost2010PropOp40
 70
     1
102
RTVSPost2010Prop41ColorIndex
 90
       18
102
RTVSPost2010Prop41ColorRGB
 90
        0
102
RTVSPost2010PropOp41
 70
     1
102
RTVSPost2010Prop42
 90
       50
102
RTVSPost2010PropOp42
 70
     1
102
RTVSPost2010Prop43
 90
        3
102
RTVSPost2010PropOp43
 70
     1
102
RTVSPost2010Prop44ColorIndex
 90
        5
102
RTVSPost2010Prop44ColorRGB
 90
      255
102
RTVSPost2010PropOp44
 70
     1
102
RTVSPost2010Prop45
280
     0
102
RTVSPost2010PropOp45
 70
     1
102
RTVSPost2010Prop46
 90
       50
102
RTVSPost2010PropOp46
 70
     1
102
RTVSPost2010Prop47
 90
       50
102
RTVSPost2010PropOp47
 70
     1
102
RTVSPost2010Prop48
 90
       50
102
RTVSPost2010PropOp48
 70
     1
102
RTVSPost2010Prop49
280
     0
102
RTVSPost2010PropOp49
 70
     1
102
RTVSPost2010Prop50
 90
       50
102
RTVSPost2010PropOp50
 70
     1
102
RTVSPost2010Prop51ColorIndex
 90
      256
102
RTVSPost2010Prop51ColorRGB
 90
-16777216
102
RTVSPost2010PropOp51
 70
     0
102
RTVSPost2010Prop52
140
1.0
102
RTVSPost2010PropOp52
 70
     0
102
RTVSPost2010Prop53
 90
        2
102
RTVSPost2010PropOp53
 70
     1
102
RTVSPost2010Prop54
  1
strokes_ogs.tif
102
RTVSPost2010PropOp54
 70
     1
102
RTVSPost2010Prop55
280
     0
102
RTVSPost2010PropOp55
 70
     1
102
RTVSPost2010Prop56
140
1.0
102
RTVSPost2010PropOp56
 70
     1
102
RTVSPost2010Prop57
140
1.0
102
RTVSPost2010PropOp57
 70
     1
  0
XRECORD
  5
2E88
102
{ACAD_REACTORS
330
2E87
102
}
330
2E87
100
AcDbXrecord
280
     1
102
RTVSPost2010Prop28
280
     0
102
RTVSPost2010PropOp28
 70
     1
102
RTVSPost2010Prop29
280
     1
102
RTVSPost2010PropOp29
 70
     1
102
RTVSPost2010Prop30
280
     1
102
RTVSPost2010PropOp30
 70
     1
102
RTVSPost2010Prop31
280
     0
102
RTVSPost2010PropOp31
 70
     1
102
RTVSPost2010Prop32
280
     0
102
RTVSPost2010PropOp32
 70
     1
102
RTVSPost2010Prop33
280
     0
102
RTVSPost2010PropOp33
 70
     1
102
RTVSPost2010Prop34
280
     0
102
RTVSPost2010PropOp34
 70
     1
102
RTVSPost2010Prop35
280
     0
102
RTVSPost2010PropOp35
 70
     1
102
RTVSPost2010Prop36
280
     0
102
RTVSPost2010PropOp36
 70
     1
102
RTVSPost2010Prop37
 90
       50
102
RTVSPost2010PropOp37
 70
     1
102
RTVSPost2010Prop38
140
0.0
102
RTVSPost2010PropOp38
 70
     1
102
RTVSPost2010Prop39
140
1.0
102
RTVSPost2010PropOp39
 70
     1
102
RTVSPost2010Prop40
 90
        0
102
RTVSPost2010PropOp40
 70
     1
102
RTVSPost2010Prop41ColorIndex
 90
       18
102
RTVSPost2010Prop41ColorRGB
 90
        0
102
RTVSPost2010PropOp41
 70
     1
102
RTVSPost2010Prop42
 90
       50
102
RTVSPost2010PropOp42
 70
     1
102
RTVSPost2010Prop43
 90
        3
102
RTVSPost2010PropOp43
 70
     1
102
RTVSPost2010Prop44ColorIndex
 90
        5
102
RTVSPost2010Prop44ColorRGB
 90
      255
102
RTVSPost2010PropOp44
 70
     1
102
RTVSPost2010Prop45
280
     0
102
RTVSPost2010PropOp45
 70
     1
102
RTVSPost2010Prop46
 90
       50
102
RTVSPost2010PropOp46
 70
     1
102
RTVSPost2010Prop47
 90
       50
102
RTVSPost2010PropOp47
 70
     1
102
RTVSPost2010Prop48
 90
       50
102
RTVSPost2010PropOp48
 70
     1
102
RTVSPost2010Prop49
280
     0
102
RTVSPost2010PropOp49
 70
     1
102
RTVSPost2010Prop50
 90
       50
102
RTVSPost2010PropOp50
 70
     1
102
RTVSPost2010Prop51ColorIndex
 90
      256
102
RTVSPost2010Prop51ColorRGB
 90
-16777216
102
RTVSPost2010PropOp51
 70
     0
102
RTVSPost2010Prop52
140
1.0
102
RTVSPost2010PropOp52
 70
     0
102
RTVSPost2010Prop53
 90
        2
102
RTVSPost2010PropOp53
 70
     1
102
RTVSPost2010Prop54
  1
strokes_ogs.tif
102
RTVSPost2010PropOp54
 70
     1
102
RTVSPost2010Prop55
280
     0
102
RTVSPost2010PropOp55
 70
     1
102
RTVSPost2010Prop56
140
1.0
102
RTVSPost2010PropOp56
 70
     1
102
RTVSPost2010Prop57
140
1.0
102
RTVSPost2010PropOp57
 70
     1
  0
ENDSEC
  0
EOF
