  0
SECTION
  2
HEADER
  9
$ACADVER
  1
AC1024
  9
$ACADMAINTVER
 70
   226
  9
$DWGCODEPAGE
  3
ANSI_932
  9
$LASTSAVEDBY
  1
y-sakai
  9
$INSBASE
 10
0.0
 20
0.0
 30
0.0
  9
$EXTMIN
 10
187.0591008198203
 20
264.4520302477836
 30
-0.0015258207003583
  9
$EXTMAX
 10
1202.556880192198
 20
1131.740008209643
 30
0.0000000349246037
  9
$LIMMIN
 10
0.0
 20
0.0
  9
$LIMMAX
 10
1422.5
 20
925.0
  9
$ORTHOMODE
 70
     0
  9
$REGENMODE
 70
     1
  9
$FILLMODE
 70
     1
  9
$QTEXTMODE
 70
     0
  9
$MIRRTEXT
 70
     1
  9
$LTSCALE
 40
5.0
  9
$ATTMODE
 70
     1
  9
$TEXTSIZE
 40
2.5
  9
$TRACEWID
 40
1.0
  9
$TEXTSTYLE
  7
STANDARD
  9
$CLAYER
  8
AM_0
  9
$CELTYPE
  6
ByLayer
  9
$CECOLOR
 62
   256
  9
$CELTSCALE
 40
1.0
  9
$DISPSILH
 70
     0
  9
$DIMSCALE
 40
1.0
  9
$DIMASZ
 40
2.5
  9
$DIMEXO
 40
1.0
  9
$DIMDLI
 40
8.0
  9
$DIMRND
 40
0.0
  9
$DIMDLE
 40
0.0
  9
$DIMEXE
 40
0.6
  9
$DIMTP
 40
0.1
  9
$DIMTM
 40
0.1
  9
$DIMTXT
 40
2.5
  9
$DIMCEN
 40
0.0
  9
$DIMTSZ
 40
0.0
  9
$DIMTOL
 70
     0
  9
$DIMLIM
 70
     0
  9
$DIMTIH
 70
     0
  9
$DIMTOH
 70
     0
  9
$DIMSE1
 70
     0
  9
$DIMSE2
 70
     0
  9
$DIMTAD
 70
     1
  9
$DIMZIN
 70
     8
  9
$DIMBLK
  1

  9
$DIMASO
 70
     1
  9
$DIMSHO
 70
     1
  9
$DIMPOST
  1

  9
$DIMAPOST
  1
"
  9
$DIMALT
 70
     0
  9
$DIMALTD
 70
     2
  9
$DIMALTF
 40
0.0393701
  9
$DIMLFAC
 40
1.0
  9
$DIMTOFL
 70
     1
  9
$DIMTVP
 40
0.0
  9
$DIMTIX
 70
     0
  9
$DIMSOXD
 70
     0
  9
$DIMSAH
 70
     0
  9
$DIMBLK1
  1

  9
$DIMBLK2
  1

  9
$DIMSTYLE
  2
AM_ISO
  9
$DIMCLRD
 70
   256
  9
$DIMCLRE
 70
   256
  9
$DIMCLRT
 70
     4
  9
$DIMTFAC
 40
0.71
  9
$DIMGAP
 40
0.8
  9
$DIMJUST
 70
     0
  9
$DIMSD1
 70
     0
  9
$DIMSD2
 70
     0
  9
$DIMTOLJ
 70
     1
  9
$DIMTZIN
 70
     0
  9
$DIMALTZ
 70
     0
  9
$DIMALTTZ
 70
     0
  9
$DIMUPT
 70
     0
  9
$DIMDEC
 70
     4
  9
$DIMTDEC
 70
     4
  9
$DIMALTU
 70
     2
  9
$DIMALTTD
 70
     2
  9
$DIMTXSTY
  7
STANDARD
  9
$DIMAUNIT
 70
     0
  9
$DIMADEC
 70
     0
  9
$DIMALTRND
 40
0.0
  9
$DIMAZIN
 70
     0
  9
$DIMDSEP
 70
    46
  9
$DIMATFIT
 70
     3
  9
$DIMFRAC
 70
     0
  9
$DIMLDRBLK
  1

  9
$DIMLUNIT
 70
     2
  9
$DIMLWD
 70
    -2
  9
$DIMLWE
 70
    -2
  9
$DIMTMOVE
 70
     0
  9
$DIMFXL
 40
1.0
  9
$DIMFXLON
 70
     0
  9
$DIMJOGANG
 40
0.7853981633974483
  9
$DIMTFILL
 70
     0
  9
$DIMTFILLCLR
 70
     0
  9
$DIMARCSYM
 70
     0
  9
$DIMLTYPE
  6

  9
$DIMLTEX1
  6

  9
$DIMLTEX2
  6

  9
$DIMTXTDIRECTION
 70
     0
  9
$LUNITS
 70
     2
  9
$LUPREC
 70
     2
  9
$SKETCHINC
 40
1.0
  9
$FILLETRAD
 40
25.0
  9
$AUNITS
 70
     0
  9
$AUPREC
 70
     0
  9
$MENU
  1
.
  9
$ELEVATION
 40
0.0
  9
$PELEVATION
 40
0.0
  9
$THICKNESS
 40
0.0
  9
$LIMCHECK
 70
     0
  9
$CHAMFERA
 40
10.0
  9
$CHAMFERB
 40
5.0
  9
$CHAMFERC
 40
0.0
  9
$CHAMFERD
 40
0.0
  9
$SKPOLY
 70
     0
  9
$TDCREATE
 40
2452066.751307870
  9
$TDUCREATE
 40
2452066.376307870
  9
$TDUPDATE
 40
2460363.555972223
  9
$TDUUPDATE
 40
2460363.180972223
  9
$TDINDWG
 40
0.0953427199
  9
$TDUSRTIMER
 40
0.0953425231
  9
$USRTIMER
 70
     1
  9
$ANGBASE
 50
0.0
  9
$ANGDIR
 70
     0
  9
$PDMODE
 70
     0
  9
$PDSIZE
 40
0.0
  9
$PLINEWID
 40
0.0
  9
$SPLFRAME
 70
     0
  9
$SPLINETYPE
 70
     6
  9
$SPLINESEGS
 70
     8
  9
$HANDSEED
  5
2F2C
  9
$SURFTAB1
 70
     6
  9
$SURFTAB2
 70
     6
  9
$SURFTYPE
 70
     6
  9
$SURFU
 70
     6
  9
$SURFV
 70
     6
  9
$UCSBASE
  2

  9
$UCSNAME
  2

  9
$UCSORG
 10
0.0
 20
0.0
 30
0.0
  9
$UCSXDIR
 10
1.0
 20
0.0
 30
0.0
  9
$UCSYDIR
 10
0.0
 20
1.0
 30
0.0
  9
$UCSORTHOREF
  2

  9
$UCSORTHOVIEW
 70
     0
  9
$UCSORGTOP
 10
0.0
 20
0.0
 30
0.0
  9
$UCSORGBOTTOM
 10
0.0
 20
0.0
 30
0.0
  9
$UCSORGLEFT
 10
0.0
 20
0.0
 30
0.0
  9
$UCSORGRIGHT
 10
0.0
 20
0.0
 30
0.0
  9
$UCSORGFRONT
 10
0.0
 20
0.0
 30
0.0
  9
$UCSORGBACK
 10
0.0
 20
0.0
 30
0.0
  9
$PUCSBASE
  2

  9
$PUCSNAME
  2

  9
$PUCSORG
 10
0.0
 20
0.0
 30
0.0
  9
$PUCSXDIR
 10
1.0
 20
0.0
 30
0.0
  9
$PUCSYDIR
 10
0.0
 20
1.0
 30
0.0
  9
$PUCSORTHOREF
  2

  9
$PUCSORTHOVIEW
 70
     0
  9
$PUCSORGTOP
 10
0.0
 20
0.0
 30
0.0
  9
$PUCSORGBOTTOM
 10
0.0
 20
0.0
 30
0.0
  9
$PUCSORGLEFT
 10
0.0
 20
0.0
 30
0.0
  9
$PUCSORGRIGHT
 10
0.0
 20
0.0
 30
0.0
  9
$PUCSORGFRONT
 10
0.0
 20
0.0
 30
0.0
  9
$PUCSORGBACK
 10
0.0
 20
0.0
 30
0.0
  9
$USERI1
 70
     0
  9
$USERI2
 70
     0
  9
$USERI3
 70
     0
  9
$USERI4
 70
     0
  9
$USERI5
 70
     0
  9
$USERR1
 40
0.0
  9
$USERR2
 40
0.0
  9
$USERR3
 40
0.0
  9
$USERR4
 40
0.0
  9
$USERR5
 40
0.0
  9
$WORLDVIEW
 70
     1
  9
$SHADEDGE
 70
     3
  9
$SHADEDIF
 70
    70
  9
$TILEMODE
 70
     1
  9
$MAXACTVP
 70
    64
  9
$PINSBASE
 10
0.0
 20
0.0
 30
0.0
  9
$PLIMCHECK
 70
     0
  9
$PEXTMIN
 10
1.000000000000000E+20
 20
1.000000000000000E+20
 30
1.000000000000000E+20
  9
$PEXTMAX
 10
-1.000000000000000E+20
 20
-1.000000000000000E+20
 30
-1.000000000000000E+20
  9
$PLIMMIN
 10
0.0
 20
0.0
  9
$PLIMMAX
 10
420.0
 20
297.0
  9
$UNITMODE
 70
     0
  9
$VISRETAIN
 70
     1
  9
$PLINEGEN
 70
     0
  9
$PSLTSCALE
 70
     1
  9
$TREEDEPTH
 70
  3020
  9
$CMLSTYLE
  2
Standard
  9
$CMLJUST
 70
     0
  9
$CMLSCALE
 40
1.0
  9
$PROXYGRAPHICS
 70
     1
  9
$MEASUREMENT
 70
     0
  9
$CELWEIGHT
370
    -1
  9
$ENDCAPS
280
     0
  9
$JOINSTYLE
280
     0
  9
$LWDISPLAY
290
     0
  9
$INSUNITS
 70
     0
  9
$HYPERLINKBASE
  1

  9
$STYLESHEET
  1

  9
$XEDIT
290
     1
  9
$CEPSNTYPE
380
     0
  9
$PSTYLEMODE
290
     1
  9
$FINGERPRINTGUID
  2
{F89C9C1E-A5B3-5D45-A7E5-8E578904D125}
  9
$VERSIONGUID
  2
{A8AB4792-3858-7D42-8E58-8CF3883CF9B1}
  9
$EXTNAMES
290
     1
  9
$PSVPSCALE
 40
0.0
  9
$OLESTARTUP
290
     0
  9
$SORTENTS
280
   127
  9
$INDEXCTL
280
     0
  9
$HIDETEXT
280
     0
  9
$XCLIPFRAME
280
     2
  9
$HALOGAP
280
     0
  9
$OBSCOLOR
 70
   257
  9
$OBSLTYPE
280
     0
  9
$INTERSECTIONDISPLAY
280
     0
  9
$INTERSECTIONCOLOR
 70
   257
  9
$DIMASSOC
280
     1
  9
$PROJECTNAME
  1

  9
$CAMERADISPLAY
290
     0
  9
$LENSLENGTH
 40
50.0
  9
$CAMERAHEIGHT
 40
0.0
  9
$STEPSPERSEC
 40
2.0
  9
$STEPSIZE
 40
6.0
  9
$3DDWFPREC
 40
2.0
  9
$PSOLWIDTH
 40
0.25
  9
$PSOLHEIGHT
 40
4.0
  9
$LOFTANG1
 40
1.570796326794896
  9
$LOFTANG2
 40
1.570796326794896
  9
$LOFTMAG1
 40
0.0
  9
$LOFTMAG2
 40
0.0
  9
$LOFTPARAM
 70
     7
  9
$LOFTNORMALS
280
     1
  9
$LATITUDE
 40
37.795
  9
$LONGITUDE
 40
-122.394
  9
$NORTHDIRECTION
 40
0.0
  9
$TIMEZONE
 70
 -8000
  9
$LIGHTGLYPHDISPLAY
280
     1
  9
$TILEMODELIGHTSYNCH
280
     1
  9
$CMATERIAL
347
2C1E
  9
$SOLIDHIST
280
     0
  9
$SHOWHIST
280
     1
  9
$DWFFRAME
280
     2
  9
$DGNFRAME
280
     0
  9
$REALWORLDSCALE
290
     1
  9
$INTERFERECOLOR
 62
     1
  9
$INTERFEREOBJVS
345
2C40
  9
$INTERFEREVPVS
346
2C3D
  9
$CSHADOW
280
     0
  9
$SHADOWPLANELOCATION
 40
0.0
  0
ENDSEC
  0
SECTION
  2
CLASSES
  0
CLASS
  1
ACDBDICTIONARYWDFLT
  2
AcDbDictionaryWithDefault
  3
ObjectDBX Classes
 90
        0
 91
        1
280
     0
281
     0
  0
CLASS
  1
MATERIAL
  2
AcDbMaterial
  3
ObjectDBX Classes
 90
     1153
 91
        3
280
     0
281
     0
  0
CLASS
  1
VISUALSTYLE
  2
AcDbVisualStyle
  3
ObjectDBX Classes
 90
     4095
 91
       24
280
     0
281
     0
  0
CLASS
  1
SCALE
  2
AcDbScale
  3
ObjectDBX Classes
 90
     1153
 91
       17
280
     0
281
     0
  0
CLASS
  1
TABLESTYLE
  2
AcDbTableStyle
  3
ObjectDBX Classes
 90
     4095
 91
        1
280
     0
281
     0
  0
CLASS
  1
MLEADERSTYLE
  2
AcDbMLeaderStyle
  3
ACDB_MLEADERSTYLE_CLASS
 90
     4095
 91
        1
280
     0
281
     0
  0
CLASS
  1
ACDBSECTIONVIEWSTYLE
  2
AcDbSectionViewStyle
  3
ObjectDBX Classes
 90
     1025
 91
        3
280
     0
281
     0
  0
CLASS
  1
ACDBDETAILVIEWSTYLE
  2
AcDbDetailViewStyle
  3
ObjectDBX Classes
 90
     1025
 91
        3
280
     0
281
     0
  0
CLASS
  1
AMGSETTINGSOBJ
  2
AmgSettingsObj
  3
"AcadM|Product Description: AutoCAD Mechanical|Company: Autodesk, Inc."
 90
     1024
 91
        2
280
     0
281
     0
  0
CLASS
  1
ACME_DOCUMENT
  2
AcMeDbDoc
  3
AcMeServices
 90
     1024
 91
        2
280
     0
281
     0
  0
CLASS
  1
ACMESCOPE
  2
AcMeScope
  3
AcMeServices
 90
     1024
 91
        1
280
     0
281
     0
  0
CLASS
  1
ACMECOMMANDHISTORY
  2
AcMeCommandHistory
  3
AcMeServices
 90
     1024
 91
        1
280
     0
281
     0
  0
CLASS
  1
ACIMSYSVARMAN
  2
AcImSysVarManager
  3
AcMeServices
 90
     1024
 91
        3
280
     0
281
     0
  0
CLASS
  1
ACIMINTSYSVAR
  2
AcImIntSysVar
  3
AcMeServices
 90
     1024
 91
        3
280
     0
281
     0
  0
CLASS
  1
ACMESTATEMGR
  2
AcMeStateMgr
  3
AcMeServices
 90
     1024
 91
        1
280
     0
281
     0
  0
CLASS
  1
ACDBENTITYCACHE
  2
AcMeEntityCache
  3
AcMeServices
 90
     1024
 91
        1
280
     0
281
     0
  0
CLASS
  1
ACGREFMASTER
  2
AcGrefMaster
  3
AcAttribServices
 90
     1024
 91
        1
280
     0
281
     0
  0
CLASS
  1
ACME_DATABASE
  2
AcMeDbDatabase
  3
AcMeServices
 90
     1024
 91
        1
280
     0
281
     0
  0
CLASS
  1
ACRFINSADJUSTERMGR
  2
AcRfInsAdjusterMgr
  3
AcMeServices
 90
     1024
 91
        1
280
     0
281
     0
  0
CLASS
  1
ACGREFACADMASTER
  2
AcGrefacadMaster
  3
AcGrefServices
 90
     1024
 91
        1
280
     0
281
     0
  0
CLASS
  1
AMIMASTER
  2
AmiMaster
  3
AmiServices
 90
     1024
 91
        1
280
     0
281
     0
  0
CLASS
  1
AMDTMENUSTATEMGR
  2
AmdtMenuStateMgr
  3
McadcomServices
 90
     1024
 91
        1
280
     0
281
     0
  0
CLASS
  1
AMDTMCOMMENUSTATE
  2
AmdtMcomMenuState
  3
McadcomServices
 90
     1024
 91
        1
280
     0
281
     0
  0
CLASS
  1
MAPIAMMOUDLE
  2
MApiAmModule
  3
MApiAmServices
 90
     1024
 91
        1
280
     0
281
     0
  0
CLASS
  1
ACIMSTRSYSVAR
  2
AcImStrSysVar
  3
AcMeServices
 90
     1024
 91
        5
280
     0
281
     0
  0
CLASS
  1
AMDTAMMENUSTATE
  2
AmdtAmMenuState
  3
DesignerAssemblies_arx
 90
     1024
 91
        1
280
     0
281
     0
  0
CLASS
  1
ACAMPROJECT
  2
AcAmProject
  3
DesignerAssemblies
 90
     1024
 91
        1
280
     0
281
     0
  0
CLASS
  1
ACAMGRCOMPDEF
  2
AcAmGrCompDef
  3
DesignerAssemblies
 90
     1024
 91
        1
280
     0
281
     0
  0
CLASS
  1
ACAMCOMPDEF
  2
AcAmCompDef
  3
DesignerAssemblies
 90
     1024
 91
        1
280
     0
281
     0
  0
CLASS
  1
ACAMCOMPDEFMGR
  2
AcAmCompDefMgr
  3
DesignerAssemblies
 90
     1024
 91
        1
280
     0
281
     0
  0
CLASS
  1
AMCONTEXTMGR
  2
AcAmContextMgr
  3
DesignerAssemblies
 90
     1024
 91
        1
280
     0
281
     0
  0
CLASS
  1
ACAMCONTEXTMODELER
  2
AcAmContextModeler
  3
DesignerAssemblies
 90
     1024
 91
        1
280
     0
281
     0
  0
CLASS
  1
ACMDATADICTIONARY
  2
AcmDataDictionary
  3
"AcmSymBB|Product Description: AutoCAD Mechanical|Company: Autodesk, Inc."
 90
     1024
 91
        1
280
     0
281
     0
  0
CLASS
  1
ACAMGRCOMPDEFSET
  2
AcAmGrCompDefSet
  3
DesignerAssemblies
 90
     1024
 91
        1
280
     0
281
     0
  0
CLASS
  1
AMDTBROWSERDBTAB
  2
AmdtBrowserDbTab
  3
McadcomServices
 90
     1024
 91
        1
280
     0
281
     0
  0
CLASS
  1
CBROWSERAPPOBJECT
  2
CBrowserAppObject
  3
McadcomServices
 90
     1024
 91
        2
280
     0
281
     0
  0
CLASS
  1
DM_PLACEHOLDER
  2
AcDmSelsetPlaceholder
  3
McadcomServices
 90
     1024
 91
        1
280
     0
281
     0
  0
CLASS
  1
EXACXREFPANELOBJECT
  2
ExAcXREFPanelObject
  3
EXAC_ESW
 90
     1025
 91
        1
280
     0
281
     0
  0
CLASS
  1
NPOCOLLECTION
  2
AcDbImpNonPersistentObjectsCollection
  3
ObjectDBX Classes
 90
     1153
 91
        1
280
     0
281
     0
  0
CLASS
  1
ACMSTANDARDANSI
  2
AcmStandardANSI
  3
"Amdt_StdImp|Product Description: AutoCAD Mechanical|Company: Autodesk, Inc."
 90
     1024
 91
        1
280
     0
281
     0
  0
CLASS
  1
ACMSURFSTANDARDANSI
  2
AcmSurfTextStdANSI
  3
"Amdt_StdImp|Product Description: AutoCAD Mechanical|Company: Autodesk, Inc."
 90
     1024
 91
        1
280
     0
281
     0
  0
CLASS
  1
ACMFCFSTANDARDANSI
  2
AcmFCFStdANSI
  3
"Amdt_StdImp|Product Description: AutoCAD Mechanical|Company: Autodesk, Inc."
 90
     1024
 91
        1
280
     0
281
     0
  0
CLASS
  1
ACMWELDSTANDARDANSI
  2
AcmWeldingStdANSI
  3
"Amdt_StdImp|Product Description: AutoCAD Mechanical|Company: Autodesk, Inc."
 90
     1024
 91
        1
280
     0
281
     0
  0
CLASS
  1
ACMIDSTANDARDANSI
  2
AcmIdStdANSI
  3
"Amdt_StdImp|Product Description: AutoCAD Mechanical|Company: Autodesk, Inc."
 90
     1024
 91
        1
280
     0
281
     0
  0
CLASS
  1
ACMDATUMSTANDARDANSI
  2
AcmDatumStdANSI
  3
"Amdt_StdImp|Product Description: AutoCAD Mechanical|Company: Autodesk, Inc."
 90
     1024
 91
        1
280
     0
281
     0
  0
CLASS
  1
ACMBOMSTANDARDANSI
  2
AcmBOMStdANSI
  3
"Amdt_StdImp|Product Description: AutoCAD Mechanical|Company: Autodesk, Inc."
 90
     1024
 91
        1
280
     0
281
     0
  0
CLASS
  1
ACMDETAILSTANDARDANSI
  2
AmdtDetailSymStdANSI
  3
"Amdt_StdImp|Product Description: AutoCAD Mechanical|Company: Autodesk, Inc."
 90
     1024
 91
        1
280
     0
281
     0
  0
CLASS
  1
ACMSECTIONSTANDARDANSI
  2
AmdtSectionSymStdANSI
  3
"Amdt_StdImp|Product Description: AutoCAD Mechanical|Company: Autodesk, Inc."
 90
     1024
 91
        1
280
     0
281
     0
  0
CLASS
  1
ACMCENTERLINESTANDARDANSI
  2
AmdtCenterLineStdANSI
  3
"Amdt_StdImp|Product Description: AutoCAD Mechanical|Company: Autodesk, Inc."
 90
     1024
 91
        1
280
     0
281
     0
  0
CLASS
  1
ACMTHREADLINESTANDARDANSI
  2
AmdtThreadLineStdANSI
  3
"Amdt_StdImp|Product Description: AutoCAD Mechanical|Company: Autodesk, Inc."
 90
     1024
 91
        1
280
     0
281
     0
  0
CLASS
  1
ACMNOTESTANDARDANSI
  2
AmdtNoteStdANSI
  3
"Amdt_StdImp|Product Description: AutoCAD Mechanical|Company: Autodesk, Inc."
 90
     1024
 91
        1
280
     0
281
     0
  0
CLASS
  1
ACMTAPERSTANDARDANSI
  2
AcmTaperStdANSI
  3
"Amdt_StdImp|Product Description: AutoCAD Mechanical|Company: Autodesk, Inc."
 90
     1024
 91
        1
280
     0
281
     0
  0
CLASS
  1
ACMANOOTATIONVIEWSTANDARDANSI
  2
AmdtAnViewStdANSI
  3
"Amdt_StdImp|Product Description: AutoCAD Mechanical|Company: Autodesk, Inc."
 90
     1024
 91
        1
280
     0
281
     0
  0
CLASS
  1
ACAMGLAYSTD
  2
AcAmgLayStd
  3
"AmgLay|Product Description: AutoCAD Mechanical|Company: Autodesk, Inc."
 90
     1024
 91
        1
280
     0
281
     0
  0
CLASS
  1
ACAMGDIMSTD
  2
AcAmgDimStd
  3
"AmgDim|Product Description: AutoCAD Mechanical|Company: Autodesk, Inc."
 90
     1024
 91
        1
280
     0
281
     0
  0
CLASS
  1
ACAMGHOLECHARTSTDANSI
  2
AcAmgHoleChartStdANSI
  3
"AmgDim" "Product Description: AutoCAD Mechanical|Company: Autodesk, Inc."
 90
     1024
 91
        1
280
     0
281
     0
  0
CLASS
  1
AMGOBJPROPCFG
  2
AmgObjPropCfg
  3
"AmgLay|Product Description: AutoCAD Mechanical|Company: Autodesk, Inc."
 90
     1024
 91
        1
280
     0
281
     0
  0
CLASS
  1
ACAMGTITLESTD
  2
AcAmgTitleStd
  3
"AmgTitle|Product Description: AutoCAD Mechanical|Company: Autodesk, Inc."
 90
     1024
 91
        1
280
     0
281
     0
  0
CLASS
  1
ACMSECTIONSTANDARDCUSTOM
  2
AmdtSectionSymStdCustom
  3
"Amdt_StdImp|Product Description: AutoCAD Mechanical|Company: Autodesk, Inc."
 90
     1024
 91
        2
280
     0
281
     0
  0
CLASS
  1
ACMDETAILTANDARDCUSTOM
  2
AmdtDetailSymStdCustom
  3
"Amdt_StdImp|Product Description: AutoCAD Mechanical|Company: Autodesk, Inc."
 90
     1024
 91
        2
280
     0
281
     0
  0
CLASS
  1
FIELD
  2
AcDbField
  3
ObjectDBX Classes
 90
     1152
 91
       16
280
     0
281
     0
  0
CLASS
  1
FIELDLIST
  2
AcDbFieldList
  3
ObjectDBX Classes
 90
     1152
 91
        1
280
     0
281
     0
  0
CLASS
  1
AMDTNOTETEMPLATEDB
  2
AmdtNoteTemplateDB
  3
"AcmSymBB" "Product Description: AutoCAD Mechanical|Company: Autodesk, Inc."
 90
     1024
 91
        7
280
     0
281
     0
  0
CLASS
  1
ACAMGFILTERDAT
  2
AcAmgFilterDat
  3
"AcadM|Product Description: AutoCAD Mechanical|Company: Autodesk, Inc."
 90
     1024
 91
        6
280
     0
281
     0
  0
CLASS
  1
SORTENTSTABLE
  2
AcDbSortentsTable
  3
ObjectDBX Classes
 90
        0
 91
        1
280
     0
281
     0
  0
CLASS
  1
CAMSSTRUCTBTNSTATE
  2
StructBtnState
  3
DesignerAssemblies_arx
 90
     1024
 91
        1
280
     0
281
     0
  0
CLASS
  1
DICTIONARYVAR
  2
AcDbDictionaryVar
  3
ObjectDBX Classes
 90
        0
 91
        9
280
     0
281
     0
  0
CLASS
  1
CELLSTYLEMAP
  2
AcDbCellStyleMap
  3
ObjectDBX Classes
 90
     1152
 91
        2
280
     0
281
     0
  0
ENDSEC
  0
SECTION
  2
TABLES
  0
TABLE
  2
VPORT
  5
2C15
330
0
100
AcDbSymbolTable
 70
     1
  0
VPORT
  5
2C81
330
2C15
100
AcDbSymbolTableRecord
100
AcDbViewportTableRecord
  2
*ACTIVE
 70
     0
 10
0.0
 20
0.0
 11
1.0
 21
1.0
 12
694.8079905060094
 22
698.0960192287134
 13
0.0
 23
0.0
 14
12.5
 24
12.5
 15
50.0
 25
50.0
 16
0.0
 26
0.0
 36
1.0
 17
0.0
 27
0.0
 37
0.0
 40
874.5153777782084
 41
2.197496522948539
 42
50.0
 43
0.0
 44
0.0
 50
0.0
 51
0.0
 71
     0
 72
   100
 73
     1
 74
     3
 75
     0
 76
     0
 77
     0
 78
     0
281
     0
 65
     0
110
0.0
120
0.0
130
0.0
111
1.0
121
0.0
131
0.0
112
0.0
122
1.0
132
0.0
 79
     0
146
0.0
348
2C3C
 60
     3
 61
     5
292
     1
282
     0
141
0.0
142
0.0
 63
   250
421
  3355443
1001
ACAD_NAV_VCDISPLAY
1070
     3
  0
ENDTAB
  0
TABLE
  2
LTYPE
  5
2C12
330
0
100
AcDbSymbolTable
 70
    16
  0
LTYPE
  5
2C67
330
2C12
100
AcDbSymbolTableRecord
100
AcDbLinetypeTableRecord
  2
ByBlock
 70
     0
  3

 72
    65
 73
     0
 40
0.0
  0
LTYPE
  5
2C68
330
2C12
100
AcDbSymbolTableRecord
100
AcDbLinetypeTableRecord
  2
ByLayer
 70
     0
  3

 72
    65
 73
     0
 40
0.0
  0
LTYPE
  5
2C69
330
2C12
100
AcDbSymbolTableRecord
100
AcDbLinetypeTableRecord
  2
CONTINUOUS
 70
     0
  3
Solid line
 72
    65
 73
     0
 40
0.0
  0
LTYPE
  5
2C82
330
2C12
100
AcDbSymbolTableRecord
100
AcDbLinetypeTableRecord
  2
AM_ISO02W050
 70
     0
  3
__ __ __ __ __ __ __ __ __ __ __ __ __ __ __
 72
    65
 73
     2
 40
7.5
 49
6.0
 74
     0
 49
-1.5
 74
     0
  0
LTYPE
  5
2C83
330
2C12
100
AcDbSymbolTableRecord
100
AcDbLinetypeTableRecord
  2
AM_ISO08W050
 70
     0
  3
____ . ____ . ____ . ____ . ____ . ____ . ____
 72
    65
 73
     4
 40
18.0
 49
12.0
 74
     0
 49
-1.5
 74
     0
 49
3.0
 74
     0
 49
-1.5
 74
     0
  0
LTYPE
  5
2C84
330
2C12
100
AcDbSymbolTableRecord
100
AcDbLinetypeTableRecord
  2
AM_ISO09W050
 70
     0
  3
_____ . . _____ . . _____ . . ____ .. ____
 72
    65
 73
     6
 40
22.5
 49
12.0
 74
     0
 49
-1.5
 74
     0
 49
3.0
 74
     0
 49
-1.5
 74
     0
 49
3.0
 74
     0
 49
-1.5
 74
     0
  0
LTYPE
  5
2C85
330
2C12
100
AcDbSymbolTableRecord
100
AcDbLinetypeTableRecord
  2
AMCONSTR
 70
     0
  3
_______________________
 72
    65
 73
     2
 40
9999.0
 49
9999.0
 74
     0
 49
0.0
 74
     0
  0
LTYPE
  5
2C86
330
2C12
100
AcDbSymbolTableRecord
100
AcDbLinetypeTableRecord
  2
AM_ISO08W050X2
 70
     0
  3
__ . __ . __ . __ . __ . __
 72
    65
 73
     4
 40
9.0
 49
6.0
 74
     0
 49
-0.75
 74
     0
 49
1.5
 74
     0
 49
-0.75
 74
     0
  0
LTYPE
  5
2C87
330
2C12
100
AcDbSymbolTableRecord
100
AcDbLinetypeTableRecord
  2
AM_ISO02W050X2
 70
     0
  3
 _ _ _ _ _ _ _ _ _ _ _ _
 72
    65
 73
     2
 40
3.75
 49
3.0
 74
     0
 49
-0.75
 74
     0
  0
LTYPE
  5
2C88
330
2C12
100
AcDbSymbolTableRecord
100
AcDbLinetypeTableRecord
  2
AMZIGZAG
 70
     0
  3
/\/-/\/-/\/-/\/-/\/-/\/
 72
    65
 73
     2
 40
11.00009999999999
 49
0.0001
 74
     0
 49
-11.0
 74
     0
  0
LTYPE
  5
2C8D
330
2C12
100
AcDbSymbolTableRecord
100
AcDbLinetypeTableRecord
  2
PHANTOM2
 70
     0
  3
Phantom (.5x) ___ _ _ ___ _ _ ___ _ _ ___ _ _
 72
    65
 73
     6
 40
31.75
 49
15.875
 74
     0
 49
-3.174999999999998
 74
     0
 49
3.174999999999998
 74
     0
 49
-3.174999999999998
 74
     0
 49
3.174999999999998
 74
     0
 49
-3.174999999999998
 74
     0
  0
LTYPE
  5
2C90
330
2C12
100
AcDbSymbolTableRecord
100
AcDbLinetypeTableRecord
  2
GEN7
 70
     0
  3
____ . ____ . ____ . ____ . ____ . ____ . ____
 72
    65
 73
     4
 40
14.25
 49
9.75
 74
     0
 49
-1.5
 74
     0
 49
1.5
 74
     0
 49
-1.5
 74
     0
  0
LTYPE
  5
2C91
330
2C12
100
AcDbSymbolTableRecord
100
AcDbLinetypeTableRecord
  2
GEN3B
 70
     0
  3
 - - - - -
 72
    65
 73
     2
 40
1.0
 49
0.5
 74
     0
 49
-0.5
 74
     0
  0
LTYPE
  5
2C92
330
2C12
100
AcDbSymbolTableRecord
100
AcDbLinetypeTableRecord
  2
GEN7A
 70
     0
  3
__ . __ . __
 72
    65
 73
     4
 40
7.375
 49
4.75
 74
     0
 49
-0.875
 74
     0
 49
0.875
 74
     0
 49
-0.875
 74
     0
  0
LTYPE
  5
2C99
330
2C12
100
AcDbSymbolTableRecord
100
AcDbLinetypeTableRecord
  2
ACANSTGB
 70
     0
  3
__ . . __ . .
 72
    65
 73
     6
 40
0.35433070866
 49
0.15748031496
 74
     0
 49
-0.03937007874
 74
     0
 49
0.03937007874
 74
     0
 49
-0.03937007874
 74
     0
 49
0.03937007874
 74
     0
 49
-0.03937007874
 74
     0
  0
LTYPE
  5
2C9A
330
2C12
100
AcDbSymbolTableRecord
100
AcDbLinetypeTableRecord
  2
ACANSTGL
 70
     0
  3
_ _ _ _ _
 72
    65
 73
     2
 40
0.11811023622
 49
0.07874015748
 74
     0
 49
-0.03937007874
 74
     0
  0
ENDTAB
  0
TABLE
  2
LAYER
  5
2C0F
102
{ACAD_XDICTIONARY
360
2E2F
102
}
330
0
100
AcDbSymbolTable
 70
     7
  0
LAYER
  5
2C61
102
{ACAD_XDICTIONARY
360
2E20
102
}
330
2C0F
100
AcDbSymbolTableRecord
100
AcDbLayerTableRecord
  2
0
 70
     0
 62
     7
  6
CONTINUOUS
370
    -3
390
2C1C
347
2C2E
  0
LAYER
  5
2C80
102
{ACAD_XDICTIONARY
360
2E22
102
}
330
2C0F
100
AcDbSymbolTableRecord
100
AcDbLayerTableRecord
  2
AM_0
 70
     0
 62
     7
  6
CONTINUOUS
370
    -3
390
2C1C
347
2C2E
  0
LAYER
  5
2C9B
102
{ACAD_XDICTIONARY
360
2E24
102
}
330
2C0F
100
AcDbSymbolTableRecord
100
AcDbLayerTableRecord
  2
AM_5
 70
     0
 62
     2
  6
CONTINUOUS
370
    -3
390
2C1C
347
2C2E
  0
LAYER
  5
2C9C
330
2C0F
100
AcDbSymbolTableRecord
100
AcDbLayerTableRecord
  2
DEFPOINTS
 70
     0
 62
     7
  6
CONTINUOUS
290
     0
370
    -3
390
2C1C
347
2C2E
  0
LAYER
  5
2C9D
102
{ACAD_XDICTIONARY
360
2E26
102
}
330
2C0F
100
AcDbSymbolTableRecord
100
AcDbLayerTableRecord
  2
ｶｸﾚｾﾝ2
 70
     0
 62
     3
  6
GEN3B
370
    -3
390
2C1C
347
2C2E
  0
LAYER
  5
2C9E
102
{ACAD_XDICTIONARY
360
2E28
102
}
330
2C0F
100
AcDbSymbolTableRecord
100
AcDbLayerTableRecord
  2
ﾁｭｳｼﾝｾﾝ
 70
     0
 62
     1
  6
GEN7
370
    -3
390
2C1C
347
2C2E
  0
LAYER
  5
2C9F
102
{ACAD_XDICTIONARY
360
2E2A
102
}
330
2C0F
100
AcDbSymbolTableRecord
100
AcDbLayerTableRecord
  2
ﾁｭｳｼﾝｾﾝ1
 70
     0
 62
     1
  6
GEN7A
370
    -3
390
2C1C
347
2C2E
  0
ENDTAB
  0
TABLE
  2
STYLE
  5
2C10
330
0
100
AcDbSymbolTable
 70
     2
  0
STYLE
  5
2C62
330
2C10
100
AcDbSymbolTableRecord
100
AcDbTextStyleTableRecord
  2
STANDARD
 70
     0
 40
0.0
 41
0.8299999999999998
 50
0.0
 71
     0
 42
2.5
  3
txt.shx
  4
bigfont.shx
  0
STYLE
  5
2CA4
330
2C10
100
AcDbSymbolTableRecord
100
AcDbTextStyleTableRecord
  2
ACANSGDT
 70
     0
 40
0.0
 41
1.0
 50
0.0
 71
     0
 42
2.5
  3
amgdt.shx
  4

  0
ENDTAB
  0
TABLE
  2
VIEW
  5
2C13
330
0
100
AcDbSymbolTable
 70
     7
  0
VIEW
  5
2CA7
330
2C13
100
AcDbSymbolTableRecord
100
AcDbViewTableRecord
  2
AM_VIEW1
 70
     0
 40
462.5
 10
416.0796500920808
 20
693.75
 41
832.1593001841621
 11
0.0
 21
0.0
 31
1.0
 12
0.0
 22
0.0
 32
0.0
 42
50.0
 43
0.0
 44
0.0
 50
0.0
 71
     0
281
     0
 72
     0
 73
     0
348
2C3C
  0
VIEW
  5
2CA8
330
2C13
100
AcDbSymbolTableRecord
100
AcDbViewTableRecord
  2
AM_VIEW2
 70
     0
 40
462.5
 10
1006.420349907918
 20
693.75
 41
832.1593001841621
 11
0.0
 21
0.0
 31
1.0
 12
0.0
 22
0.0
 32
0.0
 42
50.0
 43
0.0
 44
0.0
 50
0.0
 71
     0
281
     0
 72
     0
 73
     0
348
2C3C
  0
VIEW
  5
2CA9
330
2C13
100
AcDbSymbolTableRecord
100
AcDbViewTableRecord
  2
AM_VIEW3
 70
     0
 40
462.5
 10
416.0796500920808
 20
231.25
 41
832.1593001841621
 11
0.0
 21
0.0
 31
1.0
 12
0.0
 22
0.0
 32
0.0
 42
50.0
 43
0.0
 44
0.0
 50
0.0
 71
     0
281
     0
 72
     0
 73
     0
348
2C3C
  0
VIEW
  5
2CAA
330
2C13
100
AcDbSymbolTableRecord
100
AcDbViewTableRecord
  2
AM_VIEW4
 70
     0
 40
462.5
 10
1006.420349907918
 20
231.25
 41
832.1593001841621
 11
0.0
 21
0.0
 31
1.0
 12
0.0
 22
0.0
 32
0.0
 42
50.0
 43
0.0
 44
0.0
 50
0.0
 71
     0
281
     0
 72
     0
 73
     0
348
2C3C
  0
VIEW
  5
2CAB
330
2C13
100
AcDbSymbolTableRecord
100
AcDbViewTableRecord
  2
AM_VIEW5
 70
     0
 40
462.5
 10
711.2499999999997
 20
462.5
 41
832.1593001841618
 11
0.0
 21
0.0
 31
1.0
 12
0.0
 22
0.0
 32
0.0
 42
50.0
 43
0.0
 44
0.0
 50
0.0
 71
     0
281
     0
 72
     0
 73
     0
348
2C3C
  0
VIEW
  5
2CAC
330
2C13
100
AcDbSymbolTableRecord
100
AcDbViewTableRecord
  2
AM_VIEW6
 70
     0
 40
924.99075
 10
711.2499999999997
 20
462.5
 41
1664.30195718232
 11
0.0
 21
0.0
 31
1.0
 12
0.0
 22
0.0
 32
0.0
 42
50.0
 43
0.0
 44
0.0
 50
0.0
 71
     0
281
     0
 72
     0
 73
     0
348
2C3C
  0
ENDTAB
  0
TABLE
  2
UCS
  5
2C14
330
0
100
AcDbSymbolTable
 70
     0
  0
ENDTAB
  0
TABLE
  2
APPID
  5
2C16
330
0
100
AcDbSymbolTable
 70
    96
  0
APPID
  5
2C63
330
2C16
100
AcDbSymbolTableRecord
100
AcDbRegAppTableRecord
  2
ACAD
 70
     0
  0
APPID
  5
2C6A
330
2C16
100
AcDbSymbolTableRecord
100
AcDbRegAppTableRecord
  2
ACADANNOTATIVE
 70
     0
  0
APPID
  5
2CAD
330
2C16
100
AcDbSymbolTableRecord
100
AcDbRegAppTableRecord
  2
MCAD_NO_VIS
 70
     0
  0
APPID
  5
2CAE
330
2C16
100
AcDbSymbolTableRecord
100
AcDbRegAppTableRecord
  2
ACAD_TEMP_GRAPHIC
 70
     0
  0
APPID
  5
2CAF
330
2C16
100
AcDbSymbolTableRecord
100
AcDbRegAppTableRecord
  2
ACATTRIBSERVICES
 70
     0
  0
APPID
  5
2CB0
330
2C16
100
AcDbSymbolTableRecord
100
AcDbRegAppTableRecord
  2
GENIUS_GENREC_14
 70
     0
  0
APPID
  5
2CB1
330
2C16
100
AcDbSymbolTableRecord
100
AcDbRegAppTableRecord
  2
GENIUS_GENOBJ-N-REC_13
 70
     0
  0
APPID
  5
2CB2
330
2C16
100
AcDbSymbolTableRecord
100
AcDbRegAppTableRecord
  2
GENIUS_GENODEF_13
 70
     0
  0
APPID
  5
2CB3
330
2C16
100
AcDbSymbolTableRecord
100
AcDbRegAppTableRecord
  2
GENIUS_GENOLIS_13
 70
     0
  0
APPID
  5
2CB4
330
2C16
100
AcDbSymbolTableRecord
100
AcDbRegAppTableRecord
  2
GENIUS_GENOBJ-N-TIT_13
 70
     0
  0
APPID
  5
2CB5
330
2C16
100
AcDbSymbolTableRecord
100
AcDbRegAppTableRecord
  2
GENIUS_GENOENT_13
 70
     0
  0
APPID
  5
2CB6
330
2C16
100
AcDbSymbolTableRecord
100
AcDbRegAppTableRecord
  2
GENIUS_GENTITLE_13
 70
     0
  0
APPID
  5
2CB7
330
2C16
100
AcDbSymbolTableRecord
100
AcDbRegAppTableRecord
  2
GENIUS_GENOREF_13
 70
     0
  0
APPID
  5
2CB8
330
2C16
100
AcDbSymbolTableRecord
100
AcDbRegAppTableRecord
  2
GENIUS_GENSCREG_15
 70
     0
  0
APPID
  5
2CB9
330
2C16
100
AcDbSymbolTableRecord
100
AcDbRegAppTableRecord
  2
GENIUS_GENOBJ-N-SDF_13
 70
     0
  0
APPID
  5
2CBA
330
2C16
100
AcDbSymbolTableRecord
100
AcDbRegAppTableRecord
  2
GENIUS_GENFIL_13
 70
     0
  0
APPID
  5
2CBB
330
2C16
100
AcDbSymbolTableRecord
100
AcDbRegAppTableRecord
  2
GENIUS_GENOBJ-N-CHA_13
 70
     0
  0
APPID
  5
2CBC
330
2C16
100
AcDbSymbolTableRecord
100
AcDbRegAppTableRecord
  2
GENIUS_GENDTOL_13
 70
     0
  0
APPID
  5
2CBD
330
2C16
100
AcDbSymbolTableRecord
100
AcDbRegAppTableRecord
  2
GENIUS_GENOBJ-N-FIL_13
 70
     0
  0
APPID
  5
2CBE
330
2C16
100
AcDbSymbolTableRecord
100
AcDbRegAppTableRecord
  2
AD_DRAW
 70
     0
  0
APPID
  5
2CBF
330
2C16
100
AcDbSymbolTableRecord
100
AcDbRegAppTableRecord
  2
DESIGNERASSEMBLIES
 70
     0
  0
APPID
  5
2CC0
330
2C16
100
AcDbSymbolTableRecord
100
AcDbRegAppTableRecord
  2
ASURF_PCURVE_APPNAME
 70
     0
  0
APPID
  5
2CC1
330
2C16
100
AcDbSymbolTableRecord
100
AcDbRegAppTableRecord
  2
GENIUS_GE3SECT_13
 70
     0
  0
APPID
  5
2CC2
330
2C16
100
AcDbSymbolTableRecord
100
AcDbRegAppTableRecord
  2
GENIUS_GENCFG_13
 70
     0
  0
APPID
  5
2CC3
330
2C16
100
AcDbSymbolTableRecord
100
AcDbRegAppTableRecord
  2
GENIUS_GE3CFG0_13
 70
     0
  0
APPID
  5
2CC4
330
2C16
100
AcDbSymbolTableRecord
100
AcDbRegAppTableRecord
  2
GENIUS_GENCFG0_13
 70
     0
  0
APPID
  5
2CC5
330
2C16
100
AcDbSymbolTableRecord
100
AcDbRegAppTableRecord
  2
GENIUS_GENCFG1_13
 70
     0
  0
APPID
  5
2CC6
330
2C16
100
AcDbSymbolTableRecord
100
AcDbRegAppTableRecord
  2
GENIUS_GENCFG2_13
 70
     0
  0
APPID
  5
2CC7
330
2C16
100
AcDbSymbolTableRecord
100
AcDbRegAppTableRecord
  2
GENIUS_GENCFG3_13
 70
     0
  0
APPID
  5
2CC8
330
2C16
100
AcDbSymbolTableRecord
100
AcDbRegAppTableRecord
  2
GENIUS_GENCFG4_13
 70
     0
  0
APPID
  5
2CC9
330
2C16
100
AcDbSymbolTableRecord
100
AcDbRegAppTableRecord
  2
GENIUS_GEVCFG0_13
 70
     0
  0
APPID
  5
2CCA
330
2C16
100
AcDbSymbolTableRecord
100
AcDbRegAppTableRecord
  2
GENIUS_GENHINW_13
 70
     0
  0
APPID
  5
2CCB
330
2C16
100
AcDbSymbolTableRecord
100
AcDbRegAppTableRecord
  2
GENIUS_FIRSTVISTXT_14
 70
     0
  0
APPID
  5
2CCC
330
2C16
100
AcDbSymbolTableRecord
100
AcDbRegAppTableRecord
  2
GENIUS_GENOBJ-N-LEADER_13
 70
     0
  0
APPID
  5
2CCD
330
2C16
100
AcDbSymbolTableRecord
100
AcDbRegAppTableRecord
  2
GEV_VCCNULL_SWITCH_OFF
 70
     0
  0
APPID
  5
2CCE
330
2C16
100
AcDbSymbolTableRecord
100
AcDbRegAppTableRecord
  2
GENIUS_GEFCFG0_13
 70
     0
  0
APPID
  5
2CCF
330
2C16
100
AcDbSymbolTableRecord
100
AcDbRegAppTableRecord
  2
GENIUS_GENZVEED_13
 70
     0
  0
APPID
  5
2CD0
330
2C16
100
AcDbSymbolTableRecord
100
AcDbRegAppTableRecord
  2
GENIUS_GENSCREG_13
 70
     0
  0
APPID
  5
2CD1
330
2C16
100
AcDbSymbolTableRecord
100
AcDbRegAppTableRecord
  2
GENIUS_DUMCFG0_13
 70
     0
  0
APPID
  5
2CD2
330
2C16
100
AcDbSymbolTableRecord
100
AcDbRegAppTableRecord
  2
GEVID936201362
 70
     0
  0
APPID
  5
2CD3
330
2C16
100
AcDbSymbolTableRecord
100
AcDbRegAppTableRecord
  2
GEVDC
 70
     0
  0
APPID
  5
2CD4
330
2C16
100
AcDbSymbolTableRecord
100
AcDbRegAppTableRecord
  2
GEVCON
 70
     0
  0
APPID
  5
2CD5
330
2C16
100
AcDbSymbolTableRecord
100
AcDbRegAppTableRecord
  2
VCC
 70
     0
  0
APPID
  5
2CD6
330
2C16
100
AcDbSymbolTableRecord
100
AcDbRegAppTableRecord
  2
GEVPT
 70
     0
  0
APPID
  5
2CD7
330
2C16
100
AcDbSymbolTableRecord
100
AcDbRegAppTableRecord
  2
GEVIT
 70
     0
  0
APPID
  5
2CD8
330
2C16
100
AcDbSymbolTableRecord
100
AcDbRegAppTableRecord
  2
GENBH
 70
     0
  0
APPID
  5
2CD9
330
2C16
100
AcDbSymbolTableRecord
100
AcDbRegAppTableRecord
  2
GEVMK
 70
     0
  0
APPID
  5
2CDA
330
2C16
100
AcDbSymbolTableRecord
100
AcDbRegAppTableRecord
  2
GENIUS_GENBH_13
 70
     0
  0
APPID
  5
2CDB
330
2C16
100
AcDbSymbolTableRecord
100
AcDbRegAppTableRecord
  2
GENIUS_GENOBJ-NBEHI-BHF_13
 70
     0
  0
APPID
  5
2CDC
330
2C16
100
AcDbSymbolTableRecord
100
AcDbRegAppTableRecord
  2
GENIUS_GENOBJ-NBEHI-BHB_13
 70
     0
  0
APPID
  5
2CDD
330
2C16
100
AcDbSymbolTableRecord
100
AcDbRegAppTableRecord
  2
GENIUS_GENOBJ-F-DESC_13
 70
     0
  0
APPID
  5
2CDE
330
2C16
100
AcDbSymbolTableRecord
100
AcDbRegAppTableRecord
  2
GENIUS_GEFDESC_14
 70
     0
  0
APPID
  5
2CDF
330
2C16
100
AcDbSymbolTableRecord
100
AcDbRegAppTableRecord
  2
GENIUS_GENOBJ-F-PART_13
 70
     0
  0
APPID
  5
2CE0
330
2C16
100
AcDbSymbolTableRecord
100
AcDbRegAppTableRecord
  2
GENIUS_GEFSTDP_13
 70
     0
  0
APPID
  5
2CE1
330
2C16
100
AcDbSymbolTableRecord
100
AcDbRegAppTableRecord
  2
GENIUS_GEFPARTINS_13
 70
     0
  0
APPID
  5
2CE2
330
2C16
100
AcDbSymbolTableRecord
100
AcDbRegAppTableRecord
  2
GENIUS_GENTRA_14
 70
     0
  0
APPID
  5
2CE3
330
2C16
100
AcDbSymbolTableRecord
100
AcDbRegAppTableRecord
  2
GENIUS_GENINF13_13
 70
     0
  0
APPID
  5
2CE4
330
2C16
100
AcDbSymbolTableRecord
100
AcDbRegAppTableRecord
  2
GENIUS_GENOBJ-N-INFOPT_13
 70
     0
  0
APPID
  5
2CE5
330
2C16
100
AcDbSymbolTableRecord
100
AcDbRegAppTableRecord
  2
GENIUS_GENOBJ-N-RSSYM_13
 70
     0
  0
APPID
  5
2CE6
330
2C16
100
AcDbSymbolTableRecord
100
AcDbRegAppTableRecord
  2
GENIUS_GENSYMENT_13
 70
     0
  0
APPID
  5
2CE7
330
2C16
100
AcDbSymbolTableRecord
100
AcDbRegAppTableRecord
  2
GENIUS_GENSCSYM_13
 70
     0
  0
APPID
  5
2CE8
330
2C16
100
AcDbSymbolTableRecord
100
AcDbRegAppTableRecord
  2
GENIUS_GEFINFNAM_13
 70
     0
  0
APPID
  5
2CE9
330
2C16
100
AcDbSymbolTableRecord
100
AcDbRegAppTableRecord
  2
GENIUS_GENOBJ-N-CEN_13
 70
     0
  0
APPID
  5
2CEA
330
2C16
100
AcDbSymbolTableRecord
100
AcDbRegAppTableRecord
  2
GENIUS_GENOBJ-N-CRS_13
 70
     0
  0
APPID
  5
2CEB
330
2C16
100
AcDbSymbolTableRecord
100
AcDbRegAppTableRecord
  2
GENIUS_GENOBJ-N-CRC_13
 70
     0
  0
APPID
  5
2CEC
330
2C16
100
AcDbSymbolTableRecord
100
AcDbRegAppTableRecord
  2
GENIUS_GENCRC_14
 70
     0
  0
APPID
  5
2CED
330
2C16
100
AcDbSymbolTableRecord
100
AcDbRegAppTableRecord
  2
GEVID942827039
 70
     0
  0
APPID
  5
2CEE
330
2C16
100
AcDbSymbolTableRecord
100
AcDbRegAppTableRecord
  2
GEVID942827040
 70
     0
  0
APPID
  5
2CEF
330
2C16
100
AcDbSymbolTableRecord
100
AcDbRegAppTableRecord
  2
GEVID942827041
 70
     0
  0
APPID
  5
2CF0
330
2C16
100
AcDbSymbolTableRecord
100
AcDbRegAppTableRecord
  2
GENIUS_GENOBJ-F-SCPASSM_13
 70
     0
  0
APPID
  5
2CF1
330
2C16
100
AcDbSymbolTableRecord
100
AcDbRegAppTableRecord
  2
GENIUS_GENDIMSH_14
 70
     0
  0
APPID
  5
2CF2
330
2C16
100
AcDbSymbolTableRecord
100
AcDbRegAppTableRecord
  2
GEVID942827042
 70
     0
  0
APPID
  5
2CF3
330
2C16
100
AcDbSymbolTableRecord
100
AcDbRegAppTableRecord
  2
GEVID946020473
 70
     0
  0
APPID
  5
2CF4
330
2C16
100
AcDbSymbolTableRecord
100
AcDbRegAppTableRecord
  2
GEVID946020474
 70
     0
  0
APPID
  5
2CF5
330
2C16
100
AcDbSymbolTableRecord
100
AcDbRegAppTableRecord
  2
GEVID946020475
 70
     0
  0
APPID
  5
2CF6
330
2C16
100
AcDbSymbolTableRecord
100
AcDbRegAppTableRecord
  2
GENIUS_GENOBJ-N-HTC_13
 70
     0
  0
APPID
  5
2CF7
330
2C16
100
AcDbSymbolTableRecord
100
AcDbRegAppTableRecord
  2
GENIUS_GENHATCH_13
 70
     0
  0
APPID
  5
2CF8
330
2C16
100
AcDbSymbolTableRecord
100
AcDbRegAppTableRecord
  2
GEVID948854295
 70
     0
  0
APPID
  5
2CF9
330
2C16
100
AcDbSymbolTableRecord
100
AcDbRegAppTableRecord
  2
GEVID939402019
 70
     0
  0
APPID
  5
2CFA
330
2C16
100
AcDbSymbolTableRecord
100
AcDbRegAppTableRecord
  2
GEVID952919491
 70
     0
  0
APPID
  5
2CFB
330
2C16
100
AcDbSymbolTableRecord
100
AcDbRegAppTableRecord
  2
GEVID952919492
 70
     0
  0
APPID
  5
2CFC
330
2C16
100
AcDbSymbolTableRecord
100
AcDbRegAppTableRecord
  2
GENIUS_GEFWELD_13
 70
     0
  0
APPID
  5
2CFD
330
2C16
100
AcDbSymbolTableRecord
100
AcDbRegAppTableRecord
  2
GENIUS_GENOBJ-F-WELS_13
 70
     0
  0
APPID
  5
2CFE
330
2C16
100
AcDbSymbolTableRecord
100
AcDbRegAppTableRecord
  2
GEVID952919493
 70
     0
  0
APPID
  5
2CFF
330
2C16
100
AcDbSymbolTableRecord
100
AcDbRegAppTableRecord
  2
GENIUS_GENOBJ-N-RSBK_13
 70
     0
  0
APPID
  5
2D00
330
2C16
100
AcDbSymbolTableRecord
100
AcDbRegAppTableRecord
  2
GENIUS_GENOBJ-N-LIB_13
 70
     0
  0
APPID
  5
2D01
330
2C16
100
AcDbSymbolTableRecord
100
AcDbRegAppTableRecord
  2
GENIUS_GENSCALE_13
 70
     0
  0
APPID
  5
2D02
330
2C16
100
AcDbSymbolTableRecord
100
AcDbRegAppTableRecord
  2
GEVID986376691
 70
     0
  0
APPID
  5
2D03
330
2C16
100
AcDbSymbolTableRecord
100
AcDbRegAppTableRecord
  2
DCO15
 70
     0
  0
APPID
  5
2D04
330
2C16
100
AcDbSymbolTableRecord
100
AcDbRegAppTableRecord
  2
ACAD_DSTYLE_DIMBREAK
 70
     0
  0
APPID
  5
2D05
330
2C16
100
AcDbSymbolTableRecord
100
AcDbRegAppTableRecord
  2
ACAD_DSTYLE_DIMJAG
 70
     0
  0
APPID
  5
2D06
330
2C16
100
AcDbSymbolTableRecord
100
AcDbRegAppTableRecord
  2
ACAD_NAV_VCDISPLAY
 70
     0
  0
APPID
  5
2D07
330
2C16
100
AcDbSymbolTableRecord
100
AcDbRegAppTableRecord
  2
ACADANNOPO
 70
     0
  0
APPID
  5
2D08
330
2C16
100
AcDbSymbolTableRecord
100
AcDbRegAppTableRecord
  2
ACAD_EXEMPT_FROM_CAD_STANDARDS
 70
     0
  0
APPID
  5
2D09
330
2C16
100
AcDbSymbolTableRecord
100
AcDbRegAppTableRecord
  2
ACAD_MLEADERVER
 70
     0
  0
APPID
  5
2D95
330
2C16
100
AcDbSymbolTableRecord
100
AcDbRegAppTableRecord
  2
AcAecLayerStandard
 70
     0
  0
ENDTAB
  0
TABLE
  2
DIMSTYLE
  5
2C17
330
0
100
AcDbSymbolTable
 70
     8
100
AcDbDimStyleTable
 71
     1
340
2D0A
  0
DIMSTYLE
105
2C64
330
2C17
100
AcDbSymbolTableRecord
100
AcDbDimStyleTableRecord
  2
STANDARD
 70
     0
271
     2
272
     2
279
     2
284
     8
285
     8
286
     8
340
2C62
  0
DIMSTYLE
105
2D0A
330
2C17
100
AcDbSymbolTableRecord
100
AcDbDimStyleTableRecord
  2
AM_ISO
 70
     0
  4
"
 41
2.5
 42
1.0
 43
8.0
 44
0.6
 47
0.1
 48
0.1
 73
     0
 74
     0
 77
     1
 78
     8
140
2.5
141
0.0
143
0.0393701
146
0.71
147
0.8
172
     1
176
   256
177
   256
178
     4
271
     2
272
     2
279
     2
284
     8
285
     8
286
     8
340
2C62
  0
DIMSTYLE
105
2D18
102
{ACAD_REACTORS
330
2D62
102
}
330
2C17
100
AcDbSymbolTableRecord
100
AcDbDimStyleTableRecord
  2
AM_ANSI
 70
     0
  4
mm
 41
0.1
 42
0.05
 43
0.5
 44
0.1
 47
0.1
 48
0.1
 78
     7
140
0.12
141
0.0
146
0.71
147
0.06
176
   256
177
   256
178
     2
271
     2
272
     2
279
     2
284
     8
285
     8
286
     8
340
2C62
  0
DIMSTYLE
105
2D19
330
2C17
100
AcDbSymbolTableRecord
100
AcDbDimStyleTableRecord
  2
AM_ANSI$3
 70
     0
  4
mm
 41
0.1
 42
0.05
 43
0.5
 44
0.1
 47
0.1
 48
0.1
 78
     7
140
0.12
141
0.0
146
0.71
147
0.06
176
   256
177
   256
178
     2
271
     2
272
     2
279
     2
284
     8
285
     8
286
     8
340
2C62
  0
DIMSTYLE
105
2D1A
330
2C17
100
AcDbSymbolTableRecord
100
AcDbDimStyleTableRecord
  2
AM_ANSI$4
 70
     0
  4
mm
 41
0.1
 42
0.05
 43
0.5
 44
0.1
 47
0.1
 48
0.1
 78
     7
140
0.12
141
0.0
146
0.71
147
0.06
176
   256
177
   256
178
     2
271
     2
272
     2
279
     2
284
     8
285
     8
286
     8
340
2C62
  0
DIMSTYLE
105
2D1B
330
2C17
100
AcDbSymbolTableRecord
100
AcDbDimStyleTableRecord
  2
AM_ANSI$7
 70
     0
  4
mm
 41
0.1
 42
0.05
 43
0.5
 44
0.1
 47
0.1
 48
0.1
 78
     7
140
0.24
141
0.0
146
0.71
147
0.06
176
   256
177
   256
178
     2
271
     2
272
     2
279
     2
284
     8
285
     8
286
     8
340
2C62
  0
DIMSTYLE
105
2D1C
330
2C17
100
AcDbSymbolTableRecord
100
AcDbDimStyleTableRecord
  2
AM_ANSI$SF
 70
     0
  4
mm
 41
0.1
 42
0.05
 43
0.5
 44
0.1
 47
0.1
 48
0.1
 75
     1
 76
     1
 78
     7
140
0.12
141
0.0
146
0.71
147
0.06
176
   256
177
   256
178
     2
271
     2
272
     2
279
     2
284
     8
285
     8
286
     8
340
2C62
  0
DIMSTYLE
105
2D1D
330
2C17
100
AcDbSymbolTableRecord
100
AcDbDimStyleTableRecord
  2
AM_ANSI$SH
 70
     0
  4
mm
 41
0.1
 42
0.05
 43
0.5
 44
0.1
 47
0.1
 48
0.1
 75
     1
 76
     1
 78
     7
140
0.12
141
0.0
146
0.71
147
0.06
173
     1
176
   256
177
   256
178
     2
271
     2
272
     2
279
     2
284
     8
285
     8
286
     8
340
2C62
  0
ENDTAB
  0
TABLE
  2
BLOCK_RECORD
  5
2C0E
330
0
100
AcDbSymbolTable
 70
     2
  0
BLOCK_RECORD
  5
2C7C
102
{ACAD_XDICTIONARY
360
2D97
102
}
330
2C0E
100
AcDbSymbolTableRecord
100
AcDbBlockTableRecord
  2
*Model_Space
340
2C7F
 70
     0
280
     1
281
     0
  0
BLOCK_RECORD
  5
2C78
330
2C0E
100
AcDbSymbolTableRecord
100
AcDbBlockTableRecord
  2
*Paper_Space
340
2C7B
 70
     0
280
     1
281
     0
  0
BLOCK_RECORD
  5
2D2F
330
2C0E
100
AcDbSymbolTableRecord
100
AcDbBlockTableRecord
  2
_ACMFILLEDHALF
340
0
 70
     0
280
     1
281
     0
  0
ENDTAB
  0
ENDSEC
  0
SECTION
  2
BLOCKS
  0
BLOCK
  5
2C7D
330
2C7C
100
AcDbEntity
  8
0
100
AcDbBlockBegin
  2
*Model_Space
 70
     0
 10
0.0
 20
0.0
 30
0.0
  3
*Model_Space
  1

  0
ENDBLK
  5
2C7E
330
2C7C
100
AcDbEntity
  8
0
100
AcDbBlockEnd
  0
BLOCK
  5
2C79
330
2C78
100
AcDbEntity
 67
     1
  8
0
100
AcDbBlockBegin
  2
*Paper_Space
 70
     0
 10
0.0
 20
0.0
 30
0.0
  3
*Paper_Space
  1

  0
ENDBLK
  5
2C7A
330
2C78
100
AcDbEntity
 67
     1
  8
0
100
AcDbBlockEnd
  0
BLOCK
  5
2D30
330
2D2F
100
AcDbEntity
  8
0
100
AcDbBlockBegin
  2
_ACMFILLEDHALF
 70
     0
 10
0.0
 20
0.0
 30
0.0
  3
_ACMFILLEDHALF
  1

  0
TRACE
  5
2B76
330
2D2F
100
AcDbEntity
  8
AM_0
 62
     0
100
AcDbTrace
 10
-0.8
 20
0.0
 30
0.0
 11
-1.0
 21
0.166666666
 31
0.0
 12
0.0
 22
0.0
 32
0.0
 13
0.0
 23
0.0
 33
0.0
  0
LINE
  5
2B77
330
2D2F
100
AcDbEntity
  8
AM_0
 62
     0
100
AcDbLine
 10
-1.0
 20
0.0
 30
0.0
 11
-0.8
 21
0.0
 31
0.0
  0
ENDBLK
  5
2B75
330
2D2F
100
AcDbEntity
  8
0
100
AcDbBlockEnd
  0
ENDSEC
  0
SECTION
  2
ENTITIES
  0
LINE
  5
27F9
330
2C7C
100
AcDbEntity
  8
AM_0
100
AcDbLine
 10
630.4956925664323
 20
525.6972355471661
 30
0.0
 11
735.4957425664323
 21
525.6972355471661
 31
0.0
  0
LINE
  5
27FA
330
2C7C
100
AcDbEntity
  8
AM_0
100
AcDbLine
 10
630.4956925664323
 20
465.697215547166
 30
0.0
 11
735.4957425664323
 21
465.697215547166
 31
0.0
  0
LINE
  5
27FB
330
2C7C
100
AcDbEntity
  8
AM_0
100
AcDbLine
 10
654.4956925664323
 20
529.6972355471661
 30
0.0
 11
735.4957425664323
 21
529.6972355471661
 31
0.0
  0
LINE
  5
27FC
330
2C7C
100
AcDbEntity
  8
ﾁｭｳｼﾝｾﾝ
100
AcDbLine
 10
738.4347425664323
 20
495.6972155471659
 30
0.0
 11
401.8243689640228
 21
495.6972155471659
 31
0.0
  0
LINE
  5
27FD
330
2C7C
100
AcDbEntity
  8
AM_0
100
AcDbLine
 10
411.9956925664324
 20
622.697235547166
 30
0.0
 11
411.9956925664324
 21
302.697210547166
 31
0.0
  0
LINE
  5
27FE
330
2C7C
100
AcDbEntity
  8
AM_0
100
AcDbLine
 10
392.4957425664323
 20
575.966935547166
 30
0.0
 11
392.4957425664323
 21
316.443670547166
 31
0.0
  0
LINE
  5
27FF
330
2C7C
100
AcDbEntity
  8
AM_0
100
AcDbLine
 10
511.9956925664324
 20
626.0117855471661
 30
0.0
 11
511.9956925664324
 21
424.9994305471657
 31
0.0
  0
LINE
  5
2800
330
2C7C
100
AcDbEntity
  8
AM_0
100
AcDbLine
 10
558.4956925664323
 20
531.624185547166
 30
0.0
 11
558.4956925664323
 21
317.6972105471659
 31
0.0
  0
LINE
  5
2801
330
2C7C
100
AcDbEntity
  8
AM_0
100
AcDbLine
 10
588.4956925664323
 20
609.3181855471661
 30
0.0
 11
588.4956925664323
 21
351.349190547166
 31
0.0
  0
LINE
  5
2802
330
2C7C
100
AcDbEntity
  8
AM_0
100
AcDbLine
 10
618.4956925664323
 20
580.3665355471661
 30
0.0
 11
618.4956925664323
 21
302.697210547166
 31
0.0
  0
LINE
  5
2803
330
2C7C
100
AcDbEntity
  8
AM_0
100
AcDbLine
 10
624.4956925664324
 20
557.8001355471659
 30
0.0
 11
624.4956925664324
 21
433.5942805471661
 31
0.0
  0
LINE
  5
2804
330
2C7C
100
AcDbEntity
  8
AM_0
100
AcDbLine
 10
368.4956925664323
 20
545.1972355471657
 30
0.0
 11
368.4956925664323
 21
350.1972105471659
 31
0.0
  0
LINE
  5
2805
330
2C7C
100
AcDbEntity
  8
AM_0
100
AcDbLine
 10
481.9956925664323
 20
627.6972355471657
 30
0.0
 11
481.9956925664323
 21
347.9353105471659
 31
0.0
  0
LINE
  5
2806
330
2C7C
100
AcDbEntity
  8
AM_0
100
AcDbLine
 10
351.4956925664324
 20
447.6972155471661
 30
0.0
 11
351.4956925664324
 21
556.697215547166
 31
0.0
  0
LINE
  5
2807
330
2C7C
100
AcDbEntity
  8
AM_0
100
AcDbLine
 10
238.4956925664322
 20
475.1972155471658
 30
0.0
 11
238.4956925664322
 21
447.6972155471661
 31
0.0
  0
LINE
  5
2808
330
2C7C
100
AcDbEntity
  8
AM_0
100
AcDbLine
 10
240.4956925664322
 20
487.6143115471661
 30
0.0
 11
240.4956925664322
 21
447.6972155471661
 31
0.0
  0
LINE
  5
2809
330
2C7C
100
AcDbEntity
  8
AM_0
100
AcDbLine
 10
274.4956925664323
 20
495.6972155471659
 30
0.0
 11
274.4956925664323
 21
447.6972155471661
 31
0.0
  0
LINE
  5
280A
330
2C7C
100
AcDbEntity
  8
AM_0
100
AcDbLine
 10
250.4956925664322
 20
492.6055495471658
 30
0.0
 11
250.4956925664322
 21
447.6972155471661
 31
0.0
  0
LINE
  5
280B
330
2C7C
100
AcDbEntity
  8
AM_0
100
AcDbLine
 10
193.4940925664323
 20
464.6972155471659
 30
0.0
 11
193.4940925664323
 21
433.6972155471658
 31
0.0
  0
LINE
  5
280C
330
2C7C
100
AcDbEntity
  8
AM_0
100
AcDbLine
 10
235.4940925664323
 20
462.6972155471658
 30
0.0
 11
235.4940925664323
 21
447.6972155471661
 31
0.0
  0
LINE
  5
280D
330
2C7C
100
AcDbEntity
  8
AM_0
100
AcDbLine
 10
225.4940925664321
 20
464.6972155471659
 30
0.0
 11
225.4940925664321
 21
461.697215547166
 31
0.0
  0
LINE
  5
280E
330
2C7C
100
AcDbEntity
  8
AM_0
100
AcDbLine
 10
272.3711775664323
 20
399.697215547166
 30
0.0
 11
252.6392865664321
 21
399.697215547166
 31
0.0
  0
LINE
  5
280F
330
2C7C
100
AcDbEntity
  8
ﾁｭｳｼﾝｾﾝ
100
AcDbLine
 10
187.08408523457
 20
447.6972155471659
 30
0.0
 11
447.7729627886573
 21
447.6972155471661
 31
0.0
  0
LINE
  5
2810
330
2C7C
100
AcDbEntity
  8
AM_0
100
AcDbLine
 10
235.4940925664323
 20
433.6972155471658
 30
0.0
 11
193.4940925664323
 21
433.6972155471658
 31
0.0
  0
LINE
  5
2811
330
2C7C
100
AcDbEntity
  8
AM_0
100
AcDbLine
 10
235.4940925664323
 20
461.697215547166
 30
0.0
 11
193.4940925664323
 21
461.697215547166
 31
0.0
  0
LINE
  5
2812
330
2C7C
100
AcDbEntity
  8
AM_0
100
AcDbLine
 10
250.4956925664322
 20
402.7888815471658
 30
0.0
 11
250.4956925664322
 21
447.6972155471661
 31
0.0
  0
LINE
  5
2813
330
2C7C
100
AcDbEntity
  8
AM_0
100
AcDbLine
 10
240.4956925664322
 20
407.7801185471661
 30
0.0
 11
240.4956925664322
 21
447.6972155471661
 31
0.0
  0
LINE
  5
2814
330
2C7C
100
AcDbEntity
  8
AM_0
100
AcDbLine
 10
238.4956925664322
 20
420.197215547166
 30
0.0
 11
238.4956925664322
 21
447.6972155471661
 31
0.0
  0
LINE
  5
2815
330
2C7C
100
AcDbEntity
  8
AM_0
100
AcDbLine
 10
238.4956925664322
 20
420.197215547166
 30
0.0
 11
240.4956925664322
 21
418.1972155471659
 31
0.0
  0
ARC
  5
2816
330
2C7C
100
AcDbEntity
  8
AM_0
100
AcDbCircle
 10
252.6392865664321
 20
407.697215547166
 30
0.0
 40
8.0
100
AcDbArc
 50
239.9999999999995
 51
270.0
  0
LINE
  5
2817
330
2C7C
100
AcDbEntity
  8
AM_0
100
AcDbLine
 10
248.6392865664321
 20
400.7690115471659
 30
0.0
 11
242.4956925664322
 21
404.3160175471659
 31
0.0
  0
ARC
  5
2818
330
2C7C
100
AcDbEntity
  8
AM_0
100
AcDbCircle
 10
244.4956925664322
 20
407.7801185471661
 30
0.0
 40
4.0
100
AcDbArc
 50
180.0
 51
239.9999999999995
  0
LINE
  5
2819
330
2C7C
100
AcDbEntity
  8
AM_0
100
AcDbLine
 10
235.4940925664323
 20
432.697215547166
 30
0.0
 11
235.4940925664323
 21
447.6972155471661
 31
0.0
  0
LINE
  5
281A
330
2C7C
100
AcDbEntity
  8
AM_0
100
AcDbLine
 10
238.4956925664322
 20
432.697215547166
 30
0.0
 11
235.4940925664323
 21
432.697215547166
 31
0.0
  0
LINE
  5
281B
330
2C7C
100
AcDbEntity
  8
AM_0
100
AcDbLine
 10
481.9956925664323
 20
424.9994305471657
 30
0.0
 11
511.9956925664324
 21
424.9994305471657
 31
0.0
  0
LINE
  5
281C
330
2C7C
100
AcDbEntity
  8
AM_0
100
AcDbLine
 10
364.4956925664323
 20
270.6972105471661
 30
0.0
 11
624.4956925664324
 21
270.6972105471661
 31
0.0
  0
LINE
  5
281D
330
2C7C
100
AcDbEntity
  8
AM_0
100
AcDbLine
 10
437.392242566432
 20
305.4557855471661
 30
0.0
 11
483.892242566432
 21
349.7415255471659
 31
0.0
  0
LINE
  5
281E
330
2C7C
100
AcDbEntity
  8
AM_0
100
AcDbLine
 10
369.4956925664324
 20
302.697210547166
 30
0.0
 11
430.4956925664323
 21
302.697210547166
 31
0.0
  0
LINE
  5
281F
330
2C7C
100
AcDbEntity
  8
AM_0
100
AcDbLine
 10
364.4956925664323
 20
297.697210547166
 30
0.0
 11
364.4956925664323
 21
270.6972105471661
 31
0.0
  0
ARC
  5
2820
330
2C7C
100
AcDbEntity
  8
AM_0
100
AcDbCircle
 10
369.4956925664324
 20
297.697210547166
 30
0.0
 40
5.0
100
AcDbArc
 50
90.00000300000001
 51
180.00001
  0
ARC
  5
2821
330
2C7C
100
AcDbEntity
  8
AM_0
100
AcDbCircle
 10
430.4956925664323
 20
312.697210547166
 30
0.0
 40
10.0
100
AcDbArc
 50
270.0
 51
313.60282
  0
LINE
  5
2822
330
2C7C
100
AcDbEntity
  8
ﾁｭｳｼﾝｾﾝ1
100
AcDbLine
 10
394.4956925664324
 20
309.5515205471659
 30
0.0
 11
394.4956925664324
 21
264.4576505471661
 31
0.0
  0
LINE
  5
2823
330
2C7C
100
AcDbEntity
  8
ｶｸﾚｾﾝ2
100
AcDbLine
 10
382.4957425664323
 20
302.697210547166
 30
0.0
 11
382.4957425664323
 21
270.6972105471661
 31
0.0
  0
LINE
  5
2824
330
2C7C
100
AcDbEntity
  8
ｶｸﾚｾﾝ2
100
AcDbLine
 10
406.4957425664323
 20
302.697210547166
 30
0.0
 11
406.4957425664323
 21
270.6972105471661
 31
0.0
  0
LINE
  5
2825
330
2C7C
100
AcDbEntity
  8
AM_0
100
AcDbLine
 10
401.770192566432
 20
302.6971505471657
 30
0.0
 11
395.2501425664323
 21
309.5515205471659
 31
0.0
  0
ARC
  5
2826
330
2C7C
100
AcDbEntity
  8
AM_0
100
AcDbCircle
 10
402.4957425664323
 20
316.443670547166
 30
0.0
 40
10.0
100
AcDbArc
 50
179.9999899999999
 51
223.5679
  0
LINE
  5
2827
330
2C7C
100
AcDbEntity
  8
AM_0
100
AcDbLine
 10
370.4956925664323
 20
390.921455547166
 30
0.0
 11
392.4957425664323
 21
390.921455547166
 31
0.0
  0
LINE
  5
2828
330
2C7C
100
AcDbEntity
  8
AM_0
100
AcDbLine
 10
370.4956925664323
 20
374.691050547166
 30
0.0
 11
392.4957425664323
 21
374.691050547166
 31
0.0
  0
LINE
  5
2829
330
2C7C
100
AcDbEntity
  8
AM_0
100
AcDbLine
 10
370.4956925664323
 20
364.399790547166
 30
0.0
 11
392.4957425664323
 21
364.399790547166
 31
0.0
  0
LINE
  5
282A
330
2C7C
100
AcDbEntity
  8
AM_0
100
AcDbLine
 10
368.4957425664323
 20
350.1972105471659
 30
0.0
 11
382.8447425664322
 21
349.696145547166
 31
0.0
  0
LINE
  5
282B
330
2C7C
100
AcDbEntity
  8
AM_0
100
AcDbLine
 10
370.4956925664323
 20
390.921455547166
 30
0.0
 11
370.4956925664323
 21
364.399790547166
 31
0.0
  0
LINE
  5
282C
330
2C7C
100
AcDbEntity
  8
AM_0
100
AcDbLine
 10
367.4956925664324
 20
421.1602155471661
 30
0.0
 11
367.4956925664324
 21
364.0844325471662
 31
0.0
  0
LINE
  5
282D
330
2C7C
100
AcDbEntity
  8
AM_0
100
AcDbLine
 10
351.4956925664324
 20
351.197215547166
 30
0.0
 11
351.4956925664324
 21
447.6972155471661
 31
0.0
  0
LINE
  5
282E
330
2C7C
100
AcDbEntity
  8
AM_0
100
AcDbLine
 10
348.4725265664323
 20
357.424738547166
 30
0.0
 11
276.3402885664322
 21
398.6431605471659
 31
0.0
  0
ARC
  5
282F
330
2C7C
100
AcDbEntity
  8
AM_0
100
AcDbCircle
 10
345.4956925664323
 20
352.215279547166
 30
0.0
 40
6.0
100
AcDbArc
 50
0.0
 51
60.25511900000238
  0
LINE
  5
2830
330
2C7C
100
AcDbEntity
  8
AM_0
100
AcDbLine
 10
368.4956925664323
 20
350.197215547166
 30
0.0
 11
352.4956925664323
 21
350.197215547166
 31
0.0
  0
ARC
  5
2831
330
2C7C
100
AcDbEntity
  8
AM_0
100
AcDbCircle
 10
352.4956925664323
 20
351.197215547166
 30
0.0
 40
1.0
100
AcDbArc
 50
180.0
 51
270.0
  0
LINE
  5
2832
330
2C7C
100
AcDbEntity
  8
AM_0
100
AcDbLine
 10
367.4956925664324
 20
364.0844325471662
 30
0.0
 11
353.4956925664324
 21
364.0844325471662
 31
0.0
  0
ARC
  5
2833
330
2C7C
100
AcDbEntity
  8
AM_0
100
AcDbCircle
 10
353.4956925664324
 20
366.0844325471662
 30
0.0
 40
2.0
100
AcDbArc
 50
180.0
 51
270.0
  0
LINE
  5
2834
330
2C7C
100
AcDbEntity
  8
AM_0
100
AcDbLine
 10
274.4956925664323
 20
399.697215547166
 30
0.0
 11
274.4956925664323
 21
447.6972155471661
 31
0.0
  0
ARC
  5
2835
330
2C7C
100
AcDbEntity
  8
AM_0
100
AcDbCircle
 10
272.3711775664323
 20
391.697215547166
 30
0.0
 40
8.0
100
AcDbArc
 50
60.25511900000238
 51
90.0
  0
LINE
  5
2836
330
2C7C
100
AcDbEntity
  8
AM_0
100
AcDbLine
 10
353.4956925664324
 20
405.6966875471657
 30
0.0
 11
367.4956925664324
 21
405.6966875471657
 31
0.0
  0
ARC
  5
2837
330
2C7C
100
AcDbEntity
  8
AM_0
100
AcDbCircle
 10
353.4956925664324
 20
403.696687547166
 30
0.0
 40
2.0
100
AcDbArc
 50
90.0
 51
180.0
  0
LINE
  5
2838
330
2C7C
100
AcDbEntity
  8
AM_0
100
AcDbLine
 10
353.4956925664324
 20
421.1602155471661
 30
0.0
 11
367.4956925664324
 21
421.1602155471661
 31
0.0
  0
ARC
  5
2839
330
2C7C
100
AcDbEntity
  8
AM_0
100
AcDbCircle
 10
353.4956925664324
 20
419.160215547166
 30
0.0
 40
2.0
100
AcDbArc
 50
90.0
 51
180.0
  0
LINE
  5
283A
330
2C7C
100
AcDbEntity
  8
AM_0
100
AcDbLine
 10
486.9956925664324
 20
424.9994305471657
 30
0.0
 11
486.9956925664324
 21
356.9829205471659
 31
0.0
  0
LINE
  5
283B
330
2C7C
100
AcDbEntity
  8
AM_0
100
AcDbLine
 10
441.9956925664323
 20
395.640085547166
 30
0.0
 11
441.9956925664323
 21
361.3707355471659
 31
0.0
  0
LINE
  5
283C
330
2C7C
100
AcDbEntity
  8
AM_0
100
AcDbLine
 10
416.9956925664323
 20
358.3707355471659
 30
0.0
 11
438.9957425664325
 21
358.3707355471659
 31
0.0
  0
ARC
  5
283D
330
2C7C
100
AcDbEntity
  8
AM_0
100
AcDbCircle
 10
416.9956925664323
 20
353.3707355471659
 30
0.0
 40
5.0
100
AcDbArc
 50
90.00000300000001
 51
180.00001
  0
ARC
  5
283E
330
2C7C
100
AcDbEntity
  8
AM_0
100
AcDbCircle
 10
382.4957425664323
 20
339.702215547166
 30
0.0
 40
10.0
100
AcDbArc
 50
0.0
 51
88.0
  0
ARC
  5
283F
330
2C7C
100
AcDbEntity
  8
AM_0
100
AcDbCircle
 10
476.9956925664323
 20
356.9829205471659
 30
0.0
 40
10.0
100
AcDbArc
 50
313.60282
 51
0.0
  0
ARC
  5
2840
330
2C7C
100
AcDbEntity
  8
AM_0
100
AcDbCircle
 10
438.9957425664325
 20
361.3707355471659
 30
0.0
 40
3.00000005
100
AcDbArc
 50
270.0
 51
0.0
  0
LINE
  5
2841
330
2C7C
100
AcDbEntity
  8
AM_0
100
AcDbLine
 10
416.9956925664323
 20
398.640115547166
 30
0.0
 11
438.9957425664325
 21
398.640115547166
 31
0.0
  0
ARC
  5
2842
330
2C7C
100
AcDbEntity
  8
AM_0
100
AcDbCircle
 10
416.9956925664323
 20
403.640115547166
 30
0.0
 40
5.0
100
AcDbArc
 50
179.9999899999999
 51
270.0
  0
ARC
  5
2843
330
2C7C
100
AcDbEntity
  8
AM_0
100
AcDbCircle
 10
438.9957425664325
 20
395.640085547166
 30
0.0
 40
3.00000005
100
AcDbArc
 50
0.0
 51
90.00000300000001
  0
LINE
  5
2844
330
2C7C
100
AcDbEntity
  8
AM_0
100
AcDbLine
 10
573.4956925664323
 20
302.697210547166
 30
0.0
 11
619.4956925664323
 21
302.697210547166
 31
0.0
  0
LINE
  5
2845
330
2C7C
100
AcDbEntity
  8
ﾁｭｳｼﾝｾﾝ1
100
AcDbLine
 10
594.4956925664323
 20
307.5356205471663
 30
0.0
 11
594.4956925664323
 21
264.4576505471661
 31
0.0
  0
LINE
  5
2846
330
2C7C
100
AcDbEntity
  8
ｶｸﾚｾﾝ2
100
AcDbLine
 10
582.4957425664324
 20
302.697210547166
 30
0.0
 11
582.4957425664324
 21
270.6972105471661
 31
0.0
  0
ARC
  5
2847
330
2C7C
100
AcDbEntity
  8
AM_0
100
AcDbCircle
 10
573.4956925664323
 20
317.6972105471659
 30
0.0
 40
15.0
100
AcDbArc
 50
179.9999899999999
 51
270.0
  0
LINE
  5
2848
330
2C7C
100
AcDbEntity
  8
AM_0
100
AcDbLine
 10
624.4956925664324
 20
297.697210547166
 30
0.0
 11
624.4956925664324
 21
270.6972105471661
 31
0.0
  0
LINE
  5
2849
330
2C7C
100
AcDbEntity
  8
ｶｸﾚｾﾝ2
100
AcDbLine
 10
606.4957425664324
 20
302.697210547166
 30
0.0
 11
606.4957425664324
 21
270.6972105471661
 31
0.0
  0
ARC
  5
284A
330
2C7C
100
AcDbEntity
  8
AM_0
100
AcDbCircle
 10
619.4956925664323
 20
297.697210547166
 30
0.0
 40
5.0
100
AcDbArc
 50
0.0
 51
90.00000300000001
  0
LINE
  5
284B
330
2C7C
100
AcDbEntity
  8
AM_0
100
AcDbLine
 10
558.4956925664323
 20
341.3491905471659
 30
0.0
 11
578.4956925664324
 21
341.3491905471659
 31
0.0
  0
ARC
  5
284C
330
2C7C
100
AcDbEntity
  8
AM_0
100
AcDbCircle
 10
578.4956925664324
 20
351.349190547166
 30
0.0
 40
10.0
100
AcDbArc
 50
270.0
 51
0.0
  0
ARC
  5
284D
330
2C7C
100
AcDbEntity
  8
AM_0
100
AcDbCircle
 10
621.4957425664324
 20
427.5906455471662
 30
0.0
 40
3.00000005
100
AcDbArc
 50
91.99999799999995
 51
180.00001
  0
ARC
  5
284E
330
2C7C
100
AcDbEntity
  8
AM_0
100
AcDbCircle
 10
621.4957425664324
 20
433.5942805471661
 30
0.0
 40
3.00000005
100
AcDbArc
 50
272.0
 51
0.0
  0
LINE
  5
284F
330
2C7C
100
AcDbEntity
  8
AM_0
100
AcDbLine
 10
621.3909425664324
 20
430.5887855471659
 30
0.0
 11
621.6004425664323
 21
430.5960805471658
 31
0.0
  0
LINE
  5
2850
330
2C7C
100
AcDbEntity
  8
AM_0
100
AcDbLine
 10
272.3711775664323
 20
495.6972155471659
 30
0.0
 11
252.6392865664321
 21
495.6972155471659
 31
0.0
  0
LINE
  5
2851
330
2C7C
100
AcDbEntity
  8
AM_0
100
AcDbLine
 10
225.4940925664321
 20
464.6972155471659
 30
0.0
 11
193.4940925664323
 21
464.6972155471659
 31
0.0
  0
LINE
  5
2852
330
2C7C
100
AcDbEntity
  8
AM_0
100
AcDbLine
 10
238.4956925664322
 20
475.1972155471658
 30
0.0
 11
240.4956925664322
 21
477.1972155471661
 31
0.0
  0
LINE
  5
2853
330
2C7C
100
AcDbEntity
  8
AM_0
100
AcDbLine
 10
238.4956925664322
 20
462.6972155471658
 30
0.0
 11
235.4940925664323
 21
462.6972155471658
 31
0.0
  0
ARC
  5
2854
330
2C7C
100
AcDbEntity
  8
AM_0
100
AcDbCircle
 10
252.6392865664321
 20
487.6972155471658
 30
0.0
 40
8.0
100
AcDbArc
 50
90.0
 51
120.0000000000005
  0
LINE
  5
2855
330
2C7C
100
AcDbEntity
  8
AM_0
100
AcDbLine
 10
248.6392865664321
 20
494.6254185471659
 30
0.0
 11
242.4956925664322
 21
491.0784125471661
 31
0.0
  0
ARC
  5
2856
330
2C7C
100
AcDbEntity
  8
AM_0
100
AcDbCircle
 10
244.4956925664322
 20
487.6143115471661
 30
0.0
 40
4.0
100
AcDbArc
 50
120.0000000000005
 51
180.0
  0
LINE
  5
2857
330
2C7C
100
AcDbEntity
  8
AM_0
100
AcDbLine
 10
481.9957425664322
 20
627.6971355471661
 30
0.0
 11
507.0122425664322
 21
626.8235355471658
 31
0.0
  0
LINE
  5
2858
330
2C7C
100
AcDbEntity
  8
AM_0
100
AcDbLine
 10
441.9956925664323
 20
614.4448355471661
 30
0.0
 11
441.9956925664323
 21
603.9155355471661
 31
0.0
  0
LINE
  5
2859
330
2C7C
100
AcDbEntity
  8
AM_0
100
AcDbLine
 10
368.4956925664323
 20
545.1972355471657
 30
0.0
 11
382.8446925664323
 21
545.6982355471659
 31
0.0
  0
LINE
  5
285A
330
2C7C
100
AcDbEntity
  8
AM_0
100
AcDbLine
 10
370.4956925664323
 20
520.703410547166
 30
0.0
 11
392.4957425664323
 21
520.703410547166
 31
0.0
  0
LINE
  5
285B
330
2C7C
100
AcDbEntity
  8
AM_0
100
AcDbLine
 10
370.4956925664323
 20
530.994585547166
 30
0.0
 11
392.4957425664323
 21
530.994585547166
 31
0.0
  0
LINE
  5
285C
330
2C7C
100
AcDbEntity
  8
AM_0
100
AcDbLine
 10
370.4956925664323
 20
504.4730005471659
 30
0.0
 11
392.4957425664323
 21
504.4730005471659
 31
0.0
  0
LINE
  5
285D
330
2C7C
100
AcDbEntity
  8
AM_0
100
AcDbLine
 10
348.4725265664323
 20
537.969691547166
 30
0.0
 11
276.3402885664322
 21
496.7512695471659
 31
0.0
  0
ARC
  5
285E
330
2C7C
100
AcDbEntity
  8
AM_0
100
AcDbCircle
 10
272.3711775664323
 20
503.6972155471659
 30
0.0
 40
8.0
100
AcDbArc
 50
270.0
 51
299.7448809999976
  0
LINE
  5
285F
330
2C7C
100
AcDbEntity
  8
AM_0
100
AcDbLine
 10
370.4956925664323
 20
530.994585547166
 30
0.0
 11
370.4956925664323
 21
504.4730005471659
 31
0.0
  0
LINE
  5
2860
330
2C7C
100
AcDbEntity
  8
AM_0
100
AcDbLine
 10
367.4956925664324
 20
531.3099985471659
 30
0.0
 11
367.4956925664324
 21
504.4730035471657
 31
0.0
  0
LINE
  5
2861
330
2C7C
100
AcDbEntity
  8
AM_0
100
AcDbLine
 10
353.4956925664324
 20
504.4730035471657
 30
0.0
 11
367.4956925664324
 21
504.4730035471657
 31
0.0
  0
ARC
  5
2862
330
2C7C
100
AcDbEntity
  8
AM_0
100
AcDbCircle
 10
353.4956925664324
 20
506.4730035471662
 30
0.0
 40
2.0
100
AcDbArc
 50
180.0
 51
270.0
  0
LINE
  5
2863
330
2C7C
100
AcDbEntity
  8
AM_0
100
AcDbLine
 10
367.4956925664324
 20
520.7033965471662
 30
0.0
 11
353.4956925664324
 21
520.7033965471662
 31
0.0
  0
LINE
  5
2864
330
2C7C
100
AcDbEntity
  8
AM_0
100
AcDbLine
 10
367.4956925664324
 20
531.3099985471659
 30
0.0
 11
353.4956925664324
 21
531.3099985471659
 31
0.0
  0
ARC
  5
2865
330
2C7C
100
AcDbEntity
  8
AM_0
100
AcDbCircle
 10
353.4956925664324
 20
518.7033965471662
 30
0.0
 40
2.0
100
AcDbArc
 50
90.0
 51
180.0
  0
ARC
  5
2866
330
2C7C
100
AcDbEntity
  8
AM_0
100
AcDbCircle
 10
353.4956925664324
 20
529.3099985471659
 30
0.0
 40
2.0
100
AcDbArc
 50
90.0
 51
180.0
  0
ARC
  5
2867
330
2C7C
100
AcDbEntity
  8
AM_0
100
AcDbCircle
 10
345.4956925664323
 20
543.1791505471663
 30
0.0
 40
6.0
100
AcDbArc
 50
299.7448809999976
 51
0.0
  0
LINE
  5
2868
330
2C7C
100
AcDbEntity
  8
AM_0
100
AcDbLine
 10
367.4956925664324
 20
545.1972155471662
 30
0.0
 11
367.4956925664324
 21
558.697215547166
 31
0.0
  0
LINE
  5
2869
330
2C7C
100
AcDbEntity
  8
AM_0
100
AcDbLine
 10
368.4956925664323
 20
545.1972155471662
 30
0.0
 11
352.4956925664323
 21
545.1972155471662
 31
0.0
  0
ARC
  5
286A
330
2C7C
100
AcDbEntity
  8
AM_0
100
AcDbCircle
 10
352.4956925664323
 20
544.1972155471662
 30
0.0
 40
1.0
100
AcDbArc
 50
90.0
 51
180.0
  0
LINE
  5
286B
330
2C7C
100
AcDbEntity
  8
AM_0
100
AcDbLine
 10
367.4956925664324
 20
558.697215547166
 30
0.0
 11
353.4956925664324
 21
558.697215547166
 31
0.0
  0
ARC
  5
286C
330
2C7C
100
AcDbEntity
  8
AM_0
100
AcDbCircle
 10
353.4956925664324
 20
556.697215547166
 30
0.0
 40
2.0
100
AcDbArc
 50
90.0
 51
180.0
  0
LINE
  5
286D
330
2C7C
100
AcDbEntity
  8
AM_0
100
AcDbLine
 10
416.9956925664323
 20
483.748055547166
 30
0.0
 11
438.9957425664325
 21
483.748055547166
 31
0.0
  0
LINE
  5
286E
330
2C7C
100
AcDbEntity
  8
AM_0
100
AcDbLine
 10
416.9956925664323
 20
520.9222505471662
 30
0.0
 11
438.9957425664325
 21
520.9222505471662
 31
0.0
  0
ARC
  5
286F
330
2C7C
100
AcDbEntity
  8
AM_0
100
AcDbCircle
 10
416.9956925664323
 20
478.7480555471661
 30
0.0
 40
5.0
100
AcDbArc
 50
90.00000300000001
 51
180.00001
  0
ARC
  5
2870
330
2C7C
100
AcDbEntity
  8
AM_0
100
AcDbCircle
 10
416.9956925664323
 20
525.9222355471661
 30
0.0
 40
5.0
100
AcDbArc
 50
179.9999899999999
 51
270.0
  0
LINE
  5
2871
330
2C7C
100
AcDbEntity
  8
AM_0
100
AcDbLine
 10
441.9956925664323
 20
517.9222505471661
 30
0.0
 11
441.9956925664323
 21
486.7480555471661
 31
0.0
  0
ARC
  5
2872
330
2C7C
100
AcDbEntity
  8
AM_0
100
AcDbCircle
 10
438.9957425664325
 20
486.7480555471661
 30
0.0
 40
3.00000005
100
AcDbArc
 50
270.0
 51
0.0
  0
ARC
  5
2873
330
2C7C
100
AcDbEntity
  8
AM_0
100
AcDbCircle
 10
438.9957425664325
 20
517.9222505471661
 30
0.0
 40
3.00000005
100
AcDbArc
 50
0.0
 51
90.00000300000001
  0
LINE
  5
2874
330
2C7C
100
AcDbEntity
  8
AM_0
100
AcDbLine
 10
416.9956925664323
 20
600.915485547166
 30
0.0
 11
438.9957425664325
 21
600.915485547166
 31
0.0
  0
ARC
  5
2875
330
2C7C
100
AcDbEntity
  8
AM_0
100
AcDbCircle
 10
382.4957425664323
 20
555.6922355471661
 30
0.0
 40
10.0
100
AcDbArc
 50
272.0
 51
0.0
  0
LINE
  5
2876
330
2C7C
100
AcDbEntity
  8
AM_0
100
AcDbLine
 10
396.1525425664323
 20
583.697635547166
 30
0.0
 11
408.3388925664323
 21
593.6966855471661
 31
0.0
  0
ARC
  5
2877
330
2C7C
100
AcDbEntity
  8
AM_0
100
AcDbCircle
 10
402.4957425664323
 20
575.966935547166
 30
0.0
 40
10.0
100
AcDbArc
 50
129.3693199999998
 51
180.00001
  0
ARC
  5
2878
330
2C7C
100
AcDbEntity
  8
AM_0
100
AcDbCircle
 10
416.9956925664323
 20
595.9154855471656
 30
0.0
 40
5.0
100
AcDbArc
 50
90.00000300000001
 51
180.00001
  0
ARC
  5
2879
330
2C7C
100
AcDbEntity
  8
AM_0
100
AcDbCircle
 10
401.9956925664323
 20
601.4274355471662
 30
0.0
 40
10.0
100
AcDbArc
 50
309.36932
 51
0.0
  0
ARC
  5
287A
330
2C7C
100
AcDbEntity
  8
AM_0
100
AcDbCircle
 10
438.9957425664325
 20
603.9155355471661
 30
0.0
 40
3.00000005
100
AcDbArc
 50
270.0
 51
0.0
  0
LINE
  5
287B
330
2C7C
100
AcDbEntity
  8
AM_0
100
AcDbLine
 10
426.9957425664323
 20
638.6972355471661
 30
0.0
 11
436.4737925664321
 21
636.8182355471661
 31
0.0
  0
ARC
  5
287C
330
2C7C
100
AcDbEntity
  8
AM_0
100
AcDbCircle
 10
426.9956925664323
 20
653.6972355471661
 30
0.0
 40
25.0000005
100
AcDbArc
 50
306.46672
 51
233.53329
  0
CIRCLE
  5
287D
330
2C7C
100
AcDbEntity
  8
AM_0
100
AcDbCircle
 10
426.9956925664323
 20
653.6972355471661
 30
0.0
 40
15.0
  0
LINE
  5
287E
330
2C7C
100
AcDbEntity
  8
AM_0
100
AcDbLine
 10
416.9956925664323
 20
617.444785547166
 30
0.0
 11
438.9957425664325
 21
617.444785547166
 31
0.0
  0
LINE
  5
287F
330
2C7C
100
AcDbEntity
  8
AM_0
100
AcDbLine
 10
417.2016925664322
 20
636.6972355471657
 30
0.0
 11
436.7897925664323
 21
636.6972355471657
 31
0.0
  0
LINE
  5
2880
330
2C7C
100
AcDbEntity
  8
AM_0
100
AcDbLine
 10
416.9956925664323
 20
627.6972355471657
 30
0.0
 11
481.9956925664323
 21
627.6972355471657
 31
0.0
  0
LINE
  5
2881
330
2C7C
100
AcDbEntity
  8
AM_0
100
AcDbLine
 10
416.8212425664322
 20
625.4212855471661
 30
0.0
 11
481.9956925664323
 21
627.6972355471657
 31
0.0
  0
ARC
  5
2882
330
2C7C
100
AcDbEntity
  8
AM_0
100
AcDbCircle
 10
416.9956925664323
 20
622.697235547166
 30
0.0
 40
5.0
100
AcDbArc
 50
90.00000300000001
 51
180.00001
  0
ARC
  5
2883
330
2C7C
100
AcDbEntity
  8
AM_0
100
AcDbCircle
 10
416.9956925664323
 20
620.4243355471661
 30
0.0
 40
5.0
100
AcDbArc
 50
91.99999799999995
 51
180.00001
  0
ARC
  5
2884
330
2C7C
100
AcDbEntity
  8
AM_0
100
AcDbCircle
 10
416.9956925664323
 20
622.444785547166
 30
0.0
 40
5.0
100
AcDbArc
 50
179.9999899999999
 51
270.0
  0
LINE
  5
2885
330
2C7C
100
AcDbEntity
  8
AM_0
100
AcDbLine
 10
417.517692566432
 20
636.8181855471661
 30
0.0
 11
426.9956925664323
 21
638.697135547166
 31
0.0
  0
ARC
  5
2886
330
2C7C
100
AcDbEntity
  8
AM_0
100
AcDbCircle
 10
417.7121425664323
 20
635.8373355471662
 30
0.0
 40
1.0
100
AcDbArc
 50
101.21329
 51
164.99999
  0
ARC
  5
2887
330
2C7C
100
AcDbEntity
  8
AM_0
100
AcDbCircle
 10
408.5706925664322
 20
628.7669355471661
 30
0.0
 40
6.0
100
AcDbArc
 50
349.72995
 51
53.53329100000001
  0
LINE
  5
2888
330
2C7C
100
AcDbEntity
  8
AM_0
100
AcDbLine
 10
414.281092566432
 20
626.8961355471661
 30
0.0
 11
416.7462425664322
 21
636.0961355471661
 31
0.0
  0
ARC
  5
2889
330
2C7C
100
AcDbEntity
  8
AM_0
100
AcDbCircle
 10
438.9957425664325
 20
614.4448355471661
 30
0.0
 40
3.00000005
100
AcDbArc
 50
0.0
 51
90.00000300000001
  0
ARC
  5
288A
330
2C7C
100
AcDbEntity
  8
AM_0
100
AcDbCircle
 10
436.2793425664323
 20
635.8373355471662
 30
0.0
 40
1.0
100
AcDbArc
 50
15.0
 51
78.78671
  0
ARC
  5
288B
330
2C7C
100
AcDbEntity
  8
AM_0
100
AcDbCircle
 10
445.420742566432
 20
628.7669355471661
 30
0.0
 40
6.0
100
AcDbArc
 50
126.4666999999999
 51
190.27006
  0
LINE
  5
288C
330
2C7C
100
AcDbEntity
  8
AM_0
100
AcDbLine
 10
439.4956925664323
 20
627.6971355471661
 30
0.0
 11
437.245192566432
 21
636.0961355471661
 31
0.0
  0
LINE
  5
288D
330
2C7C
100
AcDbEntity
  8
AM_0
100
AcDbLine
 10
597.6241925664326
 20
589.5232855471657
 30
0.0
 11
611.1929925664326
 21
588.3361355471659
 31
0.0
  0
ARC
  5
288E
330
2C7C
100
AcDbEntity
  8
AM_0
100
AcDbCircle
 10
573.4956925664323
 20
531.624185547166
 30
0.0
 40
15.0
100
AcDbArc
 50
90.00000300000001
 51
180.00001
  0
LINE
  5
288F
330
2C7C
100
AcDbEntity
  8
AM_0
100
AcDbLine
 10
573.4956925664323
 20
546.624135547166
 30
0.0
 11
588.4956925664323
 21
546.624135547166
 31
0.0
  0
ARC
  5
2890
330
2C7C
100
AcDbEntity
  8
AM_0
100
AcDbCircle
 10
598.4956925664323
 20
599.4851855471661
 30
0.0
 40
10.0
100
AcDbArc
 50
179.9999899999999
 51
265.0
  0
LINE
  5
2891
330
2C7C
100
AcDbEntity
  8
AM_0
100
AcDbLine
 10
630.4956925664323
 20
528.1972355471657
 30
0.0
 11
630.4956925664323
 21
463.1972155471658
 31
0.0
  0
LINE
  5
2892
330
2C7C
100
AcDbEntity
  8
AM_0
100
AcDbLine
 10
624.4956925664324
 20
463.1972155471658
 30
0.0
 11
630.4956925664323
 21
463.1972155471658
 31
0.0
  0
LINE
  5
2893
330
2C7C
100
AcDbEntity
  8
AM_0
100
AcDbLine
 10
624.4956925664324
 20
528.1972355471657
 30
0.0
 11
630.4956925664323
 21
528.1972355471657
 31
0.0
  0
LINE
  5
2894
330
2C7C
100
AcDbEntity
  8
AM_0
100
AcDbLine
 10
654.4956925664323
 20
529.6972355471661
 30
0.0
 11
654.4956925664323
 21
525.6972355471661
 31
0.0
  0
ARC
  5
2895
330
2C7C
100
AcDbEntity
  8
AM_0
100
AcDbCircle
 10
621.4957425664324
 20
557.8001355471659
 30
0.0
 40
3.00000005
100
AcDbArc
 50
0.0
 51
88.0
  0
ARC
  5
2896
330
2C7C
100
AcDbEntity
  8
AM_0
100
AcDbCircle
 10
621.4957425664324
 20
563.8037855471659
 30
0.0
 40
3.00000005
100
AcDbArc
 50
179.9999899999999
 51
268.0000099999999
  0
LINE
  5
2897
330
2C7C
100
AcDbEntity
  8
AM_0
100
AcDbLine
 10
621.3910425664322
 20
560.805635547166
 30
0.0
 11
621.6004925664321
 21
560.7982855471658
 31
0.0
  0
ARC
  5
2898
330
2C7C
100
AcDbEntity
  8
AM_0
100
AcDbCircle
 10
610.4956925664323
 20
580.3665355471661
 30
0.0
 40
8.0
100
AcDbArc
 50
0.0
 51
84.99999699999998
  0
LINE
  5
2899
330
2C7C
100
AcDbEntity
  8
AM_0
100
AcDbLine
 10
523.7109925664322
 20
621.237385547166
 30
0.0
 11
578.844692566432
 21
619.3120855471661
 31
0.0
  0
LINE
  5
289A
330
2C7C
100
AcDbEntity
  8
AM_0
100
AcDbLine
 10
516.3141925664322
 20
624.1563355471661
 30
0.0
 11
519.0598925664326
 21
622.5711355471661
 31
0.0
  0
ARC
  5
289B
330
2C7C
100
AcDbEntity
  8
AM_0
100
AcDbCircle
 10
506.3141925664321
 20
606.8357855471661
 30
0.0
 40
20.0000005
100
AcDbArc
 50
60.000002
 51
88.0
  0
ARC
  5
289C
330
2C7C
100
AcDbEntity
  8
AM_0
100
AcDbCircle
 10
524.0598925664325
 20
631.2313855471662
 30
0.0
 40
10.0
100
AcDbArc
 50
239.9999999999999
 51
268.0
  0
ARC
  5
289D
330
2C7C
100
AcDbEntity
  8
AM_0
100
AcDbCircle
 10
578.4956925664324
 20
609.3181855471661
 30
0.0
 40
10.0
100
AcDbArc
 50
0.0
 51
88.0
  0
CIRCLE
  5
289E
330
2C7C
100
AcDbEntity
  8
AM_0
100
AcDbCircle
 10
1015.908603604503
 20
495.6972155471659
 30
0.0
 40
65.0
  0
LINE
  5
289F
330
2C7C
100
AcDbEntity
  8
AM_0
100
AcDbLine
 10
1152.726993604503
 20
527.4988355471661
 30
0.0
 11
1195.908588604503
 21
305.348730547166
 31
0.0
  0
LINE
  5
28A0
330
2C7C
100
AcDbEntity
  8
AM_0
100
AcDbLine
 10
1145.908588604503
 20
544.999235547166
 30
0.0
 11
1145.908588604503
 21
407.697215547166
 31
0.0
  0
LINE
  5
28A1
330
2C7C
100
AcDbEntity
  8
AM_0
100
AcDbLine
 10
1122.908573604503
 20
480.6972155471659
 30
0.0
 11
1122.908573604503
 21
317.6972105471659
 31
0.0
  0
LINE
  5
28A2
330
2C7C
100
AcDbEntity
  8
AM_0
100
AcDbLine
 10
908.9085686045036
 20
480.6972155471659
 30
0.0
 11
908.9085686045036
 21
317.6972105471659
 31
0.0
  0
LINE
  5
28A3
330
2C7C
100
AcDbEntity
  8
AM_0
100
AcDbLine
 10
885.9086036045036
 20
544.999235547166
 30
0.0
 11
885.9086036045036
 21
407.697215547166
 31
0.0
  0
LINE
  5
28A4
330
2C7C
100
AcDbEntity
  8
AM_0
100
AcDbLine
 10
879.0901786045036
 20
527.4988355471661
 30
0.0
 11
835.9085886045036
 21
305.348730547166
 31
0.0
  0
LINE
  5
28A5
330
2C7C
100
AcDbEntity
  8
ﾁｭｳｼﾝｾﾝ
100
AcDbLine
 10
1015.908603604503
 20
684.6875902202971
 30
0.0
 11
1015.908603604503
 21
266.6021355471659
 31
0.0
  0
LINE
  5
28A6
330
2C7C
100
AcDbEntity
  8
AM_0
100
AcDbLine
 10
1195.908588604503
 20
270.6972105471661
 30
0.0
 11
1115.908603604503
 21
270.6972105471661
 31
0.0
  0
LINE
  5
28A7
330
2C7C
100
AcDbEntity
  8
AM_0
100
AcDbLine
 10
1190.908588604503
 20
302.697210547166
 30
0.0
 11
1120.908588604502
 21
302.697210547166
 31
0.0
  0
LINE
  5
28A8
330
2C7C
100
AcDbEntity
  8
ﾁｭｳｼﾝｾﾝ
100
AcDbLine
 10
874.1392319274492
 20
447.6972155471661
 30
0.0
 11
1158.780919328819
 21
447.6972155471661
 31
0.0
  0
ARC
  5
28A9
330
2C7C
100
AcDbEntity
  8
AM_0
100
AcDbCircle
 10
934.0326886045039
 20
284.6791755471659
 30
0.0
 40
10.0
100
AcDbArc
 50
54.000002
 51
135.0
  0
LINE
  5
28AA
330
2C7C
100
AcDbEntity
  8
AM_0
100
AcDbLine
 10
918.9085736045036
 20
273.697210547166
 30
0.0
 11
1015.908603604503
 21
273.697210547166
 31
0.0
  0
LINE
  5
28AB
330
2C7C
100
AcDbEntity
  8
AM_0
100
AcDbLine
 10
840.9085886045035
 20
302.697210547166
 30
0.0
 11
910.9086036045036
 21
302.697210547166
 31
0.0
  0
LINE
  5
28AC
330
2C7C
100
AcDbEntity
  8
AM_0
100
AcDbLine
 10
835.9085886045036
 20
270.6972105471661
 30
0.0
 11
915.9086036045032
 21
270.6972105471661
 31
0.0
  0
LINE
  5
28AD
330
2C7C
100
AcDbEntity
  8
ﾁｭｳｼﾝｾﾝ1
100
AcDbLine
 10
870.9085886045039
 20
307.5356205471663
 30
0.0
 11
870.9085886045039
 21
264.4576505471659
 31
0.0
  0
LINE
  5
28AE
330
2C7C
100
AcDbEntity
  8
AM_0
100
AcDbLine
 10
835.9085886045036
 20
305.348700547166
 30
0.0
 11
835.9085886045036
 21
270.6972105471661
 31
0.0
  0
LINE
  5
28AF
330
2C7C
100
AcDbEntity
  8
ｶｸﾚｾﾝ2
100
AcDbLine
 10
858.9085886045038
 20
302.697210547166
 30
0.0
 11
858.9085886045038
 21
270.6972105471661
 31
0.0
  0
ARC
  5
28B0
330
2C7C
100
AcDbEntity
  8
AM_0
100
AcDbCircle
 10
840.9085886045035
 20
297.697210547166
 30
0.0
 40
5.0
100
AcDbArc
 50
90.00000300000001
 51
180.00001
  0
ARC
  5
28B1
330
2C7C
100
AcDbEntity
  8
AM_0
100
AcDbCircle
 10
925.9086036045031
 20
276.555090547166
 30
0.0
 40
10.0
100
AcDbArc
 50
135.0
 51
180.00001
  0
LINE
  5
28B2
330
2C7C
100
AcDbEntity
  8
AM_0
100
AcDbLine
 10
915.9086036045032
 20
297.697210547166
 30
0.0
 11
915.9086036045032
 21
270.6972105471661
 31
0.0
  0
LINE
  5
28B3
330
2C7C
100
AcDbEntity
  8
ｶｸﾚｾﾝ2
100
AcDbLine
 10
882.9086036045039
 20
302.697210547166
 30
0.0
 11
882.9086036045039
 21
270.6972105471661
 31
0.0
  0
ARC
  5
28B4
330
2C7C
100
AcDbEntity
  8
AM_0
100
AcDbCircle
 10
918.9085736045036
 20
270.6972105471661
 30
0.0
 40
3.00000005
100
AcDbArc
 50
90.00000300000001
 51
180.00001
  0
ARC
  5
28B5
330
2C7C
100
AcDbEntity
  8
AM_0
100
AcDbCircle
 10
893.9085686045032
 20
317.6972105471659
 30
0.0
 40
15.0
100
AcDbArc
 50
270.0
 51
0.0
  0
ARC
  5
28B6
330
2C7C
100
AcDbEntity
  8
AM_0
100
AcDbCircle
 10
910.9086036045036
 20
297.697210547166
 30
0.0
 40
5.0
100
AcDbArc
 50
0.0
 51
90.00000300000001
  0
LINE
  5
28B7
330
2C7C
100
AcDbEntity
  8
AM_0
100
AcDbLine
 10
918.8375286045037
 20
283.6261355471661
 30
0.0
 11
926.9616436045039
 21
291.7502505471663
 31
0.0
  0
ARC
  5
28B8
330
2C7C
100
AcDbEntity
  8
AM_0
100
AcDbCircle
 10
1015.908603604503
 20
407.697215547166
 30
0.0
 40
130.0
100
AcDbArc
 50
179.9999899999999
 51
214.60599
  0
LINE
  5
28B9
330
2C7C
100
AcDbEntity
  8
AM_0
100
AcDbLine
 10
1112.908573604503
 20
273.697210547166
 30
0.0
 11
1015.908603604503
 21
273.697210547166
 31
0.0
  0
LINE
  5
28BA
330
2C7C
100
AcDbEntity
  8
AM_0
100
AcDbLine
 10
1075.853733604503
 20
283.466925547166
 30
0.0
 11
1015.908603604503
 21
283.466925547166
 31
0.0
  0
LINE
  5
28BB
330
2C7C
100
AcDbEntity
  8
AM_0
100
AcDbLine
 10
955.9634436045039
 20
283.466925547166
 30
0.0
 11
1015.908603604503
 21
283.466925547166
 31
0.0
  0
LINE
  5
28BC
330
2C7C
100
AcDbEntity
  8
AM_0
100
AcDbLine
 10
950.0856036045036
 20
285.376745547166
 30
0.0
 11
939.9105536045036
 21
292.7693555471659
 31
0.0
  0
ARC
  5
28BD
330
2C7C
100
AcDbEntity
  8
AM_0
100
AcDbCircle
 10
955.9634436045039
 20
293.466925547166
 30
0.0
 40
10.0
100
AcDbArc
 50
234.0
 51
270.0
  0
ARC
  5
28BE
330
2C7C
100
AcDbEntity
  8
AM_0
100
AcDbCircle
 10
1097.784458604504
 20
284.6791755471659
 30
0.0
 40
10.0
100
AcDbArc
 50
45.00000099999999
 51
126.0
  0
LINE
  5
28BF
330
2C7C
100
AcDbEntity
  8
AM_0
100
AcDbLine
 10
1081.731573604503
 20
285.376745547166
 30
0.0
 11
1091.906618604502
 21
292.7693555471659
 31
0.0
  0
ARC
  5
28C0
330
2C7C
100
AcDbEntity
  8
AM_0
100
AcDbCircle
 10
1075.853733604503
 20
293.466925547166
 30
0.0
 40
10.0
100
AcDbArc
 50
270.0
 51
306.0
  0
LINE
  5
28C1
330
2C7C
100
AcDbEntity
  8
ｶｸﾚｾﾝ2
100
AcDbLine
 10
1148.908588604504
 20
302.697210547166
 30
0.0
 11
1148.908588604504
 21
270.6972105471661
 31
0.0
  0
ARC
  5
28C2
330
2C7C
100
AcDbEntity
  8
AM_0
100
AcDbCircle
 10
1105.908603604503
 20
276.555090547166
 30
0.0
 40
10.0
100
AcDbArc
 50
0.0
 51
45.00000099999999
  0
LINE
  5
28C3
330
2C7C
100
AcDbEntity
  8
AM_0
100
AcDbLine
 10
1115.908603604503
 20
297.697210547166
 30
0.0
 11
1115.908603604503
 21
270.6972105471661
 31
0.0
  0
ARC
  5
28C4
330
2C7C
100
AcDbEntity
  8
AM_0
100
AcDbCircle
 10
1112.908573604503
 20
270.6972105471661
 30
0.0
 40
3.00000005
100
AcDbArc
 50
0.0
 51
90.00000300000001
  0
ARC
  5
28C5
330
2C7C
100
AcDbEntity
  8
AM_0
100
AcDbCircle
 10
1137.908573604503
 20
317.6972105471659
 30
0.0
 40
15.0
100
AcDbArc
 50
179.9999899999999
 51
270.0
  0
ARC
  5
28C6
330
2C7C
100
AcDbEntity
  8
AM_0
100
AcDbCircle
 10
1120.908588604502
 20
297.697210547166
 30
0.0
 40
5.0
100
AcDbArc
 50
90.00000300000001
 51
180.00001
  0
LINE
  5
28C7
330
2C7C
100
AcDbEntity
  8
AM_0
100
AcDbLine
 10
1112.979648604502
 20
283.6261655471659
 30
0.0
 11
1104.855533604503
 21
291.7502505471663
 31
0.0
  0
ARC
  5
28C8
330
2C7C
100
AcDbEntity
  8
AM_0
100
AcDbCircle
 10
1015.908603604503
 20
407.697215547166
 30
0.0
 40
130.0
100
AcDbArc
 50
325.394
 51
0.0
  0
LINE
  5
28C9
330
2C7C
100
AcDbEntity
  8
ﾁｭｳｼﾝｾﾝ1
100
AcDbLine
 10
1160.908588604502
 20
307.5356205471663
 30
0.0
 11
1160.908588604502
 21
264.4576505471659
 31
0.0
  0
LINE
  5
28CA
330
2C7C
100
AcDbEntity
  8
AM_0
100
AcDbLine
 10
1195.908588604503
 20
305.348700547166
 30
0.0
 11
1195.908588604503
 21
270.6972105471661
 31
0.0
  0
LINE
  5
28CB
330
2C7C
100
AcDbEntity
  8
ｶｸﾚｾﾝ2
100
AcDbLine
 10
1172.908573604503
 20
302.697210547166
 30
0.0
 11
1172.908573604503
 21
270.6972105471661
 31
0.0
  0
ARC
  5
28CC
330
2C7C
100
AcDbEntity
  8
AM_0
100
AcDbCircle
 10
1190.908588604503
 20
297.697210547166
 30
0.0
 40
5.0
100
AcDbArc
 50
0.0
 51
90.00000300000001
  0
ARC
  5
28CD
330
2C7C
100
AcDbEntity
  8
AM_0
100
AcDbCircle
 10
1034.931733604503
 20
504.6017255471659
 30
0.0
 40
120.0
100
AcDbArc
 50
11.0
 51
71.515243
  0
ARC
  5
28CE
330
2C7C
100
AcDbEntity
  8
AM_0
100
AcDbCircle
 10
1036.044133604502
 20
498.878855547166
 30
0.0
 40
120.0
100
AcDbArc
 50
11.0
 51
68.524651
  0
LINE
  5
28CF
330
2C7C
100
AcDbEntity
  8
ﾁｭｳｼﾝｾﾝ
100
AcDbLine
 10
921.790357819348
 20
495.6972155471659
 30
0.0
 11
1111.551484995014
 21
495.6972155471659
 31
0.0
  0
ARC
  5
28D0
330
2C7C
100
AcDbEntity
  8
AM_0
100
AcDbCircle
 10
995.7730136045039
 20
498.878855547166
 30
0.0
 40
120.0
100
AcDbArc
 50
111.4753499999999
 51
169.0
  0
ARC
  5
28D1
330
2C7C
100
AcDbEntity
  8
AM_0
100
AcDbCircle
 10
1015.908603604503
 20
480.6972155471659
 30
0.0
 40
107.0
100
AcDbArc
 50
90.00000300000001
 51
180.00001
  0
ARC
  5
28D2
330
2C7C
100
AcDbEntity
  8
AM_0
100
AcDbCircle
 10
996.8854686045036
 20
504.6017255471659
 30
0.0
 40
120.0
100
AcDbArc
 50
108.48476
 51
169.0
  0
LINE
  5
28D3
330
2C7C
100
AcDbEntity
  8
AM_0
100
AcDbLine
 10
735.4957425664323
 20
529.6972355471661
 30
0.0
 11
735.4957425664323
 21
465.697215547166
 31
0.0
  0
ARC
  5
28D4
330
2C7C
100
AcDbEntity
  8
AM_0
100
AcDbCircle
 10
895.9086036045036
 20
544.999235547166
 30
0.0
 40
10.0
100
AcDbArc
 50
155.21109
 51
180.00001
  0
ARC
  5
28D5
330
2C7C
100
AcDbEntity
  8
AM_0
100
AcDbCircle
 10
1015.908603604503
 20
480.6972155471659
 30
0.0
 40
107.0
100
AcDbArc
 50
0.0000000000000761
 51
90.00000300000001
  0
ARC
  5
28D6
330
2C7C
100
AcDbEntity
  8
AM_0
100
AcDbCircle
 10
1015.908603604503
 20
495.6972155471659
 30
0.0
 40
30.0000005
100
AcDbArc
 50
107.4575999999999
 51
72.542384
  0
CIRCLE
  5
28D7
330
2C7C
100
AcDbEntity
  8
AM_0
100
AcDbCircle
 10
1015.908603604503
 20
495.6972155471659
 30
0.0
 40
4.500000049999997
  0
CIRCLE
  5
28D8
330
2C7C
100
AcDbEntity
  8
AM_5
100
AcDbCircle
 10
1015.908603604503
 20
495.6972155471659
 30
0.0
 40
6.0
  0
LINE
  5
28D9
330
2C7C
100
AcDbEntity
  8
AM_0
100
AcDbLine
 10
1006.908573604503
 20
529.6972355471661
 30
0.0
 11
1024.908573604503
 21
529.6972355471661
 31
0.0
  0
LINE
  5
28DA
330
2C7C
100
AcDbEntity
  8
AM_0
100
AcDbLine
 10
1006.908573604503
 20
518.697215547166
 30
0.0
 11
1024.908573604503
 21
518.697215547166
 31
0.0
  0
LINE
  5
28DB
330
2C7C
100
AcDbEntity
  8
AM_0
100
AcDbLine
 10
1006.908573604503
 20
529.6972355471661
 30
0.0
 11
1006.908573604503
 21
518.697215547166
 31
0.0
  0
LINE
  5
28DC
330
2C7C
100
AcDbEntity
  8
AM_0
100
AcDbLine
 10
1024.908573604503
 20
529.6972355471661
 30
0.0
 11
1024.908573604503
 21
518.697215547166
 31
0.0
  0
ARC
  5
28DD
330
2C7C
100
AcDbEntity
  8
AM_0
100
AcDbCircle
 10
1135.908588604503
 20
544.999235547166
 30
0.0
 40
10.0
100
AcDbArc
 50
0.0
 51
24.788911
  0
ARC
  5
28DE
330
2C7C
100
AcDbEntity
  8
AM_0
100
AcDbCircle
 10
1015.908603604503
 20
447.6972155471661
 30
0.0
 40
180.0000049999999
100
AcDbArc
 50
71.515243
 51
90.00000300000001
  0
ARC
  5
28DF
330
2C7C
100
AcDbEntity
  8
AM_0
100
AcDbCircle
 10
1015.908603604503
 20
447.6972155471661
 30
0.0
 40
175.0000049999999
100
AcDbArc
 50
68.52464499999999
 51
90.00000300000001
  0
ARC
  5
28E0
330
2C7C
100
AcDbEntity
  8
AM_0
100
AcDbCircle
 10
1015.908603604503
 20
447.6972155471661
 30
0.0
 40
175.0000049999999
100
AcDbArc
 50
90.00000300000001
 51
111.4753499999999
  0
ARC
  5
28E1
330
2C7C
100
AcDbEntity
  8
AM_0
100
AcDbCircle
 10
1015.908603604503
 20
447.6972155471661
 30
0.0
 40
180.0000049999999
100
AcDbArc
 50
90.00000300000001
 51
108.48476
  0
LINE
  5
28E2
330
2C7C
100
AcDbEntity
  8
AM_0
100
AcDbLine
 10
1010.908603604502
 20
673.6972355471657
 30
0.0
 11
1010.908603604502
 21
631.6972355471659
 31
0.0
  0
LINE
  5
28E3
330
2C7C
100
AcDbEntity
  8
AM_0
100
AcDbLine
 10
1020.908603604503
 20
673.6972355471657
 30
0.0
 11
1020.908603604503
 21
631.6972355471659
 31
0.0
  0
ARC
  5
28E4
330
2C7C
100
AcDbEntity
  8
AM_0
100
AcDbCircle
 10
1008.908573604503
 20
631.6972355471659
 30
0.0
 40
2.00000005
100
AcDbArc
 50
270.0
 51
0.0
  0
ARC
  5
28E5
330
2C7C
100
AcDbEntity
  8
AM_0
100
AcDbCircle
 10
1006.625003604503
 20
635.8373355471662
 30
0.0
 40
1.0
100
AcDbArc
 50
101.21329
 51
164.99999
  0
LINE
  5
28E6
330
2C7C
100
AcDbEntity
  8
AM_0
100
AcDbLine
 10
1006.430543604503
 20
636.8181355471659
 30
0.0
 11
1010.908603604502
 21
637.7059355471661
 31
0.0
  0
LINE
  5
28E7
330
2C7C
100
AcDbEntity
  8
AM_0
100
AcDbLine
 10
1003.289948604503
 20
627.2543355471661
 30
0.0
 11
1005.659093604504
 21
636.0961355471661
 31
0.0
  0
ARC
  5
28E8
330
2C7C
100
AcDbEntity
  8
AM_0
100
AcDbCircle
 10
1022.908603604503
 20
631.6972355471659
 30
0.0
 40
2.00000005
100
AcDbArc
 50
179.9999899999999
 51
270.0
  0
ARC
  5
28E9
330
2C7C
100
AcDbEntity
  8
AM_0
100
AcDbCircle
 10
1025.192203604504
 20
635.8373355471662
 30
0.0
 40
1.0
100
AcDbArc
 50
15.0
 51
78.78671
  0
LINE
  5
28EA
330
2C7C
100
AcDbEntity
  8
AM_0
100
AcDbLine
 10
1020.908603604503
 20
637.7059855471661
 30
0.0
 11
1025.386663604503
 21
636.8182355471661
 31
0.0
  0
LINE
  5
28EB
330
2C7C
100
AcDbEntity
  8
AM_0
100
AcDbLine
 10
1028.527253604504
 20
627.2543855471659
 30
0.0
 11
1026.158113604502
 21
636.0961355471661
 31
0.0
  0
ARC
  5
28EC
330
2C7C
100
AcDbEntity
  8
AM_0
100
AcDbCircle
 10
1015.908603604503
 20
673.6972355471657
 30
0.0
 40
5.0
100
AcDbArc
 50
0.0
 51
179.9999899999999
  0
LINE
  5
28ED
330
2C7C
100
AcDbEntity
  8
AM_0
100
AcDbLine
 10
193.4941825664324
 20
955.7400189870536
 30
0.0
 11
225.4941825664324
 21
955.7400189870536
 31
0.0
  0
LINE
  5
28EE
330
2C7C
100
AcDbEntity
  8
AM_0
100
AcDbLine
 10
193.4941825664324
 20
947.7400189870536
 30
0.0
 11
225.4941825664324
 21
947.7400189870536
 31
0.0
  0
LINE
  5
28EF
330
2C7C
100
AcDbEntity
  8
AM_0
100
AcDbLine
 10
235.4941825664324
 20
937.7400189870536
 30
0.0
 11
193.4941825664324
 21
937.7400189870536
 31
0.0
  0
LINE
  5
28F0
330
2C7C
100
AcDbEntity
  8
AM_0
100
AcDbLine
 10
235.4941825664324
 20
965.7400189870536
 30
0.0
 11
193.4941825664324
 21
965.7400189870536
 31
0.0
  0
LINE
  5
28F1
330
2C7C
100
AcDbEntity
  8
AM_0
100
AcDbLine
 10
193.4941825664324
 20
965.7400189870536
 30
0.0
 11
193.4941825664324
 21
937.7400189870536
 31
0.0
  0
LINE
  5
28F2
330
2C7C
100
AcDbEntity
  8
AM_0
100
AcDbLine
 10
351.4957825664323
 20
855.2400189870537
 30
0.0
 11
351.4957825664323
 21
1048.240018987053
 31
0.0
  0
LINE
  5
28F3
330
2C7C
100
AcDbEntity
  8
AM_0
100
AcDbLine
 10
240.4957825664324
 20
991.657114987054
 30
0.0
 11
240.4957825664324
 21
951.7400189870537
 31
0.0
  0
LINE
  5
28F4
330
2C7C
100
AcDbEntity
  8
AM_0
100
AcDbLine
 10
274.4957825664324
 20
999.7400189870536
 30
0.0
 11
274.4957825664324
 21
951.7400189870537
 31
0.0
  0
LINE
  5
28F5
330
2C7C
100
AcDbEntity
  8
AM_0
100
AcDbLine
 10
250.4957825664325
 20
996.6483529870542
 30
0.0
 11
250.4957825664325
 21
951.7400189870537
 31
0.0
  0
LINE
  5
28F6
330
2C7C
100
AcDbEntity
  8
AM_0
100
AcDbLine
 10
348.4726165664323
 20
861.4675419870534
 30
0.0
 11
276.3403785664324
 21
902.6859639870536
 31
0.0
  0
ARC
  5
28F7
330
2C7C
100
AcDbEntity
  8
AM_0
100
AcDbCircle
 10
244.4957825664324
 20
911.8229219870537
 30
0.0
 40
4.0
100
AcDbArc
 50
180.0
 51
239.9999999999998
  0
LINE
  5
28F8
330
2C7C
100
AcDbEntity
  8
AM_0
100
AcDbLine
 10
274.4957825664324
 20
903.7400189870536
 30
0.0
 11
274.4957825664324
 21
951.7400189870537
 31
0.0
  0
LINE
  5
28F9
330
2C7C
100
AcDbEntity
  8
AM_0
100
AcDbLine
 10
250.4957825664325
 20
906.8316849870537
 30
0.0
 11
250.4957825664325
 21
951.7400189870537
 31
0.0
  0
LINE
  5
28FA
330
2C7C
100
AcDbEntity
  8
AM_0
100
AcDbLine
 10
272.3712675664324
 20
903.7400189870536
 30
0.0
 11
252.6393765664324
 21
903.7400189870536
 31
0.0
  0
ARC
  5
28FB
330
2C7C
100
AcDbEntity
  8
AM_0
100
AcDbCircle
 10
252.6393765664323
 20
911.7400189870537
 30
0.0
 40
8.0
100
AcDbArc
 50
239.9999999999998
 51
270.0
  0
LINE
  5
28FC
330
2C7C
100
AcDbEntity
  8
AM_0
100
AcDbLine
 10
248.6393765664324
 20
904.8118149870537
 30
0.0
 11
242.4957825664324
 21
908.3588209870541
 31
0.0
  0
ARC
  5
28FD
330
2C7C
100
AcDbEntity
  8
AM_0
100
AcDbCircle
 10
272.3712675664324
 20
895.7400189870536
 30
0.0
 40
8.0
100
AcDbArc
 50
60.25511900000196
 51
90.0
  0
LINE
  5
28FE
330
2C7C
100
AcDbEntity
  8
AM_0
100
AcDbLine
 10
235.4941825664324
 20
936.7400189870537
 30
0.0
 11
235.4941825664324
 21
951.7400189870537
 31
0.0
  0
LINE
  5
28FF
330
2C7C
100
AcDbEntity
  8
AM_0
100
AcDbLine
 10
240.4957825664324
 20
911.8229219870537
 30
0.0
 11
240.4957825664324
 21
951.7400189870537
 31
0.0
  0
LINE
  5
2900
330
2C7C
100
AcDbEntity
  8
AM_0
100
AcDbLine
 10
238.4957825664324
 20
924.2400189870537
 30
0.0
 11
238.4957825664324
 21
951.7400189870537
 31
0.0
  0
LINE
  5
2901
330
2C7C
100
AcDbEntity
  8
AM_0
100
AcDbLine
 10
238.4957825664324
 20
924.2400189870537
 30
0.0
 11
240.4957825664324
 21
922.2400189870537
 31
0.0
  0
LINE
  5
2902
330
2C7C
100
AcDbEntity
  8
AM_0
100
AcDbLine
 10
238.4957825664324
 20
936.7400189870537
 30
0.0
 11
235.4941825664324
 21
936.7400189870537
 31
0.0
  0
LINE
  5
2903
330
2C7C
100
AcDbEntity
  8
AM_0
100
AcDbLine
 10
235.4941825664324
 20
966.7400189870535
 30
0.0
 11
235.4941825664324
 21
951.7400189870537
 31
0.0
  0
LINE
  5
2904
330
2C7C
100
AcDbEntity
  8
AM_0
100
AcDbLine
 10
238.4957825664324
 20
979.2400189870535
 30
0.0
 11
238.4957825664324
 21
951.7400189870537
 31
0.0
  0
ARC
  5
2905
330
2C7C
100
AcDbEntity
  8
AM_0
100
AcDbCircle
 10
225.4941825664324
 20
951.7400189870537
 30
0.0
 40
3.999999999999884
100
AcDbArc
 50
270.0
 51
90.0
  0
LINE
  5
2906
330
2C7C
100
AcDbEntity
  8
AM_0
100
AcDbLine
 10
225.4941825664324
 20
955.7400189870536
 30
0.0
 11
225.4941825664324
 21
947.7400189870536
 31
0.0
  0
LINE
  5
2907
330
2C7C
100
AcDbEntity
  8
AM_0
100
AcDbLine
 10
238.4957825664324
 20
979.2400189870535
 30
0.0
 11
240.4957825664324
 21
981.2400189870537
 31
0.0
  0
LINE
  5
2908
330
2C7C
100
AcDbEntity
  8
AM_0
100
AcDbLine
 10
238.4957825664324
 20
966.7400189870535
 30
0.0
 11
235.4941825664324
 21
966.7400189870535
 31
0.0
  0
LINE
  5
2909
330
2C7C
100
AcDbEntity
  8
AM_0
100
AcDbLine
 10
367.4957825664324
 20
868.1272359870536
 30
0.0
 11
367.4957825664324
 21
894.9642309870537
 31
0.0
  0
LINE
  5
290A
330
2C7C
100
AcDbEntity
  8
AM_0
100
AcDbLine
 10
367.4957825664324
 20
868.1272359870536
 30
0.0
 11
353.4957825664323
 21
868.1272359870536
 31
0.0
  0
LINE
  5
290B
330
2C7C
100
AcDbEntity
  8
AM_0
100
AcDbLine
 10
368.4957825664323
 20
854.2400189870535
 30
0.0
 11
352.4957825664324
 21
854.2400189870535
 31
0.0
  0
ARC
  5
290C
330
2C7C
100
AcDbEntity
  8
AM_0
100
AcDbCircle
 10
352.4957825664324
 20
855.2400189870537
 30
0.0
 40
1.0
100
AcDbArc
 50
180.0
 51
270.0
  0
ARC
  5
290D
330
2C7C
100
AcDbEntity
  8
AM_0
100
AcDbCircle
 10
345.4957825664323
 20
856.2580829870537
 30
0.0
 40
6.0
100
AcDbArc
 50
0.0
 51
60.25511900000196
  0
ARC
  5
290E
330
2C7C
100
AcDbEntity
  8
AM_0
100
AcDbCircle
 10
353.4957825664323
 20
870.1272359870538
 30
0.0
 40
2.0
100
AcDbArc
 50
180.0
 51
270.0
  0
LINE
  5
290F
330
2C7C
100
AcDbEntity
  8
AM_0
100
AcDbLine
 10
367.4957825664324
 20
878.7338379870538
 30
0.0
 11
353.4957825664323
 21
878.7338379870538
 31
0.0
  0
LINE
  5
2910
330
2C7C
100
AcDbEntity
  8
AM_0
100
AcDbLine
 10
353.4957825664323
 20
894.9642309870537
 30
0.0
 11
367.4957825664324
 21
894.9642309870537
 31
0.0
  0
ARC
  5
2911
330
2C7C
100
AcDbEntity
  8
AM_0
100
AcDbCircle
 10
353.4957825664323
 20
880.7338379870538
 30
0.0
 40
2.0
100
AcDbArc
 50
180.0
 51
270.0
  0
ARC
  5
2912
330
2C7C
100
AcDbEntity
  8
AM_0
100
AcDbCircle
 10
353.4957825664323
 20
892.9642309870539
 30
0.0
 40
2.0
100
AcDbArc
 50
90.0
 51
180.0
  0
LINE
  5
2913
330
2C7C
100
AcDbEntity
  8
AM_0
100
AcDbLine
 10
367.4957825664324
 20
975.6678908823738
 30
0.0
 11
367.4957825664324
 21
927.8121470917335
 31
0.0
  0
LINE
  5
2914
330
2C7C
100
AcDbEntity
  8
AM_0
100
AcDbLine
 10
367.4957825664324
 20
927.8121470917335
 30
0.0
 11
351.4957825664323
 21
927.8121470917339
 31
0.0
  0
LINE
  5
2915
330
2C7C
100
AcDbEntity
  8
AM_0
100
AcDbLine
 10
351.4957825664323
 20
936.7400189870544
 30
0.0
 11
367.4957825664324
 21
936.7400189870537
 31
0.0
  0
LINE
  5
2916
330
2C7C
100
AcDbEntity
  8
AM_0
100
AcDbLine
 10
351.4957825664323
 20
966.7400189870535
 30
0.0
 11
367.4957825664324
 21
966.7400189870535
 31
0.0
  0
LINE
  5
2917
330
2C7C
100
AcDbEntity
  8
AM_0
100
AcDbLine
 10
367.4957825664324
 20
975.667890882374
 30
0.0
 11
351.4957825664323
 21
975.6678908823738
 31
0.0
  0
LINE
  5
2918
330
2C7C
100
AcDbEntity
  8
AM_0
100
AcDbLine
 10
348.4726165664323
 20
1042.012494987053
 30
0.0
 11
276.3403785664324
 21
1000.794072987053
 31
0.0
  0
LINE
  5
2919
330
2C7C
100
AcDbEntity
  8
AM_0
100
AcDbLine
 10
272.3712675664324
 20
999.7400189870536
 30
0.0
 11
252.6393765664324
 21
999.7400189870536
 31
0.0
  0
ARC
  5
291A
330
2C7C
100
AcDbEntity
  8
AM_0
100
AcDbCircle
 10
244.4957825664324
 20
991.657114987054
 30
0.0
 40
4.0
100
AcDbArc
 50
120.0000000000001
 51
180.0
  0
LINE
  5
291B
330
2C7C
100
AcDbEntity
  8
AM_0
100
AcDbLine
 10
248.6393765664324
 20
998.6682219870537
 30
0.0
 11
242.4957825664324
 21
995.1212159870541
 31
0.0
  0
ARC
  5
291C
330
2C7C
100
AcDbEntity
  8
AM_0
100
AcDbCircle
 10
252.6393765664323
 20
991.7400189870535
 30
0.0
 40
8.0
100
AcDbArc
 50
90.0
 51
120.0000000000001
  0
ARC
  5
291D
330
2C7C
100
AcDbEntity
  8
AM_0
100
AcDbCircle
 10
272.3712675664324
 20
1007.740018987054
 30
0.0
 40
8.0
100
AcDbArc
 50
270.0
 51
299.744880999998
  0
LINE
  5
291E
330
2C7C
100
AcDbEntity
  8
AM_0
100
AcDbLine
 10
367.4957825664324
 20
1035.352801987053
 30
0.0
 11
367.4957825664324
 21
1008.515806987053
 31
0.0
  0
LINE
  5
291F
330
2C7C
100
AcDbEntity
  8
AM_0
100
AcDbLine
 10
353.4957825664323
 20
1008.515806987053
 30
0.0
 11
367.4957825664324
 21
1008.515806987053
 31
0.0
  0
ARC
  5
2920
330
2C7C
100
AcDbEntity
  8
AM_0
100
AcDbCircle
 10
353.4957825664323
 20
1010.515806987053
 30
0.0
 40
2.0
100
AcDbArc
 50
180.0
 51
270.0
  0
LINE
  5
2921
330
2C7C
100
AcDbEntity
  8
AM_0
100
AcDbLine
 10
367.4957825664324
 20
1024.746199987054
 30
0.0
 11
353.4957825664323
 21
1024.746199987054
 31
0.0
  0
LINE
  5
2922
330
2C7C
100
AcDbEntity
  8
AM_0
100
AcDbLine
 10
367.4957825664324
 20
1035.352801987053
 30
0.0
 11
353.4957825664323
 21
1035.352801987053
 31
0.0
  0
LINE
  5
2923
330
2C7C
100
AcDbEntity
  8
AM_0
100
AcDbLine
 10
368.4957825664323
 20
1049.240018987052
 30
0.0
 11
352.4957825664324
 21
1049.240018987052
 31
0.0
  0
ARC
  5
2924
330
2C7C
100
AcDbEntity
  8
AM_0
100
AcDbCircle
 10
353.4957825664323
 20
1022.746199987053
 30
0.0
 40
2.0
100
AcDbArc
 50
90.0
 51
180.0
  0
ARC
  5
2925
330
2C7C
100
AcDbEntity
  8
AM_0
100
AcDbCircle
 10
353.4957825664323
 20
1033.352801987054
 30
0.0
 40
2.0
100
AcDbArc
 50
90.0
 51
180.0
  0
ARC
  5
2926
330
2C7C
100
AcDbEntity
  8
AM_0
100
AcDbCircle
 10
345.4957825664323
 20
1047.221953987053
 30
0.0
 40
6.0
100
AcDbArc
 50
299.744880999998
 51
0.0
  0
ARC
  5
2927
330
2C7C
100
AcDbEntity
  8
AM_0
100
AcDbCircle
 10
352.4957825664324
 20
1048.240018987053
 30
0.0
 40
1.0
100
AcDbArc
 50
90.0
 51
180.0
  0
LINE
  5
2929
330
2C7C
100
AcDbEntity
  8
AM_0
100
AcDbLine
 10
654.4957425664324
 20
960.7400389870537
 30
0.0
 11
735.4957425664323
 21
960.7400389870537
 31
0.0
  0
LINE
  5
292A
330
2C7C
100
AcDbEntity
  8
AM_0
100
AcDbLine
 10
654.4957425664324
 20
942.7400389870538
 30
0.0
 11
735.4957425664323
 21
942.7400389870538
 31
0.0
  0
LINE
  5
292B
330
2C7C
100
AcDbEntity
  8
AM_0
100
AcDbLine
 10
630.4957425664325
 20
921.7400389870542
 30
0.0
 11
735.4957425664323
 21
921.7400389870542
 31
0.0
  0
LINE
  5
292C
330
2C7C
100
AcDbEntity
  8
AM_0
100
AcDbLine
 10
630.4957425664325
 20
981.7399989870541
 30
0.0
 11
735.4957425664323
 21
981.7399989870541
 31
0.0
  0
LINE
  5
292D
330
2C7C
100
AcDbEntity
  8
ﾁｭｳｼﾝｾﾝ
100
AcDbLine
 10
187.08408523457
 20
951.7400389870537
 30
0.0
 11
751.3186825664322
 21
951.7400389870537
 31
0.0
  0
LINE
  5
292E
330
2C7C
100
AcDbEntity
  8
AM_0
100
AcDbLine
 10
511.9957425664321
 20
1109.639498987053
 30
0.0
 11
511.9957425664321
 21
793.8406189870536
 31
0.0
  0
LINE
  5
292F
330
2C7C
100
AcDbEntity
  8
AM_0
100
AcDbLine
 10
392.4957425664323
 20
826.8005889870536
 30
0.0
 11
392.4957425664323
 21
1076.679398987053
 31
0.0
  0
LINE
  5
2930
330
2C7C
100
AcDbEntity
  8
AM_0
100
AcDbLine
 10
411.9957425664321
 20
800.0659689870538
 30
0.0
 11
411.9957425664321
 21
946.7400389870542
 31
0.0
  0
LINE
  5
2931
330
2C7C
100
AcDbEntity
  8
AM_0
100
AcDbLine
 10
588.4957425664324
 20
831.3968989870536
 30
0.0
 11
588.4957425664324
 21
1072.083198987053
 31
0.0
  0
LINE
  5
2932
330
2C7C
100
AcDbEntity
  8
AM_0
100
AcDbLine
 10
481.9957425664322
 20
1110.687098987053
 30
0.0
 11
481.9957425664322
 21
792.7930189870536
 31
0.0
  0
LINE
  5
2933
330
2C7C
100
AcDbEntity
  8
AM_0
100
AcDbLine
 10
624.4957425664324
 20
1013.842898987053
 30
0.0
 11
624.4957425664324
 21
889.6371289870536
 31
0.0
  0
LINE
  5
2934
330
2C7C
100
AcDbEntity
  8
AM_0
100
AcDbLine
 10
618.4957425664324
 20
1052.204898987054
 30
0.0
 11
618.4957425664324
 21
851.2751289870536
 31
0.0
  0
LINE
  5
2935
330
2C7C
100
AcDbEntity
  8
AM_0
100
AcDbLine
 10
368.4957825664323
 20
1049.239998987054
 30
0.0
 11
368.4957825664323
 21
854.2400389870536
 31
0.0
  0
LINE
  5
2936
330
2C7C
100
AcDbEntity
  8
AM_0
100
AcDbLine
 10
630.4957425664325
 20
984.2399989870541
 30
0.0
 11
630.4957425664325
 21
919.2400389870536
 31
0.0
  0
LINE
  5
2937
330
2C7C
100
AcDbEntity
  8
AM_0
100
AcDbLine
 10
550.7749225664325
 20
795.1948089870536
 30
0.0
 11
481.9956825664323
 21
792.7930189870536
 31
0.0
  0
LINE
  5
2938
330
2C7C
100
AcDbEntity
  8
AM_0
100
AcDbLine
 10
486.9956825664323
 20
771.7400389870537
 30
0.0
 11
619.6701825664323
 21
776.3731589870537
 31
0.0
  0
CIRCLE
  5
2939
330
2C7C
100
AcDbEntity
  8
AM_0
100
AcDbCircle
 10
394.4957425664323
 20
806.7400389870536
 30
0.0
 40
12.0
  0
LINE
  5
293A
330
2C7C
100
AcDbEntity
  8
AM_0
100
AcDbLine
 10
397.1531525664324
 20
821.8123589870536
 30
0.0
 11
407.3383325664323
 21
821.1128989870536
 31
0.0
  0
LINE
  5
293B
330
2C7C
100
AcDbEntity
  8
AM_0
100
AcDbLine
 10
369.3212825664322
 20
775.8493489870536
 30
0.0
 11
486.9957425664321
 21
771.7400389870537
 31
0.0
  0
LINE
  5
293C
330
2C7C
100
AcDbEntity
  8
ﾁｭｳｼﾝｾﾝ1
100
AcDbLine
 10
375.7384825664324
 20
806.7400389870536
 30
0.0
 11
414.1079225664324
 21
806.7400389870536
 31
0.0
  0
LINE
  5
293D
330
2C7C
100
AcDbEntity
  8
AM_0
100
AcDbLine
 10
364.4957825664324
 20
780.8462389870536
 30
0.0
 11
364.4957825664324
 21
836.4409689870537
 31
0.0
  0
LINE
  5
293E
330
2C7C
100
AcDbEntity
  8
ﾁｭｳｼﾝｾﾝ1
100
AcDbLine
 10
394.4957425664323
 20
786.4076389870537
 30
0.0
 11
394.4957425664323
 21
826.8714489870536
 31
0.0
  0
ARC
  5
293F
330
2C7C
100
AcDbEntity
  8
AM_0
100
AcDbCircle
 10
369.4957825664324
 20
780.8462389870536
 30
0.0
 40
5.0
100
AcDbArc
 50
180.0000100000009
 51
268.0000000000026
  0
ARC
  5
2940
330
2C7C
100
AcDbEntity
  8
AM_0
100
AcDbCircle
 10
397.4957425664323
 20
826.8005889870536
 30
0.0
 40
5.0
100
AcDbArc
 50
180.0000100000009
 51
266.0712399999984
  0
LINE
  5
2941
330
2C7C
100
AcDbEntity
  8
AM_0
100
AcDbLine
 10
370.4957825664323
 20
894.9642789870537
 30
0.0
 11
370.4957825664323
 21
868.4425489870536
 31
0.0
  0
LINE
  5
2942
330
2C7C
100
AcDbEntity
  8
AM_0
100
AcDbLine
 10
369.0599825664323
 20
841.4219789870536
 30
0.0
 11
392.4957425664323
 21
843.4723389870537
 31
0.0
  0
LINE
  5
2943
330
2C7C
100
AcDbEntity
  8
AM_0
100
AcDbLine
 10
368.4957825664323
 20
854.2399789870536
 30
0.0
 11
382.8447425664322
 21
853.7388789870538
 31
0.0
  0
LINE
  5
2944
330
2C7C
100
AcDbEntity
  8
AM_0
100
AcDbLine
 10
370.4957825664323
 20
868.4425489870536
 30
0.0
 11
392.4957425664323
 21
868.4425489870536
 31
0.0
  0
ARC
  5
2945
330
2C7C
100
AcDbEntity
  8
AM_0
100
AcDbCircle
 10
369.4957825664324
 20
836.4409689870537
 30
0.0
 40
5.0
100
AcDbArc
 50
95.00000199999856
 51
180.0000100000009
  0
ARC
  5
2946
330
2C7C
100
AcDbEntity
  8
AM_0
100
AcDbCircle
 10
382.4957425664323
 20
843.7450389870537
 30
0.0
 40
10.0
100
AcDbArc
 50
0.0
 51
88.00000000000279
  0
LINE
  5
2947
330
2C7C
100
AcDbEntity
  8
AM_0
100
AcDbLine
 10
370.4957825664323
 20
894.9642789870537
 30
0.0
 11
392.4957425664323
 21
894.9642789870537
 31
0.0
  0
LINE
  5
2948
330
2C7C
100
AcDbEntity
  8
AM_0
100
AcDbLine
 10
370.4957825664323
 20
878.7338089870535
 30
0.0
 11
392.4957425664323
 21
878.7338089870535
 31
0.0
  0
LINE
  5
2949
330
2C7C
100
AcDbEntity
  8
AM_0
100
AcDbLine
 10
481.9957425664322
 20
792.7930189870536
 30
0.0
 11
416.8211825664323
 21
795.0689589870536
 31
0.0
  0
LINE
  5
294A
330
2C7C
100
AcDbEntity
  8
AM_0
100
AcDbLine
 10
435.2810825664323
 20
773.6704589870537
 30
0.0
 11
478.2229125664321
 21
778.9805189870536
 31
0.0
  0
LINE
  5
294B
330
2C7C
100
AcDbEntity
  8
AM_0
100
AcDbLine
 10
482.8089725664323
 20
789.3751689870537
 30
0.0
 11
440.308972566432
 21
782.3699789870536
 31
0.0
  0
ARC
  5
294C
330
2C7C
100
AcDbEntity
  8
AM_0
100
AcDbCircle
 10
439.4957425664323
 20
787.3033889870537
 30
0.0
 40
5.0
100
AcDbArc
 50
180.0000100000009
 51
279.3598499999965
  0
LINE
  5
294D
330
2C7C
100
AcDbEntity
  8
AM_0
100
AcDbLine
 10
416.9957425664321
 20
815.8294489870536
 30
0.0
 11
439.9957425664323
 21
815.8294489870536
 31
0.0
  0
LINE
  5
294E
330
2C7C
100
AcDbEntity
  8
AM_0
100
AcDbLine
 10
416.9957425664321
 20
810.3136489870536
 30
0.0
 11
439.9957425664323
 21
810.3136489870536
 31
0.0
  0
ARC
  5
294F
330
2C7C
100
AcDbEntity
  8
AM_0
100
AcDbCircle
 10
416.9957425664321
 20
805.3136489870535
 30
0.0
 40
5.0
100
AcDbArc
 50
90.00000299999769
 51
180.0000100000009
  0
ARC
  5
2950
330
2C7C
100
AcDbEntity
  8
AM_0
100
AcDbCircle
 10
416.9957425664321
 20
800.0659689870538
 30
0.0
 40
5.0
100
AcDbArc
 50
180.0000100000009
 51
268.0000000000026
  0
ARC
  5
2951
330
2C7C
100
AcDbEntity
  8
AM_0
100
AcDbCircle
 10
406.9957425664322
 20
816.1246189870537
 30
0.0
 40
5.0
100
AcDbArc
 50
0.0
 51
86.07123699999879
  0
ARC
  5
2952
330
2C7C
100
AcDbEntity
  8
AM_0
100
AcDbCircle
 10
416.9957425664321
 20
820.8294489870535
 30
0.0
 40
5.0
100
AcDbArc
 50
180.0000100000009
 51
270.0
  0
ARC
  5
2953
330
2C7C
100
AcDbEntity
  8
AM_0
100
AcDbCircle
 10
439.9957425664323
 20
812.3136489870535
 30
0.0
 40
2.0
100
AcDbArc
 50
270.0
 51
0.0
  0
ARC
  5
2954
330
2C7C
100
AcDbEntity
  8
AM_0
100
AcDbCircle
 10
439.9957425664323
 20
813.8294489870537
 30
0.0
 40
2.0
100
AcDbArc
 50
0.0
 51
90.00000299999769
  0
LINE
  5
2955
330
2C7C
100
AcDbEntity
  8
AM_0
100
AcDbLine
 10
441.9957425664321
 20
813.8294489870537
 30
0.0
 11
441.9957425664321
 21
812.3136489870535
 31
0.0
  0
ARC
  5
2956
330
2C7C
100
AcDbEntity
  8
AM_0
100
AcDbCircle
 10
481.9957425664322
 20
794.3086389870536
 30
0.0
 40
5.0
100
AcDbArc
 50
279.3598599999989
 51
344.3658299999989
  0
LINE
  5
2957
330
2C7C
100
AcDbEntity
  8
AM_0
100
AcDbLine
 10
486.9957425664321
 20
788.9049589870536
 30
0.0
 11
486.9957425664321
 21
792.9676389870536
 31
0.0
  0
ARC
  5
2958
330
2C7C
100
AcDbEntity
  8
AM_0
100
AcDbCircle
 10
476.9957425664323
 20
788.9049589870536
 30
0.0
 40
10.0
100
AcDbArc
 50
277.0491999999973
 51
0.0
  0
LINE
  5
2959
330
2C7C
100
AcDbEntity
  8
AM_0
100
AcDbLine
 10
441.9957425664321
 20
859.7958189870537
 30
0.0
 11
441.9957425664321
 21
899.7114689870537
 31
0.0
  0
LINE
  5
295A
330
2C7C
100
AcDbEntity
  8
AM_0
100
AcDbLine
 10
416.9957425664321
 20
856.7958189870537
 30
0.0
 11
438.9957425664325
 21
856.7958189870537
 31
0.0
  0
ARC
  5
295B
330
2C7C
100
AcDbEntity
  8
AM_0
100
AcDbCircle
 10
416.9957425664321
 20
851.7958189870537
 30
0.0
 40
5.0
100
AcDbArc
 50
90.00000299999769
 51
180.0000100000009
  0
ARC
  5
295C
330
2C7C
100
AcDbEntity
  8
AM_0
100
AcDbCircle
 10
438.9957425664325
 20
859.7958189870537
 30
0.0
 40
3.0
100
AcDbArc
 50
270.0
 51
0.0
  0
LINE
  5
295D
330
2C7C
100
AcDbEntity
  8
AM_0
100
AcDbLine
 10
416.9957425664321
 20
902.7114689870536
 30
0.0
 11
438.9957425664325
 21
902.7114689870536
 31
0.0
  0
ARC
  5
295E
330
2C7C
100
AcDbEntity
  8
AM_0
100
AcDbCircle
 10
416.9957425664321
 20
907.7114689870537
 30
0.0
 40
5.0
100
AcDbArc
 50
180.0000100000009
 51
270.0
  0
ARC
  5
295F
330
2C7C
100
AcDbEntity
  8
AM_0
100
AcDbCircle
 10
438.9957425664325
 20
899.7114689870537
 30
0.0
 40
3.0
100
AcDbArc
 50
0.0
 51
90.00000299999769
  0
ARC
  5
2960
330
2C7C
100
AcDbEntity
  8
AM_0
100
AcDbCircle
 10
598.4957425664324
 20
834.0355089870538
 30
0.0
 40
10.0
100
AcDbArc
 50
91.99999800000055
 51
180.0000100000009
  0
CIRCLE
  5
2961
330
2C7C
100
AcDbEntity
  8
AM_0
100
AcDbCircle
 10
594.4957425664324
 20
806.7400389870536
 30
0.0
 40
12.0
  0
LINE
  5
2962
330
2C7C
100
AcDbEntity
  8
ﾁｭｳｼﾝｾﾝ1
100
AcDbLine
 10
575.5077625664323
 20
806.7400389870536
 30
0.0
 11
613.9113925664323
 21
806.7400389870536
 31
0.0
  0
LINE
  5
2963
330
2C7C
100
AcDbEntity
  8
AM_0
100
AcDbLine
 10
558.4957425664324
 20
784.5921489870536
 30
0.0
 11
558.4957425664324
 21
806.2070789870539
 31
0.0
  0
LINE
  5
2964
330
2C7C
100
AcDbEntity
  8
ﾁｭｳｼﾝｾﾝ1
100
AcDbLine
 10
594.4957425664324
 20
787.0109689870537
 30
0.0
 11
594.4957425664324
 21
825.7122689870538
 31
0.0
  0
ARC
  5
2965
330
2C7C
100
AcDbEntity
  8
AM_0
100
AcDbCircle
 10
568.4957425664324
 20
784.5921489870536
 30
0.0
 40
10.0
100
AcDbArc
 50
180.0000100000009
 51
271.9999900000014
  0
ARC
  5
2966
330
2C7C
100
AcDbEntity
  8
AM_0
100
AcDbCircle
 10
573.4957425664324
 20
806.2070789870539
 30
0.0
 40
15.0
100
AcDbArc
 50
91.99999800000055
 51
180.0000100000009
  0
ARC
  5
2967
330
2C7C
100
AcDbEntity
  8
AM_0
100
AcDbCircle
 10
550.4957425664324
 20
803.1899889870537
 30
0.0
 40
8.0
100
AcDbArc
 50
271.9999999999971
 51
0.0
  0
ARC
  5
2968
330
2C7C
100
AcDbEntity
  8
AM_0
100
AcDbCircle
 10
578.4957425664324
 20
831.3968989870536
 30
0.0
 40
10.0
100
AcDbArc
 50
271.9999999999971
 51
0.0
  0
LINE
  5
2969
330
2C7C
100
AcDbEntity
  8
AM_0
100
AcDbLine
 10
578.8446825664323
 20
821.4029989870537
 30
0.0
 11
572.9722425664324
 21
821.1979189870536
 31
0.0
  0
LINE
  5
296A
330
2C7C
100
AcDbEntity
  8
AM_0
100
AcDbLine
 10
624.4957425664324
 20
781.3700389870537
 30
0.0
 11
624.4957425664324
 21
842.1099689870537
 31
0.0
  0
ARC
  5
296B
330
2C7C
100
AcDbEntity
  8
AM_0
100
AcDbCircle
 10
619.4957425664324
 20
781.3700389870537
 30
0.0
 40
5.0
100
AcDbArc
 50
271.9999999999971
 51
0.0
  0
ARC
  5
296C
330
2C7C
100
AcDbEntity
  8
AM_0
100
AcDbCircle
 10
623.4957425664324
 20
851.2751289870536
 30
0.0
 40
5.0
100
AcDbArc
 50
180.0000100000009
 51
246.4218200000024
  0
LINE
  5
296D
330
2C7C
100
AcDbEntity
  8
AM_0
100
AcDbLine
 10
610.7749225664324
 20
844.4704489870536
 30
0.0
 11
598.146742566432
 21
844.0294689870537
 31
0.0
  0
ARC
  5
296E
330
2C7C
100
AcDbEntity
  8
AM_0
100
AcDbCircle
 10
610.4957425664324
 20
852.4654989870537
 30
0.0
 40
8.0
100
AcDbArc
 50
271.9999999999971
 51
0.0
  0
ARC
  5
296F
330
2C7C
100
AcDbEntity
  8
AM_0
100
AcDbCircle
 10
619.4957425664324
 20
842.1099689870537
 30
0.0
 40
5.0
100
AcDbArc
 50
0.0
 51
66.42182100000352
  0
ARC
  5
2970
330
2C7C
100
AcDbEntity
  8
AM_0
100
AcDbCircle
 10
621.4957425664324
 20
883.6334689870538
 30
0.0
 40
3.0
100
AcDbArc
 50
91.99999800000055
 51
180.0000100000009
  0
ARC
  5
2971
330
2C7C
100
AcDbEntity
  8
AM_0
100
AcDbCircle
 10
621.4957425664324
 20
889.6371289870536
 30
0.0
 40
3.0
100
AcDbArc
 50
271.9999999999971
 51
0.0
  0
LINE
  5
2972
330
2C7C
100
AcDbEntity
  8
AM_0
100
AcDbLine
 10
621.3910025664325
 20
886.6316389870537
 30
0.0
 11
621.6004225664321
 21
886.6389589870536
 31
0.0
  0
LINE
  5
2973
330
2C7C
100
AcDbEntity
  8
AM_0
100
AcDbLine
 10
624.4957425664324
 20
919.2400389870536
 30
0.0
 11
630.4957425664325
 21
919.2400389870536
 31
0.0
  0
LINE
  5
2974
330
2C7C
100
AcDbEntity
  8
AM_0
100
AcDbLine
 10
550.7749225664325
 20
1108.285198987053
 30
0.0
 11
481.9957425664322
 21
1110.687098987053
 31
0.0
  0
LINE
  5
2975
330
2C7C
100
AcDbEntity
  8
AM_0
100
AcDbLine
 10
486.9956825664323
 20
1131.739998987054
 30
0.0
 11
619.6701825664323
 21
1127.106998987053
 31
0.0
  0
ARC
  5
2976
330
2C7C
100
AcDbEntity
  8
AM_0
100
AcDbCircle
 10
416.9957425664321
 20
1098.166298987054
 30
0.0
 40
5.0
100
AcDbArc
 50
180.0000100000009
 51
270.0
  0
CIRCLE
  5
2977
330
2C7C
100
AcDbEntity
  8
AM_0
100
AcDbCircle
 10
394.4957425664323
 20
1096.739998987054
 30
0.0
 40
12.0
  0
LINE
  5
2978
330
2C7C
100
AcDbEntity
  8
AM_0
100
AcDbLine
 10
411.9957425664321
 20
956.7400389870536
 30
0.0
 11
411.9957425664321
 21
1103.414098987052
 31
0.0
  0
LINE
  5
2979
330
2C7C
100
AcDbEntity
  8
ﾁｭｳｼﾝｾﾝ1
100
AcDbLine
 10
394.4957425664323
 20
1116.091398987054
 30
0.0
 11
394.4957425664323
 21
1075.841998987053
 31
0.0
  0
LINE
  5
297A
330
2C7C
100
AcDbEntity
  8
AM_0
100
AcDbLine
 10
364.4957825664324
 20
1122.633798987053
 30
0.0
 11
364.4957825664324
 21
1067.038998987053
 31
0.0
  0
LINE
  5
297B
330
2C7C
100
AcDbEntity
  8
AM_0
100
AcDbLine
 10
397.1531525664324
 20
1081.667698987053
 30
0.0
 11
407.3382725664322
 21
1082.367098987052
 31
0.0
  0
LINE
  5
297C
330
2C7C
100
AcDbEntity
  8
AM_0
100
AcDbLine
 10
370.4957825664323
 20
1035.037398987052
 30
0.0
 11
370.4957825664323
 21
1008.515798987053
 31
0.0
  0
LINE
  5
297D
330
2C7C
100
AcDbEntity
  8
AM_0
100
AcDbLine
 10
370.4957825664323
 20
1008.515798987053
 30
0.0
 11
392.4957425664323
 21
1008.515798987053
 31
0.0
  0
ARC
  5
297E
330
2C7C
100
AcDbEntity
  8
AM_0
100
AcDbCircle
 10
382.4957425664323
 20
1059.734998987052
 30
0.0
 40
10.0
100
AcDbArc
 50
271.9999999999971
 51
0.0
  0
LINE
  5
297F
330
2C7C
100
AcDbEntity
  8
AM_0
100
AcDbLine
 10
368.4956825664323
 20
1049.239998987054
 30
0.0
 11
382.8447425664322
 21
1049.741098987053
 31
0.0
  0
LINE
  5
2980
330
2C7C
100
AcDbEntity
  8
AM_0
100
AcDbLine
 10
370.4957825664323
 20
1035.037398987052
 30
0.0
 11
392.4957425664323
 21
1035.037398987052
 31
0.0
  0
LINE
  5
2981
330
2C7C
100
AcDbEntity
  8
AM_0
100
AcDbLine
 10
370.4957825664323
 20
1024.746098987054
 30
0.0
 11
392.4957425664323
 21
1024.746098987054
 31
0.0
  0
LINE
  5
2982
330
2C7C
100
AcDbEntity
  8
AM_0
100
AcDbLine
 10
369.0599825664323
 20
1062.057998987053
 30
0.0
 11
392.4958025664324
 21
1060.007698987052
 31
0.0
  0
ARC
  5
2983
330
2C7C
100
AcDbEntity
  8
AM_0
100
AcDbCircle
 10
369.4957825664324
 20
1067.038998987053
 30
0.0
 40
5.0
100
AcDbArc
 50
180.0000100000009
 51
265.0000100000003
  0
ARC
  5
2984
330
2C7C
100
AcDbEntity
  8
AM_0
100
AcDbCircle
 10
397.4957425664323
 20
1076.679398987053
 30
0.0
 40
5.0
100
AcDbArc
 50
93.92876800000069
 51
180.0000100000009
  0
LINE
  5
2985
330
2C7C
100
AcDbEntity
  8
AM_0
100
AcDbLine
 10
441.9957425664321
 20
1003.768598987054
 30
0.0
 11
441.9957425664321
 21
1043.684098987052
 31
0.0
  0
ARC
  5
2986
330
2C7C
100
AcDbEntity
  8
AM_0
100
AcDbCircle
 10
446.9957425664325
 20
951.7400389870537
 30
0.0
 40
5.0
100
AcDbArc
 50
270.0
 51
90.00000299999769
  0
ARC
  5
2987
330
2C7C
100
AcDbEntity
  8
AM_0
100
AcDbCircle
 10
426.9957425664323
 20
951.7400389870537
 30
0.0
 40
12.5
100
AcDbArc
 50
203.5781799999973
 51
336.4218300000007
  0
ARC
  5
2988
330
2C7C
100
AcDbEntity
  8
AM_0
100
AcDbCircle
 10
426.9957425664323
 20
951.7400389870537
 30
0.0
 40
12.5
100
AcDbArc
 50
23.57817999999753
 51
156.4218200000024
  0
LINE
  5
2989
330
2C7C
100
AcDbEntity
  8
AM_0
100
AcDbLine
 10
406.9957425664322
 20
956.7400389870536
 30
0.0
 11
446.9957425664325
 21
956.7400389870536
 31
0.0
  0
LINE
  5
298A
330
2C7C
100
AcDbEntity
  8
AM_0
100
AcDbLine
 10
406.9957425664322
 20
946.7400389870542
 30
0.0
 11
446.9957425664325
 21
946.7400389870542
 31
0.0
  0
ARC
  5
298B
330
2C7C
100
AcDbEntity
  8
AM_0
100
AcDbCircle
 10
406.9957425664322
 20
951.7400389870537
 30
0.0
 40
5.0
100
AcDbArc
 50
90.00000299999769
 51
270.0
  0
LINE
  5
298C
330
2C7C
100
AcDbEntity
  8
AM_0
100
AcDbLine
 10
416.9957425664321
 20
1000.768598987054
 30
0.0
 11
438.9957425664325
 21
1000.768598987054
 31
0.0
  0
ARC
  5
298D
330
2C7C
100
AcDbEntity
  8
AM_0
100
AcDbCircle
 10
416.9957425664321
 20
995.7685989870537
 30
0.0
 40
5.0
100
AcDbArc
 50
90.00000299999769
 51
180.0000100000009
  0
ARC
  5
298E
330
2C7C
100
AcDbEntity
  8
AM_0
100
AcDbCircle
 10
438.9957425664325
 20
1003.768598987054
 30
0.0
 40
3.0
100
AcDbArc
 50
270.0
 51
0.0
  0
LINE
  5
298F
330
2C7C
100
AcDbEntity
  8
AM_0
100
AcDbLine
 10
416.9957425664321
 20
1046.684098987052
 30
0.0
 11
438.9957425664325
 21
1046.684098987052
 31
0.0
  0
ARC
  5
2990
330
2C7C
100
AcDbEntity
  8
AM_0
100
AcDbCircle
 10
416.9957425664321
 20
1051.684098987052
 30
0.0
 40
5.0
100
AcDbArc
 50
180.0000100000009
 51
270.0
  0
ARC
  5
2991
330
2C7C
100
AcDbEntity
  8
AM_0
100
AcDbCircle
 10
438.9957425664325
 20
1043.684098987052
 30
0.0
 40
3.0
100
AcDbArc
 50
0.0
 51
90.00000299999769
  0
LINE
  5
2992
330
2C7C
100
AcDbEntity
  8
AM_0
100
AcDbLine
 10
416.9957425664321
 20
1093.166298987054
 30
0.0
 11
439.9957425664323
 21
1093.166298987054
 31
0.0
  0
LINE
  5
2993
330
2C7C
100
AcDbEntity
  8
AM_0
100
AcDbLine
 10
416.9957425664321
 20
1087.650598987052
 30
0.0
 11
439.9957425664323
 21
1087.650598987052
 31
0.0
  0
ARC
  5
2994
330
2C7C
100
AcDbEntity
  8
AM_0
100
AcDbCircle
 10
406.9957425664322
 20
1087.355398987052
 30
0.0
 40
5.0
100
AcDbArc
 50
273.9287600000013
 51
0.0
  0
ARC
  5
2995
330
2C7C
100
AcDbEntity
  8
AM_0
100
AcDbCircle
 10
416.9957425664321
 20
1082.650598987052
 30
0.0
 40
5.0
100
AcDbArc
 50
90.00000299999769
 51
180.0000100000009
  0
ARC
  5
2996
330
2C7C
100
AcDbEntity
  8
AM_0
100
AcDbCircle
 10
439.9957425664323
 20
1091.166298987054
 30
0.0
 40
2.0
100
AcDbArc
 50
0.0
 51
90.00000299999769
  0
ARC
  5
2997
330
2C7C
100
AcDbEntity
  8
AM_0
100
AcDbCircle
 10
439.9957425664323
 20
1089.650598987052
 30
0.0
 40
2.0
100
AcDbArc
 50
270.0
 51
0.0
  0
LINE
  5
2998
330
2C7C
100
AcDbEntity
  8
AM_0
100
AcDbLine
 10
441.9957425664321
 20
1089.650598987052
 30
0.0
 11
441.9957425664321
 21
1091.166298987054
 31
0.0
  0
LINE
  5
2999
330
2C7C
100
AcDbEntity
  8
ﾁｭｳｼﾝｾﾝ1
100
AcDbLine
 10
376.1939225664323
 20
1096.739998987054
 30
0.0
 11
413.9664425664324
 21
1096.739998987054
 31
0.0
  0
LINE
  5
299A
330
2C7C
100
AcDbEntity
  8
AM_0
100
AcDbLine
 10
369.3211825664324
 20
1127.630698987052
 30
0.0
 11
486.9957425664321
 21
1131.739898987053
 31
0.0
  0
ARC
  5
299B
330
2C7C
100
AcDbEntity
  8
AM_0
100
AcDbCircle
 10
369.4957825664324
 20
1122.633798987053
 30
0.0
 40
5.0
100
AcDbArc
 50
91.99999800000055
 51
180.0000100000009
  0
LINE
  5
299C
330
2C7C
100
AcDbEntity
  8
AM_0
100
AcDbLine
 10
481.9957425664322
 20
1110.687098987053
 30
0.0
 11
416.8211825664323
 21
1108.411098987054
 31
0.0
  0
LINE
  5
299D
330
2C7C
100
AcDbEntity
  8
AM_0
100
AcDbLine
 10
482.8088525664322
 20
1114.104798987053
 30
0.0
 11
440.3088525664323
 21
1121.109998987052
 31
0.0
  0
LINE
  5
299E
330
2C7C
100
AcDbEntity
  8
AM_0
100
AcDbLine
 10
435.2811425664323
 20
1129.809598987053
 30
0.0
 11
478.2229125664321
 21
1124.499598987053
 31
0.0
  0
ARC
  5
299F
330
2C7C
100
AcDbEntity
  8
AM_0
100
AcDbCircle
 10
416.9957425664321
 20
1103.414098987052
 30
0.0
 40
5.0
100
AcDbArc
 50
91.99999800000055
 51
180.0000100000009
  0
ARC
  5
29A0
330
2C7C
100
AcDbEntity
  8
AM_0
100
AcDbCircle
 10
439.4957425664323
 20
1116.176698987053
 30
0.0
 40
5.0
100
AcDbArc
 50
80.64014299999691
 51
180.0000100000009
  0
ARC
  5
29A1
330
2C7C
100
AcDbEntity
  8
AM_0
100
AcDbCircle
 10
476.9957425664323
 20
1114.575098987053
 30
0.0
 40
10.0
100
AcDbArc
 50
0.0
 51
82.95079599999878
  0
ARC
  5
29A2
330
2C7C
100
AcDbEntity
  8
AM_0
100
AcDbCircle
 10
481.9957425664322
 20
1109.171398987053
 30
0.0
 40
5.0
100
AcDbArc
 50
15.63417199999704
 51
80.64014299999691
  0
LINE
  5
29A3
330
2C7C
100
AcDbEntity
  8
AM_0
100
AcDbLine
 10
486.9957425664321
 20
1114.575098987053
 30
0.0
 11
486.9957425664321
 21
1110.512398987053
 31
0.0
  0
ARC
  5
29A4
330
2C7C
100
AcDbEntity
  8
AM_0
100
AcDbCircle
 10
573.4957425664324
 20
1097.272998987054
 30
0.0
 40
15.0
100
AcDbArc
 50
180.0000100000009
 51
268.0000000000026
  0
CIRCLE
  5
29A5
330
2C7C
100
AcDbEntity
  8
AM_0
100
AcDbCircle
 10
594.4957425664324
 20
1096.739998987054
 30
0.0
 40
12.0
  0
LINE
  5
29A6
330
2C7C
100
AcDbEntity
  8
AM_0
100
AcDbLine
 10
624.4957425664324
 20
1122.109898987052
 30
0.0
 11
624.4957425664324
 21
1061.369998987052
 31
0.0
  0
LINE
  5
29A7
330
2C7C
100
AcDbEntity
  8
ﾁｭｳｼﾝｾﾝ1
100
AcDbLine
 10
594.4957425664324
 20
1115.591198987054
 30
0.0
 11
594.4957425664324
 21
1077.961598987053
 31
0.0
  0
ARC
  5
29A8
330
2C7C
100
AcDbEntity
  8
AM_0
100
AcDbCircle
 10
598.4957425664324
 20
1069.444498987053
 30
0.0
 40
10.0
100
AcDbArc
 50
180.0000100000009
 51
268.0000000000026
  0
ARC
  5
29A9
330
2C7C
100
AcDbEntity
  8
AM_0
100
AcDbCircle
 10
578.4957425664324
 20
1072.083198987053
 30
0.0
 40
10.0
100
AcDbArc
 50
0.0
 51
88.00000000000279
  0
LINE
  5
29AA
330
2C7C
100
AcDbEntity
  8
AM_0
100
AcDbLine
 10
578.8446825664323
 20
1082.077098987052
 30
0.0
 11
572.9722425664324
 21
1082.282198987053
 31
0.0
  0
ARC
  5
29AB
330
2C7C
100
AcDbEntity
  8
AM_0
100
AcDbCircle
 10
654.4957425664324
 20
951.7400389870537
 30
0.0
 40
8.999995999999997
100
AcDbArc
 50
90.00000299999769
 51
270.0
  0
LINE
  5
29AC
330
2C7C
100
AcDbEntity
  8
AM_0
100
AcDbLine
 10
624.4957425664324
 20
984.2399989870541
 30
0.0
 11
630.4957425664325
 21
984.2399989870541
 31
0.0
  0
LINE
  5
29AD
330
2C7C
100
AcDbEntity
  8
AM_0
100
AcDbLine
 10
654.4957425664324
 20
960.7400389870537
 30
0.0
 11
654.4957425664324
 21
942.7400389870538
 31
0.0
  0
ARC
  5
29AE
330
2C7C
100
AcDbEntity
  8
AM_0
100
AcDbCircle
 10
610.4957425664324
 20
1051.014498987054
 30
0.0
 40
8.0
100
AcDbArc
 50
0.0
 51
88.00000000000279
  0
ARC
  5
29AF
330
2C7C
100
AcDbEntity
  8
AM_0
100
AcDbCircle
 10
623.4957425664324
 20
1052.204898987054
 30
0.0
 40
5.0
100
AcDbArc
 50
113.5781799999975
 51
180.0000100000009
  0
ARC
  5
29B0
330
2C7C
100
AcDbEntity
  8
AM_0
100
AcDbCircle
 10
621.4957425664324
 20
1019.846598987053
 30
0.0
 40
3.0
100
AcDbArc
 50
180.0000100000009
 51
268.0000000000026
  0
ARC
  5
29B1
330
2C7C
100
AcDbEntity
  8
AM_0
100
AcDbCircle
 10
621.4957425664324
 20
1013.842898987053
 30
0.0
 40
3.0
100
AcDbArc
 50
0.0
 51
88.00000000000279
  0
LINE
  5
29B2
330
2C7C
100
AcDbEntity
  8
AM_0
100
AcDbLine
 10
621.3910725664324
 20
1016.848398987054
 30
0.0
 11
621.6004225664321
 21
1016.841098987053
 31
0.0
  0
LINE
  5
29B3
330
2C7C
100
AcDbEntity
  8
AM_0
100
AcDbLine
 10
610.7749225664324
 20
1059.009598987054
 30
0.0
 11
598.146742566432
 21
1059.450598987052
 31
0.0
  0
ARC
  5
29B4
330
2C7C
100
AcDbEntity
  8
AM_0
100
AcDbCircle
 10
619.4957425664324
 20
1061.369998987052
 30
0.0
 40
5.0
100
AcDbArc
 50
293.5781799999974
 51
0.0
  0
LINE
  5
29B5
330
2C7C
100
AcDbEntity
  8
ﾁｭｳｼﾝｾﾝ1
100
AcDbLine
 10
575.4839625664323
 20
1096.739998987054
 30
0.0
 11
614.780712566432
 21
1096.739998987054
 31
0.0
  0
LINE
  5
29B6
330
2C7C
100
AcDbEntity
  8
AM_0
100
AcDbLine
 10
558.4957425664324
 20
1118.887898987052
 30
0.0
 11
558.4957425664324
 21
1097.272998987054
 31
0.0
  0
ARC
  5
29B7
330
2C7C
100
AcDbEntity
  8
AM_0
100
AcDbCircle
 10
550.4957425664324
 20
1100.290098987052
 30
0.0
 40
8.0
100
AcDbArc
 50
0.0
 51
88.00000000000279
  0
ARC
  5
29B8
330
2C7C
100
AcDbEntity
  8
AM_0
100
AcDbCircle
 10
568.4957425664324
 20
1118.887898987052
 30
0.0
 40
10.0
100
AcDbArc
 50
88.00000000000279
 51
180.0000100000009
  0
ARC
  5
29B9
330
2C7C
100
AcDbEntity
  8
AM_0
100
AcDbCircle
 10
619.4957425664324
 20
1122.109898987052
 30
0.0
 40
5.0
100
AcDbArc
 50
0.0
 51
88.00000000000279
  0
LINE
  5
29BA
330
2C7C
100
AcDbEntity
  8
AM_0
100
AcDbLine
 10
735.4957425664323
 20
981.7399989870541
 30
0.0
 11
735.4957425664323
 21
921.7400389870542
 31
0.0
  0
TEXT
  5
2B9D
330
2C7C
100
AcDbEntity
  8
AM_0
100
AcDbText
 10
832.4746988553874
 20
999.8212414752812
 30
0.0
 40
20.0
  1
VX37-080G~VX37-120G
100
AcDbText
  0
ENDSEC
  0
SECTION
  2
OBJECTS
  0
DICTIONARY
  5
2C19
330
0
100
AcDbDictionary
281
     1
  3
ACAD_CIP_PREVIOUS_PRODUCT_INFO
350
2D32
  3
ACAD_COLOR
350
2C6F
  3
ACAD_DETAILVIEWSTYLE
350
2C76
  3
ACAD_FIELDLIST
350
2D7C
  3
ACAD_GROUP
350
2C1A
  3
ACAD_LAYOUT
350
2C6E
  3
ACAD_MATERIAL
350
2C1D
  3
ACAD_MLEADERSTYLE
350
2C72
  3
ACAD_MLINESTYLE
350
2C6B
  3
ACAD_PLOTSETTINGS
350
2C6D
  3
ACAD_PLOTSTYLENAME
350
2C1B
  3
ACAD_SCALELIST
350
2C4F
  3
ACAD_SECTIONVIEWSTYLE
350
2C74
  3
ACAD_TABLESTYLE
350
2C70
  3
ACAD_VISUALSTYLE
350
2C36
  3
ACDB_RECOMPOSE_DATA
350
2EEF
  3
AcDbVariableDictionary
350
2E43
  3
AcDsDecomposeData
350
2EF5
  3
AcmDictionary
350
2D58
  3
AMG
350
2D33
  3
AMGSNAPSETTINGS
350
2D8D
  0
DICTIONARY
  5
2E2F
330
2C0F
100
AcDbDictionary
280
     1
281
     1
  3
ACAD_LAYERSTATES
360
2E30
  0
DICTIONARY
  5
2E20
330
2C61
100
AcDbDictionary
280
     1
281
     1
  3
ADSK_XREC_LAYER_RECONCILED
360
2E21
  0
DICTIONARY
  5
2E22
330
2C80
100
AcDbDictionary
280
     1
281
     1
  3
ADSK_XREC_LAYER_RECONCILED
360
2E23
  0
DICTIONARY
  5
2E24
330
2C9B
100
AcDbDictionary
280
     1
281
     1
  3
ADSK_XREC_LAYER_RECONCILED
360
2E25
  0
DICTIONARY
  5
2E26
330
2C9D
100
AcDbDictionary
280
     1
281
     1
  3
ADSK_XREC_LAYER_RECONCILED
360
2E27
  0
DICTIONARY
  5
2E28
330
2C9E
100
AcDbDictionary
280
     1
281
     1
  3
ADSK_XREC_LAYER_RECONCILED
360
2E29
  0
DICTIONARY
  5
2E2A
330
2C9F
100
AcDbDictionary
280
     1
281
     1
  3
ADSK_XREC_LAYER_RECONCILED
360
2E2B
  0
DICTIONARY
  5
2D97
330
2C7C
100
AcDbDictionary
280
     1
281
     1
  3
ACAD_SORTENTS
360
2D98
  0
XRECORD
  5
2D32
102
{ACAD_REACTORS
330
2C19
102
}
330
2C19
100
AcDbXrecord
280
     1
300
AMECH_PP
300
2019
300

  0
DICTIONARY
  5
2C6F
102
{ACAD_REACTORS
330
2C19
102
}
330
2C19
100
AcDbDictionary
281
     1
  0
DICTIONARY
  5
2C76
102
{ACAD_REACTORS
330
2C19
102
}
330
2C19
100
AcDbDictionary
281
     1
  3
Imperial24
350
2C77
  0
FIELDLIST
  5
2D7C
102
{ACAD_REACTORS
330
2C19
102
}
330
2C19
100
AcDbIdSet
 90
       16
330
2D7A
330
2D7B
330
2D7D
330
2D7E
330
2D82
330
2D83
330
2D84
330
2D85
330
2E65
330
2E66
330
2E67
330
2E68
330
2E6C
330
2E6D
330
2E6E
330
2E6F
100
AcDbFieldList
  0
DICTIONARY
  5
2C1A
102
{ACAD_REACTORS
330
2C19
102
}
330
2C19
100
AcDbDictionary
281
     1
  0
DICTIONARY
  5
2C6E
102
{ACAD_REACTORS
330
2C19
102
}
330
2C19
100
AcDbDictionary
281
     1
  3
Model
350
2C7F
  3
レイアウト1
350
2C7B
  0
DICTIONARY
  5
2C1D
102
{ACAD_REACTORS
330
2C19
102
}
330
2C19
100
AcDbDictionary
281
     1
  3
ByBlock
350
2C26
  3
ByLayer
350
2C1E
  3
Global
350
2C2E
  0
DICTIONARY
  5
2C72
102
{ACAD_REACTORS
330
2C19
102
}
330
2C19
100
AcDbDictionary
281
     1
  3
Standard
350
2C73
  0
DICTIONARY
  5
2C6B
102
{ACAD_REACTORS
330
2C19
102
}
330
2C19
100
AcDbDictionary
281
     1
  3
Standard
350
2C6C
  0
DICTIONARY
  5
2C6D
102
{ACAD_REACTORS
330
2C19
102
}
330
2C19
100
AcDbDictionary
281
     1
  0
ACDBDICTIONARYWDFLT
  5
2C1B
102
{ACAD_REACTORS
330
2C19
102
}
330
2C19
100
AcDbDictionary
281
     1
  3
Normal
350
2C1C
100
AcDbDictionaryWithDefault
340
2C1C
  0
DICTIONARY
  5
2C4F
102
{ACAD_REACTORS
330
2C19
102
}
330
2C19
100
AcDbDictionary
281
     1
  3
A0
350
2C50
  3
A1
350
2C51
  3
A2
350
2C52
  3
A3
350
2C53
  3
A4
350
2C54
  3
A5
350
2C55
  3
A6
350
2C56
  3
A7
350
2C57
  3
A8
350
2C58
  3
A9
350
2C59
  3
B0
350
2C5A
  3
B1
350
2C5B
  3
B2
350
2C5C
  3
B3
350
2C5D
  3
B4
350
2C5E
  3
B5
350
2C5F
  3
B6
350
2C60
  0
DICTIONARY
  5
2C74
102
{ACAD_REACTORS
330
2C19
102
}
330
2C19
100
AcDbDictionary
281
     1
  3
Imperial24
350
2C75
  0
DICTIONARY
  5
2C70
102
{ACAD_REACTORS
330
2C19
102
}
330
2C19
100
AcDbDictionary
281
     1
  3
Standard
350
2C71
  0
DICTIONARY
  5
2C36
102
{ACAD_REACTORS
330
2C19
102
}
330
2C19
100
AcDbDictionary
281
     1
  3
2dWireframe
350
2C3C
  3
Basic
350
2C3B
  3
Brighten
350
2C42
  3
ColorChange
350
2C46
  3
Conceptual
350
2C3F
  3
Dim
350
2C41
  3
EdgeColorOff
350
2C4E
  3
Facepattern
350
2C45
  3
Flat
350
2C37
  3
FlatWithEdges
350
2C38
  3
Gouraud
350
2C39
  3
GouraudWithEdges
350
2C3A
  3
Hidden
350
2C3E
  3
JitterOff
350
2C4C
  3
Linepattern
350
2C44
  3
OverhangOff
350
2C4D
  3
Realistic
350
2C40
  3
Shaded
350
2C4B
  3
Shaded with edges
350
2C4A
  3
Shades of Gray
350
2C47
  3
Sketchy
350
2C48
  3
Thicken
350
2C43
  3
Wireframe
350
2C3D
  3
X-Ray
350
2C49
  0
XRECORD
  5
2EEF
102
{ACAD_REACTORS
330
2C19
102
}
330
2C19
100
AcDbXrecord
280
     1
 90
        1
330
2C71
  0
DICTIONARY
  5
2E43
102
{ACAD_REACTORS
330
2C19
102
}
330
2C19
100
AcDbDictionary
281
     1
  3
CANNOSCALE
350
2E49
  3
CMLEADERSTYLE
350
2E45
  3
CTABLESTYLE
350
2E44
  3
CVIEWDETAILSTYLE
350
2E46
  3
CVIEWSECTIONSTYLE
350
2E47
  3
LAYEREVAL
350
2E4B
  3
LAYERNOTIFY
350
2E4C
  3
LIGHTINGUNITS
350
2E4A
  3
MSLTSCALE
350
2E48
  0
DICTIONARY
  5
2EF5
102
{ACAD_REACTORS
330
2C19
102
}
330
2C19
100
AcDbDictionary
281
     1
  3
AcDsRecords
350
2EF7
  3
AcDsSchemas
350
2EF6
1001
ACAD
1070
     2
  0
DICTIONARY
  5
2D58
102
{ACAD_REACTORS
330
2C19
102
}
330
2C19
100
AcDbDictionary
281
     1
  3
AcmStdDictionary
350
2D61
  0
DICTIONARY
  5
2D33
102
{ACAD_REACTORS
330
2C19
102
}
330
2C19
100
AcDbDictionary
281
     1
  0
DICTIONARY
  5
2D8D
102
{ACAD_REACTORS
330
2C19
102
}
330
2C19
100
AcDbDictionary
281
     1
  0
DICTIONARY
  5
2E30
102
{ACAD_REACTORS
330
2E2F
102
}
330
2E2F
100
AcDbDictionary
281
     1
  0
XRECORD
  5
2E21
102
{ACAD_REACTORS
330
2E20
102
}
330
2E20
100
AcDbXrecord
280
     1
290
     1
  0
XRECORD
  5
2E23
102
{ACAD_REACTORS
330
2E22
102
}
330
2E22
100
AcDbXrecord
280
     1
290
     1
  0
XRECORD
  5
2E25
102
{ACAD_REACTORS
330
2E24
102
}
330
2E24
100
AcDbXrecord
280
     1
290
     1
  0
XRECORD
  5
2E27
102
{ACAD_REACTORS
330
2E26
102
}
330
2E26
100
AcDbXrecord
280
     1
290
     1
  0
XRECORD
  5
2E29
102
{ACAD_REACTORS
330
2E28
102
}
330
2E28
100
AcDbXrecord
280
     1
290
     1
  0
XRECORD
  5
2E2B
102
{ACAD_REACTORS
330
2E2A
102
}
330
2E2A
100
AcDbXrecord
280
     1
290
     1
  0
SORTENTSTABLE
  5
2D98
102
{ACAD_REACTORS
330
2D97
102
}
330
2D97
100
AcDbSortentsTable
330
2C7C
331
27F9
  5
27FB
331
27FA
  5
27FC
331
27FB
  5
27FD
331
27FC
  5
27FE
331
27FD
  5
27FF
331
27FE
  5
2800
331
27FF
  5
2801
331
2800
  5
2802
331
2801
  5
2803
331
2802
  5
2804
331
2803
  5
2805
331
2804
  5
2806
331
2805
  5
2807
331
2806
  5
2808
331
2807
  5
2809
331
2808
  5
280A
331
2809
  5
280B
331
280A
  5
280C
331
280B
  5
280D
331
280C
  5
280E
331
280D
  5
280F
331
280E
  5
2810
331
280F
  5
2811
331
2810
  5
2812
331
2811
  5
2813
331
2812
  5
2814
331
2813
  5
2815
331
2814
  5
2816
331
2815
  5
2817
331
2816
  5
2818
331
2817
  5
2819
331
2818
  5
281A
331
2819
  5
281B
331
281A
  5
281C
331
281B
  5
281D
331
281C
  5
281E
331
281D
  5
281F
331
281E
  5
2820
331
281F
  5
2821
331
2820
  5
2822
331
2821
  5
2823
331
2822
  5
2824
331
2823
  5
2825
331
2824
  5
2826
331
2825
  5
2827
331
2826
  5
2828
331
2827
  5
2829
331
2828
  5
282A
331
2829
  5
282B
331
282A
  5
282C
331
282B
  5
282D
331
282C
  5
282E
331
282D
  5
282F
331
282E
  5
2830
331
282F
  5
2831
331
2830
  5
2832
331
2831
  5
2833
331
2832
  5
2834
331
2833
  5
2835
331
2834
  5
2836
331
2835
  5
2837
331
2836
  5
2838
331
2837
  5
2839
331
2838
  5
283A
331
2839
  5
283B
331
283A
  5
283C
331
283B
  5
283D
331
283C
  5
283E
331
283D
  5
283F
331
283E
  5
2840
331
283F
  5
2841
331
2840
  5
2842
331
2841
  5
2843
331
2842
  5
2844
331
2843
  5
2845
331
2844
  5
2846
331
2845
  5
2847
331
2846
  5
2848
331
2847
  5
2849
331
2848
  5
284A
331
2849
  5
284B
331
284A
  5
284C
331
284B
  5
284D
331
284C
  5
284E
331
284D
  5
284F
331
284E
  5
2850
331
284F
  5
2851
331
2850
  5
2852
331
2851
  5
2853
331
2852
  5
2854
331
2853
  5
2855
331
2854
  5
2856
331
2855
  5
2857
331
2856
  5
2858
331
2857
  5
2859
331
2858
  5
285A
331
2859
  5
285B
331
285A
  5
285C
331
285B
  5
285D
331
285C
  5
285E
331
285D
  5
285F
331
285E
  5
2860
331
285F
  5
2861
331
2860
  5
2862
331
2861
  5
2863
331
2862
  5
2864
331
2863
  5
2865
331
2864
  5
2866
331
2865
  5
2867
331
2866
  5
2868
331
2867
  5
2869
331
2868
  5
286A
331
2869
  5
286B
331
286A
  5
286C
331
286B
  5
286D
331
286C
  5
286E
331
286D
  5
286F
331
286E
  5
2870
331
286F
  5
2871
331
2870
  5
2872
331
2871
  5
2873
331
2872
  5
2874
331
2873
  5
2875
331
2874
  5
2876
331
2875
  5
2877
331
2876
  5
2878
331
2877
  5
2879
331
2878
  5
287A
331
2879
  5
287B
331
287A
  5
287C
331
287B
  5
287D
331
287C
  5
287E
331
287D
  5
287F
331
287E
  5
2880
331
287F
  5
2881
331
2880
  5
2882
331
2881
  5
2883
331
2882
  5
2884
331
2883
  5
2885
331
2884
  5
2886
331
2885
  5
2887
331
2886
  5
2888
331
2887
  5
2889
331
2888
  5
288A
331
2889
  5
288B
331
288A
  5
288C
331
288B
  5
288D
331
288C
  5
288E
331
288D
  5
288F
331
288E
  5
2890
331
288F
  5
2891
331
2890
  5
2892
331
2891
  5
2893
331
2892
  5
2894
331
2893
  5
2895
331
2894
  5
2896
331
2895
  5
2897
331
2896
  5
2898
331
2897
  5
2899
331
2898
  5
289A
331
2899
  5
289B
331
289A
  5
289C
331
289B
  5
289D
331
289C
  5
289E
331
289D
  5
289F
331
289E
  5
28A0
331
289F
  5
28A1
331
28A0
  5
28A2
331
28A1
  5
28A3
331
28A2
  5
28A4
331
28A3
  5
28A5
331
28A4
  5
28A6
331
28A5
  5
28A7
331
28A6
  5
28A8
331
28A7
  5
28A9
331
28A8
  5
28AA
331
28A9
  5
28AB
331
28AA
  5
28AC
331
28AB
  5
28AD
331
28AC
  5
28AE
331
28AD
  5
28AF
331
28AE
  5
28B0
331
28AF
  5
28B1
331
28B0
  5
28B2
331
28B1
  5
28B3
331
28B2
  5
28B4
331
28B3
  5
28B5
331
28B4
  5
28B6
331
28B5
  5
28B7
331
28B6
  5
28B8
331
28B7
  5
28B9
331
28B8
  5
28BA
331
28B9
  5
28BB
331
28BA
  5
28BC
331
28BB
  5
28BD
331
28BC
  5
28BE
331
28BD
  5
28BF
331
28BE
  5
28C0
331
28BF
  5
28C1
331
28C0
  5
28C2
331
28C1
  5
28C3
331
28C2
  5
28C4
331
28C3
  5
28C5
331
28C4
  5
28C6
331
28C5
  5
28C7
331
28C6
  5
28C8
331
28C7
  5
28C9
331
28C8
  5
28CA
331
28C9
  5
28CB
331
28CA
  5
28CC
331
28CB
  5
28CD
331
28CC
  5
28CE
331
28CD
  5
28CF
331
28CE
  5
28D0
331
28CF
  5
28D1
331
28D0
  5
28D2
331
28D1
  5
28D3
331
28D2
  5
28D4
331
28D3
  5
28D5
331
28D4
  5
28D6
331
28D5
  5
28D7
331
28D6
  5
28D8
331
28D7
  5
28D9
331
28D8
  5
28DA
331
28D9
  5
28DB
331
28DA
  5
28DC
331
28DB
  5
28DD
331
28DC
  5
28DE
331
28DD
  5
28DF
331
28DE
  5
28E0
331
28DF
  5
28E1
331
28E0
  5
28E2
331
28E1
  5
28E3
331
28E2
  5
28E4
331
28E3
  5
28E5
331
28E4
  5
28E6
331
28E5
  5
28E7
331
28E6
  5
28E8
331
28E7
  5
28E9
331
28E8
  5
28EA
331
28E9
  5
28EB
331
28EA
  5
28EC
331
28EB
  5
28ED
331
28EC
  5
28EE
331
28ED
  5
28EF
331
28EE
  5
28F0
331
28EF
  5
28F1
331
28F0
  5
28F2
331
28F1
  5
28F3
331
28F2
  5
28F4
331
28F3
  5
28F5
331
28F4
  5
28F6
331
28F5
  5
28F7
331
28F6
  5
28F8
331
28F7
  5
28F9
331
28F8
  5
28FA
331
28F9
  5
28FB
331
28FA
  5
28FC
331
28FB
  5
28FD
331
28FC
  5
28FE
331
28FD
  5
28FF
331
28FE
  5
2900
331
28FF
  5
2901
331
2900
  5
2902
331
2901
  5
2903
331
2902
  5
2904
331
2903
  5
2905
331
2904
  5
2906
331
2905
  5
2907
331
2906
  5
2908
331
2907
  5
2909
331
2908
  5
290A
331
2909
  5
290B
331
290A
  5
290C
331
290B
  5
290D
331
290C
  5
290E
331
290D
  5
290F
331
290E
  5
2910
331
290F
  5
2911
331
2910
  5
2912
331
2911
  5
2913
331
2912
  5
2914
331
2913
  5
2915
331
2914
  5
2916
331
2915
  5
2917
331
2916
  5
2918
331
2917
  5
2919
331
2918
  5
291A
331
2919
  5
291B
331
291A
  5
291C
331
291B
  5
291D
331
291C
  5
291E
331
291D
  5
291F
331
291E
  5
2920
331
291F
  5
2921
331
2920
  5
2922
331
2921
  5
2923
331
2922
  5
2924
331
2923
  5
2925
331
2924
  5
2926
331
2925
  5
2927
331
2926
  5
2929
331
2927
  5
292A
331
2929
  5
292B
331
292A
  5
292C
331
292B
  5
292D
331
292C
  5
292E
331
292D
  5
292F
331
292E
  5
2930
331
292F
  5
2931
331
2930
  5
2932
331
2931
  5
2933
331
2932
  5
2934
331
2933
  5
2935
331
2934
  5
2936
331
2935
  5
2937
331
2936
  5
2938
331
2937
  5
2939
331
2938
  5
293A
331
2939
  5
293B
331
293A
  5
293C
331
293B
  5
293D
331
293C
  5
293E
331
293D
  5
293F
331
293E
  5
2940
331
293F
  5
2941
331
2940
  5
2942
331
2941
  5
2943
331
2942
  5
2944
331
2943
  5
2945
331
2944
  5
2946
331
2945
  5
2947
331
2946
  5
2948
331
2947
  5
2949
331
2948
  5
294A
331
2949
  5
294B
331
294A
  5
294C
331
294B
  5
294D
331
294C
  5
294E
331
294D
  5
294F
331
294E
  5
2950
331
294F
  5
2951
331
2950
  5
2952
331
2951
  5
2953
331
2952
  5
2954
331
2953
  5
2955
331
2954
  5
2956
331
2955
  5
2957
331
2956
  5
2958
331
2957
  5
2959
331
2958
  5
295A
331
2959
  5
295B
331
295A
  5
295C
331
295B
  5
295D
331
295C
  5
295E
331
295D
  5
295F
331
295E
  5
2960
331
295F
  5
2961
331
2960
  5
2962
331
2961
  5
2963
331
2962
  5
2964
331
2963
  5
2965
331
2964
  5
2966
331
2965
  5
2967
331
2966
  5
2968
331
2967
  5
2969
331
2968
  5
296A
331
2969
  5
296B
331
296A
  5
296C
331
296B
  5
296D
331
296C
  5
296E
331
296D
  5
296F
331
296E
  5
2970
331
296F
  5
2971
331
2970
  5
2972
331
2971
  5
2973
331
2972
  5
2974
331
2973
  5
2975
331
2974
  5
2976
331
2975
  5
2977
331
2976
  5
2978
331
2977
  5
2979
331
2978
  5
297A
331
2979
  5
297B
331
297A
  5
297C
331
297B
  5
297D
331
297C
  5
297E
331
297D
  5
297F
331
297E
  5
2980
331
297F
  5
2981
331
2980
  5
2982
331
2981
  5
2983
331
2982
  5
2984
331
2983
  5
2985
331
2984
  5
2986
331
2985
  5
2987
331
2986
  5
2988
331
2987
  5
2989
331
2988
  5
298A
331
2989
  5
298B
331
298A
  5
298C
331
298B
  5
298D
331
298C
  5
298E
331
298D
  5
298F
331
298E
  5
2990
331
298F
  5
2991
331
2990
  5
2992
331
2991
  5
2993
331
2992
  5
2994
331
2993
  5
2995
331
2994
  5
2996
331
2995
  5
2997
331
2996
  5
2998
331
2997
  5
2999
331
2998
  5
299A
331
2999
  5
299B
331
299A
  5
299C
331
299B
  5
299D
331
299C
  5
299E
331
299D
  5
299F
331
299E
  5
29A0
331
299F
  5
29A1
331
29A0
  5
29A2
331
29A1
  5
29A3
331
29A2
  5
29A4
331
29A3
  5
29A5
331
29A4
  5
29A6
331
29A5
  5
29A7
331
29A6
  5
29A8
331
29A7
  5
29A9
331
29A8
  5
29AA
331
29A9
  5
29AB
331
29AA
  5
29AC
331
29AB
  5
29AD
331
29AC
  5
29AE
331
29AD
  5
29AF
331
29AE
  5
29B0
331
29AF
  5
29B1
331
29B0
  5
29B2
331
29B1
  5
29B3
331
29B2
  5
29B4
331
29B3
  5
29B5
331
29B4
  5
29B6
331
29B5
  5
29B7
331
29B6
  5
29B8
331
29B7
  5
29B9
331
29B8
  5
29BA
331
29B9
  5
2B9D
331
29BA
  5
2D96
331
2B9D
  5
2D99
  0
ACDBDETAILVIEWSTYLE
  5
2C77
102
{ACAD_XDICTIONARY
360
2F2A
102
}
102
{ACAD_REACTORS
330
2C76
330
2E61
102
}
330
2C76
100
AcDbModelDocViewStyle
 70
     0
  3
Imperial24
290
     0
100
AcDbDetailViewStyle
 70
     0
 71
     0
 90
        3
 71
     1
340
2C62
 62
   256
 40
0.24
340
0
 62
   256
 40
0.24
300

 40
0.36
280
     3
 71
     2
340
2C69
 90
       25
 62
   256
 71
     3
340
2C62
 62
   256
 40
0.24
 90
        1
 40
0.75
 90
        1
300
%<\AcVar ViewType \f "%tc1">% %<\AcVar ViewDetailId>%\PSCALE %<\AcVar ViewScale \f "%sn">%
 71
     4
340
2C69
 90
       25
 62
   256
340
2C69
 90
       25
 62
   256
280
     0
  0
LAYOUT
  5
2C7F
102
{ACAD_REACTORS
330
2C6E
102
}
330
2C6E
100
AcDbPlotSettings
  1

  2
JUST PDF 3
  4

  6

 40
0.0
 41
0.0
 42
0.0
 43
0.0
 44
0.0
 45
0.0
 46
0.0
 47
0.0
 48
0.0
 49
0.0
140
0.0
141
0.0
142
1.0
143
1.0
 70
  1712
 72
     0
 73
     0
 74
     0
  7

 75
     0
147
1.0
 76
     0
 77
     2
 78
   300
148
0.0
149
0.0
100
AcDbLayout
  1
Model
 70
     1
 71
     0
 10
0.0
 20
0.0
 11
12.0
 21
9.0
 12
0.0
 22
0.0
 32
0.0
 14
0.0
 24
0.0
 34
0.0
 15
0.0
 25
0.0
 35
0.0
146
0.0
 13
0.0
 23
0.0
 33
0.0
 16
1.0
 26
0.0
 36
0.0
 17
0.0
 27
1.0
 37
0.0
 76
     0
330
2C7C
331
2C81
  0
LAYOUT
  5
2C7B
102
{ACAD_REACTORS
330
2C6E
102
}
330
2C6E
100
AcDbPlotSettings
  1

  2
JUST PDF 3
  4

  6

 40
0.0
 41
0.0
 42
0.0
 43
0.0
 44
0.0
 45
0.0
 46
0.0
 47
0.0
 48
0.0
 49
0.0
140
0.0
141
0.0
142
1.0
143
1.0
 70
   688
 72
     0
 73
     0
 74
     5
  7

 75
    16
147
1.0
 76
     0
 77
     2
 78
   300
148
0.0
149
0.0
100
AcDbLayout
  1
レイアウト1
 70
     1
 71
     1
 10
0.0
 20
0.0
 11
420.0
 21
297.0
 12
0.0
 22
0.0
 32
0.0
 14
1.000000000000000E+20
 24
1.000000000000000E+20
 34
1.000000000000000E+20
 15
-1.000000000000000E+20
 25
-1.000000000000000E+20
 35
-1.000000000000000E+20
146
0.0
 13
0.0
 23
0.0
 33
0.0
 16
1.0
 26
0.0
 36
0.0
 17
0.0
 27
1.0
 37
0.0
 76
     0
330
2C78
  0
MATERIAL
  5
2C26
102
{ACAD_XDICTIONARY
360
2C27
102
}
102
{ACAD_REACTORS
330
2C1D
102
}
330
2C1D
100
AcDbMaterial
  1
ByBlock
 72
     0
 43
0.0208333333333333
 43
0.0
 43
0.0
 43
0.0
 43
0.0
 43
0.0208333333333333
 43
0.0
 43
0.0
 43
0.0
 43
0.0
 43
1.0
 43
0.0
 43
0.0
 43
0.0
 43
0.0
 43
1.0
 77
     0
 47
0.0208333333333333
 47
0.0
 47
0.0
 47
0.0
 47
0.0
 47
0.0208333333333333
 47
0.0
 47
0.0
 47
0.0
 47
0.0
 47
1.0
 47
0.0
 47
0.0
 47
0.0
 47
0.0
 47
1.0
171
     0
 49
0.0208333333333333
 49
0.0
 49
0.0
 49
0.0
 49
0.0
 49
0.0208333333333333
 49
0.0
 49
0.0
 49
0.0
 49
0.0
 49
1.0
 49
0.0
 49
0.0
 49
0.0
 49
0.0
 49
1.0
175
     0
142
0.0208333333333333
142
0.0
142
0.0
142
0.0
142
0.0
142
0.0208333333333333
142
0.0
142
0.0
142
0.0
142
0.0
142
1.0
142
0.0
142
0.0
142
0.0
142
0.0
142
1.0
179
     0
144
0.0208333333333333
144
0.0
144
0.0
144
0.0
144
0.0
144
0.0208333333333333
144
0.0
144
0.0
144
0.0
144
0.0
144
1.0
144
0.0
144
0.0
144
0.0
144
0.0
144
1.0
147
0.0208333333333333
147
0.0
147
0.0
147
0.0
147
0.0
147
0.0208333333333333
147
0.0
147
0.0
147
0.0
147
0.0
147
1.0
147
0.0
147
0.0
147
0.0
147
0.0
147
1.0
  0
MATERIAL
  5
2C1E
102
{ACAD_XDICTIONARY
360
2C1F
102
}
102
{ACAD_REACTORS
330
2C1D
102
}
330
2C1D
100
AcDbMaterial
  1
ByLayer
 72
     0
 43
0.0208333333333333
 43
0.0
 43
0.0
 43
0.0
 43
0.0
 43
0.0208333333333333
 43
0.0
 43
0.0
 43
0.0
 43
0.0
 43
1.0
 43
0.0
 43
0.0
 43
0.0
 43
0.0
 43
1.0
 77
     0
 47
0.0208333333333333
 47
0.0
 47
0.0
 47
0.0
 47
0.0
 47
0.0208333333333333
 47
0.0
 47
0.0
 47
0.0
 47
0.0
 47
1.0
 47
0.0
 47
0.0
 47
0.0
 47
0.0
 47
1.0
171
     0
 49
0.0208333333333333
 49
0.0
 49
0.0
 49
0.0
 49
0.0
 49
0.0208333333333333
 49
0.0
 49
0.0
 49
0.0
 49
0.0
 49
1.0
 49
0.0
 49
0.0
 49
0.0
 49
0.0
 49
1.0
175
     0
142
0.0208333333333333
142
0.0
142
0.0
142
0.0
142
0.0
142
0.0208333333333333
142
0.0
142
0.0
142
0.0
142
0.0
142
1.0
142
0.0
142
0.0
142
0.0
142
0.0
142
1.0
179
     0
144
0.0208333333333333
144
0.0
144
0.0
144
0.0
144
0.0
144
0.0208333333333333
144
0.0
144
0.0
144
0.0
144
0.0
144
1.0
144
0.0
144
0.0
144
0.0
144
0.0
144
1.0
147
0.0208333333333333
147
0.0
147
0.0
147
0.0
147
0.0
147
0.0208333333333333
147
0.0
147
0.0
147
0.0
147
0.0
147
1.0
147
0.0
147
0.0
147
0.0
147
0.0
147
1.0
  0
MATERIAL
  5
2C2E
102
{ACAD_XDICTIONARY
360
2C2F
102
}
102
{ACAD_REACTORS
330
2C1D
102
}
330
2C1D
100
AcDbMaterial
  1
Global
 72
     0
 43
0.0208333333333333
 43
0.0
 43
0.0
 43
0.0
 43
0.0
 43
0.0208333333333333
 43
0.0
 43
0.0
 43
0.0
 43
0.0
 43
1.0
 43
0.0
 43
0.0
 43
0.0
 43
0.0
 43
1.0
 77
     0
 47
0.0208333333333333
 47
0.0
 47
0.0
 47
0.0
 47
0.0
 47
0.0208333333333333
 47
0.0
 47
0.0
 47
0.0
 47
0.0
 47
1.0
 47
0.0
 47
0.0
 47
0.0
 47
0.0
 47
1.0
171
     0
 49
0.0208333333333333
 49
0.0
 49
0.0
 49
0.0
 49
0.0
 49
0.0208333333333333
 49
0.0
 49
0.0
 49
0.0
 49
0.0
 49
1.0
 49
0.0
 49
0.0
 49
0.0
 49
0.0
 49
1.0
175
     0
142
0.0208333333333333
142
0.0
142
0.0
142
0.0
142
0.0
142
0.0208333333333333
142
0.0
142
0.0
142
0.0
142
0.0
142
1.0
142
0.0
142
0.0
142
0.0
142
0.0
142
1.0
179
     0
144
0.0208333333333333
144
0.0
144
0.0
144
0.0
144
0.0
144
0.0208333333333333
144
0.0
144
0.0
144
0.0
144
0.0
144
1.0
144
0.0
144
0.0
144
0.0
144
0.0
144
1.0
147
0.0208333333333333
147
0.0
147
0.0
147
0.0
147
0.0
147
0.0208333333333333
147
0.0
147
0.0
147
0.0
147
0.0
147
1.0
147
0.0
147
0.0
147
0.0
147
0.0
147
1.0
  0
MLEADERSTYLE
  5
2C73
102
{ACAD_REACTORS
330
2C72
102
}
330
2C72
100
AcDbMLeaderStyle
179
     2
170
     2
171
     1
172
     0
 90
        2
 40
0.0
 41
0.0
173
     1
 91
-1056964608
340
2C67
 92
       -2
290
     1
 42
0.09
291
     1
 43
0.36
  3
Standard
 44
0.18
300

342
2C62
174
     1
178
     6
175
     1
176
     0
 93
-1056964608
 45
0.18
292
     0
297
     0
 46
0.18
 94
-1056964608
 47
1.0
 49
1.0
140
1.0
293
     1
141
0.0
294
     1
177
     0
142
1.0
295
     0
296
     0
143
0.125
271
     0
272
     9
273
     9
  0
MLINESTYLE
  5
2C6C
102
{ACAD_REACTORS
330
2C6B
102
}
330
2C6B
100
AcDbMlineStyle
  2
STANDARD
 70
     0
  3

 62
   256
 51
90.0
 52
90.0
 71
     2
 49
0.5
 62
   256
  6
BYLAYER
 49
-0.5
 62
   256
  6
BYLAYER
  0
ACDBPLACEHOLDER
  5
2C1C
102
{ACAD_REACTORS
330
2C1B
102
}
330
2C1B
  0
SCALE
  5
2C50
102
{ACAD_REACTORS
330
2C4F
102
}
330
2C4F
100
AcDbScale
 70
     0
300
1:1
140
1.0
141
1.0
290
     1
  0
SCALE
  5
2C51
102
{ACAD_REACTORS
330
2C4F
102
}
330
2C4F
100
AcDbScale
 70
     0
300
1/128" = 1'-0"
140
0.0078125
141
12.0
290
     0
  0
SCALE
  5
2C52
102
{ACAD_REACTORS
330
2C4F
102
}
330
2C4F
100
AcDbScale
 70
     0
300
1/64" = 1'-0"
140
0.015625
141
12.0
290
     0
  0
SCALE
  5
2C53
102
{ACAD_REACTORS
330
2C4F
102
}
330
2C4F
100
AcDbScale
 70
     0
300
1/32" = 1'-0"
140
0.03125
141
12.0
290
     0
  0
SCALE
  5
2C54
102
{ACAD_REACTORS
330
2C4F
102
}
330
2C4F
100
AcDbScale
 70
     0
300
1/16" = 1'-0"
140
0.0625
141
12.0
290
     0
  0
SCALE
  5
2C55
102
{ACAD_REACTORS
330
2C4F
102
}
330
2C4F
100
AcDbScale
 70
     0
300
3/32" = 1'-0"
140
0.09375
141
12.0
290
     0
  0
SCALE
  5
2C56
102
{ACAD_REACTORS
330
2C4F
102
}
330
2C4F
100
AcDbScale
 70
     0
300
1/8" = 1'-0"
140
0.125
141
12.0
290
     0
  0
SCALE
  5
2C57
102
{ACAD_REACTORS
330
2C4F
102
}
330
2C4F
100
AcDbScale
 70
     0
300
3/16" = 1'-0"
140
0.1875
141
12.0
290
     0
  0
SCALE
  5
2C58
102
{ACAD_REACTORS
330
2C4F
102
}
330
2C4F
100
AcDbScale
 70
     0
300
1/4" = 1'-0"
140
0.25
141
12.0
290
     0
  0
SCALE
  5
2C59
102
{ACAD_REACTORS
330
2C4F
102
}
330
2C4F
100
AcDbScale
 70
     0
300
3/8" = 1'-0"
140
0.375
141
12.0
290
     0
  0
SCALE
  5
2C5A
102
{ACAD_REACTORS
330
2C4F
102
}
330
2C4F
100
AcDbScale
 70
     0
300
1/2" = 1'-0"
140
0.5
141
12.0
290
     0
  0
SCALE
  5
2C5B
102
{ACAD_REACTORS
330
2C4F
102
}
330
2C4F
100
AcDbScale
 70
     0
300
3/4" = 1'-0"
140
0.75
141
12.0
290
     0
  0
SCALE
  5
2C5C
102
{ACAD_REACTORS
330
2C4F
102
}
330
2C4F
100
AcDbScale
 70
     0
300
1" = 1'-0"
140
1.0
141
12.0
290
     0
  0
SCALE
  5
2C5D
102
{ACAD_REACTORS
330
2C4F
102
}
330
2C4F
100
AcDbScale
 70
     0
300
1-1/2" = 1'-0"
140
1.5
141
12.0
290
     0
  0
SCALE
  5
2C5E
102
{ACAD_REACTORS
330
2C4F
102
}
330
2C4F
100
AcDbScale
 70
     0
300
3" = 1'-0"
140
3.0
141
12.0
290
     0
  0
SCALE
  5
2C5F
102
{ACAD_REACTORS
330
2C4F
102
}
330
2C4F
100
AcDbScale
 70
     0
300
6" = 1'-0"
140
6.0
141
12.0
290
     0
  0
SCALE
  5
2C60
102
{ACAD_REACTORS
330
2C4F
102
}
330
2C4F
100
AcDbScale
 70
     0
300
1'-0" = 1'-0"
140
12.0
141
12.0
290
     0
  0
ACDBSECTIONVIEWSTYLE
  5
2C75
102
{ACAD_XDICTIONARY
360
2F28
102
}
102
{ACAD_REACTORS
330
2C74
330
2E5F
102
}
330
2C74
100
AcDbModelDocViewStyle
 70
     0
  3
Imperial24
290
     0
100
AcDbSectionViewStyle
 70
     0
 71
     0
 90
       78
 71
     1
340
2C62
 62
   256
 40
0.24
340
0
340
0
 62
   256
 40
0.24
300
I, O, Q, S, X, Z
 40
0.48
 90
        3
 40
0.18
 90
        1
 71
     2
340
2C69
 90
       25
 62
   256
340
2C69
 90
       50
 62
   256
 40
0.24
 40
0.0
 40
0.24
 71
     3
340
2C62
 62
   256
 40
0.24
 90
        1
 40
0.75
 90
        1
300
%<\AcVar ViewType \f "%tc1">% %<\AcVar ViewSectionStartId>%-%<\AcVar ViewSectionEndId>%\PSCALE %<\AcVar ViewScale \f "%sn">%
 71
     4
 62
   256
 62
   257
300
ANSI31
 40
1.0
 90
        0
290
     0
290
     0
 90
        6
 40
0.0
 40
1.570796326794896
 40
0.2617993877991494
 40
1.308996938995747
 40
-0.2617993877991494
 40
1.832595714594046
  0
TABLESTYLE
  5
2C71
102
{ACAD_XDICTIONARY
360
2EED
102
}
102
{ACAD_REACTORS
330
2C70
102
}
330
2C70
100
AcDbTableStyle
280
     0
  3
Standard
 70
     0
 71
     0
 40
0.06
 41
0.06
280
     0
281
     0
  7
STANDARD
140
0.18
170
     2
 62
     0
 63
     7
283
     0
 90
      512
 91
        0
  1

274
    -2
284
     1
 64
     0
275
    -2
285
     1
 65
     0
276
    -2
286
     1
 66
     0
277
    -2
287
     1
 67
     0
278
    -2
288
     1
 68
     0
279
    -2
289
     1
 69
     0
  7
STANDARD
140
0.25
170
     5
 62
     0
 63
     7
283
     0
 90
      512
 91
        0
  1

274
    -2
284
     1
 64
     0
275
    -2
285
     1
 65
     0
276
    -2
286
     1
 66
     0
277
    -2
287
     1
 67
     0
278
    -2
288
     1
 68
     0
279
    -2
289
     1
 69
     0
  7
STANDARD
140
0.18
170
     5
 62
     0
 63
     7
283
     0
 90
      512
 91
        0
  1

274
    -2
284
     1
 64
     0
275
    -2
285
     1
 65
     0
276
    -2
286
     1
 66
     0
277
    -2
287
     1
 67
     0
278
    -2
288
     1
 68
     0
279
    -2
289
     1
 69
     0
  0
VISUALSTYLE
  5
2C3C
102
{ACAD_XDICTIONARY
360
2F02
102
}
102
{ACAD_REACTORS
330
2C36
102
}
330
2C36
100
AcDbVisualStyle
  2
2dWireframe
 70
     4
177
     2
291
     0
 71
     0
176
     1
 72
     2
176
     1
 73
     0
176
     1
 90
        0
176
     1
 40
0.6
176
     1
 41
30.0
176
     1
 63
     7
421
 16777215
176
     1
 74
     1
176
     1
 91
        4
176
     1
 64
     7
176
     1
 65
   257
176
     1
 75
     1
176
     1
175
     1
176
     1
 42
1.0
176
     1
 92
        0
176
     1
 66
   257
176
     1
 43
1.0
176
     1
 76
     1
176
     1
 77
     6
176
     1
 78
     2
176
     1
 67
     7
176
     1
 79
     5
176
     1
170
     0
176
     1
171
     0
176
     1
290
     0
176
     1
 93
        1
176
     1
 44
0.0
176
     1
173
     0
176
     1
1001
ACAD
1000
AcDbSavedByObjectVersion
1070
     0
  0
VISUALSTYLE
  5
2C3B
102
{ACAD_XDICTIONARY
360
2F00
102
}
102
{ACAD_REACTORS
330
2C36
102
}
330
2C36
100
AcDbVisualStyle
  2
Basic
 70
     7
177
     2
291
     1
 71
     1
176
     1
 72
     0
176
     1
 73
     1
176
     1
 90
        0
176
     1
 40
0.6
176
     1
 41
30.0
176
     1
 63
     7
421
 16777215
176
     1
 74
     0
176
     1
 91
        4
176
     1
 64
     7
176
     1
 65
   257
176
     1
 75
     1
176
     1
175
     1
176
     1
 42
1.0
176
     1
 92
        8
176
     1
 66
     7
176
     1
 43
1.0
176
     1
 76
     1
176
     1
 77
     6
176
     1
 78
     2
176
     1
 67
     7
176
     1
 79
     5
176
     1
170
     0
176
     1
171
     0
176
     1
290
     0
176
     1
 93
        1
176
     1
 44
0.0
176
     1
173
     0
176
     1
1001
ACAD
1000
AcDbSavedByObjectVersion
1070
     0
  0
VISUALSTYLE
  5
2C42
102
{ACAD_XDICTIONARY
360
2F0E
102
}
102
{ACAD_REACTORS
330
2C36
102
}
330
2C36
100
AcDbVisualStyle
  2
Brighten
 70
    12
177
     2
291
     1
 71
     2
176
     1
 72
     2
176
     1
 73
     0
176
     1
 90
        0
176
     1
 40
0.6
176
     1
 41
30.0
176
     1
 63
     7
421
 16777215
176
     1
 74
     1
176
     1
 91
        4
176
     1
 64
     7
176
     1
 65
   257
176
     1
 75
     1
176
     1
175
     1
176
     1
 42
1.0
176
     1
 92
        8
176
     1
 66
     7
176
     1
 43
1.0
176
     1
 76
     1
176
     1
 77
     6
176
     1
 78
     2
176
     1
 67
     7
176
     1
 79
     5
176
     1
170
     0
176
     1
171
     0
176
     1
290
     0
176
     1
 93
        1
176
     1
 44
50.0
176
     1
173
     0
176
     1
1001
ACAD
1000
AcDbSavedByObjectVersion
1070
     0
  0
VISUALSTYLE
  5
2C46
102
{ACAD_XDICTIONARY
360
2F16
102
}
102
{ACAD_REACTORS
330
2C36
102
}
330
2C36
100
AcDbVisualStyle
  2
ColorChange
 70
    16
177
     2
291
     1
 71
     2
176
     1
 72
     2
176
     1
 73
     3
176
     1
 90
        0
176
     1
 40
0.6
176
     1
 41
30.0
176
     1
 63
     8
421
  8421504
176
     1
 74
     1
176
     1
 91
        4
176
     1
 64
     7
176
     1
 65
   257
176
     1
 75
     1
176
     1
175
     1
176
     1
 42
1.0
176
     1
 92
        8
176
     1
 66
     8
424
  8421504
176
     1
 43
1.0
176
     1
 76
     1
176
     1
 77
     6
176
     1
 78
     2
176
     1
 67
     7
176
     1
 79
     5
176
     1
170
     0
176
     1
171
     0
176
     1
290
     0
176
     1
 93
        1
176
     1
 44
0.0
176
     1
173
     0
176
     1
1001
ACAD
1000
AcDbSavedByObjectVersion
1070
     0
  0
VISUALSTYLE
  5
2C3F
102
{ACAD_XDICTIONARY
360
2F08
102
}
102
{ACAD_REACTORS
330
2C36
102
}
330
2C36
100
AcDbVisualStyle
  2
Conceptual
 70
     9
177
     2
291
     0
 71
     3
176
     1
 72
     2
176
     1
 73
     0
176
     1
 90
        0
176
     1
 40
0.6
176
     1
 41
30.0
176
     1
 63
     7
421
 16777215
176
     1
 74
     2
176
     1
 91
        2
176
     1
 64
     7
176
     1
 65
   257
176
     1
 75
     1
176
     1
175
     1
176
     1
 42
179.0
176
     1
 92
        8
176
     1
 66
     7
176
     1
 43
1.0
176
     1
 76
     1
176
     1
 77
     6
176
     1
 78
     2
176
     1
 67
     7
176
     1
 79
     3
176
     1
170
     0
176
     1
171
     0
176
     1
290
     0
176
     1
 93
        1
176
     1
 44
0.0
176
     1
173
     0
176
     1
1001
ACAD
1000
AcDbSavedByObjectVersion
1070
     0
  0
VISUALSTYLE
  5
2C41
102
{ACAD_XDICTIONARY
360
2F0C
102
}
102
{ACAD_REACTORS
330
2C36
102
}
330
2C36
100
AcDbVisualStyle
  2
Dim
 70
    11
177
     2
291
     1
 71
     2
176
     1
 72
     2
176
     1
 73
     0
176
     1
 90
        0
176
     1
 40
0.6
176
     1
 41
30.0
176
     1
 63
     7
421
 16777215
176
     1
 74
     1
176
     1
 91
        4
176
     1
 64
     7
176
     1
 65
   257
176
     1
 75
     1
176
     1
175
     1
176
     1
 42
1.0
176
     1
 92
        8
176
     1
 66
     7
176
     1
 43
1.0
176
     1
 76
     1
176
     1
 77
     6
176
     1
 78
     2
176
     1
 67
     7
176
     1
 79
     5
176
     1
170
     0
176
     1
171
     0
176
     1
290
     0
176
     1
 93
        1
176
     1
 44
-50.0
176
     1
173
     0
176
     1
1001
ACAD
1000
AcDbSavedByObjectVersion
1070
     0
  0
VISUALSTYLE
  5
2C4E
102
{ACAD_XDICTIONARY
360
2F26
102
}
102
{ACAD_REACTORS
330
2C36
102
}
330
2C36
100
AcDbVisualStyle
  2
EdgeColorOff
 70
    22
177
     2
291
     1
 71
     2
176
     0
 72
     2
176
     0
 73
     0
176
     0
 90
        0
176
     0
 40
0.6
176
     0
 41
30.0
176
     0
 63
     7
421
 16777215
176
     0
 74
     1
176
     0
 91
        4
176
     0
 64
     7
176
     0
 65
   257
176
     0
 75
     1
176
     0
175
     1
176
     0
 42
1.0
176
     0
 92
        8
176
     2
 66
     7
176
     0
 43
1.0
176
     0
 76
     1
176
     0
 77
     6
176
     0
 78
     2
176
     0
 67
     7
176
     0
 79
     5
176
     0
170
     0
176
     0
171
     0
176
     0
290
     0
176
     0
 93
        1
176
     0
 44
0.0
176
     0
173
     0
176
     0
1001
ACAD
1000
AcDbSavedByObjectVersion
1070
     0
  0
VISUALSTYLE
  5
2C45
102
{ACAD_XDICTIONARY
360
2F14
102
}
102
{ACAD_REACTORS
330
2C36
102
}
330
2C36
100
AcDbVisualStyle
  2
Facepattern
 70
    15
177
     2
291
     1
 71
     2
176
     1
 72
     2
176
     1
 73
     0
176
     1
 90
        0
176
     1
 40
0.6
176
     1
 41
30.0
176
     1
 63
     7
421
 16777215
176
     1
 74
     1
176
     1
 91
        4
176
     1
 64
     7
176
     1
 65
   257
176
     1
 75
     1
176
     1
175
     1
176
     1
 42
1.0
176
     1
 92
        8
176
     1
 66
     7
176
     1
 43
1.0
176
     1
 76
     1
176
     1
 77
     6
176
     1
 78
     2
176
     1
 67
     7
176
     1
 79
     5
176
     1
170
     0
176
     1
171
     0
176
     1
290
     0
176
     1
 93
        1
176
     1
 44
0.0
176
     1
173
     0
176
     1
1001
ACAD
1000
AcDbSavedByObjectVersion
1070
     0
  0
VISUALSTYLE
  5
2C37
102
{ACAD_XDICTIONARY
360
2EF8
102
}
102
{ACAD_REACTORS
330
2C36
102
}
330
2C36
100
AcDbVisualStyle
  2
Flat
 70
     0
177
     2
291
     1
 71
     2
176
     1
 72
     1
176
     1
 73
     1
176
     1
 90
        2
176
     1
 40
0.6
176
     1
 41
30.0
176
     1
 63
     7
421
 16777215
176
     1
 74
     0
176
     1
 91
        0
176
     1
 64
     7
176
     1
 65
   257
176
     1
 75
     1
176
     1
175
     1
176
     1
 42
1.0
176
     1
 92
        8
176
     1
 66
     7
176
     1
 43
1.0
176
     1
 76
     1
176
     1
 77
     6
176
     1
 78
     2
176
     1
 67
     7
176
     1
 79
     5
176
     1
170
     0
176
     1
171
     0
176
     1
290
     0
176
     1
 93
       13
176
     1
 44
0.0
176
     1
173
     0
176
     1
1001
ACAD
1000
AcDbSavedByObjectVersion
1070
     0
  0
VISUALSTYLE
  5
2C38
102
{ACAD_XDICTIONARY
360
2EFA
102
}
102
{ACAD_REACTORS
330
2C36
102
}
330
2C36
100
AcDbVisualStyle
  2
FlatWithEdges
 70
     1
177
     2
291
     1
 71
     2
176
     1
 72
     1
176
     1
 73
     1
176
     1
 90
        2
176
     1
 40
0.6
176
     1
 41
30.0
176
     1
 63
     7
421
 16777215
176
     1
 74
     1
176
     1
 91
        0
176
     1
 64
     7
176
     1
 65
   257
176
     1
 75
     1
176
     1
175
     1
176
     1
 42
1.0
176
     1
 92
        0
176
     1
 66
   257
176
     1
 43
1.0
176
     1
 76
     1
176
     1
 77
     6
176
     1
 78
     2
176
     1
 67
     7
176
     1
 79
     5
176
     1
170
     0
176
     1
171
     0
176
     1
290
     0
176
     1
 93
       13
176
     1
 44
0.0
176
     1
173
     0
176
     1
1001
ACAD
1000
AcDbSavedByObjectVersion
1070
     0
  0
VISUALSTYLE
  5
2C39
102
{ACAD_XDICTIONARY
360
2EFC
102
}
102
{ACAD_REACTORS
330
2C36
102
}
330
2C36
100
AcDbVisualStyle
  2
Gouraud
 70
     2
177
     2
291
     1
 71
     2
176
     1
 72
     2
176
     1
 73
     1
176
     1
 90
        2
176
     1
 40
0.6
176
     1
 41
30.0
176
     1
 63
     7
421
 16777215
176
     1
 74
     0
176
     1
 91
        0
176
     1
 64
     7
176
     1
 65
   257
176
     1
 75
     1
176
     1
175
     1
176
     1
 42
1.0
176
     1
 92
        0
176
     1
 66
     7
176
     1
 43
1.0
176
     1
 76
     1
176
     1
 77
     6
176
     1
 78
     2
176
     1
 67
     7
176
     1
 79
     5
176
     1
170
     0
176
     1
171
     0
176
     1
290
     0
176
     1
 93
       13
176
     1
 44
0.0
176
     1
173
     0
176
     1
1001
ACAD
1000
AcDbSavedByObjectVersion
1070
     0
  0
VISUALSTYLE
  5
2C3A
102
{ACAD_XDICTIONARY
360
2EFE
102
}
102
{ACAD_REACTORS
330
2C36
102
}
330
2C36
100
AcDbVisualStyle
  2
GouraudWithEdges
 70
     3
177
     2
291
     1
 71
     2
176
     1
 72
     2
176
     1
 73
     1
176
     1
 90
        2
176
     1
 40
0.6
176
     1
 41
30.0
176
     1
 63
     7
421
 16777215
176
     1
 74
     1
176
     1
 91
        0
176
     1
 64
     7
176
     1
 65
   257
176
     1
 75
     1
176
     1
175
     1
176
     1
 42
1.0
176
     1
 92
        0
176
     1
 66
   257
176
     1
 43
1.0
176
     1
 76
     1
176
     1
 77
     6
176
     1
 78
     2
176
     1
 67
     7
176
     1
 79
     5
176
     1
170
     0
176
     1
171
     0
176
     1
290
     0
176
     1
 93
       13
176
     1
 44
0.0
176
     1
173
     0
176
     1
1001
ACAD
1000
AcDbSavedByObjectVersion
1070
     0
  0
VISUALSTYLE
  5
2C3E
102
{ACAD_XDICTIONARY
360
2F06
102
}
102
{ACAD_REACTORS
330
2C36
102
}
330
2C36
100
AcDbVisualStyle
  2
Hidden
 70
     6
177
     2
291
     0
 71
     1
176
     1
 72
     2
176
     1
 73
     2
176
     1
 90
        0
176
     1
 40
0.6
176
     1
 41
30.0
176
     1
 63
     7
421
 16777215
176
     1
 74
     2
176
     1
 91
        2
176
     1
 64
     7
176
     1
 65
   257
176
     1
 75
     2
176
     1
175
     1
176
     1
 42
40.0
176
     1
 92
        0
176
     1
 66
   257
176
     1
 43
1.0
176
     1
 76
     1
176
     1
 77
     6
176
     1
 78
     2
176
     1
 67
     7
176
     1
 79
     3
176
     1
170
     0
176
     1
171
     0
176
     1
290
     0
176
     1
 93
        1
176
     1
 44
0.0
176
     1
173
     0
176
     1
1001
ACAD
1000
AcDbSavedByObjectVersion
1070
     0
  0
VISUALSTYLE
  5
2C4C
102
{ACAD_XDICTIONARY
360
2F22
102
}
102
{ACAD_REACTORS
330
2C36
102
}
330
2C36
100
AcDbVisualStyle
  2
JitterOff
 70
    20
177
     2
291
     1
 71
     2
176
     0
 72
     2
176
     0
 73
     0
176
     0
 90
        0
176
     0
 40
0.6
176
     0
 41
30.0
176
     0
 63
     7
421
 16777215
176
     0
 74
     1
176
     0
 91
        4
176
     0
 64
     7
176
     0
 65
   257
176
     0
 75
     1
176
     0
175
     1
176
     0
 42
1.0
176
     0
 92
       10
176
     2
 66
     7
176
     0
 43
1.0
176
     0
 76
     1
176
     0
 77
     6
176
     0
 78
     2
176
     0
 67
     7
176
     0
 79
     5
176
     0
170
     0
176
     0
171
     0
176
     0
290
     0
176
     0
 93
        1
176
     0
 44
0.0
176
     0
173
     0
176
     0
1001
ACAD
1000
AcDbSavedByObjectVersion
1070
     0
  0
VISUALSTYLE
  5
2C44
102
{ACAD_XDICTIONARY
360
2F12
102
}
102
{ACAD_REACTORS
330
2C36
102
}
330
2C36
100
AcDbVisualStyle
  2
Linepattern
 70
    14
177
     2
291
     1
 71
     2
176
     1
 72
     2
176
     1
 73
     0
176
     1
 90
        0
176
     1
 40
0.6
176
     1
 41
30.0
176
     1
 63
     7
421
 16777215
176
     1
 74
     1
176
     1
 91
        4
176
     1
 64
     7
176
     1
 65
   257
176
     1
 75
     7
176
     1
175
     7
176
     1
 42
1.0
176
     1
 92
        8
176
     1
 66
     7
176
     1
 43
1.0
176
     1
 76
     1
176
     1
 77
     6
176
     1
 78
     2
176
     1
 67
     7
176
     1
 79
     5
176
     1
170
     0
176
     1
171
     0
176
     1
290
     0
176
     1
 93
        1
176
     1
 44
0.0
176
     1
173
     0
176
     1
1001
ACAD
1000
AcDbSavedByObjectVersion
1070
     0
  0
VISUALSTYLE
  5
2C4D
102
{ACAD_XDICTIONARY
360
2F24
102
}
102
{ACAD_REACTORS
330
2C36
102
}
330
2C36
100
AcDbVisualStyle
  2
OverhangOff
 70
    21
177
     2
291
     1
 71
     2
176
     0
 72
     2
176
     0
 73
     0
176
     0
 90
        0
176
     0
 40
0.6
176
     0
 41
30.0
176
     0
 63
     7
421
 16777215
176
     0
 74
     1
176
     0
 91
        4
176
     0
 64
     7
176
     0
 65
   257
176
     0
 75
     1
176
     0
175
     1
176
     0
 42
1.0
176
     0
 92
        9
176
     2
 66
     7
176
     0
 43
1.0
176
     0
 76
     1
176
     0
 77
     6
176
     0
 78
     2
176
     0
 67
     7
176
     0
 79
     5
176
     0
170
     0
176
     0
171
     0
176
     0
290
     0
176
     0
 93
        1
176
     0
 44
0.0
176
     0
173
     0
176
     0
1001
ACAD
1000
AcDbSavedByObjectVersion
1070
     0
  0
VISUALSTYLE
  5
2C40
102
{ACAD_XDICTIONARY
360
2F0A
102
}
102
{ACAD_REACTORS
330
2C36
102
}
330
2C36
100
AcDbVisualStyle
  2
Realistic
 70
     8
177
     2
291
     0
 71
     2
176
     1
 72
     3
176
     1
 73
     0
176
     1
 90
        2
176
     1
 40
0.6
176
     1
 41
30.0
176
     1
 63
     7
421
 16777215
176
     1
 74
     0
176
     1
 91
        0
176
     1
 64
     7
176
     1
 65
   257
176
     1
 75
     1
176
     1
175
     1
176
     1
 42
1.0
176
     1
 92
        8
176
     1
 66
   257
176
     1
 43
1.0
176
     1
 76
     1
176
     1
 77
     6
176
     1
 78
     2
176
     1
 67
     7
176
     1
 79
     3
176
     1
170
     0
176
     1
171
     0
176
     1
290
     0
176
     1
 93
       13
176
     1
 44
0.0
176
     1
173
     0
176
     1
1001
ACAD
1000
AcDbSavedByObjectVersion
1070
     0
  0
VISUALSTYLE
  5
2C4B
102
{ACAD_XDICTIONARY
360
2F20
102
}
102
{ACAD_REACTORS
330
2C36
102
}
330
2C36
100
AcDbVisualStyle
  2
Shaded
 70
    27
177
     2
291
     0
 71
     2
176
     1
 72
     2
176
     1
 73
     1
176
     1
 90
        2
176
     1
 40
0.6
176
     1
 41
30.0
176
     1
 63
     7
421
 16777215
176
     1
 74
     0
176
     1
 91
        4
176
     1
 64
     7
176
     1
 65
   257
176
     1
 75
     1
176
     1
175
     1
176
     1
 42
1.0
176
     1
 92
        8
176
     1
 66
   257
176
     1
 43
1.0
176
     1
 76
     1
176
     1
 77
     6
176
     1
 78
     2
176
     1
 67
     8
425
  7895160
176
     1
 79
     3
176
     1
170
     0
176
     1
171
     0
176
     1
290
     0
176
     1
 93
        5
176
     1
 44
0.0
176
     1
173
     0
176
     1
1001
ACAD
1000
AcDbSavedByObjectVersion
1070
     0
  0
VISUALSTYLE
  5
2C4A
102
{ACAD_XDICTIONARY
360
2F1E
102
}
102
{ACAD_REACTORS
330
2C36
102
}
330
2C36
100
AcDbVisualStyle
  2
Shaded with edges
 70
    26
177
     2
291
     0
 71
     2
176
     1
 72
     2
176
     1
 73
     1
176
     1
 90
        2
176
     1
 40
0.6
176
     1
 41
30.0
176
     1
 63
     7
421
 16777215
176
     1
 74
     1
176
     1
 91
        2
176
     1
 64
     7
176
     1
 65
   257
176
     1
 75
     2
176
     1
175
     1
176
     1
 42
1.0
176
     1
 92
        8
176
     1
 66
   257
176
     1
 43
1.0
176
     1
 76
     1
176
     1
 77
     6
176
     1
 78
     2
176
     1
 67
     7
176
     1
 79
     3
176
     1
170
     0
176
     1
171
     0
176
     1
290
     0
176
     1
 93
        5
176
     1
 44
0.0
176
     1
173
     0
176
     1
1001
ACAD
1000
AcDbSavedByObjectVersion
1070
     0
  0
VISUALSTYLE
  5
2C47
102
{ACAD_XDICTIONARY
360
2F18
102
}
102
{ACAD_REACTORS
330
2C36
102
}
330
2C36
100
AcDbVisualStyle
  2
Shades of Gray
 70
    23
177
     2
291
     0
 71
     2
176
     1
 72
     2
176
     1
 73
     3
176
     1
 90
        0
176
     1
 40
0.6
176
     1
 41
30.0
176
     1
 63
     7
421
 16777215
176
     1
 74
     2
176
     1
 91
        2
176
     1
 64
     7
176
     1
 65
     7
176
     1
 75
     1
176
     1
175
     1
176
     1
 42
40.0
176
     1
 92
        8
176
     1
 66
     7
176
     1
 43
1.0
176
     1
 76
     1
176
     1
 77
     6
176
     1
 78
     2
176
     1
 67
     7
176
     1
 79
     3
176
     1
170
     0
176
     1
171
     0
176
     1
290
     0
176
     1
 93
        1
176
     1
 44
0.0
176
     1
173
     0
176
     1
1001
ACAD
1000
AcDbSavedByObjectVersion
1070
     0
  0
VISUALSTYLE
  5
2C48
102
{ACAD_XDICTIONARY
360
2F1A
102
}
102
{ACAD_REACTORS
330
2C36
102
}
330
2C36
100
AcDbVisualStyle
  2
Sketchy
 70
    24
177
     2
291
     0
 71
     1
176
     1
 72
     2
176
     1
 73
     2
176
     1
 90
        0
176
     1
 40
0.6
176
     1
 41
30.0
176
     1
 63
     7
421
 16777215
176
     1
 74
     2
176
     1
 91
        2
176
     1
 64
     7
176
     1
 65
     7
176
     1
 75
     1
176
     1
175
     1
176
     1
 42
40.0
176
     1
 92
       11
176
     1
 66
     7
176
     1
 43
1.0
176
     1
 76
     1
176
     1
 77
     6
176
     1
 78
     2
176
     1
 67
     7
176
     1
 79
     6
176
     1
170
     0
176
     1
171
     0
176
     1
290
     0
176
     1
 93
        1
176
     1
 44
0.0
176
     1
173
     0
176
     1
1001
ACAD
1000
AcDbSavedByObjectVersion
1070
     0
  0
VISUALSTYLE
  5
2C43
102
{ACAD_XDICTIONARY
360
2F10
102
}
102
{ACAD_REACTORS
330
2C36
102
}
330
2C36
100
AcDbVisualStyle
  2
Thicken
 70
    13
177
     2
291
     1
 71
     2
176
     1
 72
     2
176
     1
 73
     0
176
     1
 90
        0
176
     1
 40
0.6
176
     1
 41
30.0
176
     1
 63
     7
421
 16777215
176
     1
 74
     1
176
     1
 91
        4
176
     1
 64
     7
176
     1
 65
   257
176
     1
 75
     1
176
     1
175
     1
176
     1
 42
1.0
176
     1
 92
       12
176
     1
 66
     7
176
     1
 43
1.0
176
     1
 76
     1
176
     1
 77
     6
176
     1
 78
     2
176
     1
 67
     7
176
     1
 79
     5
176
     1
170
     0
176
     1
171
     0
176
     1
290
     0
176
     1
 93
        1
176
     1
 44
0.0
176
     1
173
     0
176
     1
1001
ACAD
1000
AcDbSavedByObjectVersion
1070
     0
  0
VISUALSTYLE
  5
2C3D
102
{ACAD_XDICTIONARY
360
2F04
102
}
102
{ACAD_REACTORS
330
2C36
102
}
330
2C36
100
AcDbVisualStyle
  2
Wireframe
 70
     5
177
     2
291
     0
 71
     0
176
     1
 72
     2
176
     1
 73
     0
176
     1
 90
        0
176
     1
 40
0.6
176
     1
 41
30.0
176
     1
 63
     7
421
 16777215
176
     1
 74
     1
176
     1
 91
        4
176
     1
 64
     7
176
     1
 65
   257
176
     1
 75
     1
176
     1
175
     1
176
     1
 42
1.0
176
     1
 92
        0
176
     1
 66
   257
176
     1
 43
1.0
176
     1
 76
     1
176
     1
 77
     6
176
     1
 78
     2
176
     1
 67
     7
176
     1
 79
     3
176
     1
170
     0
176
     1
171
     0
176
     1
290
     0
176
     1
 93
        1
176
     1
 44
0.0
176
     1
173
     0
176
     1
1001
ACAD
1000
AcDbSavedByObjectVersion
1070
     0
  0
VISUALSTYLE
  5
2C49
102
{ACAD_XDICTIONARY
360
2F1C
102
}
102
{ACAD_REACTORS
330
2C36
102
}
330
2C36
100
AcDbVisualStyle
  2
X-Ray
 70
    25
177
     2
291
     0
 71
     2
176
     1
 72
     2
176
     1
 73
     1
176
     1
 90
        1
176
     1
 40
0.5
176
     1
 41
30.0
176
     1
 63
     7
421
 16777215
176
     1
 74
     1
176
     1
 91
        0
176
     1
 64
     7
176
     1
 65
   257
176
     1
 75
     1
176
     1
175
     1
176
     1
 42
1.0
176
     1
 92
        8
176
     1
 66
     7
176
     1
 43
1.0
176
     1
 76
     1
176
     1
 77
     6
176
     1
 78
     2
176
     1
 67
     7
176
     1
 79
     3
176
     1
170
     0
176
     1
171
     0
176
     1
290
     0
176
     1
 93
       13
176
     1
 44
0.0
176
     1
173
     0
176
     1
1001
ACAD
1000
AcDbSavedByObjectVersion
1070
     0
  0
DICTIONARYVAR
  5
2E49
102
{ACAD_REACTORS
330
2E43
102
}
330
2E43
100
DictionaryVariables
280
     0
  1
1:1
  0
DICTIONARYVAR
  5
2E45
102
{ACAD_REACTORS
330
2E43
102
}
330
2E43
100
DictionaryVariables
280
     0
  1
STANDARD
  0
DICTIONARYVAR
  5
2E44
102
{ACAD_REACTORS
330
2E43
102
}
330
2E43
100
DictionaryVariables
280
     0
  1
STANDARD
  0
DICTIONARYVAR
  5
2E46
102
{ACAD_REACTORS
330
2E43
102
}
330
2E43
100
DictionaryVariables
280
     0
  1
Imperial24
  0
DICTIONARYVAR
  5
2E47
102
{ACAD_REACTORS
330
2E43
102
}
330
2E43
100
DictionaryVariables
280
     0
  1
Imperial24
  0
DICTIONARYVAR
  5
2E4B
102
{ACAD_REACTORS
330
2E43
102
}
330
2E43
100
DictionaryVariables
280
     0
  1
1
  0
DICTIONARYVAR
  5
2E4C
102
{ACAD_REACTORS
330
2E43
102
}
330
2E43
100
DictionaryVariables
280
     0
  1
15
  0
DICTIONARYVAR
  5
2E4A
102
{ACAD_REACTORS
330
2E43
102
}
330
2E43
100
DictionaryVariables
280
     0
  1
0
  0
DICTIONARYVAR
  5
2E48
102
{ACAD_REACTORS
330
2E43
102
}
330
2E43
100
DictionaryVariables
280
     0
  1
0
  0
DICTIONARY
  5
2EF7
102
{ACAD_REACTORS
330
2EF5
102
}
330
2EF5
100
AcDbDictionary
281
     1
  0
DICTIONARY
  5
2EF6
102
{ACAD_REACTORS
330
2EF5
102
}
330
2EF5
100
AcDbDictionary
281
     1
  3
2130276450304
350
2EF0
  3
2130276450320
350
2EF1
  3
2130276450336
350
2EF2
  3
2130276450352
350
2EF3
  3
2130276450368
350
2EF4
  0
DICTIONARY
  5
2D61
102
{ACAD_REACTORS
330
2D58
102
}
330
2D58
100
AcDbDictionary
281
     1
  0
DICTIONARY
  5
2F2A
330
2C77
100
AcDbDictionary
280
     1
281
     1
  3
ACAD_XREC_ROUNDTRIP
360
2F2B
  0
DICTIONARY
  5
2C27
330
2C26
100
AcDbDictionary
280
     1
281
     1
  3
BUMPTILE
360
2C29
  3
DIFFUSETILE
360
2C28
  3
OPACITYTILE
360
2C2C
  3
REFLECTIONTILE
360
2C2B
  3
REFRACTIONTILE
360
2C2D
  3
SPECULARTILE
360
2C2A
  0
DICTIONARY
  5
2C1F
330
2C1E
100
AcDbDictionary
280
     1
281
     1
  3
BUMPTILE
360
2C21
  3
DIFFUSETILE
360
2C20
  3
OPACITYTILE
360
2C24
  3
REFLECTIONTILE
360
2C23
  3
REFRACTIONTILE
360
2C25
  3
SPECULARTILE
360
2C22
  0
DICTIONARY
  5
2C2F
330
2C2E
100
AcDbDictionary
280
     1
281
     1
  3
BUMPTILE
360
2C31
  3
DIFFUSETILE
360
2C30
  3
OPACITYTILE
360
2C34
  3
REFLECTIONTILE
360
2C33
  3
REFRACTIONTILE
360
2C35
  3
SPECULARTILE
360
2C32
  0
DICTIONARY
  5
2F28
330
2C75
100
AcDbDictionary
280
     1
281
     1
  3
ACAD_XREC_ROUNDTRIP
360
2F29
  0
DICTIONARY
  5
2EED
330
2C71
100
AcDbDictionary
280
     1
281
     1
  3
ACAD_ROUNDTRIP_2008_TABLESTYLE_CELLSTYLEMAP
360
2EEE
  0
DICTIONARY
  5
2F02
330
2C3C
100
AcDbDictionary
280
     1
281
     1
  3
ACAD_XREC_ROUNDTRIP
360
2F03
  0
DICTIONARY
  5
2F00
330
2C3B
100
AcDbDictionary
280
     1
281
     1
  3
ACAD_XREC_ROUNDTRIP
360
2F01
  0
DICTIONARY
  5
2F0E
330
2C42
100
AcDbDictionary
280
     1
281
     1
  3
ACAD_XREC_ROUNDTRIP
360
2F0F
  0
DICTIONARY
  5
2F16
330
2C46
100
AcDbDictionary
280
     1
281
     1
  3
ACAD_XREC_ROUNDTRIP
360
2F17
  0
DICTIONARY
  5
2F08
330
2C3F
100
AcDbDictionary
280
     1
281
     1
  3
ACAD_XREC_ROUNDTRIP
360
2F09
  0
DICTIONARY
  5
2F0C
330
2C41
100
AcDbDictionary
280
     1
281
     1
  3
ACAD_XREC_ROUNDTRIP
360
2F0D
  0
DICTIONARY
  5
2F26
330
2C4E
100
AcDbDictionary
280
     1
281
     1
  3
ACAD_XREC_ROUNDTRIP
360
2F27
  0
DICTIONARY
  5
2F14
330
2C45
100
AcDbDictionary
280
     1
281
     1
  3
ACAD_XREC_ROUNDTRIP
360
2F15
  0
DICTIONARY
  5
2EF8
330
2C37
100
AcDbDictionary
280
     1
281
     1
  3
ACAD_XREC_ROUNDTRIP
360
2EF9
  0
DICTIONARY
  5
2EFA
330
2C38
100
AcDbDictionary
280
     1
281
     1
  3
ACAD_XREC_ROUNDTRIP
360
2EFB
  0
DICTIONARY
  5
2EFC
330
2C39
100
AcDbDictionary
280
     1
281
     1
  3
ACAD_XREC_ROUNDTRIP
360
2EFD
  0
DICTIONARY
  5
2EFE
330
2C3A
100
AcDbDictionary
280
     1
281
     1
  3
ACAD_XREC_ROUNDTRIP
360
2EFF
  0
DICTIONARY
  5
2F06
330
2C3E
100
AcDbDictionary
280
     1
281
     1
  3
ACAD_XREC_ROUNDTRIP
360
2F07
  0
DICTIONARY
  5
2F22
330
2C4C
100
AcDbDictionary
280
     1
281
     1
  3
ACAD_XREC_ROUNDTRIP
360
2F23
  0
DICTIONARY
  5
2F12
330
2C44
100
AcDbDictionary
280
     1
281
     1
  3
ACAD_XREC_ROUNDTRIP
360
2F13
  0
DICTIONARY
  5
2F24
330
2C4D
100
AcDbDictionary
280
     1
281
     1
  3
ACAD_XREC_ROUNDTRIP
360
2F25
  0
DICTIONARY
  5
2F0A
330
2C40
100
AcDbDictionary
280
     1
281
     1
  3
ACAD_XREC_ROUNDTRIP
360
2F0B
  0
DICTIONARY
  5
2F20
330
2C4B
100
AcDbDictionary
280
     1
281
     1
  3
ACAD_XREC_ROUNDTRIP
360
2F21
  0
DICTIONARY
  5
2F1E
330
2C4A
100
AcDbDictionary
280
     1
281
     1
  3
ACAD_XREC_ROUNDTRIP
360
2F1F
  0
DICTIONARY
  5
2F18
330
2C47
100
AcDbDictionary
280
     1
281
     1
  3
ACAD_XREC_ROUNDTRIP
360
2F19
  0
DICTIONARY
  5
2F1A
330
2C48
100
AcDbDictionary
280
     1
281
     1
  3
ACAD_XREC_ROUNDTRIP
360
2F1B
  0
DICTIONARY
  5
2F10
330
2C43
100
AcDbDictionary
280
     1
281
     1
  3
ACAD_XREC_ROUNDTRIP
360
2F11
  0
DICTIONARY
  5
2F04
330
2C3D
100
AcDbDictionary
280
     1
281
     1
  3
ACAD_XREC_ROUNDTRIP
360
2F05
  0
DICTIONARY
  5
2F1C
330
2C49
100
AcDbDictionary
280
     1
281
     1
  3
ACAD_XREC_ROUNDTRIP
360
2F1D
  0
XRECORD
  5
2EF0
102
{ACAD_REACTORS
330
2EF6
102
}
330
2EF6
100
AcDbXrecord
280
     1
  1
AcDb_Thumbnail_Schema
102
{ATTRRECORD
341
2EF1
  2
AcDbDs::TreatedAsObjectData
280
     1
291
     1
102
ATTRRECORD}
102
{ATTRRECORD
341
2EF2
  2
AcDbDs::Legacy
280
     1
291
     1
102
ATTRRECORD}
  2
AcDbDs::ID
280
    10
 91
        8
102
{ATTRRECORD
341
2EF3
  2
AcDs:Indexable
280
     1
291
     1
102
ATTRRECORD}
102
{ATTRRECORD
341
2EF4
  2
AcDbDs::HandleAttribute
280
     7
282
     1
102
ATTRRECORD}
  2
Thumbnail_Data
280
    15
 91
        0
  0
XRECORD
  5
2EF1
102
{ACAD_REACTORS
330
2EF6
102
}
330
2EF6
100
AcDbXrecord
280
     1
  1
AcDbDs::TreatedAsObjectDataSchema
  2
AcDbDs::TreatedAsObjectData
280
     1
 91
        0
  0
XRECORD
  5
2EF2
102
{ACAD_REACTORS
330
2EF6
102
}
330
2EF6
100
AcDbXrecord
280
     1
  1
AcDbDs::LegacySchema
  2
AcDbDs::Legacy
280
     1
 91
        0
  0
XRECORD
  5
2EF3
102
{ACAD_REACTORS
330
2EF6
102
}
330
2EF6
100
AcDbXrecord
280
     1
  1
AcDbDs::IndexedPropertySchema
  2
AcDs:Indexable
280
     1
 91
        0
  0
XRECORD
  5
2EF4
102
{ACAD_REACTORS
330
2EF6
102
}
330
2EF6
100
AcDbXrecord
280
     1
  1
AcDbDs::HandleAttributeSchema
  2
AcDbDs::HandleAttribute
280
     7
 91
        1
284
     1
  0
XRECORD
  5
2F2B
102
{ACAD_REACTORS
330
2F2A
102
}
330
2F2A
100
AcDbXrecord
280
     1
102
DISPLAYNAME
  1
Imperial24
102
FLAGS
 90
        0
  0
XRECORD
  5
2C29
102
{ACAD_REACTORS
330
2C27
102
}
330
2C27
100
AcDbXrecord
280
     1
270
     1
271
     1
  0
XRECORD
  5
2C28
102
{ACAD_REACTORS
330
2C27
102
}
330
2C27
100
AcDbXrecord
280
     1
270
     1
271
     1
  0
XRECORD
  5
2C2C
102
{ACAD_REACTORS
330
2C27
102
}
330
2C27
100
AcDbXrecord
280
     1
270
     1
271
     1
  0
XRECORD
  5
2C2B
102
{ACAD_REACTORS
330
2C27
102
}
330
2C27
100
AcDbXrecord
280
     1
270
     1
271
     1
  0
XRECORD
  5
2C2D
102
{ACAD_REACTORS
330
2C27
102
}
330
2C27
100
AcDbXrecord
280
     1
270
     1
271
     1
  0
XRECORD
  5
2C2A
102
{ACAD_REACTORS
330
2C27
102
}
330
2C27
100
AcDbXrecord
280
     1
270
     1
271
     1
  0
XRECORD
  5
2C21
102
{ACAD_REACTORS
330
2C1F
102
}
330
2C1F
100
AcDbXrecord
280
     1
270
     1
271
     1
  0
XRECORD
  5
2C20
102
{ACAD_REACTORS
330
2C1F
102
}
330
2C1F
100
AcDbXrecord
280
     1
270
     1
271
     1
  0
XRECORD
  5
2C24
102
{ACAD_REACTORS
330
2C1F
102
}
330
2C1F
100
AcDbXrecord
280
     1
270
     1
271
     1
  0
XRECORD
  5
2C23
102
{ACAD_REACTORS
330
2C1F
102
}
330
2C1F
100
AcDbXrecord
280
     1
270
     1
271
     1
  0
XRECORD
  5
2C25
102
{ACAD_REACTORS
330
2C1F
102
}
330
2C1F
100
AcDbXrecord
280
     1
270
     1
271
     1
  0
XRECORD
  5
2C22
102
{ACAD_REACTORS
330
2C1F
102
}
330
2C1F
100
AcDbXrecord
280
     1
270
     1
271
     1
  0
XRECORD
  5
2C31
102
{ACAD_REACTORS
330
2C2F
102
}
330
2C2F
100
AcDbXrecord
280
     1
270
     1
271
     1
  0
XRECORD
  5
2C30
102
{ACAD_REACTORS
330
2C2F
102
}
330
2C2F
100
AcDbXrecord
280
     1
270
     1
271
     1
  0
XRECORD
  5
2C34
102
{ACAD_REACTORS
330
2C2F
102
}
330
2C2F
100
AcDbXrecord
280
     1
270
     1
271
     1
  0
XRECORD
  5
2C33
102
{ACAD_REACTORS
330
2C2F
102
}
330
2C2F
100
AcDbXrecord
280
     1
270
     1
271
     1
  0
XRECORD
  5
2C35
102
{ACAD_REACTORS
330
2C2F
102
}
330
2C2F
100
AcDbXrecord
280
     1
270
     1
271
     1
  0
XRECORD
  5
2C32
102
{ACAD_REACTORS
330
2C2F
102
}
330
2C2F
100
AcDbXrecord
280
     1
270
     1
271
     1
  0
XRECORD
  5
2F29
102
{ACAD_REACTORS
330
2F28
102
}
330
2F28
100
AcDbXrecord
280
     1
102
DISPLAYNAME
  1
Imperial24
102
FLAGS
 90
        0
  0
CELLSTYLEMAP
  5
2EEE
102
{ACAD_REACTORS
330
2EED
102
}
330
2EED
100
AcDbCellStyleMap
 90
        3
300
CELLSTYLE
  1
TABLEFORMAT_BEGIN
 90
        5
170
     1
 91
        0
 92
    32768
 62
   257
 93
        1
300
CONTENTFORMAT
  1
CONTENTFORMAT_BEGIN
 90
        0
 91
        0
 92
      512
 93
        0
300

 40
0.0
140
1.0
 94
        5
 62
     0
340
2C62
144
0.25
309
CONTENTFORMAT_END
171
     0
 94
        0
309
TABLEFORMAT_END
  1
CELLSTYLE_BEGIN
 90
        1
 91
        1
300
_TITLE
309
CELLSTYLE_END
300
CELLSTYLE
  1
TABLEFORMAT_BEGIN
 90
        5
170
     1
 91
        0
 92
        0
 62
   257
 93
        1
300
CONTENTFORMAT
  1
CONTENTFORMAT_BEGIN
 90
        0
 91
        0
 92
      512
 93
        0
300

 40
0.0
140
1.0
 94
        5
 62
     0
340
2C62
144
0.18
309
CONTENTFORMAT_END
171
     0
 94
        0
309
TABLEFORMAT_END
  1
CELLSTYLE_BEGIN
 90
        2
 91
        1
300
_HEADER
309
CELLSTYLE_END
300
CELLSTYLE
  1
TABLEFORMAT_BEGIN
 90
        5
170
     1
 91
        0
 92
        0
 62
   257
 93
        1
300
CONTENTFORMAT
  1
CONTENTFORMAT_BEGIN
 90
        0
 91
        0
 92
      512
 93
        0
300

 40
0.0
140
1.0
 94
        2
 62
     0
340
2C62
144
0.18
309
CONTENTFORMAT_END
171
     0
 94
        0
309
TABLEFORMAT_END
  1
CELLSTYLE_BEGIN
 90
        3
 91
        2
300
_DATA
309
CELLSTYLE_END
  0
XRECORD
  5
2F03
102
{ACAD_REACTORS
330
2F02
102
}
330
2F02
100
AcDbXrecord
280
     1
102
RTVSPost2010Prop28
280
     1
102
RTVSPost2010PropOp28
 70
     1
102
RTVSPost2010Prop29
280
     1
102
RTVSPost2010PropOp29
 70
     1
102
RTVSPost2010Prop30
280
     0
102
RTVSPost2010PropOp30
 70
     1
102
RTVSPost2010Prop31
280
     0
102
RTVSPost2010PropOp31
 70
     1
102
RTVSPost2010Prop32
280
     0
102
RTVSPost2010PropOp32
 70
     1
102
RTVSPost2010Prop33
280
     0
102
RTVSPost2010PropOp33
 70
     1
102
RTVSPost2010Prop34
280
     0
102
RTVSPost2010PropOp34
 70
     1
102
RTVSPost2010Prop35
280
     0
102
RTVSPost2010PropOp35
 70
     1
102
RTVSPost2010Prop36
280
     0
102
RTVSPost2010PropOp36
 70
     1
102
RTVSPost2010Prop37
 90
       50
102
RTVSPost2010PropOp37
 70
     1
102
RTVSPost2010Prop38
140
0.0
102
RTVSPost2010PropOp38
 70
     1
102
RTVSPost2010Prop39
140
1.0
102
RTVSPost2010PropOp39
 70
     1
102
RTVSPost2010Prop40
 90
        0
102
RTVSPost2010PropOp40
 70
     1
102
RTVSPost2010Prop41ColorIndex
 90
       18
102
RTVSPost2010Prop41ColorRGB
 90
        0
102
RTVSPost2010PropOp41
 70
     1
102
RTVSPost2010Prop42
 90
       50
102
RTVSPost2010PropOp42
 70
     1
102
RTVSPost2010Prop43
 90
        3
102
RTVSPost2010PropOp43
 70
     1
102
RTVSPost2010Prop44ColorIndex
 90
        5
102
RTVSPost2010Prop44ColorRGB
 90
      255
102
RTVSPost2010PropOp44
 70
     1
102
RTVSPost2010Prop45
280
     0
102
RTVSPost2010PropOp45
 70
     1
102
RTVSPost2010Prop46
 90
       50
102
RTVSPost2010PropOp46
 70
     1
102
RTVSPost2010Prop47
 90
       50
102
RTVSPost2010PropOp47
 70
     1
102
RTVSPost2010Prop48
 90
       50
102
RTVSPost2010PropOp48
 70
     1
102
RTVSPost2010Prop49
280
     0
102
RTVSPost2010PropOp49
 70
     1
102
RTVSPost2010Prop50
 90
       50
102
RTVSPost2010PropOp50
 70
     1
102
RTVSPost2010Prop51ColorIndex
 90
      256
102
RTVSPost2010Prop51ColorRGB
 90
-16777216
102
RTVSPost2010PropOp51
 70
     0
102
RTVSPost2010Prop52
140
1.0
102
RTVSPost2010PropOp52
 70
     0
102
RTVSPost2010Prop53
 90
        2
102
RTVSPost2010PropOp53
 70
     1
102
RTVSPost2010Prop54
  1
strokes_ogs.tif
102
RTVSPost2010PropOp54
 70
     1
102
RTVSPost2010Prop55
280
     0
102
RTVSPost2010PropOp55
 70
     1
102
RTVSPost2010Prop56
140
1.0
102
RTVSPost2010PropOp56
 70
     1
102
RTVSPost2010Prop57
140
1.0
102
RTVSPost2010PropOp57
 70
     1
  0
XRECORD
  5
2F01
102
{ACAD_REACTORS
330
2F00
102
}
330
2F00
100
AcDbXrecord
280
     1
102
RTVSPost2010Prop28
280
     0
102
RTVSPost2010PropOp28
 70
     1
102
RTVSPost2010Prop29
280
     1
102
RTVSPost2010PropOp29
 70
     1
102
RTVSPost2010Prop30
280
     1
102
RTVSPost2010PropOp30
 70
     1
102
RTVSPost2010Prop31
280
     0
102
RTVSPost2010PropOp31
 70
     1
102
RTVSPost2010Prop32
280
     0
102
RTVSPost2010PropOp32
 70
     1
102
RTVSPost2010Prop33
280
     0
102
RTVSPost2010PropOp33
 70
     1
102
RTVSPost2010Prop34
280
     0
102
RTVSPost2010PropOp34
 70
     1
102
RTVSPost2010Prop35
280
     0
102
RTVSPost2010PropOp35
 70
     1
102
RTVSPost2010Prop36
280
     0
102
RTVSPost2010PropOp36
 70
     1
102
RTVSPost2010Prop37
 90
       50
102
RTVSPost2010PropOp37
 70
     1
102
RTVSPost2010Prop38
140
0.0
102
RTVSPost2010PropOp38
 70
     1
102
RTVSPost2010Prop39
140
1.0
102
RTVSPost2010PropOp39
 70
     1
102
RTVSPost2010Prop40
 90
        0
102
RTVSPost2010PropOp40
 70
     1
102
RTVSPost2010Prop41ColorIndex
 90
       18
102
RTVSPost2010Prop41ColorRGB
 90
        0
102
RTVSPost2010PropOp41
 70
     1
102
RTVSPost2010Prop42
 90
       50
102
RTVSPost2010PropOp42
 70
     1
102
RTVSPost2010Prop43
 90
        3
102
RTVSPost2010PropOp43
 70
     1
102
RTVSPost2010Prop44ColorIndex
 90
        5
102
RTVSPost2010Prop44ColorRGB
 90
      255
102
RTVSPost2010PropOp44
 70
     1
102
RTVSPost2010Prop45
280
     0
102
RTVSPost2010PropOp45
 70
     1
102
RTVSPost2010Prop46
 90
       50
102
RTVSPost2010PropOp46
 70
     1
102
RTVSPost2010Prop47
 90
       50
102
RTVSPost2010PropOp47
 70
     1
102
RTVSPost2010Prop48
 90
       50
102
RTVSPost2010PropOp48
 70
     1
102
RTVSPost2010Prop49
280
     0
102
RTVSPost2010PropOp49
 70
     1
102
RTVSPost2010Prop50
 90
       50
102
RTVSPost2010PropOp50
 70
     1
102
RTVSPost2010Prop51ColorIndex
 90
      256
102
RTVSPost2010Prop51ColorRGB
 90
-16777216
102
RTVSPost2010PropOp51
 70
     0
102
RTVSPost2010Prop52
140
1.0
102
RTVSPost2010PropOp52
 70
     0
102
RTVSPost2010Prop53
 90
        2
102
RTVSPost2010PropOp53
 70
     1
102
RTVSPost2010Prop54
  1
strokes_ogs.tif
102
RTVSPost2010PropOp54
 70
     1
102
RTVSPost2010Prop55
280
     0
102
RTVSPost2010PropOp55
 70
     1
102
RTVSPost2010Prop56
140
1.0
102
RTVSPost2010PropOp56
 70
     1
102
RTVSPost2010Prop57
140
1.0
102
RTVSPost2010PropOp57
 70
     1
  0
XRECORD
  5
2F0F
102
{ACAD_REACTORS
330
2F0E
102
}
330
2F0E
100
AcDbXrecord
280
     1
102
RTVSPost2010Prop28
280
     0
102
RTVSPost2010PropOp28
 70
     1
102
RTVSPost2010Prop29
280
     1
102
RTVSPost2010PropOp29
 70
     1
102
RTVSPost2010Prop30
280
     1
102
RTVSPost2010PropOp30
 70
     1
102
RTVSPost2010Prop31
280
     0
102
RTVSPost2010PropOp31
 70
     1
102
RTVSPost2010Prop32
280
     0
102
RTVSPost2010PropOp32
 70
     1
102
RTVSPost2010Prop33
280
     0
102
RTVSPost2010PropOp33
 70
     1
102
RTVSPost2010Prop34
280
     0
102
RTVSPost2010PropOp34
 70
     1
102
RTVSPost2010Prop35
280
     0
102
RTVSPost2010PropOp35
 70
     1
102
RTVSPost2010Prop36
280
     0
102
RTVSPost2010PropOp36
 70
     1
102
RTVSPost2010Prop37
 90
       50
102
RTVSPost2010PropOp37
 70
     1
102
RTVSPost2010Prop38
140
0.0
102
RTVSPost2010PropOp38
 70
     1
102
RTVSPost2010Prop39
140
1.0
102
RTVSPost2010PropOp39
 70
     1
102
RTVSPost2010Prop40
 90
        0
102
RTVSPost2010PropOp40
 70
     1
102
RTVSPost2010Prop41ColorIndex
 90
       18
102
RTVSPost2010Prop41ColorRGB
 90
        0
102
RTVSPost2010PropOp41
 70
     1
102
RTVSPost2010Prop42
 90
       50
102
RTVSPost2010PropOp42
 70
     1
102
RTVSPost2010Prop43
 90
        3
102
RTVSPost2010PropOp43
 70
     1
102
RTVSPost2010Prop44ColorIndex
 90
        5
102
RTVSPost2010Prop44ColorRGB
 90
      255
102
RTVSPost2010PropOp44
 70
     1
102
RTVSPost2010Prop45
280
     0
102
RTVSPost2010PropOp45
 70
     1
102
RTVSPost2010Prop46
 90
       50
102
RTVSPost2010PropOp46
 70
     1
102
RTVSPost2010Prop47
 90
       50
102
RTVSPost2010PropOp47
 70
     1
102
RTVSPost2010Prop48
 90
       50
102
RTVSPost2010PropOp48
 70
     1
102
RTVSPost2010Prop49
280
     0
102
RTVSPost2010PropOp49
 70
     1
102
RTVSPost2010Prop50
 90
       50
102
RTVSPost2010PropOp50
 70
     1
102
RTVSPost2010Prop51ColorIndex
 90
      256
102
RTVSPost2010Prop51ColorRGB
 90
-16777216
102
RTVSPost2010PropOp51
 70
     0
102
RTVSPost2010Prop52
140
1.0
102
RTVSPost2010PropOp52
 70
     0
102
RTVSPost2010Prop53
 90
        2
102
RTVSPost2010PropOp53
 70
     1
102
RTVSPost2010Prop54
  1
strokes_ogs.tif
102
RTVSPost2010PropOp54
 70
     1
102
RTVSPost2010Prop55
280
     0
102
RTVSPost2010PropOp55
 70
     1
102
RTVSPost2010Prop56
140
1.0
102
RTVSPost2010PropOp56
 70
     1
102
RTVSPost2010Prop57
140
1.0
102
RTVSPost2010PropOp57
 70
     1
  0
XRECORD
  5
2F17
102
{ACAD_REACTORS
330
2F16
102
}
330
2F16
100
AcDbXrecord
280
     1
102
RTVSPost2010Prop28
280
     0
102
RTVSPost2010PropOp28
 70
     1
102
RTVSPost2010Prop29
280
     1
102
RTVSPost2010PropOp29
 70
     1
102
RTVSPost2010Prop30
280
     1
102
RTVSPost2010PropOp30
 70
     1
102
RTVSPost2010Prop31
280
     0
102
RTVSPost2010PropOp31
 70
     1
102
RTVSPost2010Prop32
280
     0
102
RTVSPost2010PropOp32
 70
     1
102
RTVSPost2010Prop33
280
     0
102
RTVSPost2010PropOp33
 70
     1
102
RTVSPost2010Prop34
280
     0
102
RTVSPost2010PropOp34
 70
     1
102
RTVSPost2010Prop35
280
     0
102
RTVSPost2010PropOp35
 70
     1
102
RTVSPost2010Prop36
280
     0
102
RTVSPost2010PropOp36
 70
     1
102
RTVSPost2010Prop37
 90
       50
102
RTVSPost2010PropOp37
 70
     1
102
RTVSPost2010Prop38
140
0.0
102
RTVSPost2010PropOp38
 70
     1
102
RTVSPost2010Prop39
140
1.0
102
RTVSPost2010PropOp39
 70
     1
102
RTVSPost2010Prop40
 90
        0
102
RTVSPost2010PropOp40
 70
     1
102
RTVSPost2010Prop41ColorIndex
 90
       18
102
RTVSPost2010Prop41ColorRGB
 90
        0
102
RTVSPost2010PropOp41
 70
     1
102
RTVSPost2010Prop42
 90
       50
102
RTVSPost2010PropOp42
 70
     1
102
RTVSPost2010Prop43
 90
        3
102
RTVSPost2010PropOp43
 70
     1
102
RTVSPost2010Prop44ColorIndex
 90
        5
102
RTVSPost2010Prop44ColorRGB
 90
      255
102
RTVSPost2010PropOp44
 70
     1
102
RTVSPost2010Prop45
280
     0
102
RTVSPost2010PropOp45
 70
     1
102
RTVSPost2010Prop46
 90
       50
102
RTVSPost2010PropOp46
 70
     1
102
RTVSPost2010Prop47
 90
       50
102
RTVSPost2010PropOp47
 70
     1
102
RTVSPost2010Prop48
 90
       50
102
RTVSPost2010PropOp48
 70
     1
102
RTVSPost2010Prop49
280
     0
102
RTVSPost2010PropOp49
 70
     1
102
RTVSPost2010Prop50
 90
       50
102
RTVSPost2010PropOp50
 70
     1
102
RTVSPost2010Prop51ColorIndex
 90
      256
102
RTVSPost2010Prop51ColorRGB
 90
-16777216
102
RTVSPost2010PropOp51
 70
     0
102
RTVSPost2010Prop52
140
1.0
102
RTVSPost2010PropOp52
 70
     0
102
RTVSPost2010Prop53
 90
        2
102
RTVSPost2010PropOp53
 70
     1
102
RTVSPost2010Prop54
  1
strokes_ogs.tif
102
RTVSPost2010PropOp54
 70
     1
102
RTVSPost2010Prop55
280
     0
102
RTVSPost2010PropOp55
 70
     1
102
RTVSPost2010Prop56
140
1.0
102
RTVSPost2010PropOp56
 70
     1
102
RTVSPost2010Prop57
140
1.0
102
RTVSPost2010PropOp57
 70
     1
  0
XRECORD
  5
2F09
102
{ACAD_REACTORS
330
2F08
102
}
330
2F08
100
AcDbXrecord
280
     1
102
RTVSPost2010Prop28
280
     0
102
RTVSPost2010PropOp28
 70
     1
102
RTVSPost2010Prop29
280
     1
102
RTVSPost2010PropOp29
 70
     1
102
RTVSPost2010Prop30
280
     1
102
RTVSPost2010PropOp30
 70
     1
102
RTVSPost2010Prop31
280
     0
102
RTVSPost2010PropOp31
 70
     1
102
RTVSPost2010Prop32
280
     0
102
RTVSPost2010PropOp32
 70
     1
102
RTVSPost2010Prop33
280
     0
102
RTVSPost2010PropOp33
 70
     1
102
RTVSPost2010Prop34
280
     0
102
RTVSPost2010PropOp34
 70
     1
102
RTVSPost2010Prop35
280
     0
102
RTVSPost2010PropOp35
 70
     1
102
RTVSPost2010Prop36
280
     0
102
RTVSPost2010PropOp36
 70
     1
102
RTVSPost2010Prop37
 90
       50
102
RTVSPost2010PropOp37
 70
     1
102
RTVSPost2010Prop38
140
0.0
102
RTVSPost2010PropOp38
 70
     1
102
RTVSPost2010Prop39
140
1.0
102
RTVSPost2010PropOp39
 70
     1
102
RTVSPost2010Prop40
 90
        0
102
RTVSPost2010PropOp40
 70
     1
102
RTVSPost2010Prop41ColorIndex
 90
       18
102
RTVSPost2010Prop41ColorRGB
 90
        0
102
RTVSPost2010PropOp41
 70
     1
102
RTVSPost2010Prop42
 90
       50
102
RTVSPost2010PropOp42
 70
     1
102
RTVSPost2010Prop43
 90
        3
102
RTVSPost2010PropOp43
 70
     1
102
RTVSPost2010Prop44ColorIndex
 90
        5
102
RTVSPost2010Prop44ColorRGB
 90
      255
102
RTVSPost2010PropOp44
 70
     1
102
RTVSPost2010Prop45
280
     0
102
RTVSPost2010PropOp45
 70
     1
102
RTVSPost2010Prop46
 90
       50
102
RTVSPost2010PropOp46
 70
     1
102
RTVSPost2010Prop47
 90
       50
102
RTVSPost2010PropOp47
 70
     1
102
RTVSPost2010Prop48
 90
       50
102
RTVSPost2010PropOp48
 70
     1
102
RTVSPost2010Prop49
280
     0
102
RTVSPost2010PropOp49
 70
     1
102
RTVSPost2010Prop50
 90
       50
102
RTVSPost2010PropOp50
 70
     1
102
RTVSPost2010Prop51ColorIndex
 90
      256
102
RTVSPost2010Prop51ColorRGB
 90
-16777216
102
RTVSPost2010PropOp51
 70
     0
102
RTVSPost2010Prop52
140
1.0
102
RTVSPost2010PropOp52
 70
     0
102
RTVSPost2010Prop53
 90
        2
102
RTVSPost2010PropOp53
 70
     1
102
RTVSPost2010Prop54
  1
strokes_ogs.tif
102
RTVSPost2010PropOp54
 70
     1
102
RTVSPost2010Prop55
280
     0
102
RTVSPost2010PropOp55
 70
     1
102
RTVSPost2010Prop56
140
1.0
102
RTVSPost2010PropOp56
 70
     1
102
RTVSPost2010Prop57
140
1.0
102
RTVSPost2010PropOp57
 70
     1
  0
XRECORD
  5
2F0D
102
{ACAD_REACTORS
330
2F0C
102
}
330
2F0C
100
AcDbXrecord
280
     1
102
RTVSPost2010Prop28
280
     0
102
RTVSPost2010PropOp28
 70
     1
102
RTVSPost2010Prop29
280
     1
102
RTVSPost2010PropOp29
 70
     1
102
RTVSPost2010Prop30
280
     1
102
RTVSPost2010PropOp30
 70
     1
102
RTVSPost2010Prop31
280
     0
102
RTVSPost2010PropOp31
 70
     1
102
RTVSPost2010Prop32
280
     0
102
RTVSPost2010PropOp32
 70
     1
102
RTVSPost2010Prop33
280
     0
102
RTVSPost2010PropOp33
 70
     1
102
RTVSPost2010Prop34
280
     0
102
RTVSPost2010PropOp34
 70
     1
102
RTVSPost2010Prop35
280
     0
102
RTVSPost2010PropOp35
 70
     1
102
RTVSPost2010Prop36
280
     0
102
RTVSPost2010PropOp36
 70
     1
102
RTVSPost2010Prop37
 90
       50
102
RTVSPost2010PropOp37
 70
     1
102
RTVSPost2010Prop38
140
0.0
102
RTVSPost2010PropOp38
 70
     1
102
RTVSPost2010Prop39
140
1.0
102
RTVSPost2010PropOp39
 70
     1
102
RTVSPost2010Prop40
 90
        0
102
RTVSPost2010PropOp40
 70
     1
102
RTVSPost2010Prop41ColorIndex
 90
       18
102
RTVSPost2010Prop41ColorRGB
 90
        0
102
RTVSPost2010PropOp41
 70
     1
102
RTVSPost2010Prop42
 90
       50
102
RTVSPost2010PropOp42
 70
     1
102
RTVSPost2010Prop43
 90
        3
102
RTVSPost2010PropOp43
 70
     1
102
RTVSPost2010Prop44ColorIndex
 90
        5
102
RTVSPost2010Prop44ColorRGB
 90
      255
102
RTVSPost2010PropOp44
 70
     1
102
RTVSPost2010Prop45
280
     0
102
RTVSPost2010PropOp45
 70
     1
102
RTVSPost2010Prop46
 90
       50
102
RTVSPost2010PropOp46
 70
     1
102
RTVSPost2010Prop47
 90
       50
102
RTVSPost2010PropOp47
 70
     1
102
RTVSPost2010Prop48
 90
       50
102
RTVSPost2010PropOp48
 70
     1
102
RTVSPost2010Prop49
280
     0
102
RTVSPost2010PropOp49
 70
     1
102
RTVSPost2010Prop50
 90
       50
102
RTVSPost2010PropOp50
 70
     1
102
RTVSPost2010Prop51ColorIndex
 90
      256
102
RTVSPost2010Prop51ColorRGB
 90
-16777216
102
RTVSPost2010PropOp51
 70
     0
102
RTVSPost2010Prop52
140
1.0
102
RTVSPost2010PropOp52
 70
     0
102
RTVSPost2010Prop53
 90
        2
102
RTVSPost2010PropOp53
 70
     1
102
RTVSPost2010Prop54
  1
strokes_ogs.tif
102
RTVSPost2010PropOp54
 70
     1
102
RTVSPost2010Prop55
280
     0
102
RTVSPost2010PropOp55
 70
     1
102
RTVSPost2010Prop56
140
1.0
102
RTVSPost2010PropOp56
 70
     1
102
RTVSPost2010Prop57
140
1.0
102
RTVSPost2010PropOp57
 70
     1
  0
XRECORD
  5
2F27
102
{ACAD_REACTORS
330
2F26
102
}
330
2F26
100
AcDbXrecord
280
     1
102
RTVSPost2010Prop28
280
     0
102
RTVSPost2010PropOp28
 70
     1
102
RTVSPost2010Prop29
280
     1
102
RTVSPost2010PropOp29
 70
     1
102
RTVSPost2010Prop30
280
     1
102
RTVSPost2010PropOp30
 70
     1
102
RTVSPost2010Prop31
280
     0
102
RTVSPost2010PropOp31
 70
     1
102
RTVSPost2010Prop32
280
     0
102
RTVSPost2010PropOp32
 70
     1
102
RTVSPost2010Prop33
280
     0
102
RTVSPost2010PropOp33
 70
     1
102
RTVSPost2010Prop34
280
     0
102
RTVSPost2010PropOp34
 70
     1
102
RTVSPost2010Prop35
280
     0
102
RTVSPost2010PropOp35
 70
     1
102
RTVSPost2010Prop36
280
     0
102
RTVSPost2010PropOp36
 70
     1
102
RTVSPost2010Prop37
 90
       50
102
RTVSPost2010PropOp37
 70
     0
102
RTVSPost2010Prop38
140
0.0
102
RTVSPost2010PropOp38
 70
     0
102
RTVSPost2010Prop39
140
1.0
102
RTVSPost2010PropOp39
 70
     0
102
RTVSPost2010Prop40
 90
        0
102
RTVSPost2010PropOp40
 70
     0
102
RTVSPost2010Prop41ColorIndex
 90
       18
102
RTVSPost2010Prop41ColorRGB
 90
        0
102
RTVSPost2010PropOp41
 70
     0
102
RTVSPost2010Prop42
 90
       50
102
RTVSPost2010PropOp42
 70
     0
102
RTVSPost2010Prop43
 90
        3
102
RTVSPost2010PropOp43
 70
     0
102
RTVSPost2010Prop44ColorIndex
 90
        5
102
RTVSPost2010Prop44ColorRGB
 90
      255
102
RTVSPost2010PropOp44
 70
     0
102
RTVSPost2010Prop45
280
     0
102
RTVSPost2010PropOp45
 70
     1
102
RTVSPost2010Prop46
 90
       50
102
RTVSPost2010PropOp46
 70
     0
102
RTVSPost2010Prop47
 90
       50
102
RTVSPost2010PropOp47
 70
     0
102
RTVSPost2010Prop48
 90
       50
102
RTVSPost2010PropOp48
 70
     0
102
RTVSPost2010Prop49
280
     0
102
RTVSPost2010PropOp49
 70
     1
102
RTVSPost2010Prop50
 90
       50
102
RTVSPost2010PropOp50
 70
     0
102
RTVSPost2010Prop51ColorIndex
 90
      256
102
RTVSPost2010Prop51ColorRGB
 90
-16777216
102
RTVSPost2010PropOp51
 70
     0
102
RTVSPost2010Prop52
140
1.0
102
RTVSPost2010PropOp52
 70
     0
102
RTVSPost2010Prop53
 90
        2
102
RTVSPost2010PropOp53
 70
     0
102
RTVSPost2010Prop54
  1
strokes_ogs.tif
102
RTVSPost2010PropOp54
 70
     0
102
RTVSPost2010Prop55
280
     0
102
RTVSPost2010PropOp55
 70
     1
102
RTVSPost2010Prop56
140
1.0
102
RTVSPost2010PropOp56
 70
     0
102
RTVSPost2010Prop57
140
1.0
102
RTVSPost2010PropOp57
 70
     0
  0
XRECORD
  5
2F15
102
{ACAD_REACTORS
330
2F14
102
}
330
2F14
100
AcDbXrecord
280
     1
102
RTVSPost2010Prop28
280
     0
102
RTVSPost2010PropOp28
 70
     1
102
RTVSPost2010Prop29
280
     1
102
RTVSPost2010PropOp29
 70
     1
102
RTVSPost2010Prop30
280
     1
102
RTVSPost2010PropOp30
 70
     1
102
RTVSPost2010Prop31
280
     0
102
RTVSPost2010PropOp31
 70
     1
102
RTVSPost2010Prop32
280
     0
102
RTVSPost2010PropOp32
 70
     1
102
RTVSPost2010Prop33
280
     0
102
RTVSPost2010PropOp33
 70
     1
102
RTVSPost2010Prop34
280
     0
102
RTVSPost2010PropOp34
 70
     1
102
RTVSPost2010Prop35
280
     0
102
RTVSPost2010PropOp35
 70
     1
102
RTVSPost2010Prop36
280
     0
102
RTVSPost2010PropOp36
 70
     1
102
RTVSPost2010Prop37
 90
       50
102
RTVSPost2010PropOp37
 70
     1
102
RTVSPost2010Prop38
140
0.0
102
RTVSPost2010PropOp38
 70
     1
102
RTVSPost2010Prop39
140
1.0
102
RTVSPost2010PropOp39
 70
     1
102
RTVSPost2010Prop40
 90
        0
102
RTVSPost2010PropOp40
 70
     1
102
RTVSPost2010Prop41ColorIndex
 90
       18
102
RTVSPost2010Prop41ColorRGB
 90
        0
102
RTVSPost2010PropOp41
 70
     1
102
RTVSPost2010Prop42
 90
       50
102
RTVSPost2010PropOp42
 70
     1
102
RTVSPost2010Prop43
 90
        3
102
RTVSPost2010PropOp43
 70
     1
102
RTVSPost2010Prop44ColorIndex
 90
        5
102
RTVSPost2010Prop44ColorRGB
 90
      255
102
RTVSPost2010PropOp44
 70
     1
102
RTVSPost2010Prop45
280
     0
102
RTVSPost2010PropOp45
 70
     1
102
RTVSPost2010Prop46
 90
       50
102
RTVSPost2010PropOp46
 70
     1
102
RTVSPost2010Prop47
 90
       50
102
RTVSPost2010PropOp47
 70
     1
102
RTVSPost2010Prop48
 90
       50
102
RTVSPost2010PropOp48
 70
     1
102
RTVSPost2010Prop49
280
     0
102
RTVSPost2010PropOp49
 70
     1
102
RTVSPost2010Prop50
 90
       50
102
RTVSPost2010PropOp50
 70
     1
102
RTVSPost2010Prop51ColorIndex
 90
      256
102
RTVSPost2010Prop51ColorRGB
 90
-16777216
102
RTVSPost2010PropOp51
 70
     0
102
RTVSPost2010Prop52
140
1.0
102
RTVSPost2010PropOp52
 70
     0
102
RTVSPost2010Prop53
 90
        2
102
RTVSPost2010PropOp53
 70
     1
102
RTVSPost2010Prop54
  1
strokes_ogs.tif
102
RTVSPost2010PropOp54
 70
     1
102
RTVSPost2010Prop55
280
     0
102
RTVSPost2010PropOp55
 70
     1
102
RTVSPost2010Prop56
140
1.0
102
RTVSPost2010PropOp56
 70
     1
102
RTVSPost2010Prop57
140
1.0
102
RTVSPost2010PropOp57
 70
     1
  0
XRECORD
  5
2EF9
102
{ACAD_REACTORS
330
2EF8
102
}
330
2EF8
100
AcDbXrecord
280
     1
102
RTVSPost2010Prop28
280
     0
102
RTVSPost2010PropOp28
 70
     1
102
RTVSPost2010Prop29
280
     1
102
RTVSPost2010PropOp29
 70
     1
102
RTVSPost2010Prop30
280
     1
102
RTVSPost2010PropOp30
 70
     1
102
RTVSPost2010Prop31
280
     0
102
RTVSPost2010PropOp31
 70
     1
102
RTVSPost2010Prop32
280
     0
102
RTVSPost2010PropOp32
 70
     1
102
RTVSPost2010Prop33
280
     0
102
RTVSPost2010PropOp33
 70
     1
102
RTVSPost2010Prop34
280
     0
102
RTVSPost2010PropOp34
 70
     1
102
RTVSPost2010Prop35
280
     0
102
RTVSPost2010PropOp35
 70
     1
102
RTVSPost2010Prop36
280
     0
102
RTVSPost2010PropOp36
 70
     1
102
RTVSPost2010Prop37
 90
       50
102
RTVSPost2010PropOp37
 70
     1
102
RTVSPost2010Prop38
140
0.0
102
RTVSPost2010PropOp38
 70
     1
102
RTVSPost2010Prop39
140
1.0
102
RTVSPost2010PropOp39
 70
     1
102
RTVSPost2010Prop40
 90
        0
102
RTVSPost2010PropOp40
 70
     1
102
RTVSPost2010Prop41ColorIndex
 90
       18
102
RTVSPost2010Prop41ColorRGB
 90
        0
102
RTVSPost2010PropOp41
 70
     1
102
RTVSPost2010Prop42
 90
       50
102
RTVSPost2010PropOp42
 70
     1
102
RTVSPost2010Prop43
 90
        3
102
RTVSPost2010PropOp43
 70
     1
102
RTVSPost2010Prop44ColorIndex
 90
        5
102
RTVSPost2010Prop44ColorRGB
 90
      255
102
RTVSPost2010PropOp44
 70
     1
102
RTVSPost2010Prop45
280
     0
102
RTVSPost2010PropOp45
 70
     1
102
RTVSPost2010Prop46
 90
       50
102
RTVSPost2010PropOp46
 70
     1
102
RTVSPost2010Prop47
 90
       50
102
RTVSPost2010PropOp47
 70
     1
102
RTVSPost2010Prop48
 90
       50
102
RTVSPost2010PropOp48
 70
     1
102
RTVSPost2010Prop49
280
     0
102
RTVSPost2010PropOp49
 70
     1
102
RTVSPost2010Prop50
 90
       50
102
RTVSPost2010PropOp50
 70
     1
102
RTVSPost2010Prop51ColorIndex
 90
      256
102
RTVSPost2010Prop51ColorRGB
 90
-16777216
102
RTVSPost2010PropOp51
 70
     0
102
RTVSPost2010Prop52
140
1.0
102
RTVSPost2010PropOp52
 70
     0
102
RTVSPost2010Prop53
 90
        2
102
RTVSPost2010PropOp53
 70
     1
102
RTVSPost2010Prop54
  1
strokes_ogs.tif
102
RTVSPost2010PropOp54
 70
     1
102
RTVSPost2010Prop55
280
     0
102
RTVSPost2010PropOp55
 70
     1
102
RTVSPost2010Prop56
140
1.0
102
RTVSPost2010PropOp56
 70
     1
102
RTVSPost2010Prop57
140
1.0
102
RTVSPost2010PropOp57
 70
     1
  0
XRECORD
  5
2EFB
102
{ACAD_REACTORS
330
2EFA
102
}
330
2EFA
100
AcDbXrecord
280
     1
102
RTVSPost2010Prop28
280
     0
102
RTVSPost2010PropOp28
 70
     1
102
RTVSPost2010Prop29
280
     1
102
RTVSPost2010PropOp29
 70
     1
102
RTVSPost2010Prop30
280
     1
102
RTVSPost2010PropOp30
 70
     1
102
RTVSPost2010Prop31
280
     0
102
RTVSPost2010PropOp31
 70
     1
102
RTVSPost2010Prop32
280
     0
102
RTVSPost2010PropOp32
 70
     1
102
RTVSPost2010Prop33
280
     0
102
RTVSPost2010PropOp33
 70
     1
102
RTVSPost2010Prop34
280
     0
102
RTVSPost2010PropOp34
 70
     1
102
RTVSPost2010Prop35
280
     0
102
RTVSPost2010PropOp35
 70
     1
102
RTVSPost2010Prop36
280
     0
102
RTVSPost2010PropOp36
 70
     1
102
RTVSPost2010Prop37
 90
       50
102
RTVSPost2010PropOp37
 70
     1
102
RTVSPost2010Prop38
140
0.0
102
RTVSPost2010PropOp38
 70
     1
102
RTVSPost2010Prop39
140
1.0
102
RTVSPost2010PropOp39
 70
     1
102
RTVSPost2010Prop40
 90
        0
102
RTVSPost2010PropOp40
 70
     1
102
RTVSPost2010Prop41ColorIndex
 90
       18
102
RTVSPost2010Prop41ColorRGB
 90
        0
102
RTVSPost2010PropOp41
 70
     1
102
RTVSPost2010Prop42
 90
       50
102
RTVSPost2010PropOp42
 70
     1
102
RTVSPost2010Prop43
 90
        3
102
RTVSPost2010PropOp43
 70
     1
102
RTVSPost2010Prop44ColorIndex
 90
        5
102
RTVSPost2010Prop44ColorRGB
 90
      255
102
RTVSPost2010PropOp44
 70
     1
102
RTVSPost2010Prop45
280
     0
102
RTVSPost2010PropOp45
 70
     1
102
RTVSPost2010Prop46
 90
       50
102
RTVSPost2010PropOp46
 70
     1
102
RTVSPost2010Prop47
 90
       50
102
RTVSPost2010PropOp47
 70
     1
102
RTVSPost2010Prop48
 90
       50
102
RTVSPost2010PropOp48
 70
     1
102
RTVSPost2010Prop49
280
     0
102
RTVSPost2010PropOp49
 70
     1
102
RTVSPost2010Prop50
 90
       50
102
RTVSPost2010PropOp50
 70
     1
102
RTVSPost2010Prop51ColorIndex
 90
      256
102
RTVSPost2010Prop51ColorRGB
 90
-16777216
102
RTVSPost2010PropOp51
 70
     0
102
RTVSPost2010Prop52
140
1.0
102
RTVSPost2010PropOp52
 70
     0
102
RTVSPost2010Prop53
 90
        2
102
RTVSPost2010PropOp53
 70
     1
102
RTVSPost2010Prop54
  1
strokes_ogs.tif
102
RTVSPost2010PropOp54
 70
     1
102
RTVSPost2010Prop55
280
     0
102
RTVSPost2010PropOp55
 70
     1
102
RTVSPost2010Prop56
140
1.0
102
RTVSPost2010PropOp56
 70
     1
102
RTVSPost2010Prop57
140
1.0
102
RTVSPost2010PropOp57
 70
     1
  0
XRECORD
  5
2EFD
102
{ACAD_REACTORS
330
2EFC
102
}
330
2EFC
100
AcDbXrecord
280
     1
102
RTVSPost2010Prop28
280
     0
102
RTVSPost2010PropOp28
 70
     1
102
RTVSPost2010Prop29
280
     1
102
RTVSPost2010PropOp29
 70
     1
102
RTVSPost2010Prop30
280
     1
102
RTVSPost2010PropOp30
 70
     1
102
RTVSPost2010Prop31
280
     0
102
RTVSPost2010PropOp31
 70
     1
102
RTVSPost2010Prop32
280
     0
102
RTVSPost2010PropOp32
 70
     1
102
RTVSPost2010Prop33
280
     0
102
RTVSPost2010PropOp33
 70
     1
102
RTVSPost2010Prop34
280
     0
102
RTVSPost2010PropOp34
 70
     1
102
RTVSPost2010Prop35
280
     0
102
RTVSPost2010PropOp35
 70
     1
102
RTVSPost2010Prop36
280
     0
102
RTVSPost2010PropOp36
 70
     1
102
RTVSPost2010Prop37
 90
       50
102
RTVSPost2010PropOp37
 70
     1
102
RTVSPost2010Prop38
140
0.0
102
RTVSPost2010PropOp38
 70
     1
102
RTVSPost2010Prop39
140
1.0
102
RTVSPost2010PropOp39
 70
     1
102
RTVSPost2010Prop40
 90
        0
102
RTVSPost2010PropOp40
 70
     1
102
RTVSPost2010Prop41ColorIndex
 90
       18
102
RTVSPost2010Prop41ColorRGB
 90
        0
102
RTVSPost2010PropOp41
 70
     1
102
RTVSPost2010Prop42
 90
       50
102
RTVSPost2010PropOp42
 70
     1
102
RTVSPost2010Prop43
 90
        3
102
RTVSPost2010PropOp43
 70
     1
102
RTVSPost2010Prop44ColorIndex
 90
        5
102
RTVSPost2010Prop44ColorRGB
 90
      255
102
RTVSPost2010PropOp44
 70
     1
102
RTVSPost2010Prop45
280
     0
102
RTVSPost2010PropOp45
 70
     1
102
RTVSPost2010Prop46
 90
       50
102
RTVSPost2010PropOp46
 70
     1
102
RTVSPost2010Prop47
 90
       50
102
RTVSPost2010PropOp47
 70
     1
102
RTVSPost2010Prop48
 90
       50
102
RTVSPost2010PropOp48
 70
     1
102
RTVSPost2010Prop49
280
     0
102
RTVSPost2010PropOp49
 70
     1
102
RTVSPost2010Prop50
 90
       50
102
RTVSPost2010PropOp50
 70
     1
102
RTVSPost2010Prop51ColorIndex
 90
      256
102
RTVSPost2010Prop51ColorRGB
 90
-16777216
102
RTVSPost2010PropOp51
 70
     0
102
RTVSPost2010Prop52
140
1.0
102
RTVSPost2010PropOp52
 70
     0
102
RTVSPost2010Prop53
 90
        2
102
RTVSPost2010PropOp53
 70
     1
102
RTVSPost2010Prop54
  1
strokes_ogs.tif
102
RTVSPost2010PropOp54
 70
     1
102
RTVSPost2010Prop55
280
     0
102
RTVSPost2010PropOp55
 70
     1
102
RTVSPost2010Prop56
140
1.0
102
RTVSPost2010PropOp56
 70
     1
102
RTVSPost2010Prop57
140
1.0
102
RTVSPost2010PropOp57
 70
     1
  0
XRECORD
  5
2EFF
102
{ACAD_REACTORS
330
2EFE
102
}
330
2EFE
100
AcDbXrecord
280
     1
102
RTVSPost2010Prop28
280
     0
102
RTVSPost2010PropOp28
 70
     1
102
RTVSPost2010Prop29
280
     1
102
RTVSPost2010PropOp29
 70
     1
102
RTVSPost2010Prop30
280
     1
102
RTVSPost2010PropOp30
 70
     1
102
RTVSPost2010Prop31
280
     0
102
RTVSPost2010PropOp31
 70
     1
102
RTVSPost2010Prop32
280
     0
102
RTVSPost2010PropOp32
 70
     1
102
RTVSPost2010Prop33
280
     0
102
RTVSPost2010PropOp33
 70
     1
102
RTVSPost2010Prop34
280
     0
102
RTVSPost2010PropOp34
 70
     1
102
RTVSPost2010Prop35
280
     0
102
RTVSPost2010PropOp35
 70
     1
102
RTVSPost2010Prop36
280
     0
102
RTVSPost2010PropOp36
 70
     1
102
RTVSPost2010Prop37
 90
       50
102
RTVSPost2010PropOp37
 70
     1
102
RTVSPost2010Prop38
140
0.0
102
RTVSPost2010PropOp38
 70
     1
102
RTVSPost2010Prop39
140
1.0
102
RTVSPost2010PropOp39
 70
     1
102
RTVSPost2010Prop40
 90
        0
102
RTVSPost2010PropOp40
 70
     1
102
RTVSPost2010Prop41ColorIndex
 90
       18
102
RTVSPost2010Prop41ColorRGB
 90
        0
102
RTVSPost2010PropOp41
 70
     1
102
RTVSPost2010Prop42
 90
       50
102
RTVSPost2010PropOp42
 70
     1
102
RTVSPost2010Prop43
 90
        3
102
RTVSPost2010PropOp43
 70
     1
102
RTVSPost2010Prop44ColorIndex
 90
        5
102
RTVSPost2010Prop44ColorRGB
 90
      255
102
RTVSPost2010PropOp44
 70
     1
102
RTVSPost2010Prop45
280
     0
102
RTVSPost2010PropOp45
 70
     1
102
RTVSPost2010Prop46
 90
       50
102
RTVSPost2010PropOp46
 70
     1
102
RTVSPost2010Prop47
 90
       50
102
RTVSPost2010PropOp47
 70
     1
102
RTVSPost2010Prop48
 90
       50
102
RTVSPost2010PropOp48
 70
     1
102
RTVSPost2010Prop49
280
     0
102
RTVSPost2010PropOp49
 70
     1
102
RTVSPost2010Prop50
 90
       50
102
RTVSPost2010PropOp50
 70
     1
102
RTVSPost2010Prop51ColorIndex
 90
      256
102
RTVSPost2010Prop51ColorRGB
 90
-16777216
102
RTVSPost2010PropOp51
 70
     0
102
RTVSPost2010Prop52
140
1.0
102
RTVSPost2010PropOp52
 70
     0
102
RTVSPost2010Prop53
 90
        2
102
RTVSPost2010PropOp53
 70
     1
102
RTVSPost2010Prop54
  1
strokes_ogs.tif
102
RTVSPost2010PropOp54
 70
     1
102
RTVSPost2010Prop55
280
     0
102
RTVSPost2010PropOp55
 70
     1
102
RTVSPost2010Prop56
140
1.0
102
RTVSPost2010PropOp56
 70
     1
102
RTVSPost2010Prop57
140
1.0
102
RTVSPost2010PropOp57
 70
     1
  0
XRECORD
  5
2F07
102
{ACAD_REACTORS
330
2F06
102
}
330
2F06
100
AcDbXrecord
280
     1
102
RTVSPost2010Prop28
280
     0
102
RTVSPost2010PropOp28
 70
     1
102
RTVSPost2010Prop29
280
     1
102
RTVSPost2010PropOp29
 70
     1
102
RTVSPost2010Prop30
280
     1
102
RTVSPost2010PropOp30
 70
     1
102
RTVSPost2010Prop31
280
     0
102
RTVSPost2010PropOp31
 70
     1
102
RTVSPost2010Prop32
280
     0
102
RTVSPost2010PropOp32
 70
     1
102
RTVSPost2010Prop33
280
     0
102
RTVSPost2010PropOp33
 70
     1
102
RTVSPost2010Prop34
280
     0
102
RTVSPost2010PropOp34
 70
     1
102
RTVSPost2010Prop35
280
     0
102
RTVSPost2010PropOp35
 70
     1
102
RTVSPost2010Prop36
280
     0
102
RTVSPost2010PropOp36
 70
     1
102
RTVSPost2010Prop37
 90
       50
102
RTVSPost2010PropOp37
 70
     1
102
RTVSPost2010Prop38
140
0.0
102
RTVSPost2010PropOp38
 70
     1
102
RTVSPost2010Prop39
140
1.0
102
RTVSPost2010PropOp39
 70
     1
102
RTVSPost2010Prop40
 90
        0
102
RTVSPost2010PropOp40
 70
     1
102
RTVSPost2010Prop41ColorIndex
 90
       18
102
RTVSPost2010Prop41ColorRGB
 90
        0
102
RTVSPost2010PropOp41
 70
     1
102
RTVSPost2010Prop42
 90
       50
102
RTVSPost2010PropOp42
 70
     1
102
RTVSPost2010Prop43
 90
        3
102
RTVSPost2010PropOp43
 70
     1
102
RTVSPost2010Prop44ColorIndex
 90
        5
102
RTVSPost2010Prop44ColorRGB
 90
      255
102
RTVSPost2010PropOp44
 70
     1
102
RTVSPost2010Prop45
280
     0
102
RTVSPost2010PropOp45
 70
     1
102
RTVSPost2010Prop46
 90
       50
102
RTVSPost2010PropOp46
 70
     1
102
RTVSPost2010Prop47
 90
       50
102
RTVSPost2010PropOp47
 70
     1
102
RTVSPost2010Prop48
 90
       50
102
RTVSPost2010PropOp48
 70
     1
102
RTVSPost2010Prop49
280
     0
102
RTVSPost2010PropOp49
 70
     1
102
RTVSPost2010Prop50
 90
       50
102
RTVSPost2010PropOp50
 70
     1
102
RTVSPost2010Prop51ColorIndex
 90
      256
102
RTVSPost2010Prop51ColorRGB
 90
-16777216
102
RTVSPost2010PropOp51
 70
     0
102
RTVSPost2010Prop52
140
1.0
102
RTVSPost2010PropOp52
 70
     0
102
RTVSPost2010Prop53
 90
        2
102
RTVSPost2010PropOp53
 70
     1
102
RTVSPost2010Prop54
  1
strokes_ogs.tif
102
RTVSPost2010PropOp54
 70
     1
102
RTVSPost2010Prop55
280
     0
102
RTVSPost2010PropOp55
 70
     1
102
RTVSPost2010Prop56
140
1.0
102
RTVSPost2010PropOp56
 70
     1
102
RTVSPost2010Prop57
140
1.0
102
RTVSPost2010PropOp57
 70
     1
  0
XRECORD
  5
2F23
102
{ACAD_REACTORS
330
2F22
102
}
330
2F22
100
AcDbXrecord
280
     1
102
RTVSPost2010Prop28
280
     0
102
RTVSPost2010PropOp28
 70
     1
102
RTVSPost2010Prop29
280
     1
102
RTVSPost2010PropOp29
 70
     1
102
RTVSPost2010Prop30
280
     1
102
RTVSPost2010PropOp30
 70
     1
102
RTVSPost2010Prop31
280
     0
102
RTVSPost2010PropOp31
 70
     1
102
RTVSPost2010Prop32
280
     0
102
RTVSPost2010PropOp32
 70
     1
102
RTVSPost2010Prop33
280
     0
102
RTVSPost2010PropOp33
 70
     1
102
RTVSPost2010Prop34
280
     0
102
RTVSPost2010PropOp34
 70
     1
102
RTVSPost2010Prop35
280
     0
102
RTVSPost2010PropOp35
 70
     1
102
RTVSPost2010Prop36
280
     0
102
RTVSPost2010PropOp36
 70
     1
102
RTVSPost2010Prop37
 90
       50
102
RTVSPost2010PropOp37
 70
     0
102
RTVSPost2010Prop38
140
0.0
102
RTVSPost2010PropOp38
 70
     0
102
RTVSPost2010Prop39
140
1.0
102
RTVSPost2010PropOp39
 70
     0
102
RTVSPost2010Prop40
 90
        0
102
RTVSPost2010PropOp40
 70
     0
102
RTVSPost2010Prop41ColorIndex
 90
       18
102
RTVSPost2010Prop41ColorRGB
 90
        0
102
RTVSPost2010PropOp41
 70
     0
102
RTVSPost2010Prop42
 90
       50
102
RTVSPost2010PropOp42
 70
     0
102
RTVSPost2010Prop43
 90
        3
102
RTVSPost2010PropOp43
 70
     0
102
RTVSPost2010Prop44ColorIndex
 90
        5
102
RTVSPost2010Prop44ColorRGB
 90
      255
102
RTVSPost2010PropOp44
 70
     0
102
RTVSPost2010Prop45
280
     0
102
RTVSPost2010PropOp45
 70
     1
102
RTVSPost2010Prop46
 90
       50
102
RTVSPost2010PropOp46
 70
     0
102
RTVSPost2010Prop47
 90
       50
102
RTVSPost2010PropOp47
 70
     0
102
RTVSPost2010Prop48
 90
       50
102
RTVSPost2010PropOp48
 70
     0
102
RTVSPost2010Prop49
280
     0
102
RTVSPost2010PropOp49
 70
     1
102
RTVSPost2010Prop50
 90
       50
102
RTVSPost2010PropOp50
 70
     0
102
RTVSPost2010Prop51ColorIndex
 90
      256
102
RTVSPost2010Prop51ColorRGB
 90
-16777216
102
RTVSPost2010PropOp51
 70
     0
102
RTVSPost2010Prop52
140
1.0
102
RTVSPost2010PropOp52
 70
     0
102
RTVSPost2010Prop53
 90
        2
102
RTVSPost2010PropOp53
 70
     0
102
RTVSPost2010Prop54
  1
strokes_ogs.tif
102
RTVSPost2010PropOp54
 70
     0
102
RTVSPost2010Prop55
280
     0
102
RTVSPost2010PropOp55
 70
     1
102
RTVSPost2010Prop56
140
1.0
102
RTVSPost2010PropOp56
 70
     0
102
RTVSPost2010Prop57
140
1.0
102
RTVSPost2010PropOp57
 70
     0
  0
XRECORD
  5
2F13
102
{ACAD_REACTORS
330
2F12
102
}
330
2F12
100
AcDbXrecord
280
     1
102
RTVSPost2010Prop28
280
     0
102
RTVSPost2010PropOp28
 70
     1
102
RTVSPost2010Prop29
280
     1
102
RTVSPost2010PropOp29
 70
     1
102
RTVSPost2010Prop30
280
     1
102
RTVSPost2010PropOp30
 70
     1
102
RTVSPost2010Prop31
280
     0
102
RTVSPost2010PropOp31
 70
     1
102
RTVSPost2010Prop32
280
     0
102
RTVSPost2010PropOp32
 70
     1
102
RTVSPost2010Prop33
280
     0
102
RTVSPost2010PropOp33
 70
     1
102
RTVSPost2010Prop34
280
     0
102
RTVSPost2010PropOp34
 70
     1
102
RTVSPost2010Prop35
280
     0
102
RTVSPost2010PropOp35
 70
     1
102
RTVSPost2010Prop36
280
     0
102
RTVSPost2010PropOp36
 70
     1
102
RTVSPost2010Prop37
 90
       50
102
RTVSPost2010PropOp37
 70
     1
102
RTVSPost2010Prop38
140
0.0
102
RTVSPost2010PropOp38
 70
     1
102
RTVSPost2010Prop39
140
1.0
102
RTVSPost2010PropOp39
 70
     1
102
RTVSPost2010Prop40
 90
        0
102
RTVSPost2010PropOp40
 70
     1
102
RTVSPost2010Prop41ColorIndex
 90
       18
102
RTVSPost2010Prop41ColorRGB
 90
        0
102
RTVSPost2010PropOp41
 70
     1
102
RTVSPost2010Prop42
 90
       50
102
RTVSPost2010PropOp42
 70
     1
102
RTVSPost2010Prop43
 90
        3
102
RTVSPost2010PropOp43
 70
     1
102
RTVSPost2010Prop44ColorIndex
 90
        5
102
RTVSPost2010Prop44ColorRGB
 90
      255
102
RTVSPost2010PropOp44
 70
     1
102
RTVSPost2010Prop45
280
     0
102
RTVSPost2010PropOp45
 70
     1
102
RTVSPost2010Prop46
 90
       50
102
RTVSPost2010PropOp46
 70
     1
102
RTVSPost2010Prop47
 90
       50
102
RTVSPost2010PropOp47
 70
     1
102
RTVSPost2010Prop48
 90
       50
102
RTVSPost2010PropOp48
 70
     1
102
RTVSPost2010Prop49
280
     0
102
RTVSPost2010PropOp49
 70
     1
102
RTVSPost2010Prop50
 90
       50
102
RTVSPost2010PropOp50
 70
     1
102
RTVSPost2010Prop51ColorIndex
 90
      256
102
RTVSPost2010Prop51ColorRGB
 90
-16777216
102
RTVSPost2010PropOp51
 70
     0
102
RTVSPost2010Prop52
140
1.0
102
RTVSPost2010PropOp52
 70
     0
102
RTVSPost2010Prop53
 90
        2
102
RTVSPost2010PropOp53
 70
     1
102
RTVSPost2010Prop54
  1
strokes_ogs.tif
102
RTVSPost2010PropOp54
 70
     1
102
RTVSPost2010Prop55
280
     0
102
RTVSPost2010PropOp55
 70
     1
102
RTVSPost2010Prop56
140
1.0
102
RTVSPost2010PropOp56
 70
     1
102
RTVSPost2010Prop57
140
1.0
102
RTVSPost2010PropOp57
 70
     1
  0
XRECORD
  5
2F25
102
{ACAD_REACTORS
330
2F24
102
}
330
2F24
100
AcDbXrecord
280
     1
102
RTVSPost2010Prop28
280
     0
102
RTVSPost2010PropOp28
 70
     1
102
RTVSPost2010Prop29
280
     1
102
RTVSPost2010PropOp29
 70
     1
102
RTVSPost2010Prop30
280
     1
102
RTVSPost2010PropOp30
 70
     1
102
RTVSPost2010Prop31
280
     0
102
RTVSPost2010PropOp31
 70
     1
102
RTVSPost2010Prop32
280
     0
102
RTVSPost2010PropOp32
 70
     1
102
RTVSPost2010Prop33
280
     0
102
RTVSPost2010PropOp33
 70
     1
102
RTVSPost2010Prop34
280
     0
102
RTVSPost2010PropOp34
 70
     1
102
RTVSPost2010Prop35
280
     0
102
RTVSPost2010PropOp35
 70
     1
102
RTVSPost2010Prop36
280
     0
102
RTVSPost2010PropOp36
 70
     1
102
RTVSPost2010Prop37
 90
       50
102
RTVSPost2010PropOp37
 70
     0
102
RTVSPost2010Prop38
140
0.0
102
RTVSPost2010PropOp38
 70
     0
102
RTVSPost2010Prop39
140
1.0
102
RTVSPost2010PropOp39
 70
     0
102
RTVSPost2010Prop40
 90
        0
102
RTVSPost2010PropOp40
 70
     0
102
RTVSPost2010Prop41ColorIndex
 90
       18
102
RTVSPost2010Prop41ColorRGB
 90
        0
102
RTVSPost2010PropOp41
 70
     0
102
RTVSPost2010Prop42
 90
       50
102
RTVSPost2010PropOp42
 70
     0
102
RTVSPost2010Prop43
 90
        3
102
RTVSPost2010PropOp43
 70
     0
102
RTVSPost2010Prop44ColorIndex
 90
        5
102
RTVSPost2010Prop44ColorRGB
 90
      255
102
RTVSPost2010PropOp44
 70
     0
102
RTVSPost2010Prop45
280
     0
102
RTVSPost2010PropOp45
 70
     1
102
RTVSPost2010Prop46
 90
       50
102
RTVSPost2010PropOp46
 70
     0
102
RTVSPost2010Prop47
 90
       50
102
RTVSPost2010PropOp47
 70
     0
102
RTVSPost2010Prop48
 90
       50
102
RTVSPost2010PropOp48
 70
     0
102
RTVSPost2010Prop49
280
     0
102
RTVSPost2010PropOp49
 70
     1
102
RTVSPost2010Prop50
 90
       50
102
RTVSPost2010PropOp50
 70
     0
102
RTVSPost2010Prop51ColorIndex
 90
      256
102
RTVSPost2010Prop51ColorRGB
 90
-16777216
102
RTVSPost2010PropOp51
 70
     0
102
RTVSPost2010Prop52
140
1.0
102
RTVSPost2010PropOp52
 70
     0
102
RTVSPost2010Prop53
 90
        2
102
RTVSPost2010PropOp53
 70
     0
102
RTVSPost2010Prop54
  1
strokes_ogs.tif
102
RTVSPost2010PropOp54
 70
     0
102
RTVSPost2010Prop55
280
     0
102
RTVSPost2010PropOp55
 70
     1
102
RTVSPost2010Prop56
140
1.0
102
RTVSPost2010PropOp56
 70
     0
102
RTVSPost2010Prop57
140
1.0
102
RTVSPost2010PropOp57
 70
     0
  0
XRECORD
  5
2F0B
102
{ACAD_REACTORS
330
2F0A
102
}
330
2F0A
100
AcDbXrecord
280
     1
102
RTVSPost2010Prop28
280
     0
102
RTVSPost2010PropOp28
 70
     1
102
RTVSPost2010Prop29
280
     1
102
RTVSPost2010PropOp29
 70
     1
102
RTVSPost2010Prop30
280
     1
102
RTVSPost2010PropOp30
 70
     1
102
RTVSPost2010Prop31
280
     0
102
RTVSPost2010PropOp31
 70
     1
102
RTVSPost2010Prop32
280
     0
102
RTVSPost2010PropOp32
 70
     1
102
RTVSPost2010Prop33
280
     0
102
RTVSPost2010PropOp33
 70
     1
102
RTVSPost2010Prop34
280
     0
102
RTVSPost2010PropOp34
 70
     1
102
RTVSPost2010Prop35
280
     0
102
RTVSPost2010PropOp35
 70
     1
102
RTVSPost2010Prop36
280
     0
102
RTVSPost2010PropOp36
 70
     1
102
RTVSPost2010Prop37
 90
       50
102
RTVSPost2010PropOp37
 70
     1
102
RTVSPost2010Prop38
140
0.0
102
RTVSPost2010PropOp38
 70
     1
102
RTVSPost2010Prop39
140
1.0
102
RTVSPost2010PropOp39
 70
     1
102
RTVSPost2010Prop40
 90
        0
102
RTVSPost2010PropOp40
 70
     1
102
RTVSPost2010Prop41ColorIndex
 90
       18
102
RTVSPost2010Prop41ColorRGB
 90
        0
102
RTVSPost2010PropOp41
 70
     1
102
RTVSPost2010Prop42
 90
       50
102
RTVSPost2010PropOp42
 70
     1
102
RTVSPost2010Prop43
 90
        3
102
RTVSPost2010PropOp43
 70
     1
102
RTVSPost2010Prop44ColorIndex
 90
        5
102
RTVSPost2010Prop44ColorRGB
 90
      255
102
RTVSPost2010PropOp44
 70
     1
102
RTVSPost2010Prop45
280
     0
102
RTVSPost2010PropOp45
 70
     1
102
RTVSPost2010Prop46
 90
       50
102
RTVSPost2010PropOp46
 70
     1
102
RTVSPost2010Prop47
 90
       50
102
RTVSPost2010PropOp47
 70
     1
102
RTVSPost2010Prop48
 90
       50
102
RTVSPost2010PropOp48
 70
     1
102
RTVSPost2010Prop49
280
     0
102
RTVSPost2010PropOp49
 70
     1
102
RTVSPost2010Prop50
 90
       50
102
RTVSPost2010PropOp50
 70
     1
102
RTVSPost2010Prop51ColorIndex
 90
      256
102
RTVSPost2010Prop51ColorRGB
 90
-16777216
102
RTVSPost2010PropOp51
 70
     0
102
RTVSPost2010Prop52
140
1.0
102
RTVSPost2010PropOp52
 70
     0
102
RTVSPost2010Prop53
 90
        2
102
RTVSPost2010PropOp53
 70
     1
102
RTVSPost2010Prop54
  1
strokes_ogs.tif
102
RTVSPost2010PropOp54
 70
     1
102
RTVSPost2010Prop55
280
     0
102
RTVSPost2010PropOp55
 70
     1
102
RTVSPost2010Prop56
140
1.0
102
RTVSPost2010PropOp56
 70
     1
102
RTVSPost2010Prop57
140
1.0
102
RTVSPost2010PropOp57
 70
     1
  0
XRECORD
  5
2F21
102
{ACAD_REACTORS
330
2F20
102
}
330
2F20
100
AcDbXrecord
280
     1
102
RTVSPost2010Prop28
280
     0
102
RTVSPost2010PropOp28
 70
     1
102
RTVSPost2010Prop29
280
     1
102
RTVSPost2010PropOp29
 70
     1
102
RTVSPost2010Prop30
280
     1
102
RTVSPost2010PropOp30
 70
     1
102
RTVSPost2010Prop31
280
     0
102
RTVSPost2010PropOp31
 70
     1
102
RTVSPost2010Prop32
280
     0
102
RTVSPost2010PropOp32
 70
     1
102
RTVSPost2010Prop33
280
     0
102
RTVSPost2010PropOp33
 70
     1
102
RTVSPost2010Prop34
280
     0
102
RTVSPost2010PropOp34
 70
     1
102
RTVSPost2010Prop35
280
     0
102
RTVSPost2010PropOp35
 70
     1
102
RTVSPost2010Prop36
280
     0
102
RTVSPost2010PropOp36
 70
     1
102
RTVSPost2010Prop37
 90
       50
102
RTVSPost2010PropOp37
 70
     1
102
RTVSPost2010Prop38
140
0.0
102
RTVSPost2010PropOp38
 70
     1
102
RTVSPost2010Prop39
140
1.0
102
RTVSPost2010PropOp39
 70
     1
102
RTVSPost2010Prop40
 90
        0
102
RTVSPost2010PropOp40
 70
     1
102
RTVSPost2010Prop41ColorIndex
 90
       18
102
RTVSPost2010Prop41ColorRGB
 90
        0
102
RTVSPost2010PropOp41
 70
     1
102
RTVSPost2010Prop42
 90
       50
102
RTVSPost2010PropOp42
 70
     1
102
RTVSPost2010Prop43
 90
        3
102
RTVSPost2010PropOp43
 70
     1
102
RTVSPost2010Prop44ColorIndex
 90
        5
102
RTVSPost2010Prop44ColorRGB
 90
      255
102
RTVSPost2010PropOp44
 70
     1
102
RTVSPost2010Prop45
280
     0
102
RTVSPost2010PropOp45
 70
     1
102
RTVSPost2010Prop46
 90
       50
102
RTVSPost2010PropOp46
 70
     1
102
RTVSPost2010Prop47
 90
       50
102
RTVSPost2010PropOp47
 70
     1
102
RTVSPost2010Prop48
 90
       50
102
RTVSPost2010PropOp48
 70
     1
102
RTVSPost2010Prop49
280
     0
102
RTVSPost2010PropOp49
 70
     1
102
RTVSPost2010Prop50
 90
       50
102
RTVSPost2010PropOp50
 70
     1
102
RTVSPost2010Prop51ColorIndex
 90
      256
102
RTVSPost2010Prop51ColorRGB
 90
-16777216
102
RTVSPost2010PropOp51
 70
     0
102
RTVSPost2010Prop52
140
1.0
102
RTVSPost2010PropOp52
 70
     0
102
RTVSPost2010Prop53
 90
        2
102
RTVSPost2010PropOp53
 70
     1
102
RTVSPost2010Prop54
  1
strokes_ogs.tif
102
RTVSPost2010PropOp54
 70
     1
102
RTVSPost2010Prop55
280
     0
102
RTVSPost2010PropOp55
 70
     1
102
RTVSPost2010Prop56
140
1.0
102
RTVSPost2010PropOp56
 70
     1
102
RTVSPost2010Prop57
140
1.0
102
RTVSPost2010PropOp57
 70
     1
  0
XRECORD
  5
2F1F
102
{ACAD_REACTORS
330
2F1E
102
}
330
2F1E
100
AcDbXrecord
280
     1
102
RTVSPost2010Prop28
280
     0
102
RTVSPost2010PropOp28
 70
     1
102
RTVSPost2010Prop29
280
     1
102
RTVSPost2010PropOp29
 70
     1
102
RTVSPost2010Prop30
280
     1
102
RTVSPost2010PropOp30
 70
     1
102
RTVSPost2010Prop31
280
     0
102
RTVSPost2010PropOp31
 70
     1
102
RTVSPost2010Prop32
280
     0
102
RTVSPost2010PropOp32
 70
     1
102
RTVSPost2010Prop33
280
     0
102
RTVSPost2010PropOp33
 70
     1
102
RTVSPost2010Prop34
280
     0
102
RTVSPost2010PropOp34
 70
     1
102
RTVSPost2010Prop35
280
     0
102
RTVSPost2010PropOp35
 70
     1
102
RTVSPost2010Prop36
280
     0
102
RTVSPost2010PropOp36
 70
     1
102
RTVSPost2010Prop37
 90
       50
102
RTVSPost2010PropOp37
 70
     1
102
RTVSPost2010Prop38
140
0.0
102
RTVSPost2010PropOp38
 70
     1
102
RTVSPost2010Prop39
140
1.0
102
RTVSPost2010PropOp39
 70
     1
102
RTVSPost2010Prop40
 90
        0
102
RTVSPost2010PropOp40
 70
     1
102
RTVSPost2010Prop41ColorIndex
 90
       18
102
RTVSPost2010Prop41ColorRGB
 90
        0
102
RTVSPost2010PropOp41
 70
     1
102
RTVSPost2010Prop42
 90
       50
102
RTVSPost2010PropOp42
 70
     1
102
RTVSPost2010Prop43
 90
        3
102
RTVSPost2010PropOp43
 70
     1
102
RTVSPost2010Prop44ColorIndex
 90
        5
102
RTVSPost2010Prop44ColorRGB
 90
      255
102
RTVSPost2010PropOp44
 70
     1
102
RTVSPost2010Prop45
280
     0
102
RTVSPost2010PropOp45
 70
     1
102
RTVSPost2010Prop46
 90
       50
102
RTVSPost2010PropOp46
 70
     1
102
RTVSPost2010Prop47
 90
       50
102
RTVSPost2010PropOp47
 70
     1
102
RTVSPost2010Prop48
 90
       50
102
RTVSPost2010PropOp48
 70
     1
102
RTVSPost2010Prop49
280
     0
102
RTVSPost2010PropOp49
 70
     1
102
RTVSPost2010Prop50
 90
       50
102
RTVSPost2010PropOp50
 70
     1
102
RTVSPost2010Prop51ColorIndex
 90
      256
102
RTVSPost2010Prop51ColorRGB
 90
-16777216
102
RTVSPost2010PropOp51
 70
     0
102
RTVSPost2010Prop52
140
1.0
102
RTVSPost2010PropOp52
 70
     0
102
RTVSPost2010Prop53
 90
        2
102
RTVSPost2010PropOp53
 70
     1
102
RTVSPost2010Prop54
  1
strokes_ogs.tif
102
RTVSPost2010PropOp54
 70
     1
102
RTVSPost2010Prop55
280
     0
102
RTVSPost2010PropOp55
 70
     1
102
RTVSPost2010Prop56
140
1.0
102
RTVSPost2010PropOp56
 70
     1
102
RTVSPost2010Prop57
140
1.0
102
RTVSPost2010PropOp57
 70
     1
  0
XRECORD
  5
2F19
102
{ACAD_REACTORS
330
2F18
102
}
330
2F18
100
AcDbXrecord
280
     1
102
RTVSPost2010Prop28
280
     0
102
RTVSPost2010PropOp28
 70
     1
102
RTVSPost2010Prop29
280
     1
102
RTVSPost2010PropOp29
 70
     1
102
RTVSPost2010Prop30
280
     1
102
RTVSPost2010PropOp30
 70
     1
102
RTVSPost2010Prop31
280
     0
102
RTVSPost2010PropOp31
 70
     1
102
RTVSPost2010Prop32
280
     0
102
RTVSPost2010PropOp32
 70
     1
102
RTVSPost2010Prop33
280
     0
102
RTVSPost2010PropOp33
 70
     1
102
RTVSPost2010Prop34
280
     0
102
RTVSPost2010PropOp34
 70
     1
102
RTVSPost2010Prop35
280
     0
102
RTVSPost2010PropOp35
 70
     1
102
RTVSPost2010Prop36
280
     0
102
RTVSPost2010PropOp36
 70
     1
102
RTVSPost2010Prop37
 90
       50
102
RTVSPost2010PropOp37
 70
     1
102
RTVSPost2010Prop38
140
0.0
102
RTVSPost2010PropOp38
 70
     1
102
RTVSPost2010Prop39
140
1.0
102
RTVSPost2010PropOp39
 70
     1
102
RTVSPost2010Prop40
 90
        0
102
RTVSPost2010PropOp40
 70
     1
102
RTVSPost2010Prop41ColorIndex
 90
       18
102
RTVSPost2010Prop41ColorRGB
 90
        0
102
RTVSPost2010PropOp41
 70
     1
102
RTVSPost2010Prop42
 90
       50
102
RTVSPost2010PropOp42
 70
     1
102
RTVSPost2010Prop43
 90
        3
102
RTVSPost2010PropOp43
 70
     1
102
RTVSPost2010Prop44ColorIndex
 90
        5
102
RTVSPost2010Prop44ColorRGB
 90
      255
102
RTVSPost2010PropOp44
 70
     1
102
RTVSPost2010Prop45
280
     0
102
RTVSPost2010PropOp45
 70
     1
102
RTVSPost2010Prop46
 90
       50
102
RTVSPost2010PropOp46
 70
     1
102
RTVSPost2010Prop47
 90
       50
102
RTVSPost2010PropOp47
 70
     1
102
RTVSPost2010Prop48
 90
       50
102
RTVSPost2010PropOp48
 70
     1
102
RTVSPost2010Prop49
280
     0
102
RTVSPost2010PropOp49
 70
     1
102
RTVSPost2010Prop50
 90
       50
102
RTVSPost2010PropOp50
 70
     1
102
RTVSPost2010Prop51ColorIndex
 90
      256
102
RTVSPost2010Prop51ColorRGB
 90
-16777216
102
RTVSPost2010PropOp51
 70
     0
102
RTVSPost2010Prop52
140
1.0
102
RTVSPost2010PropOp52
 70
     0
102
RTVSPost2010Prop53
 90
        2
102
RTVSPost2010PropOp53
 70
     1
102
RTVSPost2010Prop54
  1
strokes_ogs.tif
102
RTVSPost2010PropOp54
 70
     1
102
RTVSPost2010Prop55
280
     0
102
RTVSPost2010PropOp55
 70
     1
102
RTVSPost2010Prop56
140
1.0
102
RTVSPost2010PropOp56
 70
     1
102
RTVSPost2010Prop57
140
1.0
102
RTVSPost2010PropOp57
 70
     1
  0
XRECORD
  5
2F1B
102
{ACAD_REACTORS
330
2F1A
102
}
330
2F1A
100
AcDbXrecord
280
     1
102
RTVSPost2010Prop28
280
     0
102
RTVSPost2010PropOp28
 70
     1
102
RTVSPost2010Prop29
280
     1
102
RTVSPost2010PropOp29
 70
     1
102
RTVSPost2010Prop30
280
     1
102
RTVSPost2010PropOp30
 70
     1
102
RTVSPost2010Prop31
280
     0
102
RTVSPost2010PropOp31
 70
     1
102
RTVSPost2010Prop32
280
     0
102
RTVSPost2010PropOp32
 70
     1
102
RTVSPost2010Prop33
280
     0
102
RTVSPost2010PropOp33
 70
     1
102
RTVSPost2010Prop34
280
     0
102
RTVSPost2010PropOp34
 70
     1
102
RTVSPost2010Prop35
280
     0
102
RTVSPost2010PropOp35
 70
     1
102
RTVSPost2010Prop36
280
     0
102
RTVSPost2010PropOp36
 70
     1
102
RTVSPost2010Prop37
 90
       50
102
RTVSPost2010PropOp37
 70
     1
102
RTVSPost2010Prop38
140
0.0
102
RTVSPost2010PropOp38
 70
     1
102
RTVSPost2010Prop39
140
1.0
102
RTVSPost2010PropOp39
 70
     1
102
RTVSPost2010Prop40
 90
        0
102
RTVSPost2010PropOp40
 70
     1
102
RTVSPost2010Prop41ColorIndex
 90
       18
102
RTVSPost2010Prop41ColorRGB
 90
        0
102
RTVSPost2010PropOp41
 70
     1
102
RTVSPost2010Prop42
 90
       50
102
RTVSPost2010PropOp42
 70
     1
102
RTVSPost2010Prop43
 90
        3
102
RTVSPost2010PropOp43
 70
     1
102
RTVSPost2010Prop44ColorIndex
 90
        5
102
RTVSPost2010Prop44ColorRGB
 90
      255
102
RTVSPost2010PropOp44
 70
     1
102
RTVSPost2010Prop45
280
     0
102
RTVSPost2010PropOp45
 70
     1
102
RTVSPost2010Prop46
 90
       50
102
RTVSPost2010PropOp46
 70
     1
102
RTVSPost2010Prop47
 90
       50
102
RTVSPost2010PropOp47
 70
     1
102
RTVSPost2010Prop48
 90
       50
102
RTVSPost2010PropOp48
 70
     1
102
RTVSPost2010Prop49
280
     0
102
RTVSPost2010PropOp49
 70
     1
102
RTVSPost2010Prop50
 90
       50
102
RTVSPost2010PropOp50
 70
     1
102
RTVSPost2010Prop51ColorIndex
 90
      256
102
RTVSPost2010Prop51ColorRGB
 90
-16777216
102
RTVSPost2010PropOp51
 70
     0
102
RTVSPost2010Prop52
140
1.0
102
RTVSPost2010PropOp52
 70
     0
102
RTVSPost2010Prop53
 90
        2
102
RTVSPost2010PropOp53
 70
     1
102
RTVSPost2010Prop54
  1
strokes_ogs.tif
102
RTVSPost2010PropOp54
 70
     1
102
RTVSPost2010Prop55
280
     0
102
RTVSPost2010PropOp55
 70
     1
102
RTVSPost2010Prop56
140
1.0
102
RTVSPost2010PropOp56
 70
     1
102
RTVSPost2010Prop57
140
1.0
102
RTVSPost2010PropOp57
 70
     1
  0
XRECORD
  5
2F11
102
{ACAD_REACTORS
330
2F10
102
}
330
2F10
100
AcDbXrecord
280
     1
102
RTVSPost2010Prop28
280
     0
102
RTVSPost2010PropOp28
 70
     1
102
RTVSPost2010Prop29
280
     1
102
RTVSPost2010PropOp29
 70
     1
102
RTVSPost2010Prop30
280
     1
102
RTVSPost2010PropOp30
 70
     1
102
RTVSPost2010Prop31
280
     0
102
RTVSPost2010PropOp31
 70
     1
102
RTVSPost2010Prop32
280
     0
102
RTVSPost2010PropOp32
 70
     1
102
RTVSPost2010Prop33
280
     0
102
RTVSPost2010PropOp33
 70
     1
102
RTVSPost2010Prop34
280
     0
102
RTVSPost2010PropOp34
 70
     1
102
RTVSPost2010Prop35
280
     0
102
RTVSPost2010PropOp35
 70
     1
102
RTVSPost2010Prop36
280
     0
102
RTVSPost2010PropOp36
 70
     1
102
RTVSPost2010Prop37
 90
       50
102
RTVSPost2010PropOp37
 70
     1
102
RTVSPost2010Prop38
140
0.0
102
RTVSPost2010PropOp38
 70
     1
102
RTVSPost2010Prop39
140
1.0
102
RTVSPost2010PropOp39
 70
     1
102
RTVSPost2010Prop40
 90
        0
102
RTVSPost2010PropOp40
 70
     1
102
RTVSPost2010Prop41ColorIndex
 90
       18
102
RTVSPost2010Prop41ColorRGB
 90
        0
102
RTVSPost2010PropOp41
 70
     1
102
RTVSPost2010Prop42
 90
       50
102
RTVSPost2010PropOp42
 70
     1
102
RTVSPost2010Prop43
 90
        3
102
RTVSPost2010PropOp43
 70
     1
102
RTVSPost2010Prop44ColorIndex
 90
        5
102
RTVSPost2010Prop44ColorRGB
 90
      255
102
RTVSPost2010PropOp44
 70
     1
102
RTVSPost2010Prop45
280
     0
102
RTVSPost2010PropOp45
 70
     1
102
RTVSPost2010Prop46
 90
       50
102
RTVSPost2010PropOp46
 70
     1
102
RTVSPost2010Prop47
 90
       50
102
RTVSPost2010PropOp47
 70
     1
102
RTVSPost2010Prop48
 90
       50
102
RTVSPost2010PropOp48
 70
     1
102
RTVSPost2010Prop49
280
     0
102
RTVSPost2010PropOp49
 70
     1
102
RTVSPost2010Prop50
 90
       50
102
RTVSPost2010PropOp50
 70
     1
102
RTVSPost2010Prop51ColorIndex
 90
      256
102
RTVSPost2010Prop51ColorRGB
 90
-16777216
102
RTVSPost2010PropOp51
 70
     0
102
RTVSPost2010Prop52
140
1.0
102
RTVSPost2010PropOp52
 70
     0
102
RTVSPost2010Prop53
 90
        2
102
RTVSPost2010PropOp53
 70
     1
102
RTVSPost2010Prop54
  1
strokes_ogs.tif
102
RTVSPost2010PropOp54
 70
     1
102
RTVSPost2010Prop55
280
     0
102
RTVSPost2010PropOp55
 70
     1
102
RTVSPost2010Prop56
140
1.0
102
RTVSPost2010PropOp56
 70
     1
102
RTVSPost2010Prop57
140
1.0
102
RTVSPost2010PropOp57
 70
     1
  0
XRECORD
  5
2F05
102
{ACAD_REACTORS
330
2F04
102
}
330
2F04
100
AcDbXrecord
280
     1
102
RTVSPost2010Prop28
280
     0
102
RTVSPost2010PropOp28
 70
     1
102
RTVSPost2010Prop29
280
     1
102
RTVSPost2010PropOp29
 70
     1
102
RTVSPost2010Prop30
280
     1
102
RTVSPost2010PropOp30
 70
     1
102
RTVSPost2010Prop31
280
     0
102
RTVSPost2010PropOp31
 70
     1
102
RTVSPost2010Prop32
280
     0
102
RTVSPost2010PropOp32
 70
     1
102
RTVSPost2010Prop33
280
     0
102
RTVSPost2010PropOp33
 70
     1
102
RTVSPost2010Prop34
280
     0
102
RTVSPost2010PropOp34
 70
     1
102
RTVSPost2010Prop35
280
     0
102
RTVSPost2010PropOp35
 70
     1
102
RTVSPost2010Prop36
280
     0
102
RTVSPost2010PropOp36
 70
     1
102
RTVSPost2010Prop37
 90
       50
102
RTVSPost2010PropOp37
 70
     1
102
RTVSPost2010Prop38
140
0.0
102
RTVSPost2010PropOp38
 70
     1
102
RTVSPost2010Prop39
140
1.0
102
RTVSPost2010PropOp39
 70
     1
102
RTVSPost2010Prop40
 90
        0
102
RTVSPost2010PropOp40
 70
     1
102
RTVSPost2010Prop41ColorIndex
 90
       18
102
RTVSPost2010Prop41ColorRGB
 90
        0
102
RTVSPost2010PropOp41
 70
     1
102
RTVSPost2010Prop42
 90
       50
102
RTVSPost2010PropOp42
 70
     1
102
RTVSPost2010Prop43
 90
        3
102
RTVSPost2010PropOp43
 70
     1
102
RTVSPost2010Prop44ColorIndex
 90
        5
102
RTVSPost2010Prop44ColorRGB
 90
      255
102
RTVSPost2010PropOp44
 70
     1
102
RTVSPost2010Prop45
280
     0
102
RTVSPost2010PropOp45
 70
     1
102
RTVSPost2010Prop46
 90
       50
102
RTVSPost2010PropOp46
 70
     1
102
RTVSPost2010Prop47
 90
       50
102
RTVSPost2010PropOp47
 70
     1
102
RTVSPost2010Prop48
 90
       50
102
RTVSPost2010PropOp48
 70
     1
102
RTVSPost2010Prop49
280
     0
102
RTVSPost2010PropOp49
 70
     1
102
RTVSPost2010Prop50
 90
       50
102
RTVSPost2010PropOp50
 70
     1
102
RTVSPost2010Prop51ColorIndex
 90
      256
102
RTVSPost2010Prop51ColorRGB
 90
-16777216
102
RTVSPost2010PropOp51
 70
     0
102
RTVSPost2010Prop52
140
1.0
102
RTVSPost2010PropOp52
 70
     0
102
RTVSPost2010Prop53
 90
        2
102
RTVSPost2010PropOp53
 70
     1
102
RTVSPost2010Prop54
  1
strokes_ogs.tif
102
RTVSPost2010PropOp54
 70
     1
102
RTVSPost2010Prop55
280
     0
102
RTVSPost2010PropOp55
 70
     1
102
RTVSPost2010Prop56
140
1.0
102
RTVSPost2010PropOp56
 70
     1
102
RTVSPost2010Prop57
140
1.0
102
RTVSPost2010PropOp57
 70
     1
  0
XRECORD
  5
2F1D
102
{ACAD_REACTORS
330
2F1C
102
}
330
2F1C
100
AcDbXrecord
280
     1
102
RTVSPost2010Prop28
280
     0
102
RTVSPost2010PropOp28
 70
     1
102
RTVSPost2010Prop29
280
     1
102
RTVSPost2010PropOp29
 70
     1
102
RTVSPost2010Prop30
280
     1
102
RTVSPost2010PropOp30
 70
     1
102
RTVSPost2010Prop31
280
     0
102
RTVSPost2010PropOp31
 70
     1
102
RTVSPost2010Prop32
280
     0
102
RTVSPost2010PropOp32
 70
     1
102
RTVSPost2010Prop33
280
     0
102
RTVSPost2010PropOp33
 70
     1
102
RTVSPost2010Prop34
280
     0
102
RTVSPost2010PropOp34
 70
     1
102
RTVSPost2010Prop35
280
     0
102
RTVSPost2010PropOp35
 70
     1
102
RTVSPost2010Prop36
280
     0
102
RTVSPost2010PropOp36
 70
     1
102
RTVSPost2010Prop37
 90
       50
102
RTVSPost2010PropOp37
 70
     1
102
RTVSPost2010Prop38
140
0.0
102
RTVSPost2010PropOp38
 70
     1
102
RTVSPost2010Prop39
140
1.0
102
RTVSPost2010PropOp39
 70
     1
102
RTVSPost2010Prop40
 90
        0
102
RTVSPost2010PropOp40
 70
     1
102
RTVSPost2010Prop41ColorIndex
 90
       18
102
RTVSPost2010Prop41ColorRGB
 90
        0
102
RTVSPost2010PropOp41
 70
     1
102
RTVSPost2010Prop42
 90
       50
102
RTVSPost2010PropOp42
 70
     1
102
RTVSPost2010Prop43
 90
        3
102
RTVSPost2010PropOp43
 70
     1
102
RTVSPost2010Prop44ColorIndex
 90
        5
102
RTVSPost2010Prop44ColorRGB
 90
      255
102
RTVSPost2010PropOp44
 70
     1
102
RTVSPost2010Prop45
280
     0
102
RTVSPost2010PropOp45
 70
     1
102
RTVSPost2010Prop46
 90
       50
102
RTVSPost2010PropOp46
 70
     1
102
RTVSPost2010Prop47
 90
       50
102
RTVSPost2010PropOp47
 70
     1
102
RTVSPost2010Prop48
 90
       50
102
RTVSPost2010PropOp48
 70
     1
102
RTVSPost2010Prop49
280
     0
102
RTVSPost2010PropOp49
 70
     1
102
RTVSPost2010Prop50
 90
       50
102
RTVSPost2010PropOp50
 70
     1
102
RTVSPost2010Prop51ColorIndex
 90
      256
102
RTVSPost2010Prop51ColorRGB
 90
-16777216
102
RTVSPost2010PropOp51
 70
     0
102
RTVSPost2010Prop52
140
1.0
102
RTVSPost2010PropOp52
 70
     0
102
RTVSPost2010Prop53
 90
        2
102
RTVSPost2010PropOp53
 70
     1
102
RTVSPost2010Prop54
  1
strokes_ogs.tif
102
RTVSPost2010PropOp54
 70
     1
102
RTVSPost2010Prop55
280
     0
102
RTVSPost2010PropOp55
 70
     1
102
RTVSPost2010Prop56
140
1.0
102
RTVSPost2010PropOp56
 70
     1
102
RTVSPost2010Prop57
140
1.0
102
RTVSPost2010PropOp57
 70
     1
  0
ENDSEC
  0
EOF
