  0
SECTION
  2
HEADER
  9
$ACADVER
  1
AC1009
  9
$INSBASE
 10
0.0
 20
0.0
 30
0.0
  9
$EXTMIN
 10
226.34628653450179
 20
290.07336298705758
 30
-0.0000000000112498
  9
$EXTMAX
 10
1147.4245864268439
 20
997.18709366851965
 30
0.0000000000002956
  9
$LIMMIN
 10
0.0
 20
0.0
  9
$LIMMAX
 10
1422.5
 20
925.0
  9
$ORTHOMODE
 70
     0
  9
$REGENMODE
 70
     1
  9
$FILLMODE
 70
     1
  9
$QTEXTMODE
 70
     0
  9
$MIRRTEXT
 70
     1
  9
$DRAGMODE
 70
     2
  9
$LTSCALE
 40
5.0
  9
$OSMODE
 70
   551
  9
$ATTMODE
 70
     1
  9
$TEXTSIZE
 40
2.5
  9
$TRACEWID
 40
1.0
  9
$TEXTSTYLE
  7
STANDARD
  9
$CLAYER
  8
AM_0
  9
$CELTYPE
  6
BYLAYER
  9
$CECOLOR
 62
   256
  9
$DIMSCALE
 40
1.0
  9
$DIMASZ
 40
2.5
  9
$DIMEXO
 40
1.0
  9
$DIMDLI
 40
8.0
  9
$DIMRND
 40
0.0
  9
$DIMDLE
 40
0.0
  9
$DIMEXE
 40
0.6
  9
$DIMTP
 40
0.1
  9
$DIMTM
 40
0.1
  9
$DIMTXT
 40
2.5
  9
$DIMCEN
 40
0.0
  9
$DIMTSZ
 40
0.0
  9
$DIMTOL
 70
     0
  9
$DIMLIM
 70
     0
  9
$DIMTIH
 70
     0
  9
$DIMTOH
 70
     0
  9
$DIMSE1
 70
     0
  9
$DIMSE2
 70
     0
  9
$DIMTAD
 70
     1
  9
$DIMZIN
 70
     8
  9
$DIMBLK
  1

  9
$DIMASO
 70
     1
  9
$DIMSHO
 70
     1
  9
$DIMPOST
  1

  9
$DIMAPOST
  1
"
  9
$DIMALT
 70
     0
  9
$DIMALTD
 70
     2
  9
$DIMALTF
 40
0.0393701
  9
$DIMLFAC
 40
1.0
  9
$DIMTOFL
 70
     1
  9
$DIMTVP
 40
0.0
  9
$DIMTIX
 70
     0
  9
$DIMSOXD
 70
     0
  9
$DIMSAH
 70
     0
  9
$DIMBLK1
  1

  9
$DIMBLK2
  1

  9
$DIMSTYLE
  2
AM_ISO
  9
$DIMCLRD
 70
   256
  9
$DIMCLRE
 70
   256
  9
$DIMCLRT
 70
     4
  9
$DIMTFAC
 40
0.71
  9
$DIMGAP
 40
0.8
  9
$LUNITS
 70
     2
  9
$LUPREC
 70
     2
  9
$SKETCHINC
 40
1.0
  9
$FILLETRAD
 40
25.0
  9
$AUNITS
 70
     0
  9
$AUPREC
 70
     0
  9
$MENU
  1
.
  9
$ELEVATION
 40
0.0
  9
$PELEVATION
 40
0.0
  9
$THICKNESS
 40
0.0
  9
$LIMCHECK
 70
     0
  9
$BLIPMODE
 70
     0
  9
$CHAMFERA
 40
10.0
  9
$CHAMFERB
 40
5.0
  9
$SKPOLY
 70
     0
  9
$TDCREATE
 40
2452066.7641840279
  9
$TDUPDATE
 40
2458541.4233835302
  9
$TDINDWG
 40
0.0556408333
  9
$TDUSRTIMER
 40
0.0556408218
  9
$USRTIMER
 70
     1
  9
$ANGBASE
 50
0.0
  9
$ANGDIR
 70
     0
  9
$PDMODE
 70
     0
  9
$PDSIZE
 40
0.0
  9
$PLINEWID
 40
0.0
  9
$COORDS
 70
     1
  9
$SPLFRAME
 70
     0
  9
$SPLINETYPE
 70
     6
  9
$SPLINESEGS
 70
     8
  9
$ATTDIA
 70
     1
  9
$ATTREQ
 70
     1
  9
$HANDLING
 70
     1
  9
$HANDSEED
  5
343B
  9
$SURFTAB1
 70
     6
  9
$SURFTAB2
 70
     6
  9
$SURFTYPE
 70
     6
  9
$SURFU
 70
     6
  9
$SURFV
 70
     6
  9
$UCSNAME
  2

  9
$UCSORG
 10
0.0
 20
0.0
 30
0.0
  9
$UCSXDIR
 10
1.0
 20
0.0
 30
0.0
  9
$UCSYDIR
 10
0.0
 20
1.0
 30
0.0
  9
$PUCSNAME
  2

  9
$PUCSORG
 10
0.0
 20
0.0
 30
0.0
  9
$PUCSXDIR
 10
1.0
 20
0.0
 30
0.0
  9
$PUCSYDIR
 10
0.0
 20
1.0
 30
0.0
  9
$USERI1
 70
     0
  9
$USERI2
 70
     0
  9
$USERI3
 70
     0
  9
$USERI4
 70
     0
  9
$USERI5
 70
     0
  9
$USERR1
 40
0.0
  9
$USERR2
 40
0.0
  9
$USERR3
 40
0.0
  9
$USERR4
 40
0.0
  9
$USERR5
 40
0.0
  9
$WORLDVIEW
 70
     1
  9
$SHADEDGE
 70
     3
  9
$SHADEDIF
 70
    70
  9
$TILEMODE
 70
     1
  9
$MAXACTVP
 70
    64
  9
$PLIMCHECK
 70
     0
  9
$PEXTMIN
 10
1.0000000000000000E+020
 20
1.0000000000000000E+020
 30
1.0000000000000000E+020
  9
$PEXTMAX
 10
-1.0000000000000000E+020
 20
-1.0000000000000000E+020
 30
-1.0000000000000000E+020
  9
$PLIMMIN
 10
0.0
 20
0.0
  9
$PLIMMAX
 10
420.0
 20
297.0
  9
$UNITMODE
 70
     0
  9
$VISRETAIN
 70
     1
  9
$PLINEGEN
 70
     0
  9
$PSLTSCALE
 70
     1
  0
ENDSEC
  0
SECTION
  2
TABLES
  0
TABLE
  2
VPORT
 70
     1
  0
VPORT
  2
*ACTIVE
 70
     0
 10
0.0
 20
0.0
 11
1.0
 21
1.0
 12
686.88543648067287
 22
643.63022832778859
 13
0.0
 23
0.0
 14
12.5
 24
12.5
 15
50.0
 25
50.0
 16
0.0
 26
0.0
 36
1.0
 17
0.0
 27
0.0
 37
0.0
 40
711.96805835204407
 41
1.7571592210767459
 42
50.0
 43
0.0
 44
0.0
 50
0.0
 51
0.0
 71
     0
 72
   100
 73
     1
 74
     3
 75
     0
 76
     0
 77
     0
 78
     0
  0
ENDTAB
  0
TABLE
  2
LTYPE
 70
    27
  0
LTYPE
  2
CONTINUOUS
 70
     0
  3
Solid line
 72
    65
 73
     0
 40
0.0
  0
LTYPE
  2
AM_ISO02W050
 70
     0
  3
__ __ __ __ __ __ __ __ __ __ __ __ __ __ __
 72
    65
 73
     2
 40
7.5
 49
6.0
 49
-1.5
  0
LTYPE
  2
AM_ISO08W050
 70
     0
  3
____ . ____ . ____ . ____ . ____ . ____ . ____
 72
    65
 73
     4
 40
18.0
 49
12.0
 49
-1.5
 49
3.0
 49
-1.5
  0
LTYPE
  2
AM_ISO09W050
 70
     0
  3
_____ . . _____ . . _____ . . ____ .. ____
 72
    65
 73
     6
 40
22.5
 49
12.0
 49
-1.5
 49
3.0
 49
-1.5
 49
3.0
 49
-1.5
  0
LTYPE
  2
AMCONSTR
 70
     0
  3
_______________________
 72
    65
 73
     2
 40
9999.0
 49
9999.0
 49
0.0
  0
LTYPE
  2
AM_ISO08W050X2
 70
     0
  3
__ . __ . __ . __ . __ . __
 72
    65
 73
     4
 40
9.0
 49
6.0
 49
-0.75
 49
1.5
 49
-0.75
  0
LTYPE
  2
AM_ISO02W050X2
 70
     0
  3
 _ _ _ _ _ _ _ _ _ _ _ _
 72
    65
 73
     2
 40
3.75
 49
3.0
 49
-0.75
  0
LTYPE
  2
AMZIGZAG
 70
     0
  3
/\/-/\/-/\/-/\/-/\/-/\/
 72
    65
 73
     2
 40
11.000099999999991
 49
0.0001
 49
-11.0
  0
LTYPE
  2
ACISOWELD
 70
     0
  3
_ _ _ _ _
 72
    65
 73
     2
 40
2.0
 49
2.0
 49
-1.0
  0
LTYPE
  2
ACISOTGB
 70
     0
  3
__ . . __ . .
 72
    65
 73
     6
 40
9.0
 49
4.0
 49
-1.0
 49
1.0
 49
-1.0
 49
1.0
 49
-1.0
  0
LTYPE
  2
ACISOTGL
 70
     0
  3
_ _ _ _ _
 72
    65
 73
     2
 40
3.0
 49
2.0
 49
-1.0
  0
LTYPE
  2
CENTER
 70
     0
  3
__ . __
 72
    65
 73
     4
 40
7.0
 49
4.0
 49
-1.0
 49
1.0
 49
-1.0
  0
LTYPE
  2
PHANTOM2
 70
     0
  3
Phantom (.5x) ___ _ _ ___ _ _ ___ _ _ ___ _ _
 72
    65
 73
     6
 40
31.75
 49
15.875
 49
-3.174999999999998
 49
3.174999999999998
 49
-3.174999999999998
 49
3.174999999999998
 49
-3.174999999999998
  0
LTYPE
  2
ACANSTGBM
 70
     0
  3
__ . . __ . .
 72
    65
 73
     6
 40
9.0
 49
4.0
 49
-1.0
 49
1.0
 49
-1.0
 49
1.0
 49
-1.0
  0
LTYPE
  2
ACANSTGLM
 70
     0
  3
_ _ _ _ _
 72
    65
 73
     2
 40
3.0
 49
2.0
 49
-1.0
  0
LTYPE
  2
GEN7
 70
     0
  3
____ . ____ . ____ . ____ . ____ . ____ . ____
 72
    65
 73
     4
 40
14.25
 49
9.75
 49
-1.5
 49
1.5
 49
-1.5
  0
LTYPE
  2
GEN3B
 70
     0
  3
 - - - - -
 72
    65
 73
     2
 40
1.0
 49
0.5
 49
-0.5
  0
LTYPE
  2
GEN7A
 70
     0
  3
__ . __ . __
 72
    65
 73
     4
 40
7.375
 49
4.75
 49
-0.875
 49
0.875
 49
-0.875
  0
LTYPE
  2
ACJISTGB
 70
     0
  3
__ . . __ . .
 72
    65
 73
     6
 40
9.0
 49
4.0
 49
-1.0
 49
1.0
 49
-1.0
 49
1.0
 49
-1.0
  0
LTYPE
  2
ACJISTGL
 70
     0
  3
_ _ _ _ _
 72
    65
 73
     2
 40
3.0
 49
2.0
 49
-1.0
  0
LTYPE
  2
HIDDEN
 70
     0
  3
Hidden __ __ __ __ __ __ __ __ __ __ __ __ __ _
 72
    65
 73
     2
 40
0.375
 49
0.25
 49
-0.125
  0
LTYPE
  2
CENTER2
 70
     0
  3
Center (.5x) ___ _ ___ _ ___ _ ___ _ ___ _ ___
 72
    65
 73
     4
 40
1.125
 49
0.75
 49
-0.125
 49
0.125
 49
-0.125
  0
LTYPE
  2
HIDDEN2
 70
     0
  3
Hidden (.5x) _ _ _ _ _ _ _ _ _ _ _ _ _ _ _ _ _
 72
    65
 73
     2
 40
0.1875
 49
0.125
 49
-0.0625
  0
LTYPE
  2
AMZIGZAG2
 70
     0
  3
/\/-/\/-/\/-/\/-/\/-/\/
 72
    65
 73
     2
 40
0.4401
 49
0.0001
 49
-0.4400000000000002
  0
LTYPE
  2
ACANSTGB
 70
     0
  3
__ . . __ . .
 72
    65
 73
     6
 40
0.35433070866
 49
0.15748031496
 49
-0.03937007874
 49
0.03937007874
 49
-0.03937007874
 49
0.03937007874
 49
-0.03937007874
  0
LTYPE
  2
ACANSTGL
 70
     0
  3
_ _ _ _ _
 72
    65
 73
     2
 40
0.11811023622
 49
0.07874015748
 49
-0.03937007874
  0
ENDTAB
  0
TABLE
  2
LAYER
 70
     7
  0
LAYER
  2
0
 70
     0
 62
     7
  6
CONTINUOUS
  0
LAYER
  2
AM_0
 70
     0
 62
     7
  6
CONTINUOUS
  0
LAYER
  2
AM_5
 70
     0
 62
     2
  6
CONTINUOUS
  0
LAYER
  2
DEFPOINTS
 70
     0
 62
     7
  6
CONTINUOUS
  0
LAYER
  2
ｶｸﾚｾﾝ2
 70
     0
 62
     3
  6
GEN3B
  0
LAYER
  2
ﾁｭｳｼﾝｾﾝ
 70
     0
 62
     1
  6
GEN7
  0
LAYER
  2
ﾁｭｳｼﾝｾﾝ1
 70
     0
 62
     1
  6
GEN7A
  0
ENDTAB
  0
TABLE
  2
STYLE
 70
     9
  0
STYLE
  2
STANDARD
 70
     0
 40
0.0
 41
0.8299999999999999
 50
0.0
 71
     0
 42
2.5
  3
txt.shx
  4
bigfont.shx
  0
STYLE
  2
ANNOTATIVE
 70
     0
 40
0.0
 41
1.0
 50
0.0
 71
     0
 42
0.2
  3
txt
  4

  0
STYLE
  2

 70
     1
 40
0.0
 41
1.0
 50
0.0
 71
     0
 42
2.5
  3
ltypeshp.shx
  4

  0
STYLE
  2
ACISOTS
 70
     0
 40
1.0
 41
1.0
 50
0.0
 71
     0
 42
2.5
  3
isocp.shx
  4
extfont.shx
  0
STYLE
  2
ACISOGDT
 70
     0
 40
0.0
 41
1.0
 50
0.0
 71
     0
 42
2.5
  3
amgdt.shx
  4

  0
STYLE
  2
ACANSTS
 70
     0
 40
1.0
 41
1.0
 50
0.0
 71
     0
 42
2.5
  3
romans.shx
  4
bigfont.shx
  0
STYLE
  2
ACANSGDT
 70
     0
 40
0.0
 41
1.0
 50
0.0
 71
     0
 42
2.5
  3
amgdt.shx
  4

  0
STYLE
  2
ACJISTS
 70
     0
 40
1.0
 41
1.0
 50
0.0
 71
     0
 42
2.5
  3
isocp.shx
  4
bigfont.shx
  0
STYLE
  2
ACJISGDT
 70
     0
 40
0.0
 41
1.0
 50
0.0
 71
     0
 42
2.5
  3
amgdt.shx
  4

  0
ENDTAB
  0
TABLE
  2
VIEW
 70
     6
  0
VIEW
  2
AM_VIEW1
 70
     0
 40
462.5
 10
416.07965009208078
 20
693.75
 41
832.15930018416213
 11
0.0
 21
0.0
 31
1.0
 12
0.0
 22
0.0
 32
0.0
 42
50.0
 43
0.0
 44
0.0
 50
0.0
 71
     0
  0
VIEW
  2
AM_VIEW2
 70
     0
 40
462.5
 10
1006.420349907918
 20
693.75
 41
832.15930018416213
 11
0.0
 21
0.0
 31
1.0
 12
0.0
 22
0.0
 32
0.0
 42
50.0
 43
0.0
 44
0.0
 50
0.0
 71
     0
  0
VIEW
  2
AM_VIEW3
 70
     0
 40
462.5
 10
416.07965009208078
 20
231.25
 41
832.15930018416213
 11
0.0
 21
0.0
 31
1.0
 12
0.0
 22
0.0
 32
0.0
 42
50.0
 43
0.0
 44
0.0
 50
0.0
 71
     0
  0
VIEW
  2
AM_VIEW4
 70
     0
 40
462.5
 10
1006.420349907918
 20
231.25
 41
832.15930018416213
 11
0.0
 21
0.0
 31
1.0
 12
0.0
 22
0.0
 32
0.0
 42
50.0
 43
0.0
 44
0.0
 50
0.0
 71
     0
  0
VIEW
  2
AM_VIEW5
 70
     0
 40
462.5
 10
711.24999999999966
 20
462.5
 41
832.15930018416179
 11
0.0
 21
0.0
 31
1.0
 12
0.0
 22
0.0
 32
0.0
 42
50.0
 43
0.0
 44
0.0
 50
0.0
 71
     0
  0
VIEW
  2
AM_VIEW6
 70
     0
 40
924.99075000000005
 10
711.24999999999966
 20
462.5
 41
1664.3019571823199
 11
0.0
 21
0.0
 31
1.0
 12
0.0
 22
0.0
 32
0.0
 42
50.0
 43
0.0
 44
0.0
 50
0.0
 71
     0
  0
ENDTAB
  0
TABLE
  2
UCS
 70
     0
  0
ENDTAB
  0
TABLE
  2
APPID
 70
    95
  0
APPID
  2
ACAD
 70
     0
  0
APPID
  2
ACADANNOTATIVE
 70
     0
  0
APPID
  2
MCAD_NO_VIS
 70
     0
  0
APPID
  2
ACAD_TEMP_GRAPHIC
 70
     0
  0
APPID
  2
ACATTRIBSERVICES
 70
     0
  0
APPID
  2
GENIUS_GENREC_14
 70
     0
  0
APPID
  2
GENIUS_GENOBJ-N-REC_13
 70
     0
  0
APPID
  2
GENIUS_GENODEF_13
 70
     0
  0
APPID
  2
GENIUS_GENOLIS_13
 70
     0
  0
APPID
  2
GENIUS_GENOBJ-N-TIT_13
 70
     0
  0
APPID
  2
GENIUS_GENOENT_13
 70
     0
  0
APPID
  2
GENIUS_GENTITLE_13
 70
     0
  0
APPID
  2
GENIUS_GENOREF_13
 70
     0
  0
APPID
  2
GENIUS_GENSCREG_15
 70
     0
  0
APPID
  2
GENIUS_GENOBJ-N-SDF_13
 70
     0
  0
APPID
  2
GENIUS_GENFIL_13
 70
     0
  0
APPID
  2
GENIUS_GENOBJ-N-CHA_13
 70
     0
  0
APPID
  2
GENIUS_GENDTOL_13
 70
     0
  0
APPID
  2
GENIUS_GENOBJ-N-FIL_13
 70
     0
  0
APPID
  2
AD_DRAW
 70
     0
  0
APPID
  2
DESIGNERASSEMBLIES
 70
     0
  0
APPID
  2
ASURF_PCURVE_APPNAME
 70
     0
  0
APPID
  2
GENIUS_GE3SECT_13
 70
     0
  0
APPID
  2
GENIUS_GENCFG_13
 70
     0
  0
APPID
  2
GENIUS_GE3CFG0_13
 70
     0
  0
APPID
  2
GENIUS_GENCFG0_13
 70
     0
  0
APPID
  2
GENIUS_GENCFG1_13
 70
     0
  0
APPID
  2
GENIUS_GENCFG2_13
 70
     0
  0
APPID
  2
GENIUS_GENCFG3_13
 70
     0
  0
APPID
  2
GENIUS_GENCFG4_13
 70
     0
  0
APPID
  2
GENIUS_GEVCFG0_13
 70
     0
  0
APPID
  2
GENIUS_GENHINW_13
 70
     0
  0
APPID
  2
GENIUS_FIRSTVISTXT_14
 70
     0
  0
APPID
  2
GENIUS_GENOBJ-N-LEADER_13
 70
     0
  0
APPID
  2
GEV_VCCNULL_SWITCH_OFF
 70
     0
  0
APPID
  2
GENIUS_GEFCFG0_13
 70
     0
  0
APPID
  2
GENIUS_GENZVEED_13
 70
     0
  0
APPID
  2
GENIUS_GENSCREG_13
 70
     0
  0
APPID
  2
GENIUS_DUMCFG0_13
 70
     0
  0
APPID
  2
GEVID936201362
 70
     0
  0
APPID
  2
GEVDC
 70
     0
  0
APPID
  2
GEVCON
 70
     0
  0
APPID
  2
VCC
 70
     0
  0
APPID
  2
GEVPT
 70
     0
  0
APPID
  2
GEVIT
 70
     0
  0
APPID
  2
GENBH
 70
     0
  0
APPID
  2
GEVMK
 70
     0
  0
APPID
  2
GENIUS_GENBH_13
 70
     0
  0
APPID
  2
GENIUS_GENOBJ-NBEHI-BHF_13
 70
     0
  0
APPID
  2
GENIUS_GENOBJ-NBEHI-BHB_13
 70
     0
  0
APPID
  2
GENIUS_GENOBJ-F-DESC_13
 70
     0
  0
APPID
  2
GENIUS_GEFDESC_14
 70
     0
  0
APPID
  2
GENIUS_GENOBJ-F-PART_13
 70
     0
  0
APPID
  2
GENIUS_GEFSTDP_13
 70
     0
  0
APPID
  2
GENIUS_GEFPARTINS_13
 70
     0
  0
APPID
  2
GENIUS_GENTRA_14
 70
     0
  0
APPID
  2
GENIUS_GENINF13_13
 70
     0
  0
APPID
  2
GENIUS_GENOBJ-N-INFOPT_13
 70
     0
  0
APPID
  2
GENIUS_GENOBJ-N-RSSYM_13
 70
     0
  0
APPID
  2
GENIUS_GENSYMENT_13
 70
     0
  0
APPID
  2
GENIUS_GENSCSYM_13
 70
     0
  0
APPID
  2
GENIUS_GEFINFNAM_13
 70
     0
  0
APPID
  2
GENIUS_GENOBJ-N-CEN_13
 70
     0
  0
APPID
  2
GENIUS_GENOBJ-N-CRS_13
 70
     0
  0
APPID
  2
GENIUS_GENOBJ-N-CRC_13
 70
     0
  0
APPID
  2
GENIUS_GENCRC_14
 70
     0
  0
APPID
  2
GEVID942827039
 70
     0
  0
APPID
  2
GEVID942827040
 70
     0
  0
APPID
  2
GEVID942827041
 70
     0
  0
APPID
  2
GENIUS_GENOBJ-F-SCPASSM_13
 70
     0
  0
APPID
  2
GENIUS_GENDIMSH_14
 70
     0
  0
APPID
  2
GEVID942827042
 70
     0
  0
APPID
  2
GEVID946020473
 70
     0
  0
APPID
  2
GEVID946020474
 70
     0
  0
APPID
  2
GEVID946020475
 70
     0
  0
APPID
  2
GENIUS_GENOBJ-N-HTC_13
 70
     0
  0
APPID
  2
GENIUS_GENHATCH_13
 70
     0
  0
APPID
  2
GEVID948854295
 70
     0
  0
APPID
  2
GEVID939402019
 70
     0
  0
APPID
  2
GEVID952919491
 70
     0
  0
APPID
  2
GEVID952919492
 70
     0
  0
APPID
  2
GENIUS_GEFWELD_13
 70
     0
  0
APPID
  2
GENIUS_GENOBJ-F-WELS_13
 70
     0
  0
APPID
  2
GEVID952919493
 70
     0
  0
APPID
  2
GENIUS_GENOBJ-N-RSBK_13
 70
     0
  0
APPID
  2
GENIUS_GENOBJ-N-LIB_13
 70
     0
  0
APPID
  2
GENIUS_GENSCALE_13
 70
     0
  0
APPID
  2
GEVID986376691
 70
     0
  0
APPID
  2
DCO15
 70
     0
  0
APPID
  2
ACAD_DSTYLE_DIMBREAK
 70
     0
  0
APPID
  2
ACAD_DSTYLE_DIMJAG
 70
     0
  0
APPID
  2
ACAD_NAV_VCDISPLAY
 70
     0
  0
APPID
  2
ACADANNOPO
 70
     0
  0
APPID
  2
ACAD_EXEMPT_FROM_CAD_STANDARDS
 70
     0
  0
APPID
  2
ACAD_MLEADERVER
 70
     0
  0
ENDTAB
  0
TABLE
  2
DIMSTYLE
 70
    22
  0
DIMSTYLE
  2
STANDARD
 70
     0
  3

  4

  5

  6

  7

 40
1.0
 41
0.18
 42
0.0625
 43
0.38
 44
0.18
 45
0.0
 46
0.0
 47
0.0
 48
0.0
140
0.18
141
0.09
142
0.0
143
25.399999999999999
144
1.0
145
0.0
146
1.0
147
0.09
 71
     0
 72
     0
 73
     1
 74
     1
 75
     0
 76
     0
 77
     0
 78
     0
170
     0
171
     2
172
     0
173
     0
174
     0
175
     0
176
     0
177
     0
178
     0
  0
DIMSTYLE
  2
ANNOTATIVE
 70
     0
  3

  4

  5

  6

  7

 40
1.0
 41
0.18
 42
0.0625
 43
0.38
 44
0.18
 45
0.0
 46
0.0
 47
0.0
 48
0.0
140
0.18
141
0.09
142
0.0
143
25.399999999999999
144
1.0
145
0.0
146
1.0
147
0.09
 71
     0
 72
     0
 73
     1
 74
     1
 75
     0
 76
     0
 77
     0
 78
     0
170
     0
171
     2
172
     0
173
     0
174
     0
175
     0
176
     0
177
     0
178
     0
  0
DIMSTYLE
  2
AM_ISO
 70
     0
  3

  4
"
  5

  6

  7

 40
1.0
 41
2.5
 42
1.0
 43
8.0
 44
0.6
 45
0.0
 46
0.0
 47
0.1
 48
0.1
140
2.5
141
0.0
142
0.0
143
0.0393701
144
1.0
145
0.0
146
0.71
147
0.8
 71
     0
 72
     0
 73
     0
 74
     0
 75
     0
 76
     0
 77
     1
 78
     8
170
     0
171
     2
172
     1
173
     0
174
     0
175
     0
176
   256
177
   256
178
     4
  0
DIMSTYLE
  2
AM_ISO$3
 70
     0
  3

  4
"
  5

  6

  7

 40
1.0
 41
2.5
 42
1.0
 43
8.0
 44
0.6
 45
0.0
 46
0.0
 47
0.1
 48
0.1
140
2.5
141
0.0
142
0.0
143
0.0393701
144
1.0
145
0.0
146
0.71
147
0.8
 71
     0
 72
     0
 73
     0
 74
     1
 75
     0
 76
     0
 77
     1
 78
     8
170
     0
171
     2
172
     0
173
     0
174
     0
175
     0
176
   256
177
   256
178
     4
  0
DIMSTYLE
  2
AM_ISO$4
 70
     0
  3

  4
"
  5

  6

  7

 40
1.0
 41
2.5
 42
1.0
 43
8.0
 44
0.6
 45
0.0
 46
0.0
 47
0.1
 48
0.1
140
2.5
141
0.0
142
0.0
143
0.0393701
144
1.0
145
0.0
146
0.71
147
0.8
 71
     0
 72
     0
 73
     0
 74
     1
 75
     0
 76
     0
 77
     1
 78
     8
170
     0
171
     2
172
     0
173
     0
174
     0
175
     0
176
   256
177
   256
178
     4
  0
DIMSTYLE
  2
AM_ISO$6
 70
     0
  3

  4
"
  5

  6

  7

 40
1.0
 41
2.5
 42
1.0
 43
8.0
 44
0.6
 45
0.0
 46
0.0
 47
0.1
 48
0.1
140
2.5
141
0.0
142
0.0
143
0.0393701
144
1.0
145
0.0
146
0.71
147
0.8
 71
     0
 72
     0
 73
     0
 74
     0
 75
     0
 76
     0
 77
     0
 78
     8
170
     0
171
     2
172
     1
173
     0
174
     0
175
     0
176
   256
177
   256
178
     4
  0
DIMSTYLE
  2
AM_ISO$7
 70
     0
  3

  4
"
  5

  6

  7

 40
1.0
 41
2.5
 42
1.0
 43
8.0
 44
0.6
 45
0.0
 46
0.0
 47
0.1
 48
0.1
140
2.5
141
0.0
142
0.0
143
0.0393701
144
1.0
145
0.0
146
0.71
147
0.8
 71
     0
 72
     0
 73
     0
 74
     0
 75
     0
 76
     0
 77
     1
 78
     8
170
     0
171
     2
172
     1
173
     0
174
     0
175
     0
176
   256
177
   256
178
     4
  0
DIMSTYLE
  2
AM_ISO$SF
 70
     0
  3

  4
"
  5

  6

  7

 40
1.0
 41
2.5
 42
1.0
 43
10.0
 44
1.0
 45
0.0
 46
0.0
 47
0.1
 48
0.1
140
3.5
141
0.0
142
0.0
143
0.0393701
144
1.0
145
0.0
146
0.71
147
1.5
 71
     0
 72
     0
 73
     0
 74
     0
 75
     1
 76
     1
 77
     1
 78
     8
170
     0
171
     2
172
     1
173
     0
174
     0
175
     0
176
   256
177
   256
178
     2
  0
DIMSTYLE
  2
AM_ISO$SH
 70
     0
  3

  4
"
  5

  6

  7

 40
1.0
 41
2.5
 42
1.0
 43
10.0
 44
1.0
 45
0.0
 46
0.0
 47
0.1
 48
0.1
140
3.5
141
0.0
142
0.0
143
0.0393701
144
2.0
145
0.0
146
0.71
147
1.5
 71
     0
 72
     0
 73
     0
 74
     0
 75
     1
 76
     1
 77
     1
 78
     8
170
     0
171
     2
172
     1
173
     1
174
     0
175
     0
176
   256
177
   256
178
     2
  0
DIMSTYLE
  2
AM_JIS
 70
     0
  3

  4
"
  5

  6

  7

 40
1.0
 41
2.5
 42
1.0
 43
7.0
 44
1.0
 45
0.0
 46
0.0
 47
0.1
 48
0.1000000001
140
2.5
141
0.0
142
0.0
143
0.0393701
144
1.0
145
0.0
146
0.71
147
1.0
 71
     0
 72
     0
 73
     0
 74
     0
 75
     0
 76
     0
 77
     3
 78
     8
170
     0
171
     2
172
     1
173
     0
174
     0
175
     0
176
   256
177
   256
178
     4
  0
DIMSTYLE
  2
AM_JIS$3
 70
     0
  3

  4
"
  5

  6

  7

 40
1.0
 41
2.5
 42
1.0
 43
7.0
 44
1.0
 45
0.0
 46
0.0
 47
0.1
 48
0.1000000001
140
2.5
141
0.0
142
0.0
143
0.0393701
144
1.0
145
0.0
146
0.71
147
1.0
 71
     0
 72
     0
 73
     0
 74
     1
 75
     0
 76
     0
 77
     3
 78
     8
170
     0
171
     2
172
     0
173
     0
174
     0
175
     0
176
   256
177
   256
178
     4
  0
DIMSTYLE
  2
AM_JIS$4
 70
     0
  3

  4
"
  5

  6

  7

 40
1.0
 41
2.5
 42
1.0
 43
7.0
 44
1.0
 45
0.0
 46
0.0
 47
0.1
 48
0.1000000001
140
2.5
141
0.0
142
0.0
143
0.0393701
144
1.0
145
0.0
146
0.71
147
1.0
 71
     0
 72
     0
 73
     0
 74
     0
 75
     0
 76
     0
 77
     3
 78
     8
170
     0
171
     2
172
     0
173
     0
174
     0
175
     0
176
   256
177
   256
178
     4
  0
DIMSTYLE
  2
AM_JIS$6
 70
     0
  3

  4
"
  5

  6

  7

 40
1.0
 41
2.5
 42
1.0
 43
7.0
 44
1.0
 45
0.0
 46
0.0
 47
0.1
 48
0.1000000001
140
2.5
141
0.0
142
0.0
143
0.0393701
144
1.0
145
0.0
146
0.71
147
1.0
 71
     0
 72
     0
 73
     0
 74
     0
 75
     0
 76
     0
 77
     0
 78
     8
170
     0
171
     2
172
     1
173
     0
174
     0
175
     0
176
   256
177
   256
178
     4
  0
DIMSTYLE
  2
AM_JIS$7
 70
     0
  3

  4
"
  5

  6

  7

 40
1.0
 41
2.5
 42
1.0
 43
7.0
 44
1.0
 45
0.0
 46
0.0
 47
0.1
 48
0.1000000001
140
2.5
141
0.0
142
0.0
143
0.0393701
144
1.0
145
0.0
146
0.71
147
1.0
 71
     0
 72
     0
 73
     0
 74
     0
 75
     0
 76
     0
 77
     3
 78
     8
170
     0
171
     2
172
     1
173
     0
174
     0
175
     0
176
   256
177
   256
178
     4
  0
DIMSTYLE
  2
AM_JIS$SF
 70
     0
  3

  4
"
  5

  6

  7

 40
1.0
 41
2.5
 42
1.0
 43
10.0
 44
1.0
 45
0.0
 46
0.0
 47
0.1
 48
0.1
140
3.5
141
0.0
142
0.0
143
0.0393701
144
1.0
145
0.0
146
0.71
147
1.5
 71
     0
 72
     0
 73
     0
 74
     0
 75
     1
 76
     1
 77
     3
 78
     8
170
     0
171
     2
172
     1
173
     0
174
     0
175
     0
176
   256
177
   256
178
     4
  0
DIMSTYLE
  2
AM_JIS$SH
 70
     0
  3

  4
"
  5

  6

  7

 40
1.0
 41
2.5
 42
1.0
 43
10.0
 44
1.0
 45
0.0
 46
0.0
 47
0.1
 48
0.1
140
3.5
141
0.0
142
0.0
143
0.0393701
144
1.0
145
0.0
146
0.71
147
1.5
 71
     0
 72
     0
 73
     0
 74
     0
 75
     1
 76
     0
 77
     3
 78
     8
170
     0
171
     2
172
     1
173
     1
174
     0
175
     0
176
   256
177
   256
178
     4
  0
DIMSTYLE
  2
AM_ANSI
 70
     0
  3

  4
mm
  5

  6

  7

 40
1.0
 41
0.1
 42
0.05
 43
0.5
 44
0.1
 45
0.0
 46
0.0
 47
0.1
 48
0.1
140
0.12
141
0.0
142
0.0
143
25.399999999999999
144
1.0
145
0.0
146
0.71
147
0.06
 71
     0
 72
     0
 73
     1
 74
     1
 75
     0
 76
     0
 77
     0
 78
     7
170
     0
171
     2
172
     0
173
     0
174
     0
175
     0
176
   256
177
   256
178
     2
  0
DIMSTYLE
  2
AM_ANSI$3
 70
     0
  3

  4
mm
  5

  6

  7

 40
1.0
 41
0.1
 42
0.05
 43
0.5
 44
0.1
 45
0.0
 46
0.0
 47
0.1
 48
0.1
140
0.12
141
0.0
142
0.0
143
25.399999999999999
144
1.0
145
0.0
146
0.71
147
0.06
 71
     0
 72
     0
 73
     1
 74
     1
 75
     0
 76
     0
 77
     0
 78
     7
170
     0
171
     2
172
     0
173
     0
174
     0
175
     0
176
   256
177
   256
178
     2
  0
DIMSTYLE
  2
AM_ANSI$4
 70
     0
  3

  4
mm
  5

  6

  7

 40
1.0
 41
0.1
 42
0.05
 43
0.5
 44
0.1
 45
0.0
 46
0.0
 47
0.1
 48
0.1
140
0.12
141
0.0
142
0.0
143
25.399999999999999
144
1.0
145
0.0
146
0.71
147
0.06
 71
     0
 72
     0
 73
     1
 74
     1
 75
     0
 76
     0
 77
     0
 78
     7
170
     0
171
     2
172
     0
173
     0
174
     0
175
     0
176
   256
177
   256
178
     2
  0
DIMSTYLE
  2
AM_ANSI$7
 70
     0
  3

  4
mm
  5

  6

  7

 40
1.0
 41
0.1
 42
0.05
 43
0.5
 44
0.1
 45
0.0
 46
0.0
 47
0.1
 48
0.1
140
0.24
141
0.0
142
0.0
143
25.399999999999999
144
1.0
145
0.0
146
0.71
147
0.06
 71
     0
 72
     0
 73
     1
 74
     1
 75
     0
 76
     0
 77
     0
 78
     7
170
     0
171
     2
172
     0
173
     0
174
     0
175
     0
176
   256
177
   256
178
     2
  0
DIMSTYLE
  2
AM_ANSI$SF
 70
     0
  3

  4
mm
  5

  6

  7

 40
1.0
 41
0.1
 42
0.05
 43
0.5
 44
0.1
 45
0.0
 46
0.0
 47
0.1
 48
0.1
140
0.12
141
0.0
142
0.0
143
25.399999999999999
144
1.0
145
0.0
146
0.71
147
0.06
 71
     0
 72
     0
 73
     1
 74
     1
 75
     1
 76
     1
 77
     0
 78
     7
170
     0
171
     2
172
     0
173
     0
174
     0
175
     0
176
   256
177
   256
178
     2
  0
DIMSTYLE
  2
AM_ANSI$SH
 70
     0
  3

  4
mm
  5

  6

  7

 40
1.0
 41
0.1
 42
0.05
 43
0.5
 44
0.1
 45
0.0
 46
0.0
 47
0.1
 48
0.1
140
0.12
141
0.0
142
0.0
143
25.399999999999999
144
1.0
145
0.0
146
0.71
147
0.06
 71
     0
 72
     0
 73
     1
 74
     1
 75
     1
 76
     1
 77
     0
 78
     7
170
     0
171
     2
172
     0
173
     1
174
     0
175
     0
176
   256
177
   256
178
     2
  0
ENDTAB
  0
ENDSEC
  0
SECTION
  2
BLOCKS
  0
BLOCK
  8
0
  2
$MODEL_SPACE
 70
     0
 10
0.0
 20
0.0
 30
0.0
  3
$MODEL_SPACE
  1

  0
ENDBLK
  5
32A9
  8
0
  0
BLOCK
 67
     1
  8
0
  2
$PAPER_SPACE
 70
     0
 10
0.0
 20
0.0
 30
0.0
  3
$PAPER_SPACE
  1

  0
ENDBLK
  5
32A5
 67
     1
  8
0
  0
BLOCK
  8
0
  2
GENAXEH
 70
     0
 10
0.0
 20
0.0
 30
0.0
  3
GENAXEH
  1

  0
LINE
  5
2FC2
  8
0
 10
-1.0
 20
0.0
 30
0.0
 11
1.0
 21
0.0
 31
0.0
  0
ENDBLK
  5
2FC3
  8
0
  0
BLOCK
  8
0
  2
_OPEN30
 70
     0
 10
0.0
 20
0.0
 30
0.0
  3
_OPEN30
  1

  0
LINE
  5
2FC6
  8
0
 62
     0
 10
-1.0
 20
0.26794919
 30
0.0
 11
0.0
 21
0.0
 31
0.0
  0
LINE
  5
2FC7
  8
0
 62
     0
 10
0.0
 20
0.0
 30
0.0
 11
-1.0
 21
-0.26794919
 31
0.0
  0
LINE
  5
2FC8
  8
0
 62
     0
 10
0.0
 20
0.0
 30
0.0
 11
-1.0
 21
0.0
 31
0.0
  0
ENDBLK
  5
2FC9
  8
0
  0
BLOCK
  8
0
  2
_NONE
 70
     0
 10
0.0
 20
0.0
 30
0.0
  3
_NONE
  1

  0
ENDBLK
  5
2FCC
  8
0
  0
BLOCK
  8
0
  2
*U5
 70
     1
 10
0.0
 20
0.0
 30
0.0
  3
*U5
  1

  0
TEXT
  5
2FCF
  8
AM_0
 62
     4
 10
1210.302356222646
 20
360.2828483333335
 30
0.0
 40
12.5
  1
175
 50
90.0
 41
0.8299999999999999
  0
TEXT
  5
2FD0
  8
AM_0
 62
     3
 10
1198.469022889313
 20
387.94951500000008
 30
0.0
 40
8.875
  1
 0
 50
90.0
 41
0.8299999999999999
  0
TEXT
  5
2FD1
  8
AM_0
 62
     3
 10
1210.302356222646
 20
387.94951500000008
 30
0.0
 40
8.875
  1
-0.5
 50
90.0
 41
0.8299999999999999
  0
ENDBLK
  5
2FD2
  8
0
  0
BLOCK
  8
0
  2
_ACMFILLEDHALF
 70
     0
 10
0.0
 20
0.0
 30
0.0
  3
_ACMFILLEDHALF
  1

  0
TRACE
  5
33A3
  8
AM_0
 62
     0
 10
-0.8
 20
0.0
 30
0.0
 11
-1.0
 21
0.166666666
 31
0.0
 12
0.0
 22
0.0
 32
0.0
 13
0.0
 23
0.0
 33
0.0
  0
LINE
  5
33A4
  8
AM_0
 62
     0
 10
-1.0
 20
0.0
 30
0.0
 11
-0.8
 21
0.0
 31
0.0
  0
ENDBLK
  5
33A2
  8
0
  0
ENDSEC
  0
SECTION
  2
ENTITIES
  0
LINE
  5
2FD3
  8
AM_0
 10
693.28579107612768
 20
451.0517049999998
 30
0.0
 11
693.28579107612768
 21
496.05170499999991
 31
0.0
  0
LINE
  5
2FD4
  8
AM_0
 10
381.78584107612778
 20
434.05170500000003
 30
0.0
 11
381.78584107612778
 21
503.7685419999998
 31
0.0
  0
LINE
  5
2FD5
  8
AM_0
 10
328.29214807612772
 20
490.21951599999989
 30
0.0
 11
328.29214807612772
 21
434.05170500000003
 31
0.0
  0
LINE
  5
2FD6
  8
AM_0
 10
297.28584107612772
 20
434.05170500000003
 30
0.0
 11
297.28584107612772
 21
469.05170500000003
 31
0.0
  0
LINE
  5
2FD7
  8
AM_0
 10
299.28584107612772
 20
434.05170500000003
 30
0.0
 11
299.28584107612772
 21
489.10361399999988
 31
0.0
  0
LINE
  5
2FD8
  8
AM_0
 10
399.78584107612772
 20
503.7685419999998
 30
0.0
 11
399.78584107612772
 21
350.52603399999992
 31
0.0
  0
LINE
  5
2FD9
  8
AM_0
 10
485.02159107612772
 20
545.69764999999995
 30
0.0
 11
485.02159107612772
 21
334.61410999999998
 31
0.0
  0
LINE
  5
2FDA
  8
AM_0
 10
401.78584107612761
 20
314.55169999999993
 30
0.0
 11
401.78584107612761
 21
553.55169999999976
 31
0.0
  0
LINE
  5
2FDB
  8
AM_0
 10
414.78579107612779
 20
316.55169999999993
 30
0.0
 11
414.78579107612779
 21
552.05169999999987
 31
0.0
  0
LINE
  5
2FDC
  8
AM_0
 10
488.28579107612762
 20
338.82589999999999
 30
0.0
 11
488.28579107612762
 21
561.66639999999995
 31
0.0
  0
LINE
  5
2FDD
  8
AM_0
 10
619.28584107612755
 20
472.05170500000003
 30
0.0
 11
619.28584107612755
 21
438.29434999999989
 31
0.0
  0
LINE
  5
2FDE
  8
AM_0
 10
591.28579107612757
 20
375.64956999999993
 30
0.0
 11
591.28579107612757
 21
547.89710000000002
 31
0.0
  0
LINE
  5
2FDF
  8
AM_0
 10
613.28579107612757
 20
472.05170500000003
 30
0.0
 11
613.28579107612757
 21
325.79770500000001
 31
0.0
  0
LINE
  5
2FE0
  8
AM_0
 10
571.28579107612757
 20
506.22455000000002
 30
0.0
 11
571.28579107612757
 21
330.05173000000002
 31
0.0
  0
LINE
  5
2FE1
  8
AM_0
 10
516.28579107612757
 20
452.06348499999967
 30
0.0
 11
516.28579107612757
 21
535.37599999999998
 31
0.0
  0
LINE
  5
2FE2
  8
AM_0
 10
501.28579107612762
 20
355.60010499999993
 30
0.0
 11
501.28579107612762
 21
564.05169999999998
 31
0.0
  0
LINE
  5
2FE3
  8
AM_0
 10
623.28579107612768
 20
449.55170500000003
 30
0.0
 11
623.28579107612768
 21
494.55170500000003
 31
0.0
  0
LINE
  5
2FE4
  8
ﾁｭｳｼﾝｾﾝ
 10
226.35269262869161
 20
434.05170500000003
 30
0.0
 11
460.34820996261033
 21
434.05170500000003
 31
0.0
  0
LINE
  5
2FE5
  8
AM_0
 10
235.28584107612761
 20
454.55170499999991
 30
0.0
 11
280.28584107612772
 21
454.55170499999991
 31
0.0
  0
LINE
  5
2FE6
  8
AM_0
 10
235.28584107612761
 20
451.55170500000003
 30
0.0
 11
293.28584107612772
 21
451.55170500000003
 31
0.0
  0
LINE
  5
2FE7
  8
AM_0
 10
293.28584107612772
 20
416.55170500000003
 30
0.0
 11
235.28584107612761
 21
416.55170500000003
 31
0.0
  0
LINE
  5
2FE8
  8
AM_0
 10
235.28584107612761
 20
416.55170500000003
 30
0.0
 11
235.28584107612761
 21
451.55170500000003
 31
0.0
  0
LINE
  5
2FE9
  8
AM_0
 10
235.28584107612761
 20
451.55170500000003
 30
0.0
 11
235.28584107612761
 21
454.55170499999991
 31
0.0
  0
LINE
  5
2FEA
  8
AM_0
 10
488.28579107612762
 20
449.06348500000001
 30
0.0
 11
501.28579107612762
 21
449.06348500000001
 31
0.0
  0
LINE
  5
2FEB
  8
AM_0
 10
488.28579107612762
 20
417.44140999999991
 30
0.0
 11
513.28579107612757
 21
417.44140999999991
 31
0.0
  0
LINE
  5
2FEC
  8
AM_0
 10
505.23784107612772
 20
360.69955999999979
 30
0.0
 11
477.68779107612772
 21
325.15112999999991
 31
0.0
  0
LINE
  5
2FED
  8
AM_0
 10
427.28579107612779
 20
297.05169999999998
 30
0.0
 11
619.28584107612755
 21
297.05169999999998
 31
0.0
  0
LINE
  5
2FEE
  8
AM_0
 10
381.78584107612778
 20
333.96968499999991
 30
0.0
 11
381.78584107612778
 21
317.05170500000008
 31
0.0
  0
LINE
  5
2FEF
  8
AM_0
 10
427.28579107612779
 20
318.05172999999991
 30
0.0
 11
427.28579107612779
 21
297.05169999999998
 31
0.0
  0
LINE
  5
2FF0
  8
ﾁｭｳｼﾝｾﾝ1
 10
448.28579107612768
 20
325.90185999999972
 30
0.0
 11
448.28579107612768
 21
290.07617499999998
 31
0.0
  0
LINE
  5
2FF1
  8
ｶｸﾚｾﾝ2
 10
457.78579107612762
 20
322.05169999999998
 30
0.0
 11
457.78579107612762
 21
297.05169999999998
 31
0.0
  0
LINE
  5
2FF2
  8
ｶｸﾚｾﾝ2
 10
438.78579107612762
 20
322.05169999999998
 30
0.0
 11
438.78579107612762
 21
297.05169999999998
 31
0.0
  0
LINE
  5
2FF3
  8
AM_0
 10
401.78584107612761
 20
314.55169999999993
 30
0.0
 11
412.78574107612769
 21
314.55169999999993
 31
0.0
  0
LINE
  5
2FF4
  8
AM_0
 10
384.78584107612772
 20
314.05170500000008
 30
0.0
 11
399.78584107612772
 21
314.05170500000008
 31
0.0
  0
ARC
  5
2FF5
  8
AM_0
 10
384.78584107612772
 20
317.05170500000008
 30
0.0
 40
3.0
 50
180.0
 51
270.0
  0
LINE
  5
2FF6
  8
AM_0
 10
401.78584107612761
 20
316.05170500000008
 30
0.0
 11
399.78584107612772
 21
314.05170500000008
 31
0.0
  0
ARC
  5
2FF7
  8
AM_0
 10
412.78574107612769
 20
316.55169999999993
 30
0.0
 40
2.0000000500000001
 50
270.0
 51
0.0
  0
LINE
  5
2FF8
  8
AM_0
 10
381.78584107612778
 20
364.33486799999991
 30
0.0
 11
374.82387207612771
 21
364.33486799999991
 31
0.0
  0
ARC
  5
2FF9
  8
AM_0
 10
377.83044007612762
 20
352.52603399999992
 30
0.0
 40
3.0
 50
184.99999999999969
 51
270.0
  0
ARC
  5
2FFA
  8
AM_0
 10
377.89583907612757
 20
336.96968499999991
 30
0.0
 40
3.0
 50
184.99999999999969
 51
270.0
  0
LINE
  5
2FFB
  8
AM_0
 10
380.32137507612771
 20
323.51617099999982
 30
0.0
 11
331.14904507612772
 21
372.68850200000003
 31
0.0
  0
LINE
  5
2FFC
  8
AM_0
 10
299.28584107612772
 20
434.05170500000003
 30
0.0
 11
299.28584107612772
 21
378.99979699999989
 31
0.0
  0
LINE
  5
2FFD
  8
AM_0
 10
328.29214807612772
 20
377.88389499999988
 30
0.0
 11
328.29214807612772
 21
434.05170500000003
 31
0.0
  0
LINE
  5
2FFE
  8
AM_0
 10
302.23348407612758
 20
376.00025399999993
 30
0.0
 11
324.25250107612771
 21
375.61591099999998
 31
0.0
  0
ARC
  5
2FFF
  8
AM_0
 10
302.28584107612772
 20
378.99979699999989
 30
0.0
 40
3.0
 50
180.0
 51
268.99999999999812
  0
LINE
  5
3000
  8
AM_0
 10
373.78584107612778
 20
364.33486799999991
 30
0.0
 11
374.84185507612767
 21
352.264567
 31
0.0
  0
LINE
  5
3001
  8
AM_0
 10
373.78584107612778
 20
349.52603399999992
 30
0.0
 11
374.90725407612769
 21
336.70821699999982
 31
0.0
  0
ARC
  5
3002
  8
AM_0
 10
324.07797707612758
 20
365.617434
 30
0.0
 40
10.0
 50
45.0
 51
89.000000000001506
  0
LINE
  5
3003
  8
AM_0
 10
297.28584107612772
 20
434.05170500000003
 30
0.0
 11
297.28584107612772
 21
399.05170500000003
 31
0.0
  0
LINE
  5
3004
  8
AM_0
 10
293.28584107612772
 20
454.05170500000003
 30
0.0
 11
293.28584107612772
 21
414.05170500000003
 31
0.0
  0
LINE
  5
3005
  8
AM_0
 10
293.28584107612772
 20
414.05170500000003
 30
0.0
 11
297.28584107612772
 21
414.05170500000003
 31
0.0
  0
LINE
  5
3006
  8
AM_0
 10
297.28584107612772
 20
399.05170500000003
 30
0.0
 11
299.28584107612772
 21
397.05170500000003
 31
0.0
  0
LINE
  5
3007
  8
AM_0
 10
293.28584107612772
 20
454.05170500000003
 30
0.0
 11
297.28584107612772
 21
454.05170500000003
 31
0.0
  0
LINE
  5
3008
  8
AM_0
 10
280.28584107612772
 20
454.55170499999991
 30
0.0
 11
280.28584107612772
 21
451.55170500000003
 31
0.0
  0
LINE
  5
3009
  8
AM_0
 10
381.78584107612778
 20
434.05170500000003
 30
0.0
 11
381.78584107612778
 21
350.52603399999992
 31
0.0
  0
LINE
  5
300A
  8
AM_0
 10
414.78579107612779
 20
363.1189
 30
0.0
 11
485.02159107612772
 21
363.1189
 31
0.0
  0
LINE
  5
300B
  8
AM_0
 10
414.78579107612779
 20
347.37677500000001
 30
0.0
 11
485.02159107612772
 21
347.37677500000001
 31
0.0
  0
LINE
  5
300C
  8
AM_0
 10
419.78579107612768
 20
323.55169999999993
 30
0.0
 11
476.02814107612789
 21
323.55169999999993
 31
0.0
  0
LINE
  5
300D
  8
AM_0
 10
431.28579107612768
 20
322.05169999999998
 30
0.0
 11
471.36449107612771
 21
322.05169999999998
 31
0.0
  0
LINE
  5
300E
  8
AM_0
 10
401.78584107612761
 20
334.3245
 30
0.0
 11
412.78574107612769
 21
334.3245
 31
0.0
  0
LINE
  5
300F
  8
AM_0
 10
401.78584107612761
 20
349.88083499999999
 30
0.0
 11
412.78574107612769
 21
349.88083499999999
 31
0.0
  0
LINE
  5
3010
  8
AM_0
 10
377.89583907612757
 20
333.96968499999991
 30
0.0
 11
401.78584107612761
 21
333.96968499999991
 31
0.0
  0
ARC
  5
3011
  8
AM_0
 10
376.78584107612772
 20
319.980638
 30
0.0
 40
5.0
 50
0.0
 51
45.0
  0
ARC
  5
3012
  8
AM_0
 10
380.78584107612772
 20
350.52603399999992
 30
0.0
 40
1.0
 50
270.0
 51
0.0
  0
LINE
  5
3013
  8
AM_0
 10
377.83044007612762
 20
349.52603399999992
 30
0.0
 11
380.78584107612772
 21
349.52603399999992
 31
0.0
  0
LINE
  5
3014
  8
AM_0
 10
377.88357707612772
 20
336.88641799999999
 30
0.0
 11
377.84036107612769
 21
347.16602799999998
 31
0.0
  0
ARC
  5
3015
  8
AM_0
 10
400.78584107612778
 20
350.52603399999992
 30
0.0
 40
1.0
 50
180.0
 51
270.0
  0
LINE
  5
3016
  8
AM_0
 10
400.78584107612778
 20
349.52603399999992
 30
0.0
 11
401.78584107612761
 21
349.52603399999992
 31
0.0
  0
ARC
  5
3017
  8
AM_0
 10
412.78574107612769
 20
336.32447000000002
 30
0.0
 40
2.0000000500000001
 50
270.0
 51
0.0
  0
ARC
  5
3018
  8
AM_0
 10
419.78579107612768
 20
318.55169999999993
 30
0.0
 40
5.0
 50
90.000003000000007
 51
180.00001
  0
ARC
  5
3019
  8
AM_0
 10
431.28579107612768
 20
318.05172999999991
 30
0.0
 40
4.000000049999997
 50
90.000003000000007
 51
180.00001
  0
ARC
  5
301A
  8
AM_0
 10
412.78574107612769
 20
351.88083499999999
 30
0.0
 40
2.0000000500000001
 50
270.0
 51
0.0
  0
LINE
  5
301B
  8
AM_0
 10
402.76464107612787
 20
359.61475000000002
 30
0.0
 11
413.79359107612748
 21
359.61475000000002
 31
0.0
  0
LINE
  5
301C
  8
AM_0
 10
401.78584107612761
 20
364.33486799999991
 30
0.0
 11
399.78584107612772
 21
364.33486799999991
 31
0.0
  0
LINE
  5
301D
  8
AM_0
 10
384.78584107612772
 20
381.972892
 30
0.0
 11
396.78584107612772
 21
381.972892
 31
0.0
  0
ARC
  5
301E
  8
AM_0
 10
384.78584107612772
 20
384.972892
 30
0.0
 40
3.0
 50
180.0
 51
270.0
  0
ARC
  5
301F
  8
AM_0
 10
396.78584107612772
 20
384.972892
 30
0.0
 40
3.0
 50
270.0
 51
0.0
  0
ARC
  5
3020
  8
AM_0
 10
471.36449107612771
 20
330.05173000000002
 30
0.0
 40
8.0
 50
270.0
 51
322.22431999999992
  0
LINE
  5
3021
  8
AM_0
 10
383.89449407612773
 20
393.13695799999999
 30
0.0
 11
397.55229807612773
 21
393.13695799999999
 31
0.0
  0
LINE
  5
3022
  8
ﾁｭｳｼﾝｾﾝ1
 10
598.28579107612768
 20
325.90185999999972
 30
0.0
 11
598.28579107612768
 21
290.07617499999998
 31
0.0
  0
LINE
  5
3023
  8
AM_0
 10
619.28584107612755
 20
318.05172999999991
 30
0.0
 11
619.28584107612755
 21
297.05169999999998
 31
0.0
  0
LINE
  5
3024
  8
ｶｸﾚｾﾝ2
 10
588.78579107612757
 20
322.05169999999998
 30
0.0
 11
588.78579107612757
 21
297.05169999999998
 31
0.0
  0
LINE
  5
3025
  8
ｶｸﾚｾﾝ2
 10
607.78579107612757
 20
322.05169999999998
 30
0.0
 11
607.78579107612757
 21
297.05169999999998
 31
0.0
  0
LINE
  5
3026
  8
AM_0
 10
579.28584107612778
 20
322.05169999999998
 30
0.0
 11
615.28579107612768
 21
322.05169999999998
 31
0.0
  0
LINE
  5
3027
  8
AM_0
 10
506.28579107612768
 20
407.86362500000001
 30
0.0
 11
506.28579107612768
 21
363.76239500000003
 31
0.0
  0
ARC
  5
3028
  8
AM_0
 10
501.28579107612762
 20
363.76239500000003
 30
0.0
 40
5.0
 50
322.22431999999992
 51
0.0
  0
ARC
  5
3029
  8
AM_0
 10
579.28584107612778
 20
330.05173000000002
 30
0.0
 40
8.0
 50
180.00001
 51
270.0
  0
ARC
  5
302A
  8
AM_0
 10
583.28579107612757
 20
375.64956999999993
 30
0.0
 40
8.0
 50
270.0
 51
0.0
  0
LINE
  5
302B
  8
AM_0
 10
583.28579107612757
 20
367.64956999999993
 30
0.0
 11
574.76904107612756
 21
367.64956999999993
 31
0.0
  0
ARC
  5
302C
  8
AM_0
 10
526.28579107612757
 20
434.05170500000003
 30
0.0
 40
10.0
 50
306.82303999999999
 51
41.102821999999989
  0
LINE
  5
302D
  8
AM_0
 10
520.78579107612757
 20
446.53952500000003
 30
0.0
 11
520.78579107612757
 21
419.42737499999981
 31
0.0
  0
ARC
  5
302E
  8
AM_0
 10
513.28579107612757
 20
414.44137999999992
 30
0.0
 40
3.0000000500000001
 50
0.0
 51
90.000003000000007
  0
LINE
  5
302F
  8
AM_0
 10
516.28579107612757
 20
414.44137999999992
 30
0.0
 11
516.28579107612757
 21
407.86362500000001
 31
0.0
  0
LINE
  5
3030
  8
AM_0
 10
506.28579107612768
 20
407.86362500000001
 30
0.0
 11
516.28579107612757
 21
407.86362500000001
 31
0.0
  0
LINE
  5
3031
  8
AM_0
 10
519.04344107612769
 20
416.13678499999992
 30
0.0
 11
532.27929107612772
 21
426.04675999999989
 31
0.0
  0
ARC
  5
3032
  8
AM_0
 10
513.28579107612757
 20
452.06348499999967
 30
0.0
 40
3.0000000500000001
 50
270.0
 51
0.0
  0
LINE
  5
3033
  8
AM_0
 10
501.28579107612762
 20
449.06348500000001
 30
0.0
 11
513.28579107612757
 21
449.06348500000001
 31
0.0
  0
LINE
  5
3034
  8
AM_0
 10
521.68244107612782
 20
454.53924999999998
 30
0.0
 11
533.82104107612781
 21
440.62585999999999
 31
0.0
  0
ARC
  5
3035
  8
AM_0
 10
519.42179107612776
 20
452.56699500000002
 30
0.0
 40
3.0000000500000001
 50
41.102821999999989
 51
90.000003000000007
  0
ARC
  5
3036
  8
AM_0
 10
617.28579107612779
 20
325.79770500000001
 30
0.0
 40
4.000000049999997
 50
179.99998999999991
 51
255.52249
  0
ARC
  5
3037
  8
AM_0
 10
615.28579107612768
 20
318.05172999999991
 30
0.0
 40
4.000000049999997
 50
0.0
 51
90.000003000000007
  0
LINE
  5
3038
  8
AM_0
 10
623.28579107612768
 20
451.0517049999998
 30
0.0
 11
693.28579107612768
 21
451.0517049999998
 31
0.0
  0
ARC
  5
3039
  8
AM_0
 10
616.28579107612757
 20
429.80909000000003
 30
0.0
 40
3.0000000500000001
 50
135.0
 51
180.00001
  0
ARC
  5
303A
  8
AM_0
 10
616.28579107612757
 20
438.29434999999989
 30
0.0
 40
3.0000000500000001
 50
315.0
 51
0.0
  0
LINE
  5
303B
  8
AM_0
 10
614.16454107612765
 20
431.93033500000013
 30
0.0
 11
618.40719107612756
 21
436.17297999999988
 31
0.0
  0
LINE
  5
303C
  8
AM_0
 10
619.28584107612755
 20
449.55170500000003
 30
0.0
 11
623.28579107612768
 21
449.55170500000003
 31
0.0
  0
LINE
  5
303D
  8
AM_0
 10
485.28564107612772
 20
572.55169999999987
 30
0.0
 11
492.78904107612772
 21
571.16634999999985
 31
0.0
  0
LINE
  5
303E
  8
AM_0
 10
477.46864107612771
 20
571.05169999999998
 30
0.0
 11
493.10284107612762
 21
571.05169999999998
 31
0.0
  0
CIRCLE
  5
303F
  8
AM_0
 10
485.28579107612768
 20
585.05169999999987
 30
0.0
 40
12.5
  0
ARC
  5
3040
  8
AM_0
 10
490.28579107612768
 20
561.66639999999995
 30
0.0
 40
2.0000000500000001
 50
91.999997999999948
 51
180.00001
  0
LINE
  5
3041
  8
AM_0
 10
501.28579107612762
 20
556.63499999999988
 30
0.0
 11
488.28579107612762
 21
556.63499999999988
 31
0.0
  0
LINE
  5
3042
  8
AM_0
 10
475.2856910761277
 20
564.05169999999998
 30
0.0
 11
501.28579107612762
 21
564.05169999999998
 31
0.0
  0
LINE
  5
3043
  8
AM_0
 10
488.28579107612762
 20
538.37599999999986
 30
0.0
 11
501.28579107612762
 21
538.37599999999986
 31
0.0
  0
ARC
  5
3044
  8
AM_0
 10
485.28579107612768
 20
585.05169999999987
 30
0.0
 40
20.500000499999992
 50
304.61363999999992
 51
235.38634999999999
  0
LINE
  5
3045
  8
ﾁｭｳｼﾝｾﾝ
 10
431.31023624651192
 20
472.05170500000003
 30
0.0
 11
701.23019107612765
 21
472.05170500000003
 31
0.0
  0
ARC
  5
3046
  8
AM_0
 10
377.89583907612757
 20
531.13372600000002
 30
0.0
 40
3.0
 50
90.0
 51
175.00000000000011
  0
ARC
  5
3047
  8
AM_0
 10
377.83044007612762
 20
515.57737699999996
 30
0.0
 40
3.0
 50
90.0
 51
175.00000000000011
  0
LINE
  5
3048
  8
AM_0
 10
400.60562607612758
 20
503.7685419999998
 30
0.0
 11
374.82387207612771
 21
503.7685419999998
 31
0.0
  0
LINE
  5
3049
  8
AM_0
 10
380.32137507612771
 20
544.58723899999995
 30
0.0
 11
331.14904507612772
 21
495.41490900000002
 31
0.0
  0
LINE
  5
304A
  8
AM_0
 10
302.23348407612758
 20
492.10315699999973
 30
0.0
 11
324.25250107612771
 21
492.48750000000001
 31
0.0
  0
LINE
  5
304B
  8
AM_0
 10
297.28584107612772
 20
469.05170500000003
 30
0.0
 11
299.28584107612772
 21
471.05170499999991
 31
0.0
  0
ARC
  5
304C
  8
AM_0
 10
302.28584107612772
 20
489.10361399999988
 30
0.0
 40
3.0
 50
90.999999999998494
 51
180.0
  0
ARC
  5
304D
  8
AM_0
 10
324.07797707612758
 20
502.48597699999988
 30
0.0
 40
10.0
 50
270.99999999999841
 51
315.0
  0
LINE
  5
304E
  8
AM_0
 10
373.78584107612778
 20
503.7685419999998
 30
0.0
 11
374.84185507612767
 21
515.83884399999965
 31
0.0
  0
LINE
  5
304F
  8
AM_0
 10
373.78584107612778
 20
518.57737699999996
 30
0.0
 11
374.90725407612769
 21
531.39519299999995
 31
0.0
  0
LINE
  5
3050
  8
AM_0
 10
381.78584107612778
 20
534.13372600000002
 30
0.0
 11
381.78584107612778
 21
561.19009299999993
 31
0.0
  0
LINE
  5
3051
  8
AM_0
 10
399.78584107612772
 20
534.13372600000002
 30
0.0
 11
399.78584107612772
 21
561.19009299999993
 31
0.0
  0
LINE
  5
3052
  8
AM_0
 10
414.78579107612779
 20
520.72654999999997
 30
0.0
 11
485.02159107612772
 21
520.72654999999997
 31
0.0
  0
LINE
  5
3053
  8
AM_0
 10
414.78579107612779
 20
504.98450500000001
 30
0.0
 11
485.02159107612772
 21
504.98450500000001
 31
0.0
  0
LINE
  5
3054
  8
AM_0
 10
402.76464107612787
 20
508.48865000000001
 30
0.0
 11
413.79359107612748
 21
508.48865000000001
 31
0.0
  0
LINE
  5
3055
  8
AM_0
 10
401.78584107612761
 20
518.22254999999996
 30
0.0
 11
412.78574107612769
 21
518.22254999999996
 31
0.0
  0
LINE
  5
3056
  8
AM_0
 10
401.78584107612761
 20
533.77894999999955
 30
0.0
 11
412.78574107612769
 21
533.77894999999955
 31
0.0
  0
LINE
  5
3057
  8
AM_0
 10
377.89583907612757
 20
534.13372600000002
 30
0.0
 11
401.78584107612761
 21
534.13372600000002
 31
0.0
  0
LINE
  5
3058
  8
AM_0
 10
377.83044007612762
 20
518.57737699999996
 30
0.0
 11
401.78584107612761
 21
518.57737699999996
 31
0.0
  0
LINE
  5
3059
  8
AM_0
 10
377.88357707612772
 20
531.216993
 30
0.0
 11
377.84036107612769
 21
520.93738299999995
 31
0.0
  0
ARC
  5
305A
  8
AM_0
 10
412.78574107612769
 20
516.22254999999996
 30
0.0
 40
2.0000000500000001
 50
0.0
 51
90.000003000000007
  0
ARC
  5
305B
  8
AM_0
 10
412.78574107612769
 20
531.77890000000002
 30
0.0
 40
2.0000000500000001
 50
0.0
 51
90.000003000000007
  0
LINE
  5
305C
  8
AM_0
 10
419.78579107612768
 20
544.55169999999976
 30
0.0
 11
481.83624107612769
 21
544.55169999999976
 31
0.0
  0
LINE
  5
305D
  8
AM_0
 10
401.78584107612761
 20
553.55169999999976
 30
0.0
 11
412.78574107612769
 21
553.55169999999976
 31
0.0
  0
LINE
  5
305E
  8
AM_0
 10
399.78584107612772
 20
554.05170499999997
 30
0.0
 11
401.78584107612761
 21
552.05170500000008
 31
0.0
  0
LINE
  5
305F
  8
AM_0
 10
382.91959507612762
 20
544.80020599999989
 30
0.0
 11
398.61545407612778
 21
544.80020599999989
 31
0.0
  0
ARC
  5
3060
  8
AM_0
 10
376.78584107612772
 20
548.12277300000005
 30
0.0
 40
5.0
 50
315.0
 51
0.0
  0
LINE
  5
3061
  8
AM_0
 10
384.78584107612772
 20
564.19009299999982
 30
0.0
 11
396.78584107612772
 21
564.19009299999982
 31
0.0
  0
ARC
  5
3062
  8
AM_0
 10
384.78584107612772
 20
561.19009299999993
 30
0.0
 40
3.0
 50
90.0
 51
180.0
  0
ARC
  5
3063
  8
AM_0
 10
396.78584107612772
 20
561.19009299999993
 30
0.0
 40
3.0
 50
0.0
 51
90.0
  0
ARC
  5
3064
  8
AM_0
 10
412.78574107612769
 20
551.55169999999998
 30
0.0
 40
2.0000000500000001
 50
0.0
 51
90.000003000000007
  0
ARC
  5
3065
  8
AM_0
 10
419.78579107612768
 20
549.55169999999976
 30
0.0
 40
5.0
 50
179.99998999999991
 51
270.0
  0
ARC
  5
3066
  8
AM_0
 10
477.96394107612758
 20
570.18294999999955
 30
0.0
 40
1.0
 50
100.4607199999999
 51
164.99999
  0
LINE
  5
3067
  8
AM_0
 10
474.28584107612778
 20
549.55169999999976
 30
0.0
 11
474.28584107612778
 21
562.05169999999976
 31
0.0
  0
ARC
  5
3068
  8
AM_0
 10
469.28584107612772
 20
549.55169999999976
 30
0.0
 40
5.0
 50
270.0
 51
0.0
  0
ARC
  5
3069
  8
AM_0
 10
485.28579107612768
 20
552.21680000000003
 30
0.0
 40
3.0000000500000001
 50
335.0
 51
0.0
  0
LINE
  5
306A
  8
AM_0
 10
486.36779107612767
 20
547.43859999999995
 30
0.0
 11
488.00469107612781
 21
550.94889999999998
 31
0.0
  0
ARC
  5
306B
  8
AM_0
 10
481.83624107612769
 20
549.55169999999976
 30
0.0
 40
5.0
 50
270.0
 51
335.0
  0
ARC
  5
306C
  8
AM_0
 10
476.28579107612762
 20
562.05169999999976
 30
0.0
 40
2.0000000500000001
 50
90.000003000000007
 51
180.00001
  0
ARC
  5
306D
  8
AM_0
 10
471.36879107612782
 20
564.88819999999976
 30
0.0
 40
4.000000049999997
 50
347.92932999999999
 51
55.386358999999992
  0
LINE
  5
306E
  8
AM_0
 10
475.2856910761277
 20
564.05165
 30
0.0
 11
476.99794107612757
 21
570.44179999999994
 31
0.0
  0
LINE
  5
306F
  8
AM_0
 10
477.78239107612762
 20
571.16634999999985
 30
0.0
 11
485.28584107612772
 21
572.55169999999987
 31
0.0
  0
LINE
  5
3070
  8
AM_0
 10
599.28584107612778
 20
532.05169999999976
 30
0.0
 11
610.28579107612768
 21
532.05169999999976
 31
0.0
  0
ARC
  5
3071
  8
AM_0
 10
599.28584107612778
 20
540.05169999999976
 30
0.0
 40
8.0
 50
180.00001
 51
270.0
  0
ARC
  5
3072
  8
AM_0
 10
526.28579107612757
 20
541.87189999999998
 30
0.0
 40
10.0
 50
288.46821
 51
59.833878000000013
  0
LINE
  5
3073
  8
AM_0
 10
520.78579107612757
 20
533.52734999999996
 30
0.0
 11
520.78579107612757
 21
554.70055000000002
 31
0.0
  0
ARC
  5
3074
  8
AM_0
 10
520.29809107612778
 20
532.49199999999985
 30
0.0
 40
3.0000000500000001
 50
270.0
 51
288.46821999999992
  0
LINE
  5
3075
  8
AM_0
 10
517.65224107612755
 20
528.44550000000004
 30
0.0
 11
529.45359107612774
 21
532.38690000000008
 31
0.0
  0
ARC
  5
3076
  8
AM_0
 10
581.28579107612768
 20
506.22455000000002
 30
0.0
 40
10.0
 50
90.000003000000007
 51
180.00001
  0
LINE
  5
3077
  8
AM_0
 10
586.34404107612761
 20
516.22455000000002
 30
0.0
 11
581.28579107612768
 21
516.22455000000002
 31
0.0
  0
LINE
  5
3078
  8
AM_0
 10
518.21599107612792
 20
558.17430000000002
 30
0.0
 11
583.56494107612775
 21
555.89229999999998
 31
0.0
  0
ARC
  5
3079
  8
AM_0
 10
492.60769107612782
 20
570.18294999999955
 30
0.0
 40
1.0
 50
15.0
 51
79.539281000000003
  0
ARC
  5
307A
  8
AM_0
 10
518.28579107612768
 20
560.1730500000001
 30
0.0
 40
2.0000000500000001
 50
179.99998999999991
 51
268.00000999999992
  0
LINE
  5
307B
  8
AM_0
 10
501.28579107612762
 20
556.63499999999988
 30
0.0
 11
519.97724107612783
 21
556.63499999999988
 31
0.0
  0
ARC
  5
307C
  8
AM_0
 10
513.28579107612757
 20
535.37599999999998
 30
0.0
 40
3.0000000500000001
 50
0.0
 51
90.000003000000007
  0
LINE
  5
307D
  8
AM_0
 10
501.28579107612762
 20
538.37599999999986
 30
0.0
 11
513.28579107612757
 21
538.37599999999986
 31
0.0
  0
LINE
  5
307E
  8
AM_0
 10
501.28579107612762
 20
564.05169999999998
 30
0.0
 11
514.35559107612778
 21
563.59529999999995
 31
0.0
  0
LINE
  5
307F
  8
AM_0
 10
489.54174107612772
 20
555.2952499999999
 30
0.0
 11
516.28579107612757
 21
555.2952499999999
 31
0.0
  0
LINE
  5
3080
  8
AM_0
 10
495.28569107612759
 20
564.05169999999998
 30
0.0
 11
493.57354107612758
 21
570.44169999999986
 31
0.0
  0
LINE
  5
3081
  8
AM_0
 10
490.21594107612771
 20
563.66510000000005
 30
0.0
 11
501.28579107612762
 21
564.05169999999998
 31
0.0
  0
ARC
  5
3082
  8
AM_0
 10
499.20269107612768
 20
564.88819999999976
 30
0.0
 40
4.000000049999997
 50
124.61365000000001
 51
187.86822000000001
  0
ARC
  5
3083
  8
AM_0
 10
514.28584107612755
 20
561.59649999999999
 30
0.0
 40
2.0000000500000001
 50
0.0
 51
88.0
  0
LINE
  5
3084
  8
AM_0
 10
516.28579107612757
 20
556.63499999999988
 30
0.0
 11
516.28579107612757
 21
561.59649999999999
 31
0.0
  0
LINE
  5
3085
  8
AM_0
 10
521.48479107612775
 20
556.22869999999955
 30
0.0
 11
531.31084107612776
 21
550.51759999999956
 31
0.0
  0
ARC
  5
3086
  8
AM_0
 10
519.97724107612783
 20
553.63499999999965
 30
0.0
 40
3.0000000500000001
 50
59.833878000000013
 51
90.000003000000007
  0
ARC
  5
3087
  8
AM_0
 10
583.28579107612757
 20
547.89710000000002
 30
0.0
 40
8.0
 50
0.0
 51
88.0
  0
LINE
  5
3088
  8
AM_0
 10
623.28579107612768
 20
493.05173499999989
 30
0.0
 11
693.28579107612768
 21
493.05173499999989
 31
0.0
  0
LINE
  5
3089
  8
AM_0
 10
637.28579107612757
 20
496.05170499999991
 30
0.0
 11
693.28579107612768
 21
496.05170499999991
 31
0.0
  0
LINE
  5
308A
  8
AM_0
 10
619.28584107612755
 20
472.05170500000003
 30
0.0
 11
619.28584107612755
 21
511.80909999999989
 31
0.0
  0
LINE
  5
308B
  8
AM_0
 10
613.28579107612757
 20
472.05170500000003
 30
0.0
 11
613.28579107612757
 21
529.05169999999998
 31
0.0
  0
LINE
  5
308C
  8
AM_0
 10
619.28584107612755
 20
494.55170500000003
 30
0.0
 11
623.28579107612768
 21
494.55170500000003
 31
0.0
  0
LINE
  5
308D
  8
AM_0
 10
637.28579107612757
 20
496.05170499999991
 30
0.0
 11
637.28579107612757
 21
493.05173499999989
 31
0.0
  0
LINE
  5
308E
  8
AM_0
 10
614.16449107612777
 20
518.17299999999989
 30
0.0
 11
618.40719107612756
 21
513.93034999999986
 31
0.0
  0
ARC
  5
308F
  8
AM_0
 10
616.28579107612757
 20
511.80909999999989
 30
0.0
 40
3.0000000500000001
 50
0.0
 51
45.00000099999999
  0
ARC
  5
3090
  8
AM_0
 10
616.28579107612757
 20
520.29430000000002
 30
0.0
 40
3.0000000500000001
 50
179.99998999999991
 51
225.0
  0
ARC
  5
3091
  8
AM_0
 10
610.28579107612768
 20
529.05169999999998
 30
0.0
 40
3.0000000500000001
 50
0.0
 51
90.000003000000007
  0
LINE
  5
3092
  8
ﾁｭｳｼﾝｾﾝ
 10
949.91410939821139
 20
609.80996442860999
 30
0.0
 11
949.91410939821139
 21
296.08212500000002
 31
0.0
  0
LINE
  5
3093
  8
AM_0
 10
855.91410439821141
 20
515.68655000000001
 30
0.0
 11
855.91410439821141
 21
400.0418449999998
 31
0.0
  0
LINE
  5
3094
  8
AM_0
 10
1043.91410939821
 20
515.68655000000001
 30
0.0
 11
1043.91410939821
 21
396.43707999999992
 31
0.0
  0
ARC
  5
3095
  8
AM_0
 10
949.91410939821139
 20
472.05170500000003
 30
0.0
 40
20.9999985
 50
106.60155
 51
73.398452000000006
  0
ARC
  5
3096
  8
AM_0
 10
949.91410939821139
 20
434.05170500000003
 30
0.0
 40
130.0
 50
127.3754999999999
 51
172.62448999999989
  0
ARC
  5
3097
  8
AM_0
 10
949.91410939821139
 20
434.05170500000003
 30
0.0
 40
124.5
 50
7.1014839000000007
 51
172.89851999999991
  0
CIRCLE
  5
3098
  8
AM_0
 10
949.91410939821139
 20
472.05170500000003
 30
0.0
 40
41.000000499999992
  0
ARC
  5
3099
  8
AM_0
 10
949.91410939821139
 20
444.05170500000003
 30
0.0
 40
88.0
 50
0.0
 51
186.52497999999991
  0
ARC
  5
309A
  8
AM_0
 10
949.91410939821139
 20
434.05170500000003
 30
0.0
 40
130.0
 50
7.3755071999999986
 51
52.624493999999991
  0
ARC
  5
309B
  8
AM_0
 10
1077.18083439821
 20
457.99820499999993
 30
0.0
 40
5.0
 50
190.65618000000001
 51
225.0
  0
LINE
  5
309C
  8
ﾁｭｳｼﾝｾﾝ
 10
805.64854439821136
 20
434.05170500000003
 30
0.0
 11
1093.768584398211
 21
434.05170500000003
 31
0.0
  0
LINE
  5
309D
  8
AM_0
 10
1034.91410939821
 20
297.05169999999998
 30
0.0
 11
1089.914124398211
 21
297.05169999999998
 31
0.0
  0
LINE
  5
309E
  8
AM_0
 10
1045.91410939821
 20
322.05169999999998
 30
0.0
 11
1084.914124398211
 21
322.05169999999998
 31
0.0
  0
LINE
  5
309F
  8
AM_0
 10
809.91409439821143
 20
297.05169999999998
 30
0.0
 11
864.91410439821141
 21
297.05169999999998
 31
0.0
  0
LINE
  5
30A0
  8
AM_0
 10
814.9140943982112
 20
322.05169999999998
 30
0.0
 11
857.2141243982112
 21
322.05169999999998
 31
0.0
  0
LINE
  5
30A1
  8
ｶｸﾚｾﾝ2
 10
825.41410439821141
 20
322.05169999999998
 30
0.0
 11
825.41410439821141
 21
297.05169999999998
 31
0.0
  0
LINE
  5
30A2
  8
ｶｸﾚｾﾝ2
 10
844.41413439821144
 20
322.05169999999998
 30
0.0
 11
844.41413439821144
 21
297.05169999999998
 31
0.0
  0
LINE
  5
30A3
  8
ﾁｭｳｼﾝｾﾝ1
 10
834.91410439821129
 20
325.90185999999972
 30
0.0
 11
834.91410439821129
 21
290.07617499999998
 31
0.0
  0
ARC
  5
30A4
  8
AM_0
 10
814.9140943982112
 20
317.05169999999993
 30
0.0
 40
5.0
 50
90.000003000000007
 51
180.00001
  0
LINE
  5
30A5
  8
AM_0
 10
826.36915439821144
 20
449.44327499999991
 30
0.0
 11
809.95244439821136
 21
317.66983499999992
 31
0.0
  0
LINE
  5
30A6
  8
AM_0
 10
809.91409439821143
 20
317.05169999999993
 30
0.0
 11
809.91409439821143
 21
297.05169999999998
 31
0.0
  0
LINE
  5
30A7
  8
AM_0
 10
812.84309439821129
 20
426.98059499999999
 30
0.0
 11
820.6540643982114
 21
419.16962499999988
 31
0.0
  0
ARC
  5
30A8
  8
AM_0
 10
949.91410939821139
 20
434.05170500000003
 30
0.0
 40
130.0
 50
187.37550999999999
 51
189.62446
  0
ARC
  5
30A9
  8
AM_0
 10
817.1184943982114
 20
415.63412999999991
 30
0.0
 40
5.0
 50
352.89852000000002
 51
45.00000099999999
  0
ARC
  5
30AA
  8
AM_0
 10
816.03109439821139
 20
416.72153500000002
 30
0.0
 40
5.0
 50
7.3755080999999967
 51
45.00000099999999
  0
LINE
  5
30AB
  8
AM_0
 10
812.84309439821129
 20
441.12271999999979
 30
0.0
 11
826.18299439821135
 21
454.462625
 31
0.0
  0
ARC
  5
30AC
  8
AM_0
 10
819.91410439821141
 20
434.05170500000003
 30
0.0
 40
10.0
 50
135.0
 51
225.0
  0
ARC
  5
30AD
  8
AM_0
 10
816.03109439821139
 20
451.38187499999992
 30
0.0
 40
5.0
 50
315.0
 51
352.62448999999998
  0
ARC
  5
30AE
  8
AM_0
 10
822.64738439821133
 20
457.99820499999993
 30
0.0
 40
5.0
 50
315.0
 51
349.34381999999982
  0
LINE
  5
30AF
  8
ｶｸﾚｾﾝ2
 10
1055.41410939821
 20
322.05169999999998
 30
0.0
 11
1055.41410939821
 21
297.05169999999998
 31
0.0
  0
LINE
  5
30B0
  8
ﾁｭｳｼﾝｾﾝ1
 10
1064.914124398211
 20
325.90185999999972
 30
0.0
 11
1064.914124398211
 21
290.07617499999998
 31
0.0
  0
LINE
  5
30B1
  8
AM_0
 10
1038.614119398211
 20
318.05172999999991
 30
0.0
 11
1038.614119398211
 21
297.05169999999998
 31
0.0
  0
LINE
  5
30B2
  8
AM_0
 10
861.21412439821131
 20
318.05172999999991
 30
0.0
 11
861.21412439821131
 21
297.05169999999998
 31
0.0
  0
ARC
  5
30B3
  8
AM_0
 10
882.91410439821129
 20
309.05169999999993
 30
0.0
 40
8.0
 50
90.000003000000007
 51
177.00553999999991
  0
ARC
  5
30B4
  8
AM_0
 10
1016.9141093982111
 20
309.05169999999993
 30
0.0
 40
8.0
 50
2.9944643999999991
 51
90.000003000000007
  0
LINE
  5
30B5
  8
AM_0
 10
868.91410439821152
 20
302.05169999999993
 30
0.0
 11
1031.27989439821
 21
302.05169999999993
 31
0.0
  0
LINE
  5
30B6
  8
AM_0
 10
882.91410439821129
 20
317.05169999999993
 30
0.0
 11
1016.9141093982111
 21
317.05169999999993
 31
0.0
  0
LINE
  5
30B7
  8
AM_0
 10
879.55964439821139
 20
311.78238499999992
 30
0.0
 11
1020.268569398211
 21
311.78238499999992
 31
0.0
  0
ARC
  5
30B8
  8
AM_0
 10
879.55964439821139
 20
306.78238499999992
 30
0.0
 40
5.0
 50
90.000003000000007
 51
166.18078
  0
ARC
  5
30B9
  8
AM_0
 10
868.91410439821152
 20
298.05172999999979
 30
0.0
 40
4.000000049999997
 50
99.488295999999963
 51
180.00001
  0
LINE
  5
30BA
  8
AM_0
 10
864.91410439821141
 20
298.05172999999979
 30
0.0
 11
864.91410439821141
 21
297.05169999999998
 31
0.0
  0
ARC
  5
30BB
  8
AM_0
 10
866.93595439821138
 20
309.88754499999982
 30
0.0
 40
8.0
 50
279.48829999999998
 51
357.00554
  0
ARC
  5
30BC
  8
AM_0
 10
1030.91410939821
 20
298.05172999999979
 30
0.0
 40
4.000000049999997
 50
0.0
 51
80.511701999999985
  0
LINE
  5
30BD
  8
AM_0
 10
1034.91410939821
 20
298.05172999999979
 30
0.0
 11
1034.91410939821
 21
297.05169999999998
 31
0.0
  0
ARC
  5
30BE
  8
AM_0
 10
1032.892289398211
 20
309.88754499999982
 30
0.0
 40
8.0
 50
182.99446
 51
260.51170000000002
  0
ARC
  5
30BF
  8
AM_0
 10
1020.268569398211
 20
306.78238499999992
 30
0.0
 40
5.0
 50
13.819217
 51
90.000003000000007
  0
LINE
  5
30C0
  8
AM_0
 10
861.91413439821122
 20
434.05170500000003
 30
0.0
 11
861.91413439821122
 21
330.05173000000002
 31
0.0
  0
ARC
  5
30C1
  8
AM_0
 10
949.91410939821139
 20
400.0418449999998
 30
0.0
 40
93.999994999999984
 50
179.99998999999991
 51
200.58195999999981
  0
ARC
  5
30C2
  8
AM_0
 10
857.2141243982112
 20
318.05172999999991
 30
0.0
 40
4.000000049999997
 50
0.0
 51
90.000003000000007
  0
ARC
  5
30C3
  8
AM_0
 10
853.91410439821141
 20
330.05173000000002
 30
0.0
 40
8.0
 50
270.0
 51
0.0
  0
LINE
  5
30C4
  8
AM_0
 10
1037.91410939821
 20
444.05170500000003
 30
0.0
 11
1037.91410939821
 21
330.05173000000002
 31
0.0
  0
ARC
  5
30C5
  8
AM_0
 10
949.91410939821139
 20
400.0418449999998
 30
0.0
 40
93.999994999999984
 50
339.95001999999982
 51
20.049976000000001
  0
ARC
  5
30C6
  8
AM_0
 10
1045.91410939821
 20
330.05173000000002
 30
0.0
 40
8.0
 50
180.00001
 51
270.0
  0
ARC
  5
30C7
  8
AM_0
 10
1042.614119398211
 20
318.05172999999991
 30
0.0
 40
4.000000049999997
 50
90.000003000000007
 51
180.00001
  0
ARC
  5
30C8
  8
AM_0
 10
1042.91410939821
 20
366.10074499999979
 30
0.0
 40
5.0
 50
159.95003
 51
180.00001
  0
ARC
  5
30C9
  8
AM_0
 10
1042.91410939821
 20
433.98298
 30
0.0
 40
5.0
 50
179.99998999999991
 51
200.04997
  0
LINE
  5
30CA
  8
ｶｸﾚｾﾝ2
 10
1074.41410939821
 20
322.05169999999998
 30
0.0
 11
1074.41410939821
 21
297.05169999999998
 31
0.0
  0
LINE
  5
30CB
  8
AM_0
 10
1073.4590443982111
 20
449.44330500000001
 30
0.0
 11
1089.875764398211
 21
317.6698649999999
 31
0.0
  0
ARC
  5
30CC
  8
AM_0
 10
1084.914124398211
 20
317.05169999999993
 30
0.0
 40
5.0
 50
0.0
 51
90.000003000000007
  0
LINE
  5
30CD
  8
AM_0
 10
1089.914124398211
 20
317.05169999999993
 30
0.0
 11
1089.914124398211
 21
297.05169999999998
 31
0.0
  0
LINE
  5
30CE
  8
AM_0
 10
1086.985184398211
 20
426.98062999999991
 30
0.0
 11
1079.17420939821
 21
419.16965499999992
 31
0.0
  0
ARC
  5
30CF
  8
AM_0
 10
949.91410939821139
 20
434.05170500000003
 30
0.0
 40
130.0
 50
350.37554999999998
 51
352.62448999999998
  0
ARC
  5
30D0
  8
AM_0
 10
1082.70973439821
 20
415.63412999999991
 30
0.0
 40
5.0
 50
135.0
 51
187.1014899999999
  0
ARC
  5
30D1
  8
AM_0
 10
1083.797134398211
 20
416.72153500000002
 30
0.0
 40
5.0
 50
135.0
 51
172.62448999999989
  0
LINE
  5
30D2
  8
AM_0
 10
1086.985184398211
 20
441.12277999999981
 30
0.0
 11
1073.6453093982111
 21
454.46265499999998
 31
0.0
  0
ARC
  5
30D3
  8
AM_0
 10
1079.914124398211
 20
434.05170500000003
 30
0.0
 40
10.0
 50
315.0
 51
45.00000099999999
  0
ARC
  5
30D4
  8
AM_0
 10
1083.797134398211
 20
451.38187499999992
 30
0.0
 40
5.0
 50
187.37550999999999
 51
225.0
  0
LINE
  5
30D5
  8
ﾁｭｳｼﾝｾﾝ
 10
877.42467496528946
 20
472.05170500000003
 30
0.0
 11
1022.298235216136
 21
472.05170500000003
 31
0.0
  0
ARC
  5
30D6
  8
AM_0
 10
949.91410939821139
 20
434.05170500000003
 30
0.0
 40
130.0
 50
67.375506000000001
 51
112.62448999999999
  0
LINE
  5
30D7
  8
AM_0
 10
875.25486439821123
 20
549.22319999999991
 30
0.0
 11
870.37214439821139
 21
531.00054999999986
 31
0.0
  0
ARC
  5
30D8
  8
AM_0
 10
865.54246439821134
 20
532.29459999999995
 30
0.0
 40
5.0
 50
310.65618000000001
 51
345.0
  0
CIRCLE
  5
30D9
  8
AM_0
 10
949.91410939821139
 20
472.05170500000003
 30
0.0
 40
3.5000000500000001
  0
CIRCLE
  5
30DA
  8
AM_5
 10
949.91410939821139
 20
472.05170500000003
 30
0.0
 40
5.0
  0
LINE
  5
30DB
  8
AM_0
 10
943.91410939821117
 20
496.05170499999991
 30
0.0
 11
955.91410939821139
 21
496.05170499999991
 31
0.0
  0
LINE
  5
30DC
  8
AM_0
 10
943.91410939821117
 20
488.05173499999989
 30
0.0
 11
955.91410939821139
 21
488.05173499999989
 31
0.0
  0
LINE
  5
30DD
  8
AM_0
 10
943.91410939821117
 20
496.05170499999991
 30
0.0
 11
943.91410939821117
 21
488.05173499999989
 31
0.0
  0
LINE
  5
30DE
  8
AM_0
 10
955.91410939821139
 20
496.05170499999991
 30
0.0
 11
955.91410939821139
 21
488.05173499999989
 31
0.0
  0
ARC
  5
30DF
  8
AM_0
 10
907.0190243982114
 20
556.24114999999995
 30
0.0
 40
5.0
 50
255.0
 51
289.34381999999982
  0
ARC
  5
30E0
  8
AM_0
 10
884.91410439821129
 20
546.6350000000001
 30
0.0
 40
10.0
 50
74.999999000000003
 51
164.99999
  0
ARC
  5
30E1
  8
AM_0
 10
867.96424439821135
 20
541.33269999999993
 30
0.0
 40
5.0
 50
307.37551000000002
 51
345.0
  0
LINE
  5
30E2
  8
AM_0
 10
887.50233439821136
 20
556.29424999999992
 30
0.0
 11
905.7249293982112
 21
551.41155000000003
 31
0.0
  0
ARC
  5
30E3
  8
AM_0
 10
897.98096939821153
 20
558.66290000000004
 30
0.0
 40
5.0
 50
255.0
 51
292.62448999999998
  0
LINE
  5
30E4
  8
AM_0
 10
945.91410939821094
 20
601.05169999999998
 30
0.0
 11
945.91410939821094
 21
567.55169999999998
 31
0.0
  0
LINE
  5
30E5
  8
AM_0
 10
953.91410939821094
 20
601.05169999999998
 30
0.0
 11
953.91410939821094
 21
567.55169999999998
 31
0.0
  0
LINE
  5
30E6
  8
AM_0
 10
945.91410939821094
 20
571.31320000000005
 30
0.0
 11
942.41068939821105
 21
570.66634999999985
 31
0.0
  0
LINE
  5
30E7
  8
AM_0
 10
953.91410939821094
 20
571.31320000000005
 30
0.0
 11
957.41749439821126
 21
570.66639999999995
 31
0.0
  0
LINE
  5
30E8
  8
AM_0
 10
939.94553939821139
 20
563.66894999999988
 30
0.0
 11
941.62635939821121
 21
569.94179999999994
 31
0.0
  0
ARC
  5
30E9
  8
AM_0
 10
943.91410939821117
 20
567.55169999999998
 30
0.0
 40
2.0000000500000001
 50
270.0
 51
0.0
  0
ARC
  5
30EA
  8
AM_0
 10
942.59226939821144
 20
569.68294999999966
 30
0.0
 40
1.0
 50
100.4607199999999
 51
164.99999
  0
LINE
  5
30EB
  8
AM_0
 10
959.88270439821122
 20
563.66894999999988
 30
0.0
 11
958.20188939821105
 21
569.94184999999982
 31
0.0
  0
ARC
  5
30EC
  8
AM_0
 10
955.91410939821139
 20
567.55169999999998
 30
0.0
 40
2.0000000500000001
 50
179.99998999999991
 51
270.0
  0
ARC
  5
30ED
  8
AM_0
 10
957.23597439821151
 20
569.68294999999966
 30
0.0
 40
1.0
 50
15.0
 51
79.539281000000003
  0
ARC
  5
30EE
  8
AM_0
 10
949.91410939821139
 20
601.05169999999998
 30
0.0
 40
4.000000049999997
 50
359.99998999999991
 51
179.99998999999991
  0
LINE
  5
30EF
  8
AM_0
 10
1024.573379398211
 20
549.22315000000003
 30
0.0
 11
1029.4560993982111
 21
531.00054999999986
 31
0.0
  0
ARC
  5
30F0
  8
AM_0
 10
1034.285749398211
 20
532.29459999999995
 30
0.0
 40
5.0
 50
195.00001
 51
229.34381999999991
  0
ARC
  5
30F1
  8
AM_0
 10
1014.9141093982111
 20
546.6350000000001
 30
0.0
 40
10.0
 50
15.0
 51
104.9999999999998
  0
LINE
  5
30F2
  8
AM_0
 10
1012.325944398211
 20
556.29419999999993
 30
0.0
 11
994.10328439821114
 21
551.41150000000005
 31
0.0
  0
ARC
  5
30F3
  8
AM_0
 10
992.80921939821155
 20
556.24114999999995
 30
0.0
 40
5.0
 50
250.65617999999989
 51
285.0
  0
ARC
  5
30F4
  8
AM_0
 10
1001.847244398211
 20
558.66290000000004
 30
0.0
 40
5.0
 50
247.37550999999991
 51
285.0
  0
ARC
  5
30F5
  8
AM_0
 10
1031.863999398211
 20
541.33269999999993
 30
0.0
 40
5.0
 50
195.00001
 51
232.62450000000001
  0
LINE
  5
30F7
  8
AM_0
 10
623.2858210761276
 20
836.17193292541742
 30
0.0
 11
693.28579107612768
 21
836.17193292541742
 31
0.0
  0
LINE
  5
30F8
  8
AM_0
 10
623.2858210761276
 20
878.17193292541742
 30
0.0
 11
693.28579107612768
 21
878.17193292541742
 31
0.0
  0
LINE
  5
30F9
  8
ﾁｭｳｼﾝｾﾝ
 10
226.35269262869161
 20
857.17193292541754
 30
0.0
 11
704.79976107612765
 21
857.17193292541754
 31
0.0
  0
POLYLINE
  5
30FA
  8
AM_0
 66
     1
 10
0.0
 20
0.0
 30
0.0
  0
VERTEX
  5
30FB
  8
AM_0
 10
521.21551107612765
 20
777.44038292541745
 30
0.0
 42
0.11075717
  0
VERTEX
  5
30FC
  8
AM_0
 10
534.09645107612778
 20
787.34816292541745
 30
0.0
 42
0.20375769
  0
VERTEX
  5
30FD
  8
AM_0
 10
536.35418107612725
 20
795.0136329254176
 30
0.0
  0
VERTEX
  5
30FE
  8
AM_0
 10
521.58438107612778
 20
813.92878292541752
 30
0.0
 42
-1.0
  0
SEQEND
  5
30FF
  8
AM_0
  0
ARC
  5
3100
  8
AM_0
 10
514.2858210761276
 20
807.60736292541753
 30
0.0
 40
2.0
 50
270.0
 51
0.0
  0
LINE
  5
3101
  8
AM_0
 10
485.0215310761277
 20
842.06274292541764
 30
0.0
 11
485.0215310761277
 21
745.52600292541763
 31
0.0
  0
LINE
  5
3102
  8
AM_0
 10
401.78575107612772
 20
737.67193292541754
 30
0.0
 11
401.78575107612772
 21
976.67193292541765
 31
0.0
  0
LINE
  5
3103
  8
AM_0
 10
414.78569107612759
 20
739.67193292541754
 30
0.0
 11
414.78569107612759
 21
975.17193292541765
 31
0.0
  0
LINE
  5
3104
  8
AM_0
 10
520.78582107612738
 20
779.60614292541743
 30
0.0
 11
520.78582107612738
 21
805.60736292541753
 31
0.0
  0
LINE
  5
3105
  8
AM_0
 10
591.28582107612749
 20
766.17193292541754
 30
0.0
 11
591.28582107612749
 21
948.17193292541754
 31
0.0
  0
LINE
  5
3106
  8
AM_0
 10
501.2858210761276
 20
717.43390292541756
 30
0.0
 11
501.2858210761276
 21
853.17187292541712
 31
0.0
  0
LINE
  5
3107
  8
AM_0
 10
613.2858210761276
 20
943.05249292541748
 30
0.0
 11
613.2858210761276
 21
771.29132292541749
 31
0.0
  0
LINE
  5
3108
  8
AM_0
 10
488.28569107612759
 20
720.96209292541744
 30
0.0
 11
488.28569107612759
 21
847.63250292541761
 31
0.0
  0
ARC
  5
3109
  8
AM_0
 10
448.28582107612772
 20
742.17193292541754
 30
0.0
 40
9.5
 50
151.72621999999819
 51
28.27376899999852
  0
ARC
  5
310A
  8
ｶｸﾚｾﾝ2
 10
448.28582107612772
 20
742.17193292541754
 30
0.0
 40
9.5
 50
28.273775999995959
 51
151.72621999999819
  0
LINE
  5
310B
  8
AM_0
 10
414.78569107612759
 20
770.49701292541761
 30
0.0
 11
485.0215310761277
 21
770.49701292541761
 31
0.0
  0
LINE
  5
310C
  8
AM_0
 10
414.78569107612759
 20
786.23913292541761
 30
0.0
 11
485.0215310761277
 21
786.23913292541761
 31
0.0
  0
LINE
  5
310D
  8
AM_0
 10
419.78569107612759
 20
746.67193292541754
 30
0.0
 11
481.83617107612758
 21
746.67193292541754
 31
0.0
  0
LINE
  5
310E
  8
AM_0
 10
431.07640107612769
 20
721.11346292541759
 30
0.0
 11
506.28575107612761
 21
717.17193292541765
 31
0.0
  0
ARC
  5
310F
  8
AM_0
 10
412.78575107612772
 20
739.67193292541754
 30
0.0
 40
2.0
 50
270.0
 51
0.0
  0
LINE
  5
3110
  8
AM_0
 10
427.28582107612772
 20
725.10797292541747
 30
0.0
 11
427.28582107612772
 21
746.67193292541754
 31
0.0
  0
LINE
  5
3111
  8
AM_0
 10
401.78575107612772
 20
737.67193292541754
 30
0.0
 11
412.78575107612772
 21
737.67193292541754
 31
0.0
  0
ARC
  5
3112
  8
AM_0
 10
431.2858210761276
 20
725.10797292541747
 30
0.0
 40
4.0
 50
180.00001000000091
 51
266.99999000000008
  0
LINE
  5
3113
  8
AM_0
 10
401.78575107612772
 20
757.44470292541723
 30
0.0
 11
412.78575107612772
 21
757.44470292541723
 31
0.0
  0
LINE
  5
3114
  8
AM_0
 10
401.78575107612772
 20
773.00103292541746
 30
0.0
 11
412.78575107612772
 21
773.00103292541746
 31
0.0
  0
LINE
  5
3115
  8
AM_0
 10
402.7646410761277
 20
782.73498292541763
 30
0.0
 11
413.79351107612769
 21
782.73498292541763
 31
0.0
  0
ARC
  5
3116
  8
AM_0
 10
419.78569107612759
 20
741.67193292541754
 30
0.0
 40
5.0
 50
90.00000299999769
 51
180.00001000000091
  0
ARC
  5
3117
  8
AM_0
 10
412.78575107612772
 20
759.44470292541723
 30
0.0
 40
2.0
 50
270.0
 51
0.0
  0
ARC
  5
3118
  8
AM_0
 10
412.78575107612772
 20
775.00110292541763
 30
0.0
 40
2.0
 50
270.0
 51
0.0
  0
ARC
  5
3119
  8
AM_0
 10
545.72515107612776
 20
724.00384292541764
 30
0.0
 40
10.0
 50
91.999998000000545
 51
136.5170399999985
  0
LINE
  5
311A
  8
AM_0
 10
518.21605107612766
 20
734.61248292541745
 30
0.0
 11
542.81902107612746
 21
735.47162292541759
 31
0.0
  0
LINE
  5
311B
  8
AM_0
 10
506.28575107612761
 20
717.17193292541765
 30
0.0
 11
615.42534107612778
 21
720.98315292541747
 31
0.0
  0
LINE
  5
311C
  8
AM_0
 10
516.28582107612749
 20
730.49676292541744
 30
0.0
 11
516.28582107612749
 21
777.60614292541743
 31
0.0
  0
LINE
  5
311D
  8
AM_0
 10
490.21599107612769
 20
728.42810292541753
 30
0.0
 11
501.28575107612772
 21
728.04156292541745
 31
0.0
  0
ARC
  5
311E
  8
AM_0
 10
491.28569107612759
 20
720.96209292541744
 30
0.0
 40
3.0
 50
180.00001000000091
 51
266.99999000000008
  0
LINE
  5
311F
  8
AM_0
 10
488.28575107612772
 20
727.42492292541749
 30
0.0
 11
480.90715107612772
 21
726.50067292541712
 31
0.0
  0
ARC
  5
3120
  8
AM_0
 10
480.2858210761276
 20
731.46197292541763
 30
0.0
 40
5.0
 50
180.00001000000091
 51
277.13983000000007
  0
ARC
  5
3121
  8
AM_0
 10
490.28582107612772
 20
730.42694292541762
 30
0.0
 40
2.0
 50
179.9999899999988
 51
268.00000999999861
  0
ARC
  5
3122
  8
AM_0
 10
518.2858210761276
 20
732.61371292541764
 30
0.0
 40
2.0
 50
91.999998000000545
 51
180.00001000000091
  0
ARC
  5
3123
  8
AM_0
 10
514.2858210761276
 20
730.49676292541744
 30
0.0
 40
2.0
 50
272.00000000000369
 51
0.0
  0
LINE
  5
3124
  8
AM_0
 10
501.28575107612772
 20
728.04156292541745
 30
0.0
 11
514.35558107612746
 21
728.49792292541758
 31
0.0
  0
ARC
  5
3125
  8
AM_0
 10
521.84648107612736
 20
727.88989292541748
 30
0.0
 40
10.0
 50
272.00000000000369
 51
316.51703999999847
  0
LINE
  5
3126
  8
AM_0
 10
520.78582107612738
 20
720.93475292541746
 30
0.0
 11
520.78582107612738
 21
732.96710292541763
 31
0.0
  0
LINE
  5
3127
  8
AM_0
 10
529.10222107612765
 20
721.00848292541764
 30
0.0
 11
538.46935107612762
 21
730.8852529254176
 31
0.0
  0
LINE
  5
3128
  8
AM_0
 10
488.28569107612759
 20
779.60614292541743
 30
0.0
 11
514.2858210761276
 21
779.60614292541743
 31
0.0
  0
ARC
  5
3129
  8
AM_0
 10
481.83617107612758
 20
741.67193292541754
 30
0.0
 40
5.0
 50
24.99999999999935
 51
90.00000299999769
  0
ARC
  5
312A
  8
AM_0
 10
485.28575107612772
 20
739.0068329254176
 30
0.0
 40
3.0
 50
0.0
 51
24.99999999999935
  0
LINE
  5
312B
  8
AM_0
 10
486.36779107612767
 20
743.78497292541761
 30
0.0
 11
488.00463107612768
 21
740.27472292541745
 31
0.0
  0
ARC
  5
312C
  8
AM_0
 10
514.2858210761276
 20
777.60614292541743
 30
0.0
 40
2.0
 50
0.0
 51
90.00000299999769
  0
ARC
  5
312D
  8
AM_0
 10
520.31389107612767
 20
779.22564292541745
 30
0.0
 40
2.0
 50
270.0
 51
296.80019999999712
  0
ARC
  5
312E
  8
AM_0
 10
563.2858210761276
 20
742.62811292541744
 30
0.0
 40
8.0
 50
272.00000000000369
 51
0.0
  0
CIRCLE
  5
312F
  8
AM_0
 10
598.2858210761276
 20
742.17193292541754
 30
0.0
 40
9.5
  0
LINE
  5
3130
  8
AM_0
 10
571.28582107612726
 20
724.61944292541762
 30
0.0
 11
571.28582107612726
 21
742.62811292541744
 31
0.0
  0
LINE
  5
3131
  8
ﾁｭｳｼﾝｾﾝ1
 10
598.2858210761276
 20
724.67193292541754
 30
0.0
 11
598.2858210761276
 21
759.67193292541754
 31
0.0
  0
LINE
  5
3132
  8
AM_0
 10
619.2858210761276
 20
724.98071292541749
 30
0.0
 11
619.2858210761276
 21
764.36310292541759
 31
0.0
  0
LINE
  5
3133
  8
AM_0
 10
545.37609107612775
 20
733.99780292541743
 30
0.0
 11
563.56493107612766
 21
734.63293292541744
 31
0.0
  0
ARC
  5
3134
  8
AM_0
 10
576.2858210761276
 20
724.61944292541762
 30
0.0
 40
5.0
 50
180.00001000000091
 51
271.99999000000139
  0
ARC
  5
3135
  8
AM_0
 10
615.2858210761276
 20
724.98071292541749
 30
0.0
 40
4.0
 50
272.00000000000369
 51
0.0
  0
ARC
  5
3136
  8
AM_0
 10
583.28582107612738
 20
766.17193292541754
 30
0.0
 40
8.0
 50
270.0
 51
0.0
  0
LINE
  5
3137
  8
ﾁｭｳｼﾝｾﾝ1
 10
580.7858210761276
 20
742.17193292541754
 30
0.0
 11
615.7858210761276
 21
742.17193292541754
 31
0.0
  0
ARC
  5
3138
  8
AM_0
 10
581.2858210761276
 20
748.17193292541754
 30
0.0
 40
10.0
 50
90.00000299999769
 51
180.00001000000091
  0
LINE
  5
3139
  8
AM_0
 10
571.28582107612726
 20
748.17193292541754
 30
0.0
 11
571.28582107612726
 21
742.62811292541744
 31
0.0
  0
LINE
  5
313A
  8
AM_0
 10
581.2858210761276
 20
758.17193292541754
 30
0.0
 11
583.28582107612738
 21
758.17193292541754
 31
0.0
  0
ARC
  5
313B
  8
AM_0
 10
598.8899410761278
 20
762.6350729254176
 30
0.0
 40
8.0
 50
91.999998000000545
 51
167.22924999999881
  0
ARC
  5
313C
  8
AM_0
 10
608.28582107612738
 20
775.97113292541758
 30
0.0
 40
5.0
 50
272.00000000000369
 51
0.0
  0
LINE
  5
313D
  8
AM_0
 10
598.61077107612766
 20
770.63018292541744
 30
0.0
 11
608.46025107612763
 21
770.97418292541761
 31
0.0
  0
ARC
  5
313E
  8
AM_0
 10
615.2858210761276
 20
764.36310292541759
 30
0.0
 40
4.0
 50
0.0
 51
81.786789000000198
  0
ARC
  5
313F
  8
AM_0
 10
616.28582107612749
 20
771.29132292541749
 30
0.0
 40
3.0
 50
180.00001000000091
 51
261.78677999999701
  0
ARC
  5
3140
  8
ｶｸﾚｾﾝ2
 10
448.28582107612772
 20
972.17193292541765
 30
0.0
 40
9.5
 50
208.27378000000169
 51
331.72621999999808
  0
ARC
  5
3141
  8
AM_0
 10
448.28582107612772
 20
972.17193292541765
 30
0.0
 40
9.5
 50
331.72621999999808
 51
208.27378000000169
  0
LINE
  5
3142
  8
AM_0
 10
414.78569107612759
 20
928.10473292541758
 30
0.0
 11
485.0215310761277
 21
928.10473292541758
 31
0.0
  0
LINE
  5
3143
  8
AM_0
 10
414.78569107612759
 20
943.84680292541782
 30
0.0
 11
485.0215310761277
 21
943.84680292541782
 31
0.0
  0
LINE
  5
3144
  8
AM_0
 10
419.78569107612759
 20
967.67193292541765
 30
0.0
 11
481.83617107612758
 21
967.67193292541765
 31
0.0
  0
LINE
  5
3145
  8
AM_0
 10
431.07640107612769
 20
993.23034292541763
 30
0.0
 11
506.28575107612761
 21
997.17187292541757
 31
0.0
  0
ARC
  5
3146
  8
AM_0
 10
412.78575107612772
 20
939.34277292541765
 30
0.0
 40
2.0
 50
0.0
 51
90.00000299999769
  0
LINE
  5
3147
  8
AM_0
 10
402.7646410761277
 20
931.60888292541745
 30
0.0
 11
413.79351107612769
 21
931.60888292541745
 31
0.0
  0
LINE
  5
3148
  8
AM_0
 10
401.78575107612772
 20
976.67193292541765
 30
0.0
 11
412.78575107612772
 21
976.67193292541765
 31
0.0
  0
LINE
  5
3149
  8
AM_0
 10
401.78575107612772
 20
956.89917292541747
 30
0.0
 11
412.78575107612772
 21
956.89917292541747
 31
0.0
  0
LINE
  5
314A
  8
AM_0
 10
401.78575107612772
 20
941.34277292541765
 30
0.0
 11
412.78575107612772
 21
941.34277292541765
 31
0.0
  0
ARC
  5
314B
  8
AM_0
 10
412.78575107612772
 20
974.67193292541742
 30
0.0
 40
2.0
 50
0.0
 51
90.00000299999769
  0
LINE
  5
314C
  8
AM_0
 10
427.28582107612772
 20
989.23584292541761
 30
0.0
 11
427.28582107612772
 21
967.67193292541765
 31
0.0
  0
ARC
  5
314D
  8
AM_0
 10
412.78575107612772
 20
954.89911292541763
 30
0.0
 40
2.0
 50
0.0
 51
90.00000299999769
  0
ARC
  5
314E
  8
AM_0
 10
419.78569107612759
 20
972.67193292541765
 30
0.0
 40
5.0
 50
179.9999899999988
 51
270.0
  0
ARC
  5
314F
  8
AM_0
 10
431.2858210761276
 20
989.23584292541761
 30
0.0
 40
4.0
 50
92.999999000001679
 51
180.00001000000091
  0
ARC
  5
3150
  8
AM_0
 10
608.28582107612738
 20
938.37268292541751
 30
0.0
 40
5.0
 50
0.0
 51
87.999999999996248
  0
LINE
  5
3151
  8
AM_0
 10
485.0215310761277
 20
968.81787292541753
 30
0.0
 11
485.0215310761277
 21
872.28112292541743
 31
0.0
  0
LINE
  5
3152
  8
AM_0
 10
488.28569107612759
 20
866.71130292541761
 30
0.0
 11
488.28569107612759
 21
993.3816529254176
 31
0.0
  0
LINE
  5
3153
  8
AM_0
 10
501.2858210761276
 20
861.17187292541746
 30
0.0
 11
501.2858210761276
 21
996.90985292541745
 31
0.0
  0
LINE
  5
3154
  8
AM_0
 10
516.28582107612749
 20
983.84704292541755
 30
0.0
 11
516.28582107612749
 21
936.73767292541766
 31
0.0
  0
LINE
  5
3155
  8
AM_0
 10
516.28582107612749
 20
807.60736292541753
 30
0.0
 11
516.28582107612749
 21
906.73645292541755
 31
0.0
  0
ARC
  5
3156
  8
AM_0
 10
485.2858210761276
 20
857.17193292541754
 30
0.0
 40
10.0
 50
203.5782699999985
 51
336.4217200000013
  0
ARC
  5
3157
  8
AM_0
 10
485.2858210761276
 20
857.17193292541754
 30
0.0
 40
10.0
 50
23.57803699999776
 51
156.42196000000081
  0
LINE
  5
3158
  8
AM_0
 10
468.7858210761276
 20
861.17187292541746
 30
0.0
 11
501.7858210761276
 21
861.17187292541746
 31
0.0
  0
LINE
  5
3159
  8
AM_0
 10
468.7858210761276
 20
853.17187292541712
 30
0.0
 11
501.7858210761276
 21
853.17187292541712
 31
0.0
  0
LINE
  5
315A
  8
AM_0
 10
488.28569107612759
 20
805.60736292541753
 30
0.0
 11
514.2858210761276
 21
805.60736292541753
 31
0.0
  0
ARC
  5
315B
  8
AM_0
 10
468.7858210761276
 20
857.17187292541701
 30
0.0
 40
3.9999962
 50
90.00000299999769
 51
270.0
  0
ARC
  5
315C
  8
AM_0
 10
480.02153107612759
 20
842.06274292541764
 30
0.0
 40
5.0
 50
0.0
 51
70.790840000000372
  0
ARC
  5
315D
  8
AM_0
 10
485.2858210761276
 20
857.17193292541754
 30
0.0
 40
11.0
 50
201.32377999999781
 51
262.81880000000041
  0
ARC
  5
315E
  8
AM_0
 10
483.28569107612759
 20
841.29742292541744
 30
0.0
 40
5.0
 50
0.0
 51
82.818802999995938
  0
ARC
  5
315F
  8
AM_0
 10
480.02153107612759
 20
872.28112292541743
 30
0.0
 40
5.0
 50
289.2091599999996
 51
0.0
  0
ARC
  5
3160
  8
AM_0
 10
485.2858210761276
 20
857.17193292541754
 30
0.0
 40
11.0
 50
97.181195000004124
 51
158.67647999999841
  0
ARC
  5
3161
  8
AM_0
 10
483.28569107612759
 20
873.04638292541745
 30
0.0
 40
5.0
 50
277.18119999999942
 51
0.0
  0
ARC
  5
3162
  8
AM_0
 10
519.83538107612765
 20
811.49133292541751
 30
0.0
 40
3.0
 50
54.348324000004709
 51
90.00000299999769
  0
ARC
  5
3163
  8
AM_0
 10
501.7858210761276
 20
857.17187292541701
 30
0.0
 40
3.9999962
 50
270.0
 51
90.00000299999769
  0
LINE
  5
3164
  8
AM_0
 10
488.28569107612759
 20
934.73767292541766
 30
0.0
 11
514.2858210761276
 21
934.73767292541766
 31
0.0
  0
LINE
  5
3165
  8
AM_0
 10
488.28569107612759
 20
908.73645292541767
 30
0.0
 11
514.2858210761276
 21
908.73645292541767
 31
0.0
  0
POLYLINE
  5
3166
  8
AM_0
 66
     1
 10
0.0
 20
0.0
 30
0.0
  0
VERTEX
  5
3167
  8
AM_0
 10
521.21551107612765
 20
936.90336292541724
 30
0.0
 42
-0.11075703
  0
VERTEX
  5
3168
  8
AM_0
 10
534.0964810761277
 20
926.99565292541774
 30
0.0
 42
-0.20375918
  0
VERTEX
  5
3169
  8
AM_0
 10
536.35418107612725
 20
919.33017292541763
 30
0.0
  0
VERTEX
  5
316A
  8
AM_0
 10
521.58438107612778
 20
900.41503292541745
 30
0.0
 42
-1.0
  0
SEQEND
  5
316B
  8
AM_0
  0
ARC
  5
316C
  8
AM_0
 10
514.2858210761276
 20
906.73645292541755
 30
0.0
 40
2.0
 50
0.0
 51
90.00000299999769
  0
ARC
  5
316D
  8
AM_0
 10
519.83538107612765
 20
902.85248292541746
 30
0.0
 40
3.0
 50
270.0
 51
305.65166999999718
  0
ARC
  5
316E
  8
AM_0
 10
514.2858210761276
 20
936.73767292541766
 30
0.0
 40
2.0
 50
270.0
 51
0.0
  0
LINE
  5
316F
  8
AM_0
 10
520.78582107612738
 20
934.73767292541766
 30
0.0
 11
520.78582107612738
 21
908.73645292541767
 31
0.0
  0
ARC
  5
3170
  8
AM_0
 10
520.31389107612767
 20
935.11810292541782
 30
0.0
 40
2.0
 50
63.199809000002318
 51
90.00000299999769
  0
LINE
  5
3171
  8
AM_0
 10
619.2858210761276
 20
896.92926292541745
 30
0.0
 11
619.2858210761276
 21
823.41455292541764
 31
0.0
  0
LINE
  5
3172
  8
AM_0
 10
623.2858210761276
 20
834.67193292541765
 30
0.0
 11
623.2858210761276
 21
879.67193292541754
 31
0.0
  0
ARC
  5
3173
  8
AM_0
 10
616.28582107612749
 20
823.41455292541764
 30
0.0
 40
3.0
 50
315.0
 51
0.0
  0
ARC
  5
3174
  8
AM_0
 10
616.28582107612749
 20
823.41455292541764
 30
0.0
 40
3.0
 50
315.0
 51
0.0
  0
ARC
  5
3175
  8
AM_0
 10
616.28582107612749
 20
814.92926292541745
 30
0.0
 40
3.0
 50
135.0
 51
180.00001000000091
  0
ARC
  5
3176
  8
AM_0
 10
616.28582107612749
 20
814.92926292541745
 30
0.0
 40
3.0
 50
135.0
 51
180.00001000000091
  0
LINE
  5
3177
  8
AM_0
 10
614.16460107612761
 20
817.05053292541766
 30
0.0
 11
618.40721107612762
 21
821.29321292541749
 31
0.0
  0
LINE
  5
3178
  8
AM_0
 10
619.2858210761276
 20
834.67193292541765
 30
0.0
 11
623.2858210761276
 21
834.67193292541765
 31
0.0
  0
LINE
  5
3179
  8
AM_0
 10
619.2858210761276
 20
879.67193292541754
 30
0.0
 11
623.2858210761276
 21
879.67193292541754
 31
0.0
  0
ARC
  5
317A
  8
AM_0
 10
616.28582107612749
 20
896.92926292541745
 30
0.0
 40
3.0
 50
0.0
 51
44.999998000001611
  0
ARC
  5
317B
  8
AM_0
 10
616.28582107612749
 20
896.92926292541745
 30
0.0
 40
3.0
 50
0.0
 51
45.000001000003799
  0
ARC
  5
317C
  8
AM_0
 10
616.28582107612749
 20
905.41455292541764
 30
0.0
 40
3.0
 50
180.00001000000091
 51
225.0
  0
ARC
  5
317D
  8
AM_0
 10
616.28582107612749
 20
905.41455292541764
 30
0.0
 40
3.0
 50
179.9999899999988
 51
225.0
  0
LINE
  5
317E
  8
AM_0
 10
614.16454107612765
 20
903.29327292541745
 30
0.0
 11
618.40721107612762
 21
899.05060292541748
 31
0.0
  0
ARC
  5
317F
  8
AM_0
 10
545.72515107612776
 20
990.33990292541762
 30
0.0
 40
10.0
 50
223.48296000000141
 51
267.99999999999631
  0
LINE
  5
3180
  8
AM_0
 10
518.21599107612769
 20
979.73132292541766
 30
0.0
 11
542.81902107612746
 21
978.87219292541761
 31
0.0
  0
LINE
  5
3181
  8
AM_0
 10
506.28575107612761
 20
997.17187292541757
 30
0.0
 11
615.42534107612778
 21
993.36065292541753
 31
0.0
  0
LINE
  5
3182
  8
AM_0
 10
490.21605107612771
 20
985.91571292541755
 30
0.0
 11
501.28575107612772
 21
986.30224292541754
 31
0.0
  0
ARC
  5
3183
  8
AM_0
 10
485.28575107612772
 20
975.33703292541782
 30
0.0
 40
3.0
 50
335.00000000000063
 51
0.0
  0
ARC
  5
3184
  8
AM_0
 10
481.83617107612758
 20
972.67193292541765
 30
0.0
 40
5.0
 50
270.0
 51
335.00000000000063
  0
LINE
  5
3185
  8
AM_0
 10
486.36772107612762
 20
970.55883292541762
 30
0.0
 11
488.00463107612768
 21
974.0691529254176
 31
0.0
  0
LINE
  5
3186
  8
AM_0
 10
488.28575107612772
 20
986.91888292541751
 30
0.0
 11
480.90728107612767
 21
987.84314292541762
 31
0.0
  0
ARC
  5
3187
  8
AM_0
 10
480.2858210761276
 20
982.88189292541745
 30
0.0
 40
5.0
 50
82.860167000000104
 51
180.00001000000091
  0
ARC
  5
3188
  8
AM_0
 10
490.28582107612772
 20
983.91687292541758
 30
0.0
 40
2.0
 50
91.999998000000545
 51
180.00001000000091
  0
ARC
  5
3189
  8
AM_0
 10
491.28569107612759
 20
993.3816529254176
 30
0.0
 40
3.0
 50
92.999999000001679
 51
180.00001000000091
  0
ARC
  5
318A
  8
AM_0
 10
518.2858210761276
 20
981.73010292541755
 30
0.0
 40
2.0
 50
180.00001000000091
 51
267.99999999999631
  0
ARC
  5
318B
  8
AM_0
 10
514.2858210761276
 20
983.84704292541755
 30
0.0
 40
2.0
 50
0.0
 51
87.999999999996248
  0
LINE
  5
318C
  8
AM_0
 10
501.28575107612772
 20
986.30230292541762
 30
0.0
 11
514.35558107612746
 21
985.84588292541775
 31
0.0
  0
LINE
  5
318D
  8
AM_0
 10
520.78582107612738
 20
981.45178292541755
 30
0.0
 11
520.78582107612738
 21
993.40521292541757
 31
0.0
  0
LINE
  5
318E
  8
AM_0
 10
529.10228107612738
 20
993.33526292541762
 30
0.0
 11
538.46935107612762
 21
983.45855292541773
 31
0.0
  0
ARC
  5
318F
  8
AM_0
 10
521.84648107612736
 20
986.45392292541749
 30
0.0
 40
10.0
 50
43.482964999999631
 51
87.999999999996248
  0
ARC
  5
3190
  8
AM_0
 10
583.28582107612738
 20
948.17193292541754
 30
0.0
 40
8.0
 50
0.0
 51
90.00000299999769
  0
ARC
  5
3191
  8
AM_0
 10
563.2858210761276
 20
971.71576292541761
 30
0.0
 40
8.0
 50
0.0
 51
87.999999999996248
  0
LINE
  5
3192
  8
AM_0
 10
571.28582107612726
 20
989.72442292541746
 30
0.0
 11
571.28582107612726
 21
971.71576292541761
 31
0.0
  0
ARC
  5
3193
  8
AM_0
 10
581.2858210761276
 20
966.17193292541765
 30
0.0
 40
10.0
 50
180.00001000000091
 51
270.0
  0
LINE
  5
3194
  8
AM_0
 10
581.2858210761276
 20
956.17193292541765
 30
0.0
 11
583.28582107612738
 21
956.17193292541765
 31
0.0
  0
LINE
  5
3195
  8
AM_0
 10
571.28582107612726
 20
966.17193292541765
 30
0.0
 11
571.28582107612726
 21
971.71576292541761
 31
0.0
  0
LINE
  5
3196
  8
AM_0
 10
545.37609107612775
 20
980.34607292541762
 30
0.0
 11
563.56499107612763
 21
979.71087292541745
 31
0.0
  0
ARC
  5
3197
  8
AM_0
 10
576.2858210761276
 20
989.72442292541746
 30
0.0
 40
5.0
 50
87.999999999996248
 51
180.00001000000091
  0
CIRCLE
  5
3198
  8
AM_0
 10
598.2858210761276
 20
972.17193292541765
 30
0.0
 40
9.5
  0
LINE
  5
3199
  8
AM_0
 10
619.2858210761276
 20
989.36310292541782
 30
0.0
 11
619.2858210761276
 21
949.98071292541749
 31
0.0
  0
LINE
  5
319A
  8
AM_0
 10
598.61077107612766
 20
943.71362292541767
 30
0.0
 11
608.46025107612763
 21
943.36963292541748
 31
0.0
  0
ARC
  5
319B
  8
AM_0
 10
598.8899410761278
 20
951.70874292541748
 30
0.0
 40
8.0
 50
192.7707500000011
 51
267.99999999999631
  0
ARC
  5
319C
  8
AM_0
 10
615.2858210761276
 20
949.98071292541749
 30
0.0
 40
4.0
 50
278.2132199999964
 51
0.0
  0
ARC
  5
319D
  8
AM_0
 10
616.28582107612749
 20
943.05249292541748
 30
0.0
 40
3.0
 50
98.213209000002095
 51
180.00001000000091
  0
ARC
  5
319E
  8
AM_0
 10
615.2858210761276
 20
989.36310292541782
 30
0.0
 40
4.0
 50
0.0
 51
87.999999999996248
  0
LINE
  5
319F
  8
AM_0
 10
693.28579107612768
 20
836.17193292541742
 30
0.0
 11
693.28579107612768
 21
878.17193292541742
 31
0.0
  0
LINE
  5
31A0
  8
AM_0
 10
637.28582107612749
 20
863.17187292541712
 30
0.0
 11
693.28579107612768
 21
863.17187292541712
 31
0.0
  0
LINE
  5
31A1
  8
AM_0
 10
637.28582107612749
 20
851.17187292541746
 30
0.0
 11
693.28579107612768
 21
851.17187292541746
 31
0.0
  0
ARC
  5
31A2
  8
AM_0
 10
637.28582107612749
 20
857.17187292541701
 30
0.0
 40
6.0000037999999991
 50
90.00000299999769
 51
270.0
  0
LINE
  5
31A3
  8
AM_0
 10
637.28582107612749
 20
863.17187292541712
 30
0.0
 11
637.28582107612749
 21
851.17187292541746
 31
0.0
  0
LINE
  5
31A4
  8
AM_0
 10
381.78575107612772
 20
757.08991792541713
 30
0.0
 11
381.78575107612772
 21
740.17193792541752
 31
0.0
  0
LINE
  5
31A5
  8
AM_0
 10
384.78575107612772
 20
737.17193792541752
 30
0.0
 11
399.78575107612778
 21
737.17193792541752
 31
0.0
  0
ARC
  5
31A6
  8
AM_0
 10
384.78575107612772
 20
740.17193792541752
 30
0.0
 40
3.0
 50
180.0
 51
270.0
  0
LINE
  5
31A7
  8
AM_0
 10
401.78575107612772
 20
739.17193792541752
 30
0.0
 11
399.78575107612778
 21
737.17193792541752
 31
0.0
  0
LINE
  5
31A8
  8
AM_0
 10
380.32128507612771
 20
746.63640392541743
 30
0.0
 11
331.14895507612772
 21
795.80873492541764
 31
0.0
  0
ARC
  5
31A9
  8
AM_0
 10
376.78575107612772
 20
743.10087092541744
 30
0.0
 40
5.0
 50
0.0
 51
45.0
  0
LINE
  5
31AA
  8
AM_0
 10
293.28575107612772
 20
839.67193792541752
 30
0.0
 11
235.2857510761277
 21
839.67193792541752
 31
0.0
  0
LINE
  5
31AB
  8
AM_0
 10
235.2857510761277
 20
839.67193792541752
 30
0.0
 11
235.2857510761277
 21
874.67193792541752
 31
0.0
  0
LINE
  5
31AC
  8
AM_0
 10
328.29205807612772
 20
801.00412792541761
 30
0.0
 11
328.29205807612772
 21
857.17193792541741
 31
0.0
  0
LINE
  5
31AD
  8
AM_0
 10
299.28575107612772
 20
857.17193792541741
 30
0.0
 11
299.28575107612772
 21
802.1200299254175
 31
0.0
  0
LINE
  5
31AE
  8
AM_0
 10
302.23339407612769
 20
799.12048692541748
 30
0.0
 11
324.2524110761276
 21
798.73614392541754
 31
0.0
  0
ARC
  5
31AF
  8
AM_0
 10
302.28575107612772
 20
802.1200299254175
 30
0.0
 40
3.0
 50
180.0
 51
268.99999999999812
  0
ARC
  5
31B0
  8
AM_0
 10
324.07788707612769
 20
788.73766692541744
 30
0.0
 40
10.0
 50
45.0
 51
89.000000000001506
  0
LINE
  5
31B1
  8
AM_0
 10
293.28575107612772
 20
877.17193792541752
 30
0.0
 11
293.28575107612772
 21
837.17193792541752
 31
0.0
  0
LINE
  5
31B2
  8
AM_0
 10
297.28575107612772
 20
857.17193792541741
 30
0.0
 11
297.28575107612772
 21
822.17193792541741
 31
0.0
  0
LINE
  5
31B3
  8
AM_0
 10
293.28575107612772
 20
837.17193792541752
 30
0.0
 11
297.28575107612772
 21
837.17193792541752
 31
0.0
  0
LINE
  5
31B4
  8
AM_0
 10
297.28575107612772
 20
822.17193792541741
 30
0.0
 11
299.28575107612772
 21
820.17193792541752
 31
0.0
  0
LINE
  5
31B5
  8
AM_0
 10
299.28575107612772
 20
857.17193792541741
 30
0.0
 11
299.28575107612772
 21
912.22384692541755
 31
0.0
  0
LINE
  5
31B6
  8
AM_0
 10
297.28575107612772
 20
857.17193792541741
 30
0.0
 11
297.28575107612772
 21
892.17193792541764
 31
0.0
  0
LINE
  5
31B7
  8
AM_0
 10
328.29205807612772
 20
913.33974892541767
 30
0.0
 11
328.29205807612772
 21
857.17193792541741
 31
0.0
  0
LINE
  5
31B8
  8
AM_0
 10
235.2857510761277
 20
874.67193792541752
 30
0.0
 11
293.28575107612772
 21
874.67193792541752
 31
0.0
  0
LINE
  5
31B9
  8
AM_0
 10
293.28575107612772
 20
877.17193792541752
 30
0.0
 11
297.28575107612772
 21
877.17193792541752
 31
0.0
  0
LINE
  5
31BA
  8
AM_0
 10
280.28575107612772
 20
862.17193292541742
 30
0.0
 11
280.28575107612772
 21
852.17193292541754
 31
0.0
  0
LINE
  5
31BB
  8
AM_0
 10
380.32128507612771
 20
967.70747192541774
 30
0.0
 11
331.14895507612772
 21
918.53514192541763
 31
0.0
  0
LINE
  5
31BC
  8
AM_0
 10
302.23339407612769
 20
915.22338992541745
 30
0.0
 11
324.2524110761276
 21
915.60773292541751
 31
0.0
  0
LINE
  5
31BD
  8
AM_0
 10
297.28575107612772
 20
892.17193792541764
 30
0.0
 11
299.28575107612772
 21
894.17193792541752
 31
0.0
  0
ARC
  5
31BE
  8
AM_0
 10
302.28575107612772
 20
912.22384692541755
 30
0.0
 40
3.0
 50
90.999999999998494
 51
180.0
  0
ARC
  5
31BF
  8
AM_0
 10
324.07788707612769
 20
925.60620992541715
 30
0.0
 40
10.0
 50
270.99999999999841
 51
315.0
  0
LINE
  5
31C0
  8
AM_0
 10
399.78575107612778
 20
926.88877492541712
 30
0.0
 11
399.78575107612778
 21
787.45509092541761
 31
0.0
  0
LINE
  5
31C1
  8
AM_0
 10
381.78575107612772
 20
787.45509092541761
 30
0.0
 11
381.78575107612772
 21
926.88877492541712
 31
0.0
  0
LINE
  5
31C2
  8
AM_0
 10
377.83035007612762
 20
941.69760992541762
 30
0.0
 11
401.78575107612772
 21
941.69760992541762
 31
0.0
  0
LINE
  5
31C3
  8
AM_0
 10
400.60553607612758
 20
926.88877492541712
 30
0.0
 11
374.82378207612749
 21
926.88877492541712
 31
0.0
  0
ARC
  5
31C4
  8
AM_0
 10
377.89574907612769
 20
954.25395892541724
 30
0.0
 40
3.0
 50
90.0
 51
175.00000000000011
  0
ARC
  5
31C5
  8
AM_0
 10
377.83035007612762
 20
938.69760992541774
 30
0.0
 40
3.0
 50
90.0
 51
175.00000000000011
  0
LINE
  5
31C6
  8
AM_0
 10
373.78575107612772
 20
926.88877492541712
 30
0.0
 11
374.84176507612761
 21
938.95907692541755
 31
0.0
  0
LINE
  5
31C7
  8
AM_0
 10
373.78575107612772
 20
941.69760992541762
 30
0.0
 11
374.90716407612757
 21
954.5154259254175
 31
0.0
  0
LINE
  5
31C8
  8
AM_0
 10
377.89574907612769
 20
957.25395892541746
 30
0.0
 11
401.78575107612772
 21
957.25395892541746
 31
0.0
  0
LINE
  5
31C9
  8
AM_0
 10
377.88348707612761
 20
954.33722592541756
 30
0.0
 11
377.84027107612769
 21
944.05761592541762
 31
0.0
  0
ARC
  5
31CA
  8
AM_0
 10
377.89574907612769
 20
760.08990692541715
 30
0.0
 40
3.0
 50
184.99999999999969
 51
270.0
  0
LINE
  5
31CB
  8
AM_0
 10
400.60553607612758
 20
787.45509092541761
 30
0.0
 11
374.82378207612749
 21
787.45509092541761
 31
0.0
  0
LINE
  5
31CC
  8
AM_0
 10
377.83035007612762
 20
772.64625592541745
 30
0.0
 11
401.78575107612772
 21
772.64625592541745
 31
0.0
  0
ARC
  5
31CD
  8
AM_0
 10
377.83035007612762
 20
775.64625592541745
 30
0.0
 40
3.0
 50
184.99999999999969
 51
270.0
  0
LINE
  5
31CE
  8
AM_0
 10
373.78575107612772
 20
787.45509092541761
 30
0.0
 11
374.84176507612761
 21
775.38478892541764
 31
0.0
  0
LINE
  5
31CF
  8
AM_0
 10
373.78575107612772
 20
772.64625592541745
 30
0.0
 11
374.90716407612757
 21
759.82843992541746
 31
0.0
  0
LINE
  5
31D0
  8
AM_0
 10
377.89574907612769
 20
757.08990692541715
 30
0.0
 11
401.78575107612772
 21
757.08990692541715
 31
0.0
  0
LINE
  5
31D1
  8
AM_0
 10
377.88348707612761
 20
760.00663992541752
 30
0.0
 11
377.84027107612769
 21
770.28624992541745
 31
0.0
  0
LINE
  5
31D2
  8
AM_0
 10
384.78575107612772
 20
977.17192792541755
 30
0.0
 11
399.78575107612778
 21
977.17192792541755
 31
0.0
  0
ARC
  5
31D3
  8
AM_0
 10
384.78575107612772
 20
974.17192792541755
 30
0.0
 40
3.0
 50
90.000000000000057
 51
180.0
  0
LINE
  5
31D4
  8
AM_0
 10
401.78575107612772
 20
975.17192792541744
 30
0.0
 11
399.78575107612778
 21
977.17192792541755
 31
0.0
  0
LINE
  5
31D5
  8
AM_0
 10
381.78575107612772
 20
974.17192792541755
 30
0.0
 11
381.78575107612772
 21
957.25395892541746
 31
0.0
  0
ARC
  5
31D6
  8
AM_0
 10
376.78575107612772
 20
971.24299492541752
 30
0.0
 40
5.0
 50
315.0
 51
0.0
  0
LINE
  5
31D7
  8
AM_0
 10
399.78575107612778
 20
757.08990692541715
 30
0.0
 11
399.78575107612778
 21
737.17193792541752
 31
0.0
  0
LINE
  5
31D8
  8
AM_0
 10
399.78575107612778
 20
957.25395892541746
 30
0.0
 11
399.78575107612778
 21
977.17192792541755
 31
0.0
  0
LINE
  5
31D9
  8
AM_0
 10
381.78575107612772
 20
872.17193292541765
 30
0.0
 11
399.78575107612778
 21
872.17193292541765
 31
0.0
  0
LINE
  5
31DA
  8
AM_0
 10
381.78575107612772
 20
842.17193292541765
 30
0.0
 11
399.78575107612778
 21
842.17193292541754
 31
0.0
  0
LINE
  5
31DB
  8
AM_0
 10
399.78575107612778
 20
873.74672886888425
 30
0.0
 11
381.78575107612772
 21
873.74672886888425
 31
0.0
  0
LINE
  5
31DC
  8
AM_0
 10
399.78575107612778
 20
840.59713698195071
 30
0.0
 11
381.78575107612772
 21
840.59713698195071
 31
0.0
  0
LINE
  5
31DD
  8
ﾁｭｳｼﾝｾﾝ1
 10
448.28582107612772
 20
724.67193292541754
 30
0.0
 11
448.28582107612772
 21
759.67193292541754
 31
0.0
  0
LINE
  5
31DE
  8
ﾁｭｳｼﾝｾﾝ1
 10
430.7858210761276
 20
742.17193292541754
 30
0.0
 11
465.7858210761276
 21
742.17193292541754
 31
0.0
  0
LINE
  5
31DF
  8
ﾁｭｳｼﾝｾﾝ1
 10
448.28582107612772
 20
954.67193292541765
 30
0.0
 11
448.28582107612772
 21
989.67193292541765
 31
0.0
  0
LINE
  5
31E0
  8
ﾁｭｳｼﾝｾﾝ1
 10
430.7858210761276
 20
972.17193292541765
 30
0.0
 11
465.7858210761276
 21
972.17193292541765
 31
0.0
  0
LINE
  5
31E1
  8
ﾁｭｳｼﾝｾﾝ1
 10
598.2858210761276
 20
954.67193292541765
 30
0.0
 11
598.2858210761276
 21
989.67193292541765
 31
0.0
  0
LINE
  5
31E2
  8
ﾁｭｳｼﾝｾﾝ1
 10
580.7858210761276
 20
972.17193292541765
 30
0.0
 11
615.7858210761276
 21
972.17193292541765
 31
0.0
  0
LINE
  5
31E3
  8
AM_0
 10
235.2857510761277
 20
862.17193292541742
 30
0.0
 11
280.28575107612772
 21
862.17193292541742
 31
0.0
  0
LINE
  5
31E4
  8
AM_0
 10
235.2857510761277
 20
852.17193292541754
 30
0.0
 11
280.28575107612772
 21
852.17193292541754
 31
0.0
  0
ARC
  5
31E5
  8
AM_0
 10
280.28575107612772
 20
857.17193292541754
 30
0.0
 40
5.0
 50
270.0
 51
90.0
  0
TEXT
  5
33CA
  8
AM_0
 10
780.73662514842135
 20
867.15181167545666
 30
0.0
 40
20.0
  1
VX55-003G~VX55-010G
  0
ENDSEC
  0
EOF
