  0
SECTION
  2
HEADER
  9
$ACADVER
  1
AC1009
  9
$INSBASE
 10
0.0
 20
0.0
 30
0.0
  9
$EXTMIN
 10
199.7568928878249
 20
271.92585291044361
 30
-0.0000000000112498
  9
$EXTMAX
 10
1194.525798029528
 20
1094.7362558350469
 30
0.0000000000002956
  9
$LIMMIN
 10
0.0
 20
0.0
  9
$LIMMAX
 10
1422.5
 20
925.0
  9
$ORTHOMODE
 70
     0
  9
$REGENMODE
 70
     1
  9
$FILLMODE
 70
     1
  9
$QTEXTMODE
 70
     0
  9
$MIRRTEXT
 70
     1
  9
$DRAGMODE
 70
     2
  9
$LTSCALE
 40
5.0
  9
$OSMODE
 70
   551
  9
$ATTMODE
 70
     1
  9
$TEXTSIZE
 40
2.5
  9
$TRACEWID
 40
1.0
  9
$TEXTSTYLE
  7
STANDARD
  9
$CLAYER
  8
AM_0
  9
$CELTYPE
  6
BYLAYER
  9
$CECOLOR
 62
   256
  9
$DIMSCALE
 40
1.0
  9
$DIMASZ
 40
2.5
  9
$DIMEXO
 40
1.0
  9
$DIMDLI
 40
8.0
  9
$DIMRND
 40
0.0
  9
$DIMDLE
 40
0.0
  9
$DIMEXE
 40
0.6
  9
$DIMTP
 40
0.1
  9
$DIMTM
 40
0.1
  9
$DIMTXT
 40
2.5
  9
$DIMCEN
 40
0.0
  9
$DIMTSZ
 40
0.0
  9
$DIMTOL
 70
     0
  9
$DIMLIM
 70
     0
  9
$DIMTIH
 70
     0
  9
$DIMTOH
 70
     0
  9
$DIMSE1
 70
     0
  9
$DIMSE2
 70
     0
  9
$DIMTAD
 70
     1
  9
$DIMZIN
 70
     8
  9
$DIMBLK
  1

  9
$DIMASO
 70
     1
  9
$DIMSHO
 70
     1
  9
$DIMPOST
  1

  9
$DIMAPOST
  1
"
  9
$DIMALT
 70
     0
  9
$DIMALTD
 70
     2
  9
$DIMALTF
 40
0.0393701
  9
$DIMLFAC
 40
1.0
  9
$DIMTOFL
 70
     1
  9
$DIMTVP
 40
0.0
  9
$DIMTIX
 70
     0
  9
$DIMSOXD
 70
     0
  9
$DIMSAH
 70
     0
  9
$DIMBLK1
  1

  9
$DIMBLK2
  1

  9
$DIMSTYLE
  2
AM_ISO
  9
$DIMCLRD
 70
   256
  9
$DIMCLRE
 70
   256
  9
$DIMCLRT
 70
     4
  9
$DIMTFAC
 40
0.71
  9
$DIMGAP
 40
0.8
  9
$LUNITS
 70
     2
  9
$LUPREC
 70
     2
  9
$SKETCHINC
 40
1.0
  9
$FILLETRAD
 40
25.0
  9
$AUNITS
 70
     0
  9
$AUPREC
 70
     0
  9
$MENU
  1
.
  9
$ELEVATION
 40
0.0
  9
$PELEVATION
 40
0.0
  9
$THICKNESS
 40
0.0
  9
$LIMCHECK
 70
     0
  9
$BLIPMODE
 70
     0
  9
$CHAMFERA
 40
10.0
  9
$CHAMFERB
 40
5.0
  9
$SKPOLY
 70
     0
  9
$TDCREATE
 40
2452066.775565139
  9
$TDUPDATE
 40
2458541.4238664121
  9
$TDINDWG
 40
0.0603779398
  9
$TDUSRTIMER
 40
0.0603777431
  9
$USRTIMER
 70
     1
  9
$ANGBASE
 50
0.0
  9
$ANGDIR
 70
     0
  9
$PDMODE
 70
     0
  9
$PDSIZE
 40
0.0
  9
$PLINEWID
 40
0.0
  9
$COORDS
 70
     1
  9
$SPLFRAME
 70
     0
  9
$SPLINETYPE
 70
     6
  9
$SPLINESEGS
 70
     8
  9
$ATTDIA
 70
     1
  9
$ATTREQ
 70
     1
  9
$HANDLING
 70
     1
  9
$HANDSEED
  5
31D3
  9
$SURFTAB1
 70
     6
  9
$SURFTAB2
 70
     6
  9
$SURFTYPE
 70
     6
  9
$SURFU
 70
     6
  9
$SURFV
 70
     6
  9
$UCSNAME
  2

  9
$UCSORG
 10
0.0
 20
0.0
 30
0.0
  9
$UCSXDIR
 10
1.0
 20
0.0
 30
0.0
  9
$UCSYDIR
 10
0.0
 20
1.0
 30
0.0
  9
$PUCSNAME
  2

  9
$PUCSORG
 10
0.0
 20
0.0
 30
0.0
  9
$PUCSXDIR
 10
1.0
 20
0.0
 30
0.0
  9
$PUCSYDIR
 10
0.0
 20
1.0
 30
0.0
  9
$USERI1
 70
     0
  9
$USERI2
 70
     0
  9
$USERI3
 70
     0
  9
$USERI4
 70
     0
  9
$USERI5
 70
     0
  9
$USERR1
 40
0.0
  9
$USERR2
 40
0.0
  9
$USERR3
 40
0.0
  9
$USERR4
 40
0.0
  9
$USERR5
 40
0.0
  9
$WORLDVIEW
 70
     1
  9
$SHADEDGE
 70
     3
  9
$SHADEDIF
 70
    70
  9
$TILEMODE
 70
     1
  9
$MAXACTVP
 70
    64
  9
$PLIMCHECK
 70
     0
  9
$PEXTMIN
 10
1.0000000000000000E+020
 20
1.0000000000000000E+020
 30
1.0000000000000000E+020
  9
$PEXTMAX
 10
-1.0000000000000000E+020
 20
-1.0000000000000000E+020
 30
-1.0000000000000000E+020
  9
$PLIMMIN
 10
0.0
 20
0.0
  9
$PLIMMAX
 10
420.0
 20
297.0
  9
$UNITMODE
 70
     0
  9
$VISRETAIN
 70
     1
  9
$PLINEGEN
 70
     0
  9
$PSLTSCALE
 70
     1
  0
ENDSEC
  0
SECTION
  2
TABLES
  0
TABLE
  2
VPORT
 70
     1
  0
VPORT
  2
*ACTIVE
 70
     0
 10
0.0
 20
0.0
 11
1.0
 21
1.0
 12
697.14134545867682
 22
683.33105437274526
 13
0.0
 23
0.0
 14
12.5
 24
12.5
 15
50.0
 25
50.0
 16
0.0
 26
0.0
 36
1.0
 17
0.0
 27
0.0
 37
0.0
 40
828.458986926374
 41
1.7571592210767459
 42
50.0
 43
0.0
 44
0.0
 50
0.0
 51
0.0
 71
     0
 72
   100
 73
     1
 74
     3
 75
     0
 76
     0
 77
     0
 78
     0
  0
ENDTAB
  0
TABLE
  2
LTYPE
 70
    27
  0
LTYPE
  2
CONTINUOUS
 70
     0
  3
Solid line
 72
    65
 73
     0
 40
0.0
  0
LTYPE
  2
AM_ISO02W050
 70
     0
  3
__ __ __ __ __ __ __ __ __ __ __ __ __ __ __
 72
    65
 73
     2
 40
7.5
 49
6.0
 49
-1.5
  0
LTYPE
  2
AM_ISO08W050
 70
     0
  3
____ . ____ . ____ . ____ . ____ . ____ . ____
 72
    65
 73
     4
 40
18.0
 49
12.0
 49
-1.5
 49
3.0
 49
-1.5
  0
LTYPE
  2
AM_ISO09W050
 70
     0
  3
_____ . . _____ . . _____ . . ____ .. ____
 72
    65
 73
     6
 40
22.5
 49
12.0
 49
-1.5
 49
3.0
 49
-1.5
 49
3.0
 49
-1.5
  0
LTYPE
  2
AMCONSTR
 70
     0
  3
_______________________
 72
    65
 73
     2
 40
9999.0
 49
9999.0
 49
0.0
  0
LTYPE
  2
AM_ISO08W050X2
 70
     0
  3
__ . __ . __ . __ . __ . __
 72
    65
 73
     4
 40
9.0
 49
6.0
 49
-0.75
 49
1.5
 49
-0.75
  0
LTYPE
  2
AM_ISO02W050X2
 70
     0
  3
 _ _ _ _ _ _ _ _ _ _ _ _
 72
    65
 73
     2
 40
3.75
 49
3.0
 49
-0.75
  0
LTYPE
  2
AMZIGZAG
 70
     0
  3
/\/-/\/-/\/-/\/-/\/-/\/
 72
    65
 73
     2
 40
11.000099999999991
 49
0.0001
 49
-11.0
  0
LTYPE
  2
ACISOWELD
 70
     0
  3
_ _ _ _ _
 72
    65
 73
     2
 40
2.0
 49
2.0
 49
-1.0
  0
LTYPE
  2
ACISOTGB
 70
     0
  3
__ . . __ . .
 72
    65
 73
     6
 40
9.0
 49
4.0
 49
-1.0
 49
1.0
 49
-1.0
 49
1.0
 49
-1.0
  0
LTYPE
  2
ACISOTGL
 70
     0
  3
_ _ _ _ _
 72
    65
 73
     2
 40
3.0
 49
2.0
 49
-1.0
  0
LTYPE
  2
CENTER
 70
     0
  3
__ . __
 72
    65
 73
     4
 40
7.0
 49
4.0
 49
-1.0
 49
1.0
 49
-1.0
  0
LTYPE
  2
PHANTOM2
 70
     0
  3
Phantom (.5x) ___ _ _ ___ _ _ ___ _ _ ___ _ _
 72
    65
 73
     6
 40
31.75
 49
15.875
 49
-3.174999999999998
 49
3.174999999999998
 49
-3.174999999999998
 49
3.174999999999998
 49
-3.174999999999998
  0
LTYPE
  2
ACANSTGBM
 70
     0
  3
__ . . __ . .
 72
    65
 73
     6
 40
9.0
 49
4.0
 49
-1.0
 49
1.0
 49
-1.0
 49
1.0
 49
-1.0
  0
LTYPE
  2
ACANSTGLM
 70
     0
  3
_ _ _ _ _
 72
    65
 73
     2
 40
3.0
 49
2.0
 49
-1.0
  0
LTYPE
  2
GEN7
 70
     0
  3
____ . ____ . ____ . ____ . ____ . ____ . ____
 72
    65
 73
     4
 40
14.25
 49
9.75
 49
-1.5
 49
1.5
 49
-1.5
  0
LTYPE
  2
GEN3B
 70
     0
  3
 - - - - -
 72
    65
 73
     2
 40
1.0
 49
0.5
 49
-0.5
  0
LTYPE
  2
GEN7A
 70
     0
  3
__ . __ . __
 72
    65
 73
     4
 40
7.375
 49
4.75
 49
-0.875
 49
0.875
 49
-0.875
  0
LTYPE
  2
ACJISTGB
 70
     0
  3
__ . . __ . .
 72
    65
 73
     6
 40
9.0
 49
4.0
 49
-1.0
 49
1.0
 49
-1.0
 49
1.0
 49
-1.0
  0
LTYPE
  2
ACJISTGL
 70
     0
  3
_ _ _ _ _
 72
    65
 73
     2
 40
3.0
 49
2.0
 49
-1.0
  0
LTYPE
  2
HIDDEN
 70
     0
  3
Hidden __ __ __ __ __ __ __ __ __ __ __ __ __ _
 72
    65
 73
     2
 40
0.375
 49
0.25
 49
-0.125
  0
LTYPE
  2
CENTER2
 70
     0
  3
Center (.5x) ___ _ ___ _ ___ _ ___ _ ___ _ ___
 72
    65
 73
     4
 40
1.125
 49
0.75
 49
-0.125
 49
0.125
 49
-0.125
  0
LTYPE
  2
HIDDEN2
 70
     0
  3
Hidden (.5x) _ _ _ _ _ _ _ _ _ _ _ _ _ _ _ _ _
 72
    65
 73
     2
 40
0.1875
 49
0.125
 49
-0.0625
  0
LTYPE
  2
AMZIGZAG2
 70
     0
  3
/\/-/\/-/\/-/\/-/\/-/\/
 72
    65
 73
     2
 40
0.4401
 49
0.0001
 49
-0.4400000000000002
  0
LTYPE
  2
ACANSTGB
 70
     0
  3
__ . . __ . .
 72
    65
 73
     6
 40
0.35433070866
 49
0.15748031496
 49
-0.03937007874
 49
0.03937007874
 49
-0.03937007874
 49
0.03937007874
 49
-0.03937007874
  0
LTYPE
  2
ACANSTGL
 70
     0
  3
_ _ _ _ _
 72
    65
 73
     2
 40
0.11811023622
 49
0.07874015748
 49
-0.03937007874
  0
ENDTAB
  0
TABLE
  2
LAYER
 70
     7
  0
LAYER
  2
0
 70
     0
 62
     7
  6
CONTINUOUS
  0
LAYER
  2
AM_0
 70
     0
 62
     7
  6
CONTINUOUS
  0
LAYER
  2
AM_5
 70
     0
 62
     2
  6
CONTINUOUS
  0
LAYER
  2
DEFPOINTS
 70
     0
 62
     7
  6
CONTINUOUS
  0
LAYER
  2
ｶｸﾚｾﾝ2
 70
     0
 62
     3
  6
GEN3B
  0
LAYER
  2
ﾁｭｳｼﾝｾﾝ
 70
     0
 62
     1
  6
GEN7
  0
LAYER
  2
ﾁｭｳｼﾝｾﾝ1
 70
     0
 62
     1
  6
GEN7A
  0
ENDTAB
  0
TABLE
  2
STYLE
 70
     9
  0
STYLE
  2
STANDARD
 70
     0
 40
0.0
 41
0.8299999999999999
 50
0.0
 71
     0
 42
2.5
  3
txt.shx
  4
bigfont.shx
  0
STYLE
  2
ANNOTATIVE
 70
     0
 40
0.0
 41
1.0
 50
0.0
 71
     0
 42
0.2
  3
txt
  4

  0
STYLE
  2

 70
     1
 40
0.0
 41
1.0
 50
0.0
 71
     0
 42
2.5
  3
ltypeshp.shx
  4

  0
STYLE
  2
ACISOTS
 70
     0
 40
1.0
 41
1.0
 50
0.0
 71
     0
 42
2.5
  3
isocp.shx
  4
extfont.shx
  0
STYLE
  2
ACISOGDT
 70
     0
 40
0.0
 41
1.0
 50
0.0
 71
     0
 42
2.5
  3
amgdt.shx
  4

  0
STYLE
  2
ACANSTS
 70
     0
 40
1.0
 41
1.0
 50
0.0
 71
     0
 42
2.5
  3
romans.shx
  4
bigfont.shx
  0
STYLE
  2
ACANSGDT
 70
     0
 40
0.0
 41
1.0
 50
0.0
 71
     0
 42
2.5
  3
amgdt.shx
  4

  0
STYLE
  2
ACJISTS
 70
     0
 40
1.0
 41
1.0
 50
0.0
 71
     0
 42
2.5
  3
isocp.shx
  4
bigfont.shx
  0
STYLE
  2
ACJISGDT
 70
     0
 40
0.0
 41
1.0
 50
0.0
 71
     0
 42
2.5
  3
amgdt.shx
  4

  0
ENDTAB
  0
TABLE
  2
VIEW
 70
     6
  0
VIEW
  2
AM_VIEW1
 70
     0
 40
462.5
 10
416.07965009208078
 20
693.75
 41
832.15930018416213
 11
0.0
 21
0.0
 31
1.0
 12
0.0
 22
0.0
 32
0.0
 42
50.0
 43
0.0
 44
0.0
 50
0.0
 71
     0
  0
VIEW
  2
AM_VIEW2
 70
     0
 40
462.5
 10
1006.420349907918
 20
693.75
 41
832.15930018416213
 11
0.0
 21
0.0
 31
1.0
 12
0.0
 22
0.0
 32
0.0
 42
50.0
 43
0.0
 44
0.0
 50
0.0
 71
     0
  0
VIEW
  2
AM_VIEW3
 70
     0
 40
462.5
 10
416.07965009208078
 20
231.25
 41
832.15930018416213
 11
0.0
 21
0.0
 31
1.0
 12
0.0
 22
0.0
 32
0.0
 42
50.0
 43
0.0
 44
0.0
 50
0.0
 71
     0
  0
VIEW
  2
AM_VIEW4
 70
     0
 40
462.5
 10
1006.420349907918
 20
231.25
 41
832.15930018416213
 11
0.0
 21
0.0
 31
1.0
 12
0.0
 22
0.0
 32
0.0
 42
50.0
 43
0.0
 44
0.0
 50
0.0
 71
     0
  0
VIEW
  2
AM_VIEW5
 70
     0
 40
462.5
 10
711.24999999999966
 20
462.5
 41
832.15930018416179
 11
0.0
 21
0.0
 31
1.0
 12
0.0
 22
0.0
 32
0.0
 42
50.0
 43
0.0
 44
0.0
 50
0.0
 71
     0
  0
VIEW
  2
AM_VIEW6
 70
     0
 40
924.99075000000005
 10
711.24999999999966
 20
462.5
 41
1664.3019571823199
 11
0.0
 21
0.0
 31
1.0
 12
0.0
 22
0.0
 32
0.0
 42
50.0
 43
0.0
 44
0.0
 50
0.0
 71
     0
  0
ENDTAB
  0
TABLE
  2
UCS
 70
     0
  0
ENDTAB
  0
TABLE
  2
APPID
 70
    95
  0
APPID
  2
ACAD
 70
     0
  0
APPID
  2
ACADANNOTATIVE
 70
     0
  0
APPID
  2
MCAD_NO_VIS
 70
     0
  0
APPID
  2
ACAD_TEMP_GRAPHIC
 70
     0
  0
APPID
  2
ACATTRIBSERVICES
 70
     0
  0
APPID
  2
GENIUS_GENREC_14
 70
     0
  0
APPID
  2
GENIUS_GENOBJ-N-REC_13
 70
     0
  0
APPID
  2
GENIUS_GENODEF_13
 70
     0
  0
APPID
  2
GENIUS_GENOLIS_13
 70
     0
  0
APPID
  2
GENIUS_GENOBJ-N-TIT_13
 70
     0
  0
APPID
  2
GENIUS_GENOENT_13
 70
     0
  0
APPID
  2
GENIUS_GENTITLE_13
 70
     0
  0
APPID
  2
GENIUS_GENOREF_13
 70
     0
  0
APPID
  2
GENIUS_GENSCREG_15
 70
     0
  0
APPID
  2
GENIUS_GENOBJ-N-SDF_13
 70
     0
  0
APPID
  2
GENIUS_GENFIL_13
 70
     0
  0
APPID
  2
GENIUS_GENOBJ-N-CHA_13
 70
     0
  0
APPID
  2
GENIUS_GENDTOL_13
 70
     0
  0
APPID
  2
GENIUS_GENOBJ-N-FIL_13
 70
     0
  0
APPID
  2
AD_DRAW
 70
     0
  0
APPID
  2
DESIGNERASSEMBLIES
 70
     0
  0
APPID
  2
ASURF_PCURVE_APPNAME
 70
     0
  0
APPID
  2
GENIUS_GE3SECT_13
 70
     0
  0
APPID
  2
GENIUS_GENCFG_13
 70
     0
  0
APPID
  2
GENIUS_GE3CFG0_13
 70
     0
  0
APPID
  2
GENIUS_GENCFG0_13
 70
     0
  0
APPID
  2
GENIUS_GENCFG1_13
 70
     0
  0
APPID
  2
GENIUS_GENCFG2_13
 70
     0
  0
APPID
  2
GENIUS_GENCFG3_13
 70
     0
  0
APPID
  2
GENIUS_GENCFG4_13
 70
     0
  0
APPID
  2
GENIUS_GEVCFG0_13
 70
     0
  0
APPID
  2
GENIUS_GENHINW_13
 70
     0
  0
APPID
  2
GENIUS_FIRSTVISTXT_14
 70
     0
  0
APPID
  2
GENIUS_GENOBJ-N-LEADER_13
 70
     0
  0
APPID
  2
GEV_VCCNULL_SWITCH_OFF
 70
     0
  0
APPID
  2
GENIUS_GEFCFG0_13
 70
     0
  0
APPID
  2
GENIUS_GENZVEED_13
 70
     0
  0
APPID
  2
GENIUS_GENSCREG_13
 70
     0
  0
APPID
  2
GENIUS_DUMCFG0_13
 70
     0
  0
APPID
  2
GEVID936201362
 70
     0
  0
APPID
  2
GEVDC
 70
     0
  0
APPID
  2
GEVCON
 70
     0
  0
APPID
  2
VCC
 70
     0
  0
APPID
  2
GEVPT
 70
     0
  0
APPID
  2
GEVIT
 70
     0
  0
APPID
  2
GENBH
 70
     0
  0
APPID
  2
GEVMK
 70
     0
  0
APPID
  2
GENIUS_GENBH_13
 70
     0
  0
APPID
  2
GENIUS_GENOBJ-NBEHI-BHF_13
 70
     0
  0
APPID
  2
GENIUS_GENOBJ-NBEHI-BHB_13
 70
     0
  0
APPID
  2
GENIUS_GENOBJ-F-DESC_13
 70
     0
  0
APPID
  2
GENIUS_GEFDESC_14
 70
     0
  0
APPID
  2
GENIUS_GENOBJ-F-PART_13
 70
     0
  0
APPID
  2
GENIUS_GEFSTDP_13
 70
     0
  0
APPID
  2
GENIUS_GEFPARTINS_13
 70
     0
  0
APPID
  2
GENIUS_GENTRA_14
 70
     0
  0
APPID
  2
GENIUS_GENINF13_13
 70
     0
  0
APPID
  2
GENIUS_GENOBJ-N-INFOPT_13
 70
     0
  0
APPID
  2
GENIUS_GENOBJ-N-RSSYM_13
 70
     0
  0
APPID
  2
GENIUS_GENSYMENT_13
 70
     0
  0
APPID
  2
GENIUS_GENSCSYM_13
 70
     0
  0
APPID
  2
GENIUS_GEFINFNAM_13
 70
     0
  0
APPID
  2
GENIUS_GENOBJ-N-CEN_13
 70
     0
  0
APPID
  2
GENIUS_GENOBJ-N-CRS_13
 70
     0
  0
APPID
  2
GENIUS_GENOBJ-N-CRC_13
 70
     0
  0
APPID
  2
GENIUS_GENCRC_14
 70
     0
  0
APPID
  2
GEVID942827039
 70
     0
  0
APPID
  2
GEVID942827040
 70
     0
  0
APPID
  2
GEVID942827041
 70
     0
  0
APPID
  2
GENIUS_GENOBJ-F-SCPASSM_13
 70
     0
  0
APPID
  2
GENIUS_GENDIMSH_14
 70
     0
  0
APPID
  2
GEVID942827042
 70
     0
  0
APPID
  2
GEVID946020473
 70
     0
  0
APPID
  2
GEVID946020474
 70
     0
  0
APPID
  2
GEVID946020475
 70
     0
  0
APPID
  2
GENIUS_GENOBJ-N-HTC_13
 70
     0
  0
APPID
  2
GENIUS_GENHATCH_13
 70
     0
  0
APPID
  2
GEVID948854295
 70
     0
  0
APPID
  2
GEVID939402019
 70
     0
  0
APPID
  2
GEVID952919491
 70
     0
  0
APPID
  2
GEVID952919492
 70
     0
  0
APPID
  2
GENIUS_GEFWELD_13
 70
     0
  0
APPID
  2
GENIUS_GENOBJ-F-WELS_13
 70
     0
  0
APPID
  2
GEVID952919493
 70
     0
  0
APPID
  2
GENIUS_GENOBJ-N-RSBK_13
 70
     0
  0
APPID
  2
GENIUS_GENOBJ-N-LIB_13
 70
     0
  0
APPID
  2
GENIUS_GENSCALE_13
 70
     0
  0
APPID
  2
GEVID986376691
 70
     0
  0
APPID
  2
DCO15
 70
     0
  0
APPID
  2
ACAD_DSTYLE_DIMBREAK
 70
     0
  0
APPID
  2
ACAD_DSTYLE_DIMJAG
 70
     0
  0
APPID
  2
ACAD_NAV_VCDISPLAY
 70
     0
  0
APPID
  2
ACADANNOPO
 70
     0
  0
APPID
  2
ACAD_EXEMPT_FROM_CAD_STANDARDS
 70
     0
  0
APPID
  2
ACAD_MLEADERVER
 70
     0
  0
ENDTAB
  0
TABLE
  2
DIMSTYLE
 70
    22
  0
DIMSTYLE
  2
STANDARD
 70
     0
  3

  4

  5

  6

  7

 40
1.0
 41
0.18
 42
0.0625
 43
0.38
 44
0.18
 45
0.0
 46
0.0
 47
0.0
 48
0.0
140
0.18
141
0.09
142
0.0
143
25.399999999999999
144
1.0
145
0.0
146
1.0
147
0.09
 71
     0
 72
     0
 73
     1
 74
     1
 75
     0
 76
     0
 77
     0
 78
     0
170
     0
171
     2
172
     0
173
     0
174
     0
175
     0
176
     0
177
     0
178
     0
  0
DIMSTYLE
  2
ANNOTATIVE
 70
     0
  3

  4

  5

  6

  7

 40
1.0
 41
0.18
 42
0.0625
 43
0.38
 44
0.18
 45
0.0
 46
0.0
 47
0.0
 48
0.0
140
0.18
141
0.09
142
0.0
143
25.399999999999999
144
1.0
145
0.0
146
1.0
147
0.09
 71
     0
 72
     0
 73
     1
 74
     1
 75
     0
 76
     0
 77
     0
 78
     0
170
     0
171
     2
172
     0
173
     0
174
     0
175
     0
176
     0
177
     0
178
     0
  0
DIMSTYLE
  2
AM_ISO
 70
     0
  3

  4
"
  5

  6

  7

 40
1.0
 41
2.5
 42
1.0
 43
8.0
 44
0.6
 45
0.0
 46
0.0
 47
0.1
 48
0.1
140
2.5
141
0.0
142
0.0
143
0.0393701
144
1.0
145
0.0
146
0.71
147
0.8
 71
     0
 72
     0
 73
     0
 74
     0
 75
     0
 76
     0
 77
     1
 78
     8
170
     0
171
     2
172
     1
173
     0
174
     0
175
     0
176
   256
177
   256
178
     4
  0
DIMSTYLE
  2
AM_ISO$3
 70
     0
  3

  4
"
  5

  6

  7

 40
1.0
 41
2.5
 42
1.0
 43
8.0
 44
0.6
 45
0.0
 46
0.0
 47
0.1
 48
0.1
140
2.5
141
0.0
142
0.0
143
0.0393701
144
1.0
145
0.0
146
0.71
147
0.8
 71
     0
 72
     0
 73
     0
 74
     1
 75
     0
 76
     0
 77
     1
 78
     8
170
     0
171
     2
172
     0
173
     0
174
     0
175
     0
176
   256
177
   256
178
     4
  0
DIMSTYLE
  2
AM_ISO$4
 70
     0
  3

  4
"
  5

  6

  7

 40
1.0
 41
2.5
 42
1.0
 43
8.0
 44
0.6
 45
0.0
 46
0.0
 47
0.1
 48
0.1
140
2.5
141
0.0
142
0.0
143
0.0393701
144
1.0
145
0.0
146
0.71
147
0.8
 71
     0
 72
     0
 73
     0
 74
     1
 75
     0
 76
     0
 77
     1
 78
     8
170
     0
171
     2
172
     0
173
     0
174
     0
175
     0
176
   256
177
   256
178
     4
  0
DIMSTYLE
  2
AM_ISO$6
 70
     0
  3

  4
"
  5

  6

  7

 40
1.0
 41
2.5
 42
1.0
 43
8.0
 44
0.6
 45
0.0
 46
0.0
 47
0.1
 48
0.1
140
2.5
141
0.0
142
0.0
143
0.0393701
144
1.0
145
0.0
146
0.71
147
0.8
 71
     0
 72
     0
 73
     0
 74
     0
 75
     0
 76
     0
 77
     0
 78
     8
170
     0
171
     2
172
     1
173
     0
174
     0
175
     0
176
   256
177
   256
178
     4
  0
DIMSTYLE
  2
AM_ISO$7
 70
     0
  3

  4
"
  5

  6

  7

 40
1.0
 41
2.5
 42
1.0
 43
8.0
 44
0.6
 45
0.0
 46
0.0
 47
0.1
 48
0.1
140
2.5
141
0.0
142
0.0
143
0.0393701
144
1.0
145
0.0
146
0.71
147
0.8
 71
     0
 72
     0
 73
     0
 74
     0
 75
     0
 76
     0
 77
     1
 78
     8
170
     0
171
     2
172
     1
173
     0
174
     0
175
     0
176
   256
177
   256
178
     4
  0
DIMSTYLE
  2
AM_ISO$SF
 70
     0
  3

  4
"
  5

  6

  7

 40
1.0
 41
2.5
 42
1.0
 43
10.0
 44
1.0
 45
0.0
 46
0.0
 47
0.1
 48
0.1
140
3.5
141
0.0
142
0.0
143
0.0393701
144
1.0
145
0.0
146
0.71
147
1.5
 71
     0
 72
     0
 73
     0
 74
     0
 75
     1
 76
     1
 77
     1
 78
     8
170
     0
171
     2
172
     1
173
     0
174
     0
175
     0
176
   256
177
   256
178
     2
  0
DIMSTYLE
  2
AM_ISO$SH
 70
     0
  3

  4
"
  5

  6

  7

 40
1.0
 41
2.5
 42
1.0
 43
10.0
 44
1.0
 45
0.0
 46
0.0
 47
0.1
 48
0.1
140
3.5
141
0.0
142
0.0
143
0.0393701
144
2.0
145
0.0
146
0.71
147
1.5
 71
     0
 72
     0
 73
     0
 74
     0
 75
     1
 76
     1
 77
     1
 78
     8
170
     0
171
     2
172
     1
173
     1
174
     0
175
     0
176
   256
177
   256
178
     2
  0
DIMSTYLE
  2
AM_JIS
 70
     0
  3

  4
"
  5

  6

  7

 40
1.0
 41
2.5
 42
1.0
 43
7.0
 44
1.0
 45
0.0
 46
0.0
 47
0.1
 48
0.1000000001
140
2.5
141
0.0
142
0.0
143
0.0393701
144
1.0
145
0.0
146
0.71
147
1.0
 71
     0
 72
     0
 73
     0
 74
     0
 75
     0
 76
     0
 77
     3
 78
     8
170
     0
171
     2
172
     1
173
     0
174
     0
175
     0
176
   256
177
   256
178
     4
  0
DIMSTYLE
  2
AM_JIS$3
 70
     0
  3

  4
"
  5

  6

  7

 40
1.0
 41
2.5
 42
1.0
 43
7.0
 44
1.0
 45
0.0
 46
0.0
 47
0.1
 48
0.1000000001
140
2.5
141
0.0
142
0.0
143
0.0393701
144
1.0
145
0.0
146
0.71
147
1.0
 71
     0
 72
     0
 73
     0
 74
     1
 75
     0
 76
     0
 77
     3
 78
     8
170
     0
171
     2
172
     0
173
     0
174
     0
175
     0
176
   256
177
   256
178
     4
  0
DIMSTYLE
  2
AM_JIS$4
 70
     0
  3

  4
"
  5

  6

  7

 40
1.0
 41
2.5
 42
1.0
 43
7.0
 44
1.0
 45
0.0
 46
0.0
 47
0.1
 48
0.1000000001
140
2.5
141
0.0
142
0.0
143
0.0393701
144
1.0
145
0.0
146
0.71
147
1.0
 71
     0
 72
     0
 73
     0
 74
     0
 75
     0
 76
     0
 77
     3
 78
     8
170
     0
171
     2
172
     0
173
     0
174
     0
175
     0
176
   256
177
   256
178
     4
  0
DIMSTYLE
  2
AM_JIS$6
 70
     0
  3

  4
"
  5

  6

  7

 40
1.0
 41
2.5
 42
1.0
 43
7.0
 44
1.0
 45
0.0
 46
0.0
 47
0.1
 48
0.1000000001
140
2.5
141
0.0
142
0.0
143
0.0393701
144
1.0
145
0.0
146
0.71
147
1.0
 71
     0
 72
     0
 73
     0
 74
     0
 75
     0
 76
     0
 77
     0
 78
     8
170
     0
171
     2
172
     1
173
     0
174
     0
175
     0
176
   256
177
   256
178
     4
  0
DIMSTYLE
  2
AM_JIS$7
 70
     0
  3

  4
"
  5

  6

  7

 40
1.0
 41
2.5
 42
1.0
 43
7.0
 44
1.0
 45
0.0
 46
0.0
 47
0.1
 48
0.1000000001
140
2.5
141
0.0
142
0.0
143
0.0393701
144
1.0
145
0.0
146
0.71
147
1.0
 71
     0
 72
     0
 73
     0
 74
     0
 75
     0
 76
     0
 77
     3
 78
     8
170
     0
171
     2
172
     1
173
     0
174
     0
175
     0
176
   256
177
   256
178
     4
  0
DIMSTYLE
  2
AM_JIS$SF
 70
     0
  3

  4
"
  5

  6

  7

 40
1.0
 41
2.5
 42
1.0
 43
10.0
 44
1.0
 45
0.0
 46
0.0
 47
0.1
 48
0.1
140
3.5
141
0.0
142
0.0
143
0.0393701
144
1.0
145
0.0
146
0.71
147
1.5
 71
     0
 72
     0
 73
     0
 74
     0
 75
     1
 76
     1
 77
     3
 78
     8
170
     0
171
     2
172
     1
173
     0
174
     0
175
     0
176
   256
177
   256
178
     4
  0
DIMSTYLE
  2
AM_JIS$SH
 70
     0
  3

  4
"
  5

  6

  7

 40
1.0
 41
2.5
 42
1.0
 43
10.0
 44
1.0
 45
0.0
 46
0.0
 47
0.1
 48
0.1
140
3.5
141
0.0
142
0.0
143
0.0393701
144
1.0
145
0.0
146
0.71
147
1.5
 71
     0
 72
     0
 73
     0
 74
     0
 75
     1
 76
     0
 77
     3
 78
     8
170
     0
171
     2
172
     1
173
     1
174
     0
175
     0
176
   256
177
   256
178
     4
  0
DIMSTYLE
  2
AM_ANSI
 70
     0
  3

  4
mm
  5

  6

  7

 40
1.0
 41
0.1
 42
0.05
 43
0.5
 44
0.1
 45
0.0
 46
0.0
 47
0.1
 48
0.1
140
0.12
141
0.0
142
0.0
143
25.399999999999999
144
1.0
145
0.0
146
0.71
147
0.06
 71
     0
 72
     0
 73
     1
 74
     1
 75
     0
 76
     0
 77
     0
 78
     7
170
     0
171
     2
172
     0
173
     0
174
     0
175
     0
176
   256
177
   256
178
     2
  0
DIMSTYLE
  2
AM_ANSI$3
 70
     0
  3

  4
mm
  5

  6

  7

 40
1.0
 41
0.1
 42
0.05
 43
0.5
 44
0.1
 45
0.0
 46
0.0
 47
0.1
 48
0.1
140
0.12
141
0.0
142
0.0
143
25.399999999999999
144
1.0
145
0.0
146
0.71
147
0.06
 71
     0
 72
     0
 73
     1
 74
     1
 75
     0
 76
     0
 77
     0
 78
     7
170
     0
171
     2
172
     0
173
     0
174
     0
175
     0
176
   256
177
   256
178
     2
  0
DIMSTYLE
  2
AM_ANSI$4
 70
     0
  3

  4
mm
  5

  6

  7

 40
1.0
 41
0.1
 42
0.05
 43
0.5
 44
0.1
 45
0.0
 46
0.0
 47
0.1
 48
0.1
140
0.12
141
0.0
142
0.0
143
25.399999999999999
144
1.0
145
0.0
146
0.71
147
0.06
 71
     0
 72
     0
 73
     1
 74
     1
 75
     0
 76
     0
 77
     0
 78
     7
170
     0
171
     2
172
     0
173
     0
174
     0
175
     0
176
   256
177
   256
178
     2
  0
DIMSTYLE
  2
AM_ANSI$7
 70
     0
  3

  4
mm
  5

  6

  7

 40
1.0
 41
0.1
 42
0.05
 43
0.5
 44
0.1
 45
0.0
 46
0.0
 47
0.1
 48
0.1
140
0.24
141
0.0
142
0.0
143
25.399999999999999
144
1.0
145
0.0
146
0.71
147
0.06
 71
     0
 72
     0
 73
     1
 74
     1
 75
     0
 76
     0
 77
     0
 78
     7
170
     0
171
     2
172
     0
173
     0
174
     0
175
     0
176
   256
177
   256
178
     2
  0
DIMSTYLE
  2
AM_ANSI$SF
 70
     0
  3

  4
mm
  5

  6

  7

 40
1.0
 41
0.1
 42
0.05
 43
0.5
 44
0.1
 45
0.0
 46
0.0
 47
0.1
 48
0.1
140
0.12
141
0.0
142
0.0
143
25.399999999999999
144
1.0
145
0.0
146
0.71
147
0.06
 71
     0
 72
     0
 73
     1
 74
     1
 75
     1
 76
     1
 77
     0
 78
     7
170
     0
171
     2
172
     0
173
     0
174
     0
175
     0
176
   256
177
   256
178
     2
  0
DIMSTYLE
  2
AM_ANSI$SH
 70
     0
  3

  4
mm
  5

  6

  7

 40
1.0
 41
0.1
 42
0.05
 43
0.5
 44
0.1
 45
0.0
 46
0.0
 47
0.1
 48
0.1
140
0.12
141
0.0
142
0.0
143
25.399999999999999
144
1.0
145
0.0
146
0.71
147
0.06
 71
     0
 72
     0
 73
     1
 74
     1
 75
     1
 76
     1
 77
     0
 78
     7
170
     0
171
     2
172
     0
173
     1
174
     0
175
     0
176
   256
177
   256
178
     2
  0
ENDTAB
  0
ENDSEC
  0
SECTION
  2
BLOCKS
  0
BLOCK
  8
0
  2
$MODEL_SPACE
 70
     0
 10
0.0
 20
0.0
 30
0.0
  3
$MODEL_SPACE
  1

  0
ENDBLK
  5
303F
  8
0
  0
BLOCK
 67
     1
  8
0
  2
$PAPER_SPACE
 70
     0
 10
0.0
 20
0.0
 30
0.0
  3
$PAPER_SPACE
  1

  0
ENDBLK
  5
303B
 67
     1
  8
0
  0
BLOCK
  8
0
  2
GENAXEH
 70
     0
 10
0.0
 20
0.0
 30
0.0
  3
GENAXEH
  1

  0
LINE
  5
2DA4
  8
0
 10
-1.0
 20
0.0
 30
0.0
 11
1.0
 21
0.0
 31
0.0
  0
ENDBLK
  5
2DA5
  8
0
  0
BLOCK
  8
0
  2
_OPEN30
 70
     0
 10
0.0
 20
0.0
 30
0.0
  3
_OPEN30
  1

  0
LINE
  5
2DA8
  8
0
 62
     0
 10
-1.0
 20
0.26794919
 30
0.0
 11
0.0
 21
0.0
 31
0.0
  0
LINE
  5
2DA9
  8
0
 62
     0
 10
0.0
 20
0.0
 30
0.0
 11
-1.0
 21
-0.26794919
 31
0.0
  0
LINE
  5
2DAA
  8
0
 62
     0
 10
0.0
 20
0.0
 30
0.0
 11
-1.0
 21
0.0
 31
0.0
  0
ENDBLK
  5
2DAB
  8
0
  0
BLOCK
  8
0
  2
_NONE
 70
     0
 10
0.0
 20
0.0
 30
0.0
  3
_NONE
  1

  0
ENDBLK
  5
2DAE
  8
0
  0
BLOCK
  8
0
  2
*U5
 70
     1
 10
0.0
 20
0.0
 30
0.0
  3
*U5
  1

  0
TEXT
  5
2DB1
  8
AM_0
 62
     4
 10
1238.1670139980381
 20
353.69260833333402
 30
0.0
 40
12.5
  1
200
 50
90.0
 41
0.8299999999999999
  0
TEXT
  5
2DB2
  8
AM_0
 62
     3
 10
1226.333680664706
 20
381.35927500000048
 30
0.0
 40
8.875
  1
 0
 50
90.0
 41
0.8299999999999999
  0
TEXT
  5
2DB3
  8
AM_0
 62
     3
 10
1238.1670139980381
 20
381.35927500000048
 30
0.0
 40
8.875
  1
-0.5
 50
90.0
 41
0.8299999999999999
  0
ENDBLK
  5
2DB4
  8
0
  0
BLOCK
  8
0
  2
*U6
 70
     1
 10
0.0
 20
0.0
 30
0.0
  3
*U6
  1

  0
TEXT
  5
2DB7
  8
AM_0
 62
     4
 10
727.9469065486519
 20
461.73229833333369
 30
0.0
 40
12.5
  1
\U+2205
 50
90.0
 41
0.8299999999999999
  0
TEXT
  5
2DB8
  8
AM_0
 62
     4
 10
727.9469065486519
 20
472.10729833333357
 30
0.0
 40
12.5
  1
55
 50
90.0
 41
0.8299999999999999
  0
TEXT
  5
2DB9
  8
AM_0
 62
     4
 10
727.9469065486519
 20
492.85729833333369
 30
0.0
 40
10.0
  1
h6
 50
90.0
 41
0.8299999999999999
  0
ENDBLK
  5
2DBA
  8
0
  0
BLOCK
  8
0
  2
_ACMFILLEDHALF
 70
     0
 10
0.0
 20
0.0
 30
0.0
  3
_ACMFILLEDHALF
  1

  0
TRACE
  5
313B
  8
AM_0
 62
     0
 10
-0.8
 20
0.0
 30
0.0
 11
-1.0
 21
0.166666666
 31
0.0
 12
0.0
 22
0.0
 32
0.0
 13
0.0
 23
0.0
 33
0.0
  0
LINE
  5
313C
  8
AM_0
 62
     0
 10
-1.0
 20
0.0
 30
0.0
 11
-0.8
 21
0.0
 31
0.0
  0
ENDBLK
  5
313A
  8
0
  0
ENDSEC
  0
SECTION
  2
ENTITIES
  0
LINE
  5
2DBB
  8
AM_0
 10
434.4246573297263
 20
562.51130000000035
 30
0.0
 11
434.4246573297263
 21
325.9917650000001
 31
0.0
  0
LINE
  5
2DBC
  8
AM_0
 10
374.9247073297264
 20
552.96150000000034
 30
0.0
 11
374.9247073297264
 21
312.96146000000027
 31
0.0
  0
LINE
  5
2DBD
  8
AM_0
 10
387.92465732972641
 20
550.96145000000013
 30
0.0
 11
387.92465732972641
 21
314.96143000000001
 31
0.0
  0
LINE
  5
2DBE
  8
AM_0
 10
443.92465732972693
 20
597.68085000000019
 30
0.0
 11
443.92465732972693
 21
346.14328499999999
 31
0.0
  0
LINE
  5
2DBF
  8
AM_0
 10
453.92465732972681
 20
599.96145000000013
 30
0.0
 11
453.92465732972681
 21
367.35538000000008
 31
0.0
  0
LINE
  5
2DC0
  8
AM_0
 10
535.92465732972641
 20
514.91909999999996
 30
0.0
 11
535.92465732972641
 21
317.96146000000027
 31
0.0
  0
LINE
  5
2DC1
  8
AM_0
 10
568.92465732972687
 20
582.28865000000008
 30
0.0
 11
568.92465732972687
 21
334.26847000000021
 31
0.0
  0
LINE
  5
2DC2
  8
AM_0
 10
458.92465732972681
 20
470.06744999999989
 30
0.0
 11
458.92465732972681
 21
380.200445
 31
0.0
  0
LINE
  5
2DC3
  8
AM_0
 10
600.9246573297263
 20
536.03009999999995
 30
0.0
 11
600.9246573297263
 21
419.8928600000001
 31
0.0
  0
LINE
  5
2DC4
  8
AM_0
 10
595.92465732972641
 20
558.37975000000006
 30
0.0
 11
595.92465732972641
 21
311.62171000000001
 31
0.0
  0
LINE
  5
2DC5
  8
AM_0
 10
606.92465732972641
 20
507.96146499999998
 30
0.0
 11
606.92465732972641
 21
447.96146500000009
 31
0.0
  0
LINE
  5
2DC6
  8
AM_0
 10
688.92465732972687
 20
509.46146500000032
 30
0.0
 11
688.92465732972687
 21
450.46146499999998
 31
0.0
  0
LINE
  5
2DC7
  8
AM_0
 10
272.4247073297264
 20
432.96146499999998
 30
0.0
 11
272.4247073297264
 21
488.01337400000011
 31
0.0
  0
LINE
  5
2DC8
  8
AM_0
 10
270.4247073297264
 20
432.96146499999998
 30
0.0
 11
270.4247073297264
 21
467.96146500000032
 31
0.0
  0
LINE
  5
2DC9
  8
AM_0
 10
301.43101432972662
 20
489.12927600000012
 30
0.0
 11
301.43101432972662
 21
432.96146499999998
 31
0.0
  0
LINE
  5
2DCA
  8
AM_0
 10
354.9247073297264
 20
432.96146499999998
 30
0.0
 11
354.9247073297264
 21
502.67830199999997
 31
0.0
  0
LINE
  5
2DCB
  8
AM_0
 10
372.9247073297264
 20
502.67830199999997
 30
0.0
 11
372.9247073297264
 21
349.43579400000021
 31
0.0
  0
LINE
  5
2DCC
  8
AM_0
 10
266.4247073297264
 20
452.96146499999998
 30
0.0
 11
270.4247073297264
 21
452.96146499999998
 31
0.0
  0
LINE
  5
2DCD
  8
AM_0
 10
266.4247073297264
 20
412.96146499999998
 30
0.0
 11
270.4247073297264
 21
412.96146499999998
 31
0.0
  0
LINE
  5
2DCE
  8
ﾁｭｳｼﾝｾﾝ
 10
199.7749101714962
 20
432.96146499999998
 30
0.0
 11
426.9276831330256
 21
432.96146499999998
 31
0.0
  0
LINE
  5
2DCF
  8
AM_0
 10
208.42470732972649
 20
453.46146499999998
 30
0.0
 11
253.4247073297264
 21
453.46146499999998
 31
0.0
  0
LINE
  5
2DD0
  8
AM_0
 10
266.4247073297264
 20
415.46146499999998
 30
0.0
 11
208.42470732972649
 21
415.46146499999998
 31
0.0
  0
LINE
  5
2DD1
  8
AM_0
 10
208.42470732972649
 20
450.46146499999998
 30
0.0
 11
266.4247073297264
 21
450.46146499999998
 31
0.0
  0
LINE
  5
2DD2
  8
AM_0
 10
208.42470732972649
 20
415.46146499999998
 30
0.0
 11
208.42470732972649
 21
450.46146499999998
 31
0.0
  0
LINE
  5
2DD3
  8
AM_0
 10
208.42470732972649
 20
450.46146499999998
 30
0.0
 11
208.42470732972649
 21
453.46146499999998
 31
0.0
  0
LINE
  5
2DD4
  8
AM_0
 10
266.4247073297264
 20
452.96146499999998
 30
0.0
 11
266.4247073297264
 21
412.96146499999998
 31
0.0
  0
LINE
  5
2DD5
  8
AM_0
 10
253.4247073297264
 20
453.46146499999998
 30
0.0
 11
253.4247073297264
 21
450.46146499999998
 31
0.0
  0
LINE
  5
2DD6
  8
AM_0
 10
370.92465732972641
 20
277.96146000000027
 30
0.0
 11
600.9246573297263
 21
277.96146000000027
 31
0.0
  0
LINE
  5
2DD7
  8
AM_0
 10
354.9247073297264
 20
332.87944500000009
 30
0.0
 11
354.9247073297264
 21
315.9614650000002
 31
0.0
  0
LINE
  5
2DD8
  8
AM_0
 10
427.2766573297265
 20
310.8293500000002
 30
0.0
 11
457.96995732972658
 21
375.93625500000002
 31
0.0
  0
LINE
  5
2DD9
  8
AM_0
 10
374.9247073297264
 20
312.96146000000027
 30
0.0
 11
385.92465732972641
 21
312.96146000000027
 31
0.0
  0
LINE
  5
2DDA
  8
AM_0
 10
375.92465732972641
 20
307.96146000000027
 30
0.0
 11
422.75405732972649
 21
307.96146000000027
 31
0.0
  0
LINE
  5
2DDB
  8
AM_0
 10
370.92465732972641
 20
302.96146000000027
 30
0.0
 11
370.92465732972641
 21
277.96146000000027
 31
0.0
  0
LINE
  5
2DDC
  8
AM_0
 10
357.9247073297264
 20
312.96146500000009
 30
0.0
 11
372.9247073297264
 21
312.96146500000009
 31
0.0
  0
ARC
  5
2DDD
  8
AM_0
 10
357.9247073297264
 20
315.9614650000002
 30
0.0
 40
3.0
 50
180.0
 51
270.0
  0
ARC
  5
2DDE
  8
AM_0
 10
375.92465732972641
 20
302.96146000000027
 30
0.0
 40
5.0
 50
90.000003000000007
 51
180.00001
  0
LINE
  5
2DDF
  8
AM_0
 10
374.9247073297264
 20
314.96146500000009
 30
0.0
 11
372.9247073297264
 21
312.96146500000009
 31
0.0
  0
LINE
  5
2DE0
  8
ｶｸﾚｾﾝ2
 10
410.42465732972641
 20
307.96146000000027
 30
0.0
 11
410.42465732972641
 21
277.96146000000027
 31
0.0
  0
LINE
  5
2DE1
  8
ｶｸﾚｾﾝ2
 10
391.42465732972647
 20
307.96146000000027
 30
0.0
 11
391.42465732972647
 21
277.96146000000027
 31
0.0
  0
LINE
  5
2DE2
  8
ﾁｭｳｼﾝｾﾝ1
 10
400.9246573297263
 20
311.86933000000028
 30
0.0
 11
400.9246573297263
 21
274.96146000000027
 31
0.0
  0
ARC
  5
2DE3
  8
AM_0
 10
385.92465732972641
 20
314.96143000000001
 30
0.0
 40
2.0000000500000001
 50
270.0
 51
0.0
  0
ARC
  5
2DE4
  8
AM_0
 10
422.75405732972649
 20
312.96146000000027
 30
0.0
 40
5.0
 50
270.0
 51
334.75947000000002
  0
LINE
  5
2DE5
  8
AM_0
 10
375.90355732972642
 20
358.52451000000008
 30
0.0
 11
386.93245732972662
 21
358.52451000000008
 31
0.0
  0
LINE
  5
2DE6
  8
AM_0
 10
374.9247073297264
 20
348.79059500000022
 30
0.0
 11
385.92465732972641
 21
348.79059500000022
 31
0.0
  0
LINE
  5
2DE7
  8
AM_0
 10
374.9247073297264
 20
333.23426000000001
 30
0.0
 11
385.92465732972641
 21
333.23426000000001
 31
0.0
  0
LINE
  5
2DE8
  8
AM_0
 10
354.9247073297264
 20
432.96146499999998
 30
0.0
 11
354.9247073297264
 21
349.43579400000021
 31
0.0
  0
LINE
  5
2DE9
  8
AM_0
 10
301.43101432972662
 20
376.79365500000011
 30
0.0
 11
301.43101432972662
 21
432.96146499999998
 31
0.0
  0
LINE
  5
2DEA
  8
AM_0
 10
272.4247073297264
 20
432.96146499999998
 30
0.0
 11
272.4247073297264
 21
377.90955700000012
 31
0.0
  0
LINE
  5
2DEB
  8
AM_0
 10
353.46024132972661
 20
322.42593100000028
 30
0.0
 11
304.28791132972651
 21
371.59826200000009
 31
0.0
  0
LINE
  5
2DEC
  8
AM_0
 10
275.37235032972649
 20
374.91001400000022
 30
0.0
 11
297.39136732972639
 21
374.52567100000022
 31
0.0
  0
ARC
  5
2DED
  8
AM_0
 10
275.4247073297264
 20
377.90955700000012
 30
0.0
 40
3.0
 50
180.0
 51
268.99999999999812
  0
ARC
  5
2DEE
  8
AM_0
 10
297.21684332972649
 20
364.52719400000012
 30
0.0
 40
10.0
 50
45.0
 51
89.000000000001506
  0
LINE
  5
2DEF
  8
AM_0
 10
346.9247073297264
 20
363.24462800000009
 30
0.0
 11
347.98072132972641
 21
351.17432700000012
 31
0.0
  0
ARC
  5
2DF0
  8
AM_0
 10
350.96930632972618
 20
351.43579400000021
 30
0.0
 40
3.0
 50
184.99999999999969
 51
270.0
  0
ARC
  5
2DF1
  8
AM_0
 10
351.03470532972642
 20
335.8794450000002
 30
0.0
 40
3.0
 50
184.99999999999969
 51
270.0
  0
LINE
  5
2DF2
  8
AM_0
 10
346.9247073297264
 20
348.4357940000001
 30
0.0
 11
348.04612032972631
 21
335.61797700000028
 31
0.0
  0
LINE
  5
2DF3
  8
AM_0
 10
351.02244332972617
 20
335.79617800000028
 30
0.0
 11
350.97922732972643
 21
346.07578800000022
 31
0.0
  0
LINE
  5
2DF4
  8
AM_0
 10
351.03470532972642
 20
332.87944500000009
 30
0.0
 11
374.9247073297264
 21
332.87944500000009
 31
0.0
  0
ARC
  5
2DF5
  8
AM_0
 10
349.9247073297264
 20
318.890398
 30
0.0
 40
5.0
 50
0.0
 51
45.0
  0
LINE
  5
2DF6
  8
AM_0
 10
350.96930632972618
 20
348.4357940000001
 30
0.0
 11
353.9247073297264
 21
348.4357940000001
 31
0.0
  0
ARC
  5
2DF7
  8
AM_0
 10
353.9247073297264
 20
349.43579400000021
 30
0.0
 40
1.0
 50
270.0
 51
0.0
  0
ARC
  5
2DF8
  8
AM_0
 10
373.9247073297264
 20
349.43579400000021
 30
0.0
 40
1.0
 50
180.0
 51
270.0
  0
LINE
  5
2DF9
  8
AM_0
 10
373.9247073297264
 20
348.4357940000001
 30
0.0
 11
374.9247073297264
 21
348.4357940000001
 31
0.0
  0
LINE
  5
2DFA
  8
AM_0
 10
354.9247073297264
 20
363.24462800000009
 30
0.0
 11
347.96273832972651
 21
363.24462800000009
 31
0.0
  0
LINE
  5
2DFB
  8
AM_0
 10
374.9247073297264
 20
363.24462800000009
 30
0.0
 11
372.9247073297264
 21
363.24462800000009
 31
0.0
  0
LINE
  5
2DFC
  8
AM_0
 10
357.9247073297264
 20
380.88265200000012
 30
0.0
 11
369.9247073297264
 21
380.88265200000012
 31
0.0
  0
ARC
  5
2DFD
  8
AM_0
 10
357.9247073297264
 20
383.88265200000012
 30
0.0
 40
3.0
 50
180.0
 51
270.0
  0
ARC
  5
2DFE
  8
AM_0
 10
369.9247073297264
 20
383.88265200000012
 30
0.0
 40
3.0
 50
270.0
 51
0.0
  0
LINE
  5
2DFF
  8
AM_0
 10
270.4247073297264
 20
432.96146499999998
 30
0.0
 11
270.4247073297264
 21
397.96146500000009
 31
0.0
  0
LINE
  5
2E00
  8
AM_0
 10
270.4247073297264
 20
397.96146500000009
 30
0.0
 11
272.4247073297264
 21
395.96146500000009
 31
0.0
  0
LINE
  5
2E01
  8
AM_0
 10
357.03336032972641
 20
392.04671800000011
 30
0.0
 11
370.6911643297264
 21
392.04671800000011
 31
0.0
  0
LINE
  5
2E02
  8
AM_0
 10
387.92465732972641
 20
346.28656500000022
 30
0.0
 11
434.4246573297263
 21
346.28656500000022
 31
0.0
  0
LINE
  5
2E03
  8
AM_0
 10
387.92465732972641
 20
362.02866
 30
0.0
 11
434.4246573297263
 21
362.02866
 31
0.0
  0
LINE
  5
2E04
  8
AM_0
 10
389.9247073297264
 20
320.96146000000027
 30
0.0
 11
432.05320732972649
 21
320.96146000000027
 31
0.0
  0
ARC
  5
2E05
  8
AM_0
 10
385.92465732972641
 20
335.23422500000021
 30
0.0
 40
2.0000000500000001
 50
270.0
 51
0.0
  0
ARC
  5
2E06
  8
AM_0
 10
389.9247073297264
 20
318.96146000000027
 30
0.0
 40
2.0000000500000001
 50
90.000003000000007
 51
180.00001
  0
ARC
  5
2E07
  8
AM_0
 10
385.92465732972641
 20
350.790595
 30
0.0
 40
2.0000000500000001
 50
270.0
 51
0.0
  0
ARC
  5
2E08
  8
AM_0
 10
448.9246573297267
 20
380.200445
 30
0.0
 40
10.0
 50
334.75947000000002
 51
0.0
  0
ARC
  5
2E09
  8
AM_0
 10
545.92465732972641
 20
317.96146000000027
 30
0.0
 40
10.0
 50
179.99998999999991
 51
270.0
  0
ARC
  5
2E0A
  8
AM_0
 10
595.92465732972641
 20
302.96146000000027
 30
0.0
 40
5.0
 50
0.0
 51
90.000003000000007
  0
LINE
  5
2E0B
  8
ｶｸﾚｾﾝ2
 10
561.42465732972676
 20
307.96146000000027
 30
0.0
 11
561.42465732972676
 21
277.96146000000027
 31
0.0
  0
LINE
  5
2E0C
  8
ｶｸﾚｾﾝ2
 10
580.4246573297263
 20
307.96146000000027
 30
0.0
 11
580.4246573297263
 21
277.96146000000027
 31
0.0
  0
LINE
  5
2E0D
  8
ﾁｭｳｼﾝｾﾝ1
 10
570.92465732972641
 20
311.86933000000028
 30
0.0
 11
570.92465732972641
 21
274.96146000000027
 31
0.0
  0
LINE
  5
2E0E
  8
AM_0
 10
545.92465732972641
 20
307.96146000000027
 30
0.0
 11
595.92465732972641
 21
307.96146000000027
 31
0.0
  0
ARC
  5
2E0F
  8
AM_0
 10
600.9246573297263
 20
311.62171000000001
 30
0.0
 40
5.0
 50
179.99998999999991
 51
240.00001
  0
LINE
  5
2E10
  8
AM_0
 10
600.9246573297263
 20
302.96146000000027
 30
0.0
 11
600.9246573297263
 21
277.96146000000027
 31
0.0
  0
ARC
  5
2E11
  8
AM_0
 10
598.92465732972676
 20
419.8928600000001
 30
0.0
 40
2.0000000500000001
 50
272.0
 51
0.0
  0
LINE
  5
2E12
  8
AM_0
 10
535.92465732972641
 20
324.26847000000021
 30
0.0
 11
558.92465732972676
 21
324.26847000000021
 31
0.0
  0
ARC
  5
2E13
  8
AM_0
 10
558.92465732972676
 20
334.26847000000021
 30
0.0
 40
10.0
 50
270.0
 51
0.0
  0
LINE
  5
2E14
  8
AM_0
 10
597.85485732972666
 20
417.85425500000008
 30
0.0
 11
598.99440732972653
 21
417.89404999999999
 31
0.0
  0
ARC
  5
2E15
  8
AM_0
 10
597.92465732972641
 20
415.85550500000022
 30
0.0
 40
2.0000000500000001
 50
91.999997999999948
 51
180.00001
  0
LINE
  5
2E16
  8
AM_0
 10
606.92465732972641
 20
450.46146499999998
 30
0.0
 11
688.92465732972687
 21
450.46146499999998
 31
0.0
  0
LINE
  5
2E17
  8
AM_0
 10
600.9246573297263
 20
447.96146500000009
 30
0.0
 11
606.92465732972641
 21
447.96146500000009
 31
0.0
  0
LINE
  5
2E18
  8
AM_0
 10
481.95295732972681
 20
594.98265000000026
 30
0.0
 11
559.27370732972645
 21
592.28260000000012
 31
0.0
  0
LINE
  5
2E19
  8
ﾁｭｳｼﾝｾﾝ
 10
401.73231454766511
 20
477.96146499999998
 30
0.0
 11
694.35350732972654
 21
477.96146499999998
 31
0.0
  0
LINE
  5
2E1A
  8
AM_0
 10
448.42465732972641
 20
599.96145000000013
 30
0.0
 11
446.17420732972641
 21
608.36030000000005
 31
0.0
  0
LINE
  5
2E1B
  8
AM_0
 10
423.2100573297264
 20
599.16035000000034
 30
0.0
 11
425.67520732972639
 21
608.36035000000015
 31
0.0
  0
ARC
  5
2E1C
  8
AM_0
 10
435.92465732972641
 20
625.96145000000013
 30
0.0
 40
25.000000499999999
 50
306.46672000000001
 51
233.53328999999999
  0
LINE
  5
2E1D
  8
AM_0
 10
374.9247073297264
 20
552.96150000000034
 30
0.0
 11
385.92465732972641
 21
552.96150000000034
 31
0.0
  0
LINE
  5
2E1E
  8
AM_0
 10
374.9247073297264
 20
517.1323000000001
 30
0.0
 11
385.92465732972641
 21
517.1323000000001
 31
0.0
  0
LINE
  5
2E1F
  8
AM_0
 10
374.9247073297264
 20
532.68865000000028
 30
0.0
 11
385.92465732972641
 21
532.68865000000028
 31
0.0
  0
LINE
  5
2E20
  8
AM_0
 10
375.90355732972642
 20
507.39841500000023
 30
0.0
 11
386.93245732972662
 21
507.39841500000023
 31
0.0
  0
LINE
  5
2E21
  8
AM_0
 10
354.9247073297264
 20
533.04348600000026
 30
0.0
 11
354.9247073297264
 21
560.09985300000005
 31
0.0
  0
LINE
  5
2E22
  8
AM_0
 10
372.9247073297264
 20
533.04348600000026
 30
0.0
 11
372.9247073297264
 21
560.09985300000005
 31
0.0
  0
LINE
  5
2E23
  8
AM_0
 10
353.46024132972661
 20
543.49699899999985
 30
0.0
 11
304.28791132972651
 21
494.32466900000009
 31
0.0
  0
LINE
  5
2E24
  8
AM_0
 10
275.37235032972649
 20
491.01291700000007
 30
0.0
 11
297.39136732972639
 21
491.39726000000007
 31
0.0
  0
LINE
  5
2E25
  8
AM_0
 10
270.4247073297264
 20
467.96146500000032
 30
0.0
 11
272.4247073297264
 21
469.96146499999998
 31
0.0
  0
ARC
  5
2E26
  8
AM_0
 10
275.4247073297264
 20
488.01337400000011
 30
0.0
 40
3.0
 50
90.999999999998465
 51
180.0
  0
ARC
  5
2E27
  8
AM_0
 10
297.21684332972649
 20
501.395737
 30
0.0
 40
10.0
 50
270.99999999999841
 51
315.0
  0
ARC
  5
2E28
  8
AM_0
 10
351.03470532972642
 20
530.04348600000014
 30
0.0
 40
3.0
 50
90.0
 51
175.00000000000011
  0
LINE
  5
2E29
  8
AM_0
 10
373.74449232972643
 20
502.67830199999997
 30
0.0
 11
347.96273832972651
 21
502.67830199999997
 31
0.0
  0
ARC
  5
2E2A
  8
AM_0
 10
350.96930632972618
 20
514.4871370000003
 30
0.0
 40
3.0
 50
90.0
 51
175.00000000000011
  0
LINE
  5
2E2B
  8
AM_0
 10
346.9247073297264
 20
502.67830199999997
 30
0.0
 11
347.98072132972641
 21
514.74860400000011
 31
0.0
  0
LINE
  5
2E2C
  8
AM_0
 10
346.9247073297264
 20
517.4871370000003
 30
0.0
 11
348.04612032972631
 21
530.30495299999995
 31
0.0
  0
LINE
  5
2E2D
  8
AM_0
 10
350.96930632972618
 20
517.4871370000003
 30
0.0
 11
374.9247073297264
 21
517.4871370000003
 31
0.0
  0
LINE
  5
2E2E
  8
AM_0
 10
351.03470532972642
 20
533.04348600000026
 30
0.0
 11
374.9247073297264
 21
533.04348600000026
 31
0.0
  0
LINE
  5
2E2F
  8
AM_0
 10
351.02244332972617
 20
530.12675300000012
 30
0.0
 11
350.97922732972643
 21
519.84714300000019
 31
0.0
  0
LINE
  5
2E30
  8
AM_0
 10
372.9247073297264
 20
552.96146500000032
 30
0.0
 11
374.9247073297264
 21
550.96146500000032
 31
0.0
  0
LINE
  5
2E31
  8
AM_0
 10
356.05846132972641
 20
543.70996600000012
 30
0.0
 11
371.75432032972628
 21
543.70996600000012
 31
0.0
  0
ARC
  5
2E32
  8
AM_0
 10
349.9247073297264
 20
547.03253300000029
 30
0.0
 40
5.0
 50
315.0
 51
0.0
  0
LINE
  5
2E33
  8
AM_0
 10
357.9247073297264
 20
563.09985300000017
 30
0.0
 11
369.9247073297264
 21
563.09985300000017
 31
0.0
  0
ARC
  5
2E34
  8
AM_0
 10
357.9247073297264
 20
560.09985300000005
 30
0.0
 40
3.0
 50
90.0
 51
180.0
  0
ARC
  5
2E35
  8
AM_0
 10
369.9247073297264
 20
560.09985300000005
 30
0.0
 40
3.0
 50
0.0
 51
90.0
  0
LINE
  5
2E36
  8
AM_0
 10
478.92465732972681
 20
594.2600000000001
 30
0.0
 11
478.92465732972681
 21
470.06744999999989
 31
0.0
  0
LINE
  5
2E37
  8
AM_0
 10
387.92465732972641
 20
503.894295
 30
0.0
 11
434.4246573297263
 21
503.894295
 31
0.0
  0
LINE
  5
2E38
  8
AM_0
 10
387.92465732972641
 20
519.63635000000011
 30
0.0
 11
434.4246573297263
 21
519.63635000000011
 31
0.0
  0
ARC
  5
2E39
  8
AM_0
 10
385.92465732972641
 20
515.1323000000001
 30
0.0
 40
2.0000000500000001
 50
0.0
 51
90.000003000000007
  0
ARC
  5
2E3A
  8
AM_0
 10
385.92465732972641
 20
530.68865000000005
 30
0.0
 40
2.0000000500000001
 50
0.0
 51
90.000003000000007
  0
LINE
  5
2E3B
  8
AM_0
 10
458.92465732972681
 20
470.06744999999989
 30
0.0
 11
478.92465732972681
 21
470.06744999999989
 31
0.0
  0
ARC
  5
2E3C
  8
AM_0
 10
432.42470732972629
 20
546.96145000000013
 30
0.0
 40
2.0000000500000001
 50
270.0
 51
0.0
  0
LINE
  5
2E3D
  8
AM_0
 10
425.9246573297263
 20
599.96145000000013
 30
0.0
 11
453.6246573297264
 21
599.96145000000013
 31
0.0
  0
LINE
  5
2E3E
  8
AM_0
 10
420.92465732972641
 20
594.96145000000013
 30
0.0
 11
420.92465732972641
 21
546.96145000000013
 31
0.0
  0
LINE
  5
2E3F
  8
AM_0
 10
389.9247073297264
 20
544.96145000000013
 30
0.0
 11
418.92465732972659
 21
544.96145000000013
 31
0.0
  0
ARC
  5
2E40
  8
AM_0
 10
385.92465732972641
 20
550.96145000000013
 30
0.0
 40
2.0000000500000001
 50
0.0
 51
90.000003000000007
  0
ARC
  5
2E41
  8
AM_0
 10
389.9247073297264
 20
546.96145000000013
 30
0.0
 40
2.0000000500000001
 50
179.99998999999991
 51
270.0
  0
ARC
  5
2E42
  8
AM_0
 10
418.92465732972659
 20
546.96145000000013
 30
0.0
 40
2.0000000500000001
 50
270.0
 51
0.0
  0
LINE
  5
2E43
  8
AM_0
 10
418.92465732972659
 20
544.96145000000013
 30
0.0
 11
432.42470732972629
 21
544.96145000000013
 31
0.0
  0
ARC
  5
2E44
  8
AM_0
 10
417.49960732972659
 20
601.03120000000013
 30
0.0
 40
6.0
 50
349.72994999999997
 51
53.533291000000013
  0
ARC
  5
2E45
  8
AM_0
 10
425.9246573297263
 20
594.96145000000013
 30
0.0
 40
5.0
 50
90.000003000000007
 51
180.00001
  0
LINE
  5
2E46
  8
AM_0
 10
443.14875732972632
 20
577.73635000000013
 30
0.0
 11
435.20060732972649
 21
565.18655000000035
 31
0.0
  0
ARC
  5
2E47
  8
AM_0
 10
439.42465732972641
 20
562.51130000000035
 30
0.0
 40
5.0
 50
147.65255999999991
 51
180.00001
  0
LINE
  5
2E48
  8
AM_0
 10
453.92465732972681
 20
599.96145000000013
 30
0.0
 11
474.09915732972638
 21
599.25690000000043
 31
0.0
  0
ARC
  5
2E49
  8
AM_0
 10
438.92465732972693
 20
580.41165000000012
 30
0.0
 40
5.0
 50
327.65255999999982
 51
0.0
  0
LINE
  5
2E4A
  8
AM_0
 10
445.8549073297263
 20
599.67965000000015
 30
0.0
 11
453.6246573297264
 21
599.95095000000015
 31
0.0
  0
ARC
  5
2E4B
  8
AM_0
 10
445.92465732972641
 20
597.68085000000019
 30
0.0
 40
2.0000000500000001
 50
91.999997999999948
 51
180.00001
  0
ARC
  5
2E4C
  8
AM_0
 10
454.34965732972643
 20
601.03120000000013
 30
0.0
 40
6.0
 50
126.4666999999999
 51
190.27006
  0
LINE
  5
2E4D
  8
AM_0
 10
453.6246573297264
 20
599.96145000000013
 30
0.0
 11
453.92465732972681
 21
599.96145000000013
 31
0.0
  0
ARC
  5
2E4E
  8
AM_0
 10
473.9246573297267
 20
594.2600000000001
 30
0.0
 40
5.0
 50
34.887349999999998
 51
88.0
  0
ARC
  5
2E4F
  8
AM_0
 10
482.12745732972633
 20
599.97960000000012
 30
0.0
 40
5.0
 50
214.88733999999991
 51
268.0
  0
CIRCLE
  5
2E50
  8
AM_0
 10
435.92465732972641
 20
625.96145000000013
 30
0.0
 40
15.0
  0
LINE
  5
2E51
  8
AM_0
 10
426.4466073297267
 20
609.08240000000012
 30
0.0
 11
435.92470732972652
 21
610.96145000000013
 31
0.0
  0
LINE
  5
2E52
  8
AM_0
 10
426.1306073297265
 20
608.96145000000013
 30
0.0
 11
445.71865732972651
 21
608.96145000000013
 31
0.0
  0
ARC
  5
2E53
  8
AM_0
 10
426.64110732972671
 20
608.10155000000043
 30
0.0
 40
1.0
 50
101.21329
 51
164.99999
  0
ARC
  5
2E54
  8
AM_0
 10
445.20830732972661
 20
608.10155000000043
 30
0.0
 40
1.0
 50
15.0
 51
78.786709999999999
  0
LINE
  5
2E55
  8
AM_0
 10
435.92465732972641
 20
610.96145000000013
 30
0.0
 11
445.40270732972652
 21
609.08245000000034
 31
0.0
  0
ARC
  5
2E56
  8
AM_0
 10
598.92465732972676
 20
536.03009999999995
 30
0.0
 40
2.0000000500000001
 50
0.0
 51
88.0
  0
ARC
  5
2E57
  8
AM_0
 10
550.9246573297263
 20
514.91909999999996
 30
0.0
 40
15.0
 50
90.000003000000007
 51
180.00001
  0
LINE
  5
2E58
  8
AM_0
 10
550.9246573297263
 20
529.9191000000003
 30
0.0
 11
568.92465732972687
 21
529.9191000000003
 31
0.0
  0
ARC
  5
2E59
  8
AM_0
 10
578.92465732972676
 20
574.48695000000009
 30
0.0
 40
10.0
 50
179.99998999999991
 51
265.0
  0
LINE
  5
2E5A
  8
AM_0
 10
597.8549073297263
 20
538.06859999999995
 30
0.0
 11
598.99450732972673
 21
538.02880000000005
 31
0.0
  0
ARC
  5
2E5B
  8
AM_0
 10
597.92465732972641
 20
540.06745000000001
 30
0.0
 40
2.0000000500000001
 50
179.99998999999991
 51
268.00000999999992
  0
LINE
  5
2E5C
  8
AM_0
 10
578.05305732972624
 20
564.52505000000031
 30
0.0
 11
591.36040732972651
 21
563.36080000000038
 31
0.0
  0
ARC
  5
2E5D
  8
AM_0
 10
590.92465732972641
 20
558.37975000000006
 30
0.0
 40
5.0
 50
0.0
 51
84.999996999999979
  0
ARC
  5
2E5E
  8
AM_0
 10
558.92465732972676
 20
582.28865000000008
 30
0.0
 40
10.0
 50
0.0
 51
88.0
  0
LINE
  5
2E5F
  8
AM_0
 10
606.92465732972641
 20
505.46146500000032
 30
0.0
 11
688.92465732972687
 21
505.46146500000032
 31
0.0
  0
LINE
  5
2E60
  8
AM_0
 10
626.92465732972641
 20
509.46146500000032
 30
0.0
 11
688.92465732972687
 21
509.46146500000032
 31
0.0
  0
LINE
  5
2E61
  8
AM_0
 10
600.9246573297263
 20
507.96146499999998
 30
0.0
 11
606.92465732972641
 21
507.96146499999998
 31
0.0
  0
LINE
  5
2E62
  8
AM_0
 10
626.92465732972641
 20
509.46146500000032
 30
0.0
 11
626.92465732972641
 21
505.46146500000032
 31
0.0
  0
ARC
  5
2E63
  8
AM_0
 10
1002.768696218929
 20
477.96146499999998
 30
0.0
 40
60.0
 50
270.0
 51
90.000003000000007
  0
ARC
  5
2E64
  8
AM_0
 10
1002.768696218929
 20
477.96146499999998
 30
0.0
 40
60.0
 50
90.000003000000007
 51
270.0
  0
ARC
  5
2E65
  8
AM_0
 10
1002.768696218929
 20
477.96146499999998
 30
0.0
 40
27.500000499999999
 50
106.91239
 51
73.087597000000002
  0
LINE
  5
2E66
  8
AM_0
 10
1167.76868621893
 20
307.96146000000027
 30
0.0
 11
1129.5713262189311
 21
504.46979499999992
 31
0.0
  0
LINE
  5
2E67
  8
AM_0
 10
1119.768666218931
 20
384.92536000000001
 30
0.0
 11
1119.768666218931
 21
528.89525000000015
 31
0.0
  0
LINE
  5
2E68
  8
AM_0
 10
1102.7686662189301
 20
319.96143000000012
 30
0.0
 11
1102.7686662189301
 21
462.96146499999998
 31
0.0
  0
LINE
  5
2E69
  8
AM_0
 10
837.76867621893086
 20
307.96146000000027
 30
0.0
 11
875.96605121893083
 21
504.469765
 31
0.0
  0
LINE
  5
2E6A
  8
AM_0
 10
885.76866621893055
 20
384.92536000000001
 30
0.0
 11
885.76866621893055
 21
528.89525000000015
 31
0.0
  0
LINE
  5
2E6B
  8
ﾁｭｳｼﾝｾﾝ
 10
1002.768696218929
 20
271.96146000000027
 30
0.0
 11
1002.768696218929
 21
653.06940000000031
 31
0.0
  0
LINE
  5
2E6C
  8
AM_0
 10
902.76869621893081
 20
319.96143000000012
 30
0.0
 11
902.76869621893081
 21
462.96146499999998
 31
0.0
  0
LINE
  5
2E6D
  8
AM_0
 10
1097.7686662189301
 20
277.96146000000027
 30
0.0
 11
1167.7686712189291
 21
277.96146000000027
 31
0.0
  0
LINE
  5
2E6E
  8
AM_0
 10
1102.7686662189301
 20
307.96146000000027
 30
0.0
 11
1162.76867121893
 21
307.96146000000027
 31
0.0
  0
LINE
  5
2E6F
  8
AM_0
 10
938.02358121893076
 20
295.7699300000001
 30
0.0
 11
931.69493621893082
 21
300.2013300000001
 31
0.0
  0
LINE
  5
2E70
  8
AM_0
 10
1002.768696218929
 20
284.96146000000027
 30
0.0
 11
912.76869621893104
 21
284.96146000000027
 31
0.0
  0
LINE
  5
2E71
  8
ﾁｭｳｼﾝｾﾝ
 10
868.03109472803385
 20
432.96146499999998
 30
0.0
 11
1137.0402855148141
 21
432.96146499999998
 31
0.0
  0
ARC
  5
2E72
  8
AM_0
 10
890.76866621893055
 20
319.96143000000012
 30
0.0
 40
12.0
 50
270.0
 51
0.0
  0
LINE
  5
2E73
  8
AM_0
 10
907.7686962189307
 20
277.96146000000027
 30
0.0
 11
837.76867621893086
 21
277.96146000000027
 31
0.0
  0
LINE
  5
2E74
  8
AM_0
 10
902.76869621893081
 20
307.96146000000027
 30
0.0
 11
842.76867621893052
 21
307.96146000000027
 31
0.0
  0
LINE
  5
2E75
  8
ｶｸﾚｾﾝ2
 10
860.76866621893055
 20
307.96146000000027
 30
0.0
 11
860.76866621893055
 21
277.96146000000027
 31
0.0
  0
LINE
  5
2E76
  8
AM_0
 10
837.76867621893086
 20
307.96146000000027
 30
0.0
 11
837.76867621893086
 21
277.96146000000027
 31
0.0
  0
LINE
  5
2E77
  8
ﾁｭｳｼﾝｾﾝ1
 10
870.2686962189307
 20
312.62271500000008
 30
0.0
 11
870.2686962189307
 21
274.96146000000027
 31
0.0
  0
ARC
  5
2E78
  8
AM_0
 10
842.76867621893052
 20
302.96146000000027
 30
0.0
 40
5.0
 50
90.000003000000007
 51
180.00001
  0
LINE
  5
2E79
  8
ｶｸﾚｾﾝ2
 10
879.76866621893078
 20
307.96146000000027
 30
0.0
 11
879.76866621893078
 21
277.96146000000027
 31
0.0
  0
ARC
  5
2E7A
  8
AM_0
 10
912.76869621893104
 20
279.96146000000027
 30
0.0
 40
5.0
 50
90.000003000000007
 51
180.00001
  0
LINE
  5
2E7B
  8
AM_0
 10
907.7686962189307
 20
302.96146000000027
 30
0.0
 11
907.7686962189307
 21
277.96146000000027
 31
0.0
  0
ARC
  5
2E7C
  8
AM_0
 10
902.76869621893081
 20
302.96146000000027
 30
0.0
 40
5.0
 50
0.0
 51
90.000003000000007
  0
ARC
  5
2E7D
  8
AM_0
 10
925.95915621893084
 20
292.00980000000021
 30
0.0
 40
10.0
 50
54.999999000000003
 51
135.0
  0
ARC
  5
2E7E
  8
AM_0
 10
917.76869621893093
 20
283.81931000000009
 30
0.0
 40
10.0
 50
135.0
 51
180.00001
  0
LINE
  5
2E7F
  8
AM_0
 10
910.69762121893086
 20
290.89038500000009
 30
0.0
 11
918.88808121893078
 21
299.08087500000028
 31
0.0
  0
ARC
  5
2E80
  8
AM_0
 10
1002.768696218929
 20
384.96143000000018
 30
0.0
 40
117.0
 50
179.99998999999991
 51
211.27329999999989
  0
ARC
  5
2E81
  8
AM_0
 10
1114.7686662189301
 20
319.96143000000012
 30
0.0
 40
12.0
 50
180.00001
 51
270.0
  0
LINE
  5
2E82
  8
AM_0
 10
1002.768696218929
 20
284.96146000000027
 30
0.0
 11
1092.768666218929
 21
284.96146000000027
 31
0.0
  0
LINE
  5
2E83
  8
AM_0
 10
1002.768696218929
 20
293.96146000000027
 30
0.0
 11
1061.7780062189311
 21
293.96146000000027
 31
0.0
  0
LINE
  5
2E84
  8
AM_0
 10
1002.768696218929
 20
293.96146000000027
 30
0.0
 11
943.75935621893075
 21
293.96146000000027
 31
0.0
  0
ARC
  5
2E85
  8
AM_0
 10
943.75935621893075
 20
303.96146000000027
 30
0.0
 40
10.0
 50
235.0
 51
270.0
  0
ARC
  5
2E86
  8
AM_0
 10
1102.7686662189301
 20
302.96146000000027
 30
0.0
 40
5.0
 50
90.000003000000007
 51
180.00001
  0
LINE
  5
2E87
  8
AM_0
 10
1097.7686662189301
 20
302.96146000000027
 30
0.0
 11
1097.7686662189301
 21
277.96146000000027
 31
0.0
  0
ARC
  5
2E88
  8
AM_0
 10
1092.768666218929
 20
279.96146000000027
 30
0.0
 40
5.0
 50
0.0
 51
90.000003000000007
  0
LINE
  5
2E89
  8
AM_0
 10
1067.5137862189299
 20
295.76990000000012
 30
0.0
 11
1073.842461218931
 21
300.2013
 31
0.0
  0
ARC
  5
2E8A
  8
AM_0
 10
1061.7780062189311
 20
303.96146000000027
 30
0.0
 40
10.0
 50
270.0
 51
305.0
  0
ARC
  5
2E8B
  8
AM_0
 10
1079.5781762189299
 20
292.00980000000021
 30
0.0
 40
10.0
 50
45.00000099999999
 51
125.0
  0
LINE
  5
2E8C
  8
AM_0
 10
1094.8397412189299
 20
290.89038500000009
 30
0.0
 11
1086.64925121893
 21
299.08087500000028
 31
0.0
  0
ARC
  5
2E8D
  8
AM_0
 10
1087.7686662189301
 20
283.81931000000009
 30
0.0
 40
10.0
 50
0.0
 51
45.00000099999999
  0
LINE
  5
2E8E
  8
ｶｸﾚｾﾝ2
 10
1144.76867121893
 20
307.96146000000027
 30
0.0
 11
1144.76867121893
 21
277.96146000000027
 31
0.0
  0
LINE
  5
2E8F
  8
ｶｸﾚｾﾝ2
 10
1125.76868621893
 20
307.96146000000027
 30
0.0
 11
1125.76868621893
 21
277.96146000000027
 31
0.0
  0
LINE
  5
2E90
  8
ﾁｭｳｼﾝｾﾝ1
 10
1135.2686712189291
 20
312.62271500000008
 30
0.0
 11
1135.2686712189291
 21
274.96146000000027
 31
0.0
  0
ARC
  5
2E91
  8
AM_0
 10
1002.768696218929
 20
384.96143000000018
 30
0.0
 40
117.0
 50
328.72669999999988
 51
0.0
  0
LINE
  5
2E92
  8
AM_0
 10
1167.7686712189291
 20
307.96146000000027
 30
0.0
 11
1167.7686712189291
 21
277.96146000000027
 31
0.0
  0
ARC
  5
2E93
  8
AM_0
 10
1162.76867121893
 20
302.96146000000027
 30
0.0
 40
5.0
 50
0.0
 51
90.000003000000007
  0
LINE
  5
2E94
  8
ﾁｭｳｼﾝｾﾝ
 10
1090.924424901973
 20
477.96146499999998
 30
0.0
 11
914.84568155945897
 21
477.96146499999998
 31
0.0
  0
ARC
  5
2E95
  8
AM_0
 10
1002.768696218929
 20
452.96146499999998
 30
0.0
 40
142.0
 50
90.000003000000007
 51
136.44563999999991
  0
ARC
  5
2E96
  8
AM_0
 10
1002.768696218929
 20
462.96146499999998
 30
0.0
 40
100.0
 50
90.000003000000007
 51
180.00001
  0
ARC
  5
2E97
  8
AM_0
 10
1002.768696218929
 20
452.96146499999998
 30
0.0
 40
147.0
 50
90.000003000000007
 51
134.5979599999998
  0
ARC
  5
2E98
  8
AM_0
 10
969.76866621893078
 20
486.42786500000011
 30
0.0
 40
100.0
 50
134.5979599999998
 51
180.00001
  0
ARC
  5
2E99
  8
AM_0
 10
967.25737621893074
 20
486.7245549999999
 30
0.0
 40
93.0
 50
136.44563999999991
 51
169.0
  0
LINE
  5
2E9A
  8
AM_0
 10
869.76866621893078
 20
486.42786500000011
 30
0.0
 11
869.76866621893078
 21
472.58716500000008
 31
0.0
  0
ARC
  5
2E9B
  8
AM_0
 10
895.76866621893078
 20
528.89525000000015
 30
0.0
 40
10.0
 50
149.4639199999998
 51
180.00001
  0
LINE
  5
2E9C
  8
AM_0
 10
997.76869621893081
 20
645.96145000000013
 30
0.0
 11
997.76869621893081
 21
603.96145000000013
 31
0.0
  0
LINE
  5
2E9D
  8
AM_0
 10
1007.76869621893
 20
645.96145000000013
 30
0.0
 11
1007.76869621893
 21
603.96145000000013
 31
0.0
  0
LINE
  5
2E9E
  8
AM_0
 10
1015.41469121893
 20
599.41650000000016
 30
0.0
 11
1013.01821121893
 21
608.36030000000005
 31
0.0
  0
LINE
  5
2E9F
  8
AM_0
 10
990.12267121893069
 20
599.41650000000016
 30
0.0
 11
992.51918621893083
 21
608.36035000000015
 31
0.0
  0
ARC
  5
2EA0
  8
AM_0
 10
1002.768696218929
 20
452.96146499999998
 30
0.0
 40
147.0
 50
45.402042999999992
 51
90.000003000000007
  0
ARC
  5
2EA1
  8
AM_0
 10
1002.768696218929
 20
452.96146499999998
 30
0.0
 40
142.0
 50
43.554364
 51
90.000003000000007
  0
ARC
  5
2EA2
  8
AM_0
 10
1002.768696218929
 20
462.96146499999998
 30
0.0
 40
100.0
 50
0.0
 51
90.000003000000007
  0
CIRCLE
  5
2EA3
  8
AM_0
 10
1002.768696218929
 20
477.96146499999998
 30
0.0
 40
4.500000049999997
  0
CIRCLE
  5
2EA4
  8
AM_5
 10
1002.768696218929
 20
477.96146499999998
 30
0.0
 40
6.0
  0
LINE
  5
2EA5
  8
AM_0
 10
994.76866621893078
 20
509.46146500000032
 30
0.0
 11
1010.76866621893
 21
509.46146500000032
 31
0.0
  0
LINE
  5
2EA6
  8
AM_0
 10
994.76866621893078
 20
499.46146499999998
 30
0.0
 11
1010.76866621893
 21
499.46146499999998
 31
0.0
  0
LINE
  5
2EA7
  8
AM_0
 10
994.76866621893078
 20
499.46146499999998
 30
0.0
 11
994.76866621893078
 21
509.46146500000032
 31
0.0
  0
LINE
  5
2EA8
  8
AM_0
 10
1010.76866621893
 20
499.46146499999998
 30
0.0
 11
1010.76866621893
 21
509.46146500000032
 31
0.0
  0
ARC
  5
2EA9
  8
AM_0
 10
995.76866621893078
 20
603.96145000000013
 30
0.0
 40
2.0000000500000001
 50
270.0
 51
0.0
  0
ARC
  5
2EAA
  8
AM_0
 10
1009.76866621893
 20
603.96145000000013
 30
0.0
 40
2.0000000500000001
 50
179.99998999999991
 51
270.0
  0
ARC
  5
2EAB
  8
AM_0
 10
1035.7686662189301
 20
486.42786500000011
 30
0.0
 40
100.0
 50
0.0
 51
45.402042999999992
  0
ARC
  5
2EAC
  8
AM_0
 10
1038.279991218928
 20
486.7245549999999
 30
0.0
 40
93.0
 50
11.0
 51
43.554364
  0
LINE
  5
2EAD
  8
AM_0
 10
1135.76868621893
 20
486.42786500000011
 30
0.0
 11
1135.76868621893
 21
472.58716500000008
 31
0.0
  0
ARC
  5
2EAE
  8
AM_0
 10
1109.7686662189301
 20
528.89525000000015
 30
0.0
 40
10.0
 50
0.0
 51
30.536084999999989
  0
ARC
  5
2EAF
  8
AM_0
 10
1002.768696218929
 20
645.96145000000013
 30
0.0
 40
5.0
 50
359.99998999999991
 51
179.99998999999991
  0
ARC
  5
2EB0
  8
AM_0
 10
993.48509621893049
 20
608.10155000000043
 30
0.0
 40
1.0
 50
101.21329
 51
164.99999
  0
LINE
  5
2EB1
  8
AM_0
 10
993.29064121893089
 20
609.08240000000012
 30
0.0
 11
997.76866621893078
 21
609.97015000000033
 31
0.0
  0
ARC
  5
2EB2
  8
AM_0
 10
1012.0522362189309
 20
608.10155000000043
 30
0.0
 40
1.0
 50
15.0
 51
78.786709999999999
  0
LINE
  5
2EB3
  8
AM_0
 10
1007.76869621893
 20
609.97030000000041
 30
0.0
 11
1012.246756218931
 21
609.08245000000034
 31
0.0
  0
LINE
  5
2EB4
  8
AM_0
 10
208.4247173297268
 20
924.71954613290609
 30
0.0
 11
253.4247173297268
 21
924.71954613290609
 31
0.0
  0
LINE
  5
2EB5
  8
AM_0
 10
208.4247173297268
 20
934.71954613290632
 30
0.0
 11
253.4247173297268
 21
934.71954613290632
 31
0.0
  0
LINE
  5
2EB6
  8
AM_0
 10
208.4247173297268
 20
947.21955113290585
 30
0.0
 11
266.42471732972689
 21
947.21955113290585
 31
0.0
  0
LINE
  5
2EB7
  8
AM_0
 10
266.42471732972689
 20
912.21955113290619
 30
0.0
 11
208.4247173297268
 21
912.21955113290619
 31
0.0
  0
LINE
  5
2EB8
  8
AM_0
 10
208.4247173297268
 20
912.21955113290619
 30
0.0
 11
208.4247173297268
 21
947.21955113290585
 31
0.0
  0
LINE
  5
2EB9
  8
AM_0
 10
372.92471732972672
 20
829.63752013290593
 30
0.0
 11
372.92471732972672
 21
809.71955113290585
 31
0.0
  0
LINE
  5
2EBA
  8
AM_0
 10
353.46025132972682
 20
819.18401713290621
 30
0.0
 11
304.28792132972683
 21
868.35634813290574
 31
0.0
  0
LINE
  5
2EBB
  8
AM_0
 10
354.92471732972672
 20
829.63753113290613
 30
0.0
 11
354.92471732972672
 21
812.71955113290574
 31
0.0
  0
LINE
  5
2EBC
  8
AM_0
 10
357.92471732972672
 20
809.71955113290585
 30
0.0
 11
372.92471732972672
 21
809.71955113290585
 31
0.0
  0
ARC
  5
2EBD
  8
AM_0
 10
349.92471732972672
 20
815.64848413290622
 30
0.0
 40
5.0
 50
0.0
 51
45.0
  0
ARC
  5
2EBE
  8
AM_0
 10
357.92471732972672
 20
812.71955113290574
 30
0.0
 40
3.0
 50
180.0
 51
270.0
  0
LINE
  5
2EBF
  8
AM_0
 10
374.92471732972672
 20
811.71955113290574
 30
0.0
 11
372.92471732972672
 21
809.71955113290585
 31
0.0
  0
LINE
  5
2EC0
  8
AM_0
 10
354.92471732972672
 20
860.00270413290605
 30
0.0
 11
354.92471732972672
 21
999.43638813290613
 31
0.0
  0
LINE
  5
2EC1
  8
AM_0
 10
372.92471732972672
 20
999.43638813290613
 30
0.0
 11
372.92471732972672
 21
860.00270413290605
 31
0.0
  0
LINE
  5
2EC2
  8
AM_0
 10
301.43102432972682
 20
985.88736213290542
 30
0.0
 11
301.43102432972682
 21
929.71955113290619
 31
0.0
  0
LINE
  5
2EC3
  8
AM_0
 10
272.42471732972678
 20
929.71955113290619
 30
0.0
 11
272.42471732972678
 21
984.77146013290621
 31
0.0
  0
LINE
  5
2EC4
  8
AM_0
 10
350.96931632972672
 20
845.19386913290612
 30
0.0
 11
374.92471732972672
 21
845.19386913290612
 31
0.0
  0
LINE
  5
2EC5
  8
AM_0
 10
373.7445023297268
 20
860.00270413290605
 30
0.0
 11
347.96274832972671
 21
860.00270413290605
 31
0.0
  0
ARC
  5
2EC6
  8
AM_0
 10
351.03471532972679
 20
832.63752013290616
 30
0.0
 40
3.0
 50
184.99999999999969
 51
270.0
  0
LINE
  5
2EC7
  8
AM_0
 10
270.42471732972678
 20
929.71955113290619
 30
0.0
 11
270.42471732972678
 21
894.71955113290574
 31
0.0
  0
LINE
  5
2EC8
  8
AM_0
 10
272.42471732972678
 20
929.71955113290619
 30
0.0
 11
272.42471732972678
 21
874.66764313290616
 31
0.0
  0
LINE
  5
2EC9
  8
AM_0
 10
301.43102432972682
 20
873.55174113290593
 30
0.0
 11
301.43102432972682
 21
929.71955113290619
 31
0.0
  0
LINE
  5
2ECA
  8
AM_0
 10
275.3723603297268
 20
871.66810013290615
 30
0.0
 11
297.39137732972671
 21
871.2837571329062
 31
0.0
  0
ARC
  5
2ECB
  8
AM_0
 10
275.42471732972678
 20
874.66764313290616
 30
0.0
 40
3.0
 50
180.0
 51
268.99999999999812
  0
LINE
  5
2ECC
  8
AM_0
 10
270.42471732972678
 20
894.71955113290574
 30
0.0
 11
272.42471732972678
 21
892.71955113290585
 31
0.0
  0
LINE
  5
2ECD
  8
AM_0
 10
346.92471732972672
 20
845.19386913290612
 30
0.0
 11
348.04613032972679
 21
832.37605313290589
 31
0.0
  0
LINE
  5
2ECE
  8
AM_0
 10
346.92471732972672
 20
860.00270413290605
 30
0.0
 11
347.98073132972672
 21
847.93240213290585
 31
0.0
  0
ARC
  5
2ECF
  8
AM_0
 10
350.96931632972672
 20
848.19386913290623
 30
0.0
 40
3.0
 50
184.99999999999969
 51
270.0
  0
ARC
  5
2ED0
  8
AM_0
 10
297.21685332972669
 20
861.28528013290611
 30
0.0
 40
10.0
 50
45.0
 51
89.000000000001506
  0
ARC
  5
2ED1
  8
AM_0
 10
253.4247173297268
 20
929.7195461329062
 30
0.0
 40
5.0
 50
270.0
 51
90.0
  0
LINE
  5
2ED2
  8
AM_0
 10
253.4247173297268
 20
934.71954613290632
 30
0.0
 11
253.4247173297268
 21
924.71954613290609
 31
0.0
  0
LINE
  5
2ED3
  8
AM_0
 10
270.42471732972678
 20
929.71955113290619
 30
0.0
 11
270.42471732972678
 21
964.71955113290619
 31
0.0
  0
LINE
  5
2ED4
  8
AM_0
 10
266.42471732972689
 20
949.71955113290619
 30
0.0
 11
266.42471732972689
 21
909.71955113290585
 31
0.0
  0
LINE
  5
2ED5
  8
AM_0
 10
266.42471732972689
 20
909.71955113290585
 30
0.0
 11
270.42471732972678
 21
909.71955113290585
 31
0.0
  0
LINE
  5
2ED6
  8
AM_0
 10
266.42471732972689
 20
949.71955113290619
 30
0.0
 11
270.42471732972678
 21
949.71955113290619
 31
0.0
  0
LINE
  5
2ED7
  8
AM_0
 10
270.42471732972678
 20
964.71955113290619
 30
0.0
 11
272.42471732972678
 21
966.71955113290619
 31
0.0
  0
LINE
  5
2ED8
  8
AM_0
 10
351.02245332972672
 20
832.55425313290596
 30
0.0
 11
350.9792373297268
 21
842.83386313290623
 31
0.0
  0
LINE
  5
2ED9
  8
AM_0
 10
351.03471532972679
 20
829.63752013290593
 30
0.0
 11
374.92471732972672
 21
829.63752013290593
 31
0.0
  0
LINE
  5
2EDA
  8
AM_0
 10
372.92471732972672
 20
913.14475018943949
 30
0.0
 11
354.92471732972672
 21
913.14475018943949
 31
0.0
  0
LINE
  5
2EDB
  8
AM_0
 10
354.92471732972672
 20
914.71954613290632
 30
0.0
 11
372.92471732972672
 21
914.7195461329062
 31
0.0
  0
LINE
  5
2EDC
  8
AM_0
 10
372.92471732972672
 20
946.29434207637269
 30
0.0
 11
354.92471732972672
 21
946.29434207637269
 31
0.0
  0
LINE
  5
2EDD
  8
AM_0
 10
354.92471732972672
 20
944.71954613290575
 30
0.0
 11
372.92471732972672
 21
944.71954613290575
 31
0.0
  0
ARC
  5
2EDE
  8
AM_0
 10
351.03471532972679
 20
1026.8015721329059
 30
0.0
 40
3.0
 50
90.0
 51
175.00000000000011
  0
LINE
  5
2EDF
  8
AM_0
 10
373.7445023297268
 20
999.43638813290613
 30
0.0
 11
347.96274832972671
 21
999.43638813290613
 31
0.0
  0
LINE
  5
2EE0
  8
AM_0
 10
350.96931632972672
 20
1014.2452231329059
 30
0.0
 11
374.92471732972672
 21
1014.2452231329059
 31
0.0
  0
LINE
  5
2EE1
  8
AM_0
 10
353.46025132972682
 20
1040.2550851329049
 30
0.0
 11
304.28792132972683
 21
991.08275513290585
 31
0.0
  0
LINE
  5
2EE2
  8
AM_0
 10
275.3723603297268
 20
987.771003132906
 30
0.0
 11
297.39137732972671
 21
988.15534613290561
 31
0.0
  0
ARC
  5
2EE3
  8
AM_0
 10
275.42471732972678
 20
984.77146013290621
 30
0.0
 40
3.0
 50
90.999999999998494
 51
180.0
  0
LINE
  5
2EE4
  8
AM_0
 10
346.92471732972672
 20
999.43638813290613
 30
0.0
 11
347.98073132972672
 21
1011.506690132905
 31
0.0
  0
ARC
  5
2EE5
  8
AM_0
 10
297.21685332972669
 20
998.15382313290593
 30
0.0
 40
10.0
 50
270.99999999999841
 51
315.0
  0
LINE
  5
2EE6
  8
AM_0
 10
346.92471732972672
 20
1014.2452231329059
 30
0.0
 11
348.04613032972679
 21
1027.0630391329059
 31
0.0
  0
ARC
  5
2EE7
  8
AM_0
 10
350.96931632972672
 20
1011.2452231329059
 30
0.0
 40
3.0
 50
90.0
 51
175.00000000000011
  0
LINE
  5
2EE8
  8
AM_0
 10
372.92471732972672
 20
1029.8015721329059
 30
0.0
 11
372.92471732972672
 21
1049.7195411329051
 31
0.0
  0
ARC
  5
2EE9
  8
AM_0
 10
349.92471732972672
 20
1043.7906081329061
 30
0.0
 40
5.0
 50
315.0
 51
0.0
  0
LINE
  5
2EEA
  8
AM_0
 10
354.92471732972672
 20
1046.7195411329051
 30
0.0
 11
354.92471732972672
 21
1029.8015721329059
 31
0.0
  0
LINE
  5
2EEB
  8
AM_0
 10
351.02245332972672
 20
1026.8848391329061
 30
0.0
 11
350.9792373297268
 21
1016.6052291329059
 31
0.0
  0
LINE
  5
2EEC
  8
AM_0
 10
351.03471532972679
 20
1029.8015721329059
 30
0.0
 11
374.92471732972672
 21
1029.8015721329059
 31
0.0
  0
LINE
  5
2EED
  8
AM_0
 10
357.92471732972672
 20
1049.7195411329051
 30
0.0
 11
372.92471732972672
 21
1049.7195411329051
 31
0.0
  0
ARC
  5
2EEE
  8
AM_0
 10
357.92471732972672
 20
1046.7195411329051
 30
0.0
 40
3.0
 50
90.0
 51
180.0
  0
LINE
  5
2EEF
  8
AM_0
 10
374.92471732972672
 20
1047.719541132906
 30
0.0
 11
372.92471732972672
 21
1049.7195411329051
 31
0.0
  0
ARC
  5
2EF1
  8
AM_0
 10
587.92471732972672
 20
838.38787613290629
 30
0.0
 40
8.0
 50
271.9999999999971
 51
0.0
  0
ARC
  5
2EF2
  8
AM_0
 10
587.92471732972672
 20
1021.051146132906
 30
0.0
 40
8.0
 50
0.0
 51
88.000000000002785
  0
LINE
  5
2EF3
  8
AM_0
 10
458.92471732972672
 20
764.7195461329062
 30
0.0
 11
596.09921732972668
 21
769.50976613290629
 31
0.0
  0
LINE
  5
2EF4
  8
AM_0
 10
458.92471732972672
 20
1094.719486132906
 30
0.0
 11
596.09921732972668
 21
1089.9292561329059
 31
0.0
  0
LINE
  5
2EF5
  8
ﾁｭｳｼﾝｾﾝ
 10
199.7749101714962
 20
929.7195461329062
 30
0.0
 11
699.54190732972654
 21
929.7195461329062
 31
0.0
  0
ARC
  5
2EF6
  8
AM_0
 10
435.92471732972672
 20
929.7195461329062
 30
0.0
 40
12.5
 50
23.578179999997531
 51
156.42182000000241
  0
ARC
  5
2EF7
  8
AM_0
 10
435.92471732972672
 20
929.7195461329062
 30
0.0
 40
15.0
 50
90.000146000002943
 51
160.52876999999901
  0
LINE
  5
2EF8
  8
AM_0
 10
374.92471732972672
 20
1049.7195461329061
 30
0.0
 11
374.92471732972672
 21
809.71954613290609
 31
0.0
  0
LINE
  5
2EF9
  8
AM_0
 10
387.92465732972693
 20
1047.7195461329061
 30
0.0
 11
387.92465732972693
 21
811.7195461329062
 31
0.0
  0
LINE
  5
2EFA
  8
AM_0
 10
478.92465732972681
 20
797.59252613290573
 30
0.0
 11
478.92465732972681
 21
1061.8464961329059
 31
0.0
  0
LINE
  5
2EFB
  8
AM_0
 10
568.92471732972672
 20
821.59741613290635
 30
0.0
 11
568.92471732972672
 21
1037.841616132906
 31
0.0
  0
LINE
  5
2EFC
  8
AM_0
 10
453.92471732972672
 20
1062.7195461329061
 30
0.0
 11
453.92471732972672
 21
934.71954613290632
 31
0.0
  0
LINE
  5
2EFD
  8
AM_0
 10
374.92471732972672
 20
809.71954613290609
 30
0.0
 11
385.92471732972672
 21
809.71954613290609
 31
0.0
  0
LINE
  5
2EFE
  8
AM_0
 10
374.92471732972672
 20
829.99230613290615
 30
0.0
 11
385.92471732972672
 21
829.99230613290615
 31
0.0
  0
LINE
  5
2EFF
  8
AM_0
 10
374.92471732972672
 20
845.54864613290624
 30
0.0
 11
385.92471732972672
 21
845.54864613290624
 31
0.0
  0
LINE
  5
2F00
  8
AM_0
 10
375.90359732972678
 20
855.28259613290595
 30
0.0
 11
386.93246732972682
 21
855.28259613290595
 31
0.0
  0
LINE
  5
2F01
  8
AM_0
 10
458.92471732972672
 20
764.7195461329062
 30
0.0
 11
375.75015732972662
 21
767.62402613290624
 31
0.0
  0
LINE
  5
2F02
  8
AM_0
 10
370.92471732972672
 20
772.62103613290583
 30
0.0
 11
370.92471732972672
 21
809.71955113290585
 31
0.0
  0
ARC
  5
2F03
  8
AM_0
 10
375.92471732972672
 20
772.62103613290583
 30
0.0
 40
5.0
 50
180.00001000000091
 51
268.00000000000261
  0
ARC
  5
2F04
  8
AM_0
 10
428.92471732972672
 20
780.72125613290621
 30
0.0
 40
3.0
 50
180.00001000000091
 51
289.47202999999712
  0
LINE
  5
2F05
  8
AM_0
 10
535.92471732972683
 20
772.58605613290615
 30
0.0
 11
535.92471732972683
 21
801.1312861329061
 31
0.0
  0
LINE
  5
2F06
  8
AM_0
 10
458.92471732972672
 20
779.66094613290613
 30
0.0
 11
458.92471732972672
 21
796.89410613290624
 31
0.0
  0
LINE
  5
2F07
  8
AM_0
 10
429.92471732972672
 20
777.89282613290618
 30
0.0
 11
456.92477732972662
 21
787.43920613290618
 31
0.0
  0
LINE
  5
2F08
  8
AM_0
 10
426.4609673297266
 20
766.06152613290624
 30
0.0
 11
456.92471732972672
 21
776.83257613290573
 31
0.0
  0
ARC
  5
2F09
  8
AM_0
 10
455.92471732972678
 20
779.66094613290613
 30
0.0
 40
3.0
 50
289.47202000000181
 51
0.0
  0
ARC
  5
2F0A
  8
AM_0
 10
540.92471732972683
 20
772.58605613290615
 30
0.0
 40
5.0
 50
180.00001000000091
 51
271.99999000000139
  0
LINE
  5
2F0B
  8
AM_0
 10
478.92465732972681
 20
797.59252613290573
 30
0.0
 11
483.06942732972658
 21
801.73730613290616
 31
0.0
  0
LINE
  5
2F0C
  8
AM_0
 10
434.42471732972678
 20
829.29058613290624
 30
0.0
 11
434.42471732972678
 21
910.80523613290609
 31
0.0
  0
LINE
  5
2F0D
  8
AM_0
 10
443.92465732972693
 20
799.96581613290618
 30
0.0
 11
443.92465732972693
 21
906.71954613290609
 31
0.0
  0
LINE
  5
2F0E
  8
AM_0
 10
453.92471732972672
 20
924.71954613290609
 30
0.0
 11
453.92471732972672
 21
796.7195461329062
 31
0.0
  0
LINE
  5
2F0F
  8
AM_0
 10
387.92465732972693
 20
843.04461613290562
 30
0.0
 11
434.42471732972678
 21
843.04461613290562
 31
0.0
  0
LINE
  5
2F10
  8
AM_0
 10
389.92471732972672
 20
817.71954613290609
 30
0.0
 11
441.92465732972681
 21
817.71954613290609
 31
0.0
  0
CIRCLE
  5
2F11
  8
AM_0
 10
400.92471732972672
 20
797.2195461329062
 30
0.0
 40
9.5
  0
ARC
  5
2F12
  8
AM_0
 10
389.92471732972672
 20
815.71954613290609
 30
0.0
 40
2.0
 50
90.00000299999769
 51
180.00001000000091
  0
ARC
  5
2F13
  8
AM_0
 10
385.92471732972672
 20
811.7195461329062
 30
0.0
 40
2.0
 50
269.999989999999
 51
0.0000006832495047
  0
ARC
  5
2F14
  8
AM_0
 10
385.92471732972672
 20
831.99224613290619
 30
0.0
 40
2.0
 50
269.999989999999
 51
0.0000006832495047
  0
ARC
  5
2F15
  8
AM_0
 10
385.92471732972672
 20
847.54864613290624
 30
0.0
 40
2.0
 50
269.999989999999
 51
0.0000006832495047
  0
LINE
  5
2F16
  8
AM_0
 10
442.46017732972678
 20
819.18401613290632
 30
0.0
 11
435.88912732972688
 21
825.75500613290615
 31
0.0
  0
LINE
  5
2F17
  8
AM_0
 10
453.92465732972681
 20
796.71948613290624
 30
0.0
 11
478.92471732972672
 21
797.59252613290573
 31
0.0
  0
ARC
  5
2F18
  8
AM_0
 10
446.92465732972681
 20
799.96581613290618
 30
0.0
 40
3.0
 50
180.00001000000091
 51
268.00000000000261
  0
LINE
  5
2F19
  8
AM_0
 10
453.92471732972672
 20
796.7195461329062
 30
0.0
 11
446.81997732972678
 21
796.96764613290622
 31
0.0
  0
ARC
  5
2F1A
  8
AM_0
 10
441.92465732972681
 20
815.71954613290609
 30
0.0
 40
2.0
 50
0.0
 51
90.00000299999769
  0
ARC
  5
2F1B
  8
AM_0
 10
438.92465732972693
 20
815.64849613290573
 30
0.0
 40
5.0
 50
0.0
 51
44.999998000001611
  0
ARC
  5
2F1C
  8
AM_0
 10
455.92471732972678
 20
790.2676361329062
 30
0.0
 40
3.0
 50
289.47202000000181
 51
0.0
  0
ARC
  5
2F1D
  8
AM_0
 10
439.42471732972678
 20
829.29058613290624
 30
0.0
 40
5.0
 50
180.00001000000091
 51
225.0
  0
ARC
  5
2F1E
  8
AM_0
 10
435.92471732972672
 20
929.7195461329062
 30
0.0
 40
15.0
 50
199.4712300000005
 51
269.99984999999782
  0
ARC
  5
2F1F
  8
AM_0
 10
435.92471732972672
 20
929.7195461329062
 30
0.0
 40
12.5
 50
203.5781799999973
 51
336.42183000000068
  0
LINE
  5
2F20
  8
AM_0
 10
387.92465732972693
 20
858.78668613290574
 30
0.0
 11
434.42471732972678
 21
858.78668613290574
 31
0.0
  0
LINE
  5
2F21
  8
AM_0
 10
415.9247173297266
 20
934.71954613290632
 30
0.0
 11
455.92471732972678
 21
934.71954613290632
 31
0.0
  0
LINE
  5
2F22
  8
AM_0
 10
415.9247173297266
 20
924.71954613290609
 30
0.0
 11
455.92471732972678
 21
924.71954613290609
 31
0.0
  0
ARC
  5
2F23
  8
AM_0
 10
415.9247173297266
 20
929.7195461329062
 30
0.0
 40
5.0
 50
90.00000299999769
 51
270.0
  0
ARC
  5
2F24
  8
AM_0
 10
455.92471732972678
 20
929.7195461329062
 30
0.0
 40
5.0
 50
270.0
 51
90.00000299999769
  0
ARC
  5
2F25
  8
AM_0
 10
435.92465732972681
 20
906.71954613290609
 30
0.0
 40
8.0
 50
0.0
 51
89.999858999997556
  0
ARC
  5
2F26
  8
AM_0
 10
429.42471732972672
 20
910.80523613290609
 30
0.0
 40
5.0
 50
0.0
 51
71.034342999998159
  0
ARC
  5
2F27
  8
AM_0
 10
532.59011732972681
 20
808.46966613290613
 30
0.0
 40
5.0
 50
271.9999999999971
 51
334.42648000000293
  0
ARC
  5
2F28
  8
AM_0
 10
547.92471732972683
 20
801.1312861329061
 30
0.0
 40
12.0
 50
91.999998000000545
 51
180.00001000000091
  0
LINE
  5
2F29
  8
AM_0
 10
483.06942732972658
 20
801.73724613290619
 30
0.0
 11
532.76467732972685
 21
803.4726561329062
 31
0.0
  0
ARC
  5
2F2A
  8
AM_0
 10
560.92471732972683
 20
821.59741613290635
 30
0.0
 40
8.0
 50
271.9999999999971
 51
0.0
  0
CIRCLE
  5
2F2B
  8
AM_0
 10
570.92471732972672
 20
797.2195461329062
 30
0.0
 40
9.5
  0
LINE
  5
2F2C
  8
ﾁｭｳｼﾝｾﾝ1
 10
551.42471732972683
 20
797.2195461329062
 30
0.0
 11
590.42471732972672
 21
797.2195461329062
 31
0.0
  0
LINE
  5
2F2D
  8
AM_0
 10
547.50588732972676
 20
813.12396613290593
 30
0.0
 11
561.20394732972682
 21
813.60229613290574
 31
0.0
  0
LINE
  5
2F2E
  8
ﾁｭｳｼﾝｾﾝ1
 10
570.92471732972672
 20
777.71954613290609
 30
0.0
 11
570.92471732972672
 21
816.71954613290609
 31
0.0
  0
ARC
  5
2F2F
  8
AM_0
 10
576.92471732972672
 20
821.99401613290615
 30
0.0
 40
8.0
 50
91.999998000000545
 51
180.00001000000091
  0
LINE
  5
2F30
  8
AM_0
 10
576.64553732972684
 20
829.98913613290574
 30
0.0
 11
588.20388732972685
 21
830.39275613290636
 31
0.0
  0
LINE
  5
2F31
  8
AM_0
 10
374.92471732972672
 20
1049.7195461329061
 30
0.0
 11
385.92471732972672
 21
1049.7195461329061
 31
0.0
  0
LINE
  5
2F32
  8
AM_0
 10
375.90359732972678
 20
1004.156496132906
 30
0.0
 11
386.93246732972682
 21
1004.156496132906
 31
0.0
  0
LINE
  5
2F33
  8
AM_0
 10
374.92471732972672
 20
1029.4467161329051
 30
0.0
 11
385.92471732972672
 21
1029.4467161329051
 31
0.0
  0
LINE
  5
2F34
  8
AM_0
 10
374.92471732972672
 20
1013.890376132905
 30
0.0
 11
385.92471732972672
 21
1013.890376132905
 31
0.0
  0
LINE
  5
2F35
  8
AM_0
 10
458.92471732972672
 20
1094.7195461329061
 30
0.0
 11
375.75015732972662
 21
1091.8150061329061
 31
0.0
  0
ARC
  5
2F36
  8
AM_0
 10
375.92471732972672
 20
1086.8180561329059
 30
0.0
 40
5.0
 50
91.999998000000545
 51
180.00001000000091
  0
LINE
  5
2F37
  8
AM_0
 10
370.92471732972672
 20
1086.8180561329059
 30
0.0
 11
370.92471732972672
 21
1049.7195411329051
 31
0.0
  0
ARC
  5
2F38
  8
AM_0
 10
540.92471732972683
 20
1086.852966132906
 30
0.0
 40
5.0
 50
88.000000000002785
 51
180.00001000000091
  0
LINE
  5
2F39
  8
AM_0
 10
426.4609673297266
 20
1093.3775061329061
 30
0.0
 11
456.92477732972662
 21
1082.6064461329061
 31
0.0
  0
LINE
  5
2F3A
  8
AM_0
 10
478.92471732972672
 20
1061.8464961329059
 30
0.0
 11
483.06936732972662
 21
1057.7017861329059
 31
0.0
  0
ARC
  5
2F3B
  8
AM_0
 10
385.92471732972672
 20
1011.890316132906
 30
0.0
 40
2.0
 50
0.0
 51
90.00000299999769
  0
LINE
  5
2F3C
  8
AM_0
 10
434.42471732972678
 20
948.63378613290604
 30
0.0
 11
434.42471732972678
 21
1030.1484961329061
 31
0.0
  0
LINE
  5
2F3D
  8
AM_0
 10
443.92465732972693
 20
952.7195461329062
 30
0.0
 11
443.92465732972693
 21
1059.473266132906
 31
0.0
  0
LINE
  5
2F3E
  8
AM_0
 10
387.92465732972693
 20
1000.652346132905
 30
0.0
 11
434.42471732972678
 21
1000.652346132905
 31
0.0
  0
ARC
  5
2F3F
  8
AM_0
 10
435.92465732972681
 20
952.7195461329062
 30
0.0
 40
8.0
 50
270.0001500000019
 51
0.0
  0
ARC
  5
2F40
  8
AM_0
 10
429.42471732972672
 20
948.63378613290604
 30
0.0
 40
5.0
 50
288.96566000000053
 51
0.0
  0
ARC
  5
2F41
  8
AM_0
 10
428.92471732972672
 20
1078.717776132906
 30
0.0
 40
3.0
 50
70.527972999999633
 51
180.00001000000091
  0
LINE
  5
2F42
  8
AM_0
 10
387.92465732972693
 20
1016.394406132905
 30
0.0
 11
434.42471732972678
 21
1016.394406132905
 31
0.0
  0
LINE
  5
2F43
  8
AM_0
 10
389.92471732972672
 20
1041.7194861329051
 30
0.0
 11
441.92465732972681
 21
1041.7194861329051
 31
0.0
  0
ARC
  5
2F44
  8
AM_0
 10
385.92471732972672
 20
1027.4467161329051
 30
0.0
 40
2.0
 50
0.0
 51
90.00000299999769
  0
ARC
  5
2F45
  8
AM_0
 10
389.92471732972672
 20
1043.7194861329051
 30
0.0
 40
2.0
 50
179.9999899999988
 51
270.0
  0
ARC
  5
2F46
  8
AM_0
 10
385.92471732972672
 20
1047.7195461329061
 30
0.0
 40
2.0
 50
0.0
 51
90.00000299999769
  0
CIRCLE
  5
2F47
  8
AM_0
 10
400.92471732972672
 20
1062.2195461329061
 30
0.0
 40
9.5
  0
ARC
  5
2F48
  8
AM_0
 10
439.42471732972678
 20
1030.1484961329061
 30
0.0
 40
5.0
 50
135.0
 51
180.00001000000091
  0
ARC
  5
2F49
  8
AM_0
 10
441.92465732972681
 20
1043.7194861329051
 30
0.0
 40
2.0
 50
270.0
 51
0.0
  0
LINE
  5
2F4A
  8
AM_0
 10
435.88919732972681
 20
1033.684016132906
 30
0.0
 11
442.46023732972662
 21
1040.255066132906
 31
0.0
  0
ARC
  5
2F4B
  8
AM_0
 10
438.92465732972693
 20
1043.7905861329059
 30
0.0
 40
5.0
 50
315.0
 51
0.0
  0
LINE
  5
2F4C
  8
AM_0
 10
429.92477732972679
 20
1081.546206132906
 30
0.0
 11
456.92477732972662
 21
1071.9998161329061
 31
0.0
  0
LINE
  5
2F4D
  8
AM_0
 10
453.92471732972672
 20
1062.7195461329061
 30
0.0
 11
478.92471732972672
 21
1061.8464961329059
 31
0.0
  0
ARC
  5
2F4E
  8
AM_0
 10
446.92465732972681
 20
1059.473266132906
 30
0.0
 40
3.0
 50
91.999998000000545
 51
180.00001000000091
  0
LINE
  5
2F4F
  8
AM_0
 10
453.92465732972681
 20
1062.7195461329061
 30
0.0
 11
446.81997732972678
 21
1062.4714361329061
 31
0.0
  0
ARC
  5
2F50
  8
AM_0
 10
455.92471732972678
 20
1069.171386132906
 30
0.0
 40
3.0
 50
0.0
 51
70.527972999999633
  0
LINE
  5
2F51
  8
AM_0
 10
458.92471732972672
 20
1079.7780761329061
 30
0.0
 11
458.92471732972672
 21
1062.5449261329061
 31
0.0
  0
ARC
  5
2F52
  8
AM_0
 10
455.92471732972678
 20
1079.7780761329061
 30
0.0
 40
3.0
 50
0.0
 51
70.527972999999633
  0
ARC
  5
2F53
  8
AM_0
 10
532.59011732972681
 20
1050.9694161329051
 30
0.0
 40
5.0
 50
25.5735169999985
 51
88.000000000002785
  0
ARC
  5
2F54
  8
AM_0
 10
547.92471732972683
 20
1058.3077961329061
 30
0.0
 40
12.0
 50
180.00001000000091
 51
268.00000000000261
  0
LINE
  5
2F55
  8
AM_0
 10
483.06942732972658
 20
1057.7017861329059
 30
0.0
 11
532.76467732972685
 21
1055.966366132905
 31
0.0
  0
ARC
  5
2F56
  8
AM_0
 10
560.92471732972683
 20
1037.841616132906
 30
0.0
 40
8.0
 50
0.0
 51
88.000000000002785
  0
LINE
  5
2F57
  8
AM_0
 10
547.50588732972676
 20
1046.315126132906
 30
0.0
 11
561.20394732972682
 21
1045.8367961329061
 31
0.0
  0
ARC
  5
2F58
  8
AM_0
 10
576.92471732972672
 20
1037.445006132906
 30
0.0
 40
8.0
 50
180.00001000000091
 51
268.00000000000261
  0
LINE
  5
2F59
  8
AM_0
 10
576.64553732972684
 20
1029.4498861329059
 30
0.0
 11
588.20388732972685
 21
1029.0462661329061
 31
0.0
  0
CIRCLE
  5
2F5A
  8
AM_0
 10
570.92471732972672
 20
1062.2195461329061
 30
0.0
 40
9.5
  0
LINE
  5
2F5B
  8
AM_0
 10
535.92471732972683
 20
1086.852966132906
 30
0.0
 11
535.92471732972683
 21
1058.3077961329061
 31
0.0
  0
ARC
  5
2F5C
  8
AM_0
 10
626.92471732972672
 20
929.71948613290624
 30
0.0
 40
8.0000113999999982
 50
90.00000299999769
 51
270.0
  0
LINE
  5
2F5D
  8
AM_0
 10
595.92471732972672
 20
1027.090516132906
 30
0.0
 11
595.92471732972672
 21
832.34857613290615
 31
0.0
  0
LINE
  5
2F5E
  8
AM_0
 10
600.92471732972672
 20
987.78814613290569
 30
0.0
 11
600.92471732972672
 21
871.65093613290594
 31
0.0
  0
LINE
  5
2F5F
  8
AM_0
 10
606.92465732972676
 20
959.71954613290632
 30
0.0
 11
606.92465732972676
 21
899.71954613290609
 31
0.0
  0
LINE
  5
2F60
  8
AM_0
 10
688.92465732972687
 20
957.2195461329062
 30
0.0
 11
688.92465732972687
 21
902.2195461329062
 31
0.0
  0
LINE
  5
2F61
  8
AM_0
 10
626.92465732972687
 20
937.7195461329062
 30
0.0
 11
626.92465732972687
 21
921.71948613290624
 31
0.0
  0
LINE
  5
2F62
  8
AM_0
 10
600.92471732972672
 20
774.50671613290615
 30
0.0
 11
600.92471732972672
 21
824.93231613290618
 31
0.0
  0
ARC
  5
2F63
  8
AM_0
 10
595.92471732972672
 20
774.50671613290615
 30
0.0
 40
5.0
 50
271.9999999999971
 51
0.0
  0
ARC
  5
2F64
  8
AM_0
 10
598.9247173297266
 20
832.34857613290615
 30
0.0
 40
3.0
 50
180.00001000000091
 51
247.97569000000061
  0
ARC
  5
2F65
  8
AM_0
 10
595.92471732972672
 20
824.93231613290618
 30
0.0
 40
5.0
 50
0.0
 51
67.975688999996393
  0
LINE
  5
2F66
  8
AM_0
 10
626.92471732972672
 20
921.71948613290624
 30
0.0
 11
688.92465732972687
 21
921.71948613290624
 31
0.0
  0
LINE
  5
2F67
  8
AM_0
 10
606.92465732972676
 20
902.2195461329062
 30
0.0
 11
688.92465732972687
 21
902.2195461329062
 31
0.0
  0
ARC
  5
2F68
  8
AM_0
 10
598.9247173297266
 20
871.65093613290594
 30
0.0
 40
2.0
 50
271.9999999999971
 51
0.0
  0
ARC
  5
2F69
  8
AM_0
 10
597.92471732972672
 20
867.61358613290611
 30
0.0
 40
2.0
 50
91.999998000000545
 51
180.00001000000091
  0
LINE
  5
2F6A
  8
AM_0
 10
597.85488732972669
 20
869.61230613290593
 30
0.0
 11
598.99453732972688
 21
869.65209613290619
 31
0.0
  0
LINE
  5
2F6B
  8
AM_0
 10
600.92471732972672
 20
899.71954613290609
 30
0.0
 11
606.92465732972676
 21
899.71954613290609
 31
0.0
  0
LINE
  5
2F6C
  8
AM_0
 10
626.92471732972672
 20
937.7195461329062
 30
0.0
 11
688.92465732972687
 21
937.7195461329062
 31
0.0
  0
LINE
  5
2F6D
  8
AM_0
 10
606.92465732972676
 20
957.2195461329062
 30
0.0
 11
688.92465732972687
 21
957.2195461329062
 31
0.0
  0
LINE
  5
2F6E
  8
AM_0
 10
600.92471732972672
 20
959.71954613290632
 30
0.0
 11
606.92465732972676
 21
959.71954613290632
 31
0.0
  0
ARC
  5
2F6F
  8
AM_0
 10
597.92471732972672
 20
991.82549613290576
 30
0.0
 40
2.0
 50
180.00001000000091
 51
268.00000000000261
  0
ARC
  5
2F70
  8
AM_0
 10
598.9247173297266
 20
987.78814613290569
 30
0.0
 40
2.0
 50
0.0
 51
88.000000000002785
  0
LINE
  5
2F71
  8
AM_0
 10
597.85488732972669
 20
989.8267161329062
 30
0.0
 11
598.99453732972688
 21
989.78692613290593
 31
0.0
  0
LINE
  5
2F72
  8
AM_0
 10
600.92471732972672
 20
1084.932316132906
 30
0.0
 11
600.92471732972672
 21
1034.5067161329059
 31
0.0
  0
ARC
  5
2F73
  8
AM_0
 10
595.92471732972672
 20
1034.5067161329059
 30
0.0
 40
5.0
 50
292.02430999999922
 51
0.0
  0
ARC
  5
2F74
  8
AM_0
 10
598.9247173297266
 20
1027.090516132906
 30
0.0
 40
3.0
 50
112.0243099999992
 51
180.00001000000091
  0
ARC
  5
2F75
  8
AM_0
 10
595.92471732972672
 20
1084.932316132906
 30
0.0
 40
5.0
 50
0.0
 51
88.000000000002785
  0
LINE
  5
2F76
  8
ﾁｭｳｼﾝｾﾝ1
 10
400.92471732972672
 20
777.71954613290609
 30
0.0
 11
400.92471732972672
 21
816.71954613290609
 31
0.0
  0
LINE
  5
2F77
  8
ﾁｭｳｼﾝｾﾝ1
 10
381.42471732972678
 20
797.2195461329062
 30
0.0
 11
420.4247173297266
 21
797.2195461329062
 31
0.0
  0
LINE
  5
2F78
  8
ﾁｭｳｼﾝｾﾝ1
 10
400.92471732972672
 20
1042.7195461329061
 30
0.0
 11
400.92471732972672
 21
1081.7195461329061
 31
0.0
  0
LINE
  5
2F79
  8
ﾁｭｳｼﾝｾﾝ1
 10
381.42471732972678
 20
1062.2195461329061
 30
0.0
 11
420.4247173297266
 21
1062.2195461329061
 31
0.0
  0
LINE
  5
2F7A
  8
ﾁｭｳｼﾝｾﾝ1
 10
570.92471732972672
 20
1042.7195461329061
 30
0.0
 11
570.92471732972672
 21
1081.7195461329061
 31
0.0
  0
LINE
  5
2F7B
  8
ﾁｭｳｼﾝｾﾝ1
 10
551.42471732972683
 20
1062.2195461329061
 30
0.0
 11
590.42471732972672
 21
1062.2195461329061
 31
0.0
  0
TEXT
  5
3162
  8
AM_0
 10
824.43884433860694
 20
935.23985674775565
 30
0.0
 40
20.0
  1
VX55-015G~VX55-030G
  0
ENDSEC
  0
EOF
