  0
SECTION
  2
HEADER
  9
$ACADVER
  1
AC1009
  9
$INSBASE
 10
0.0
 20
0.0
 30
0.0
  9
$EXTMIN
 10
245.0478558221921
 20
364.0886867703598
 30
-0.0000000000112498
  9
$EXTMAX
 10
1334.9742314465971
 20
1277.4292613223861
 30
0.0000000000002956
  9
$LIMMIN
 10
0.0
 20
0.0
  9
$LIMMAX
 10
1707.0
 20
1110.0
  9
$ORTHOMODE
 70
     0
  9
$REGENMODE
 70
     1
  9
$FILLMODE
 70
     1
  9
$QTEXTMODE
 70
     0
  9
$MIRRTEXT
 70
     1
  9
$DRAGMODE
 70
     2
  9
$LTSCALE
 40
6.0
  9
$OSMODE
 70
   551
  9
$ATTMODE
 70
     1
  9
$TEXTSIZE
 40
2.5
  9
$TRACEWID
 40
1.0
  9
$TEXTSTYLE
  7
STANDARD
  9
$CLAYER
  8
AM_0
  9
$CELTYPE
  6
BYLAYER
  9
$CECOLOR
 62
   256
  9
$DIMSCALE
 40
1.0
  9
$DIMASZ
 40
2.5
  9
$DIMEXO
 40
1.0
  9
$DIMDLI
 40
8.0
  9
$DIMRND
 40
0.0
  9
$DIMDLE
 40
0.0
  9
$DIMEXE
 40
0.6
  9
$DIMTP
 40
0.1
  9
$DIMTM
 40
0.1
  9
$DIMTXT
 40
2.5
  9
$DIMCEN
 40
0.0
  9
$DIMTSZ
 40
0.0
  9
$DIMTOL
 70
     0
  9
$DIMLIM
 70
     0
  9
$DIMTIH
 70
     0
  9
$DIMTOH
 70
     0
  9
$DIMSE1
 70
     0
  9
$DIMSE2
 70
     0
  9
$DIMTAD
 70
     1
  9
$DIMZIN
 70
     8
  9
$DIMBLK
  1

  9
$DIMASO
 70
     1
  9
$DIMSHO
 70
     1
  9
$DIMPOST
  1

  9
$DIMAPOST
  1
"
  9
$DIMALT
 70
     0
  9
$DIMALTD
 70
     2
  9
$DIMALTF
 40
0.0393701
  9
$DIMLFAC
 40
1.0
  9
$DIMTOFL
 70
     1
  9
$DIMTVP
 40
0.0
  9
$DIMTIX
 70
     0
  9
$DIMSOXD
 70
     0
  9
$DIMSAH
 70
     0
  9
$DIMBLK1
  1

  9
$DIMBLK2
  1

  9
$DIMSTYLE
  2
AM_ISO
  9
$DIMCLRD
 70
   256
  9
$DIMCLRE
 70
   256
  9
$DIMCLRT
 70
     4
  9
$DIMTFAC
 40
0.71
  9
$DIMGAP
 40
0.8
  9
$LUNITS
 70
     2
  9
$LUPREC
 70
     2
  9
$SKETCHINC
 40
1.0
  9
$FILLETRAD
 40
30.0
  9
$AUNITS
 70
     0
  9
$AUPREC
 70
     0
  9
$MENU
  1
.
  9
$ELEVATION
 40
0.0
  9
$PELEVATION
 40
0.0
  9
$THICKNESS
 40
0.0
  9
$LIMCHECK
 70
     0
  9
$BLIPMODE
 70
     0
  9
$CHAMFERA
 40
12.0
  9
$CHAMFERB
 40
6.0
  9
$SKPOLY
 70
     0
  9
$TDCREATE
 40
2452066.7850468289
  9
$TDUPDATE
 40
2458541.4243850699
  9
$TDINDWG
 40
0.068516794
  9
$TDUSRTIMER
 40
0.0685165972
  9
$USRTIMER
 70
     1
  9
$ANGBASE
 50
0.0
  9
$ANGDIR
 70
     0
  9
$PDMODE
 70
     0
  9
$PDSIZE
 40
0.0
  9
$PLINEWID
 40
0.0
  9
$COORDS
 70
     1
  9
$SPLFRAME
 70
     0
  9
$SPLINETYPE
 70
     6
  9
$SPLINESEGS
 70
     8
  9
$ATTDIA
 70
     1
  9
$ATTREQ
 70
     1
  9
$HANDLING
 70
     1
  9
$HANDSEED
  5
327B
  9
$SURFTAB1
 70
     6
  9
$SURFTAB2
 70
     6
  9
$SURFTYPE
 70
     6
  9
$SURFU
 70
     6
  9
$SURFV
 70
     6
  9
$UCSNAME
  2

  9
$UCSORG
 10
0.0
 20
0.0
 30
0.0
  9
$UCSXDIR
 10
1.0
 20
0.0
 30
0.0
  9
$UCSYDIR
 10
0.0
 20
1.0
 30
0.0
  9
$PUCSNAME
  2

  9
$PUCSORG
 10
0.0
 20
0.0
 30
0.0
  9
$PUCSXDIR
 10
1.0
 20
0.0
 30
0.0
  9
$PUCSYDIR
 10
0.0
 20
1.0
 30
0.0
  9
$USERI1
 70
     0
  9
$USERI2
 70
     0
  9
$USERI3
 70
     0
  9
$USERI4
 70
     0
  9
$USERI5
 70
     0
  9
$USERR1
 40
0.0
  9
$USERR2
 40
0.0
  9
$USERR3
 40
0.0
  9
$USERR4
 40
0.0
  9
$USERR5
 40
0.0
  9
$WORLDVIEW
 70
     1
  9
$SHADEDGE
 70
     3
  9
$SHADEDIF
 70
    70
  9
$TILEMODE
 70
     1
  9
$MAXACTVP
 70
    64
  9
$PLIMCHECK
 70
     0
  9
$PEXTMIN
 10
1.0000000000000000E+020
 20
1.0000000000000000E+020
 30
1.0000000000000000E+020
  9
$PEXTMAX
 10
-1.0000000000000000E+020
 20
-1.0000000000000000E+020
 30
-1.0000000000000000E+020
  9
$PLIMMIN
 10
0.0
 20
0.0
  9
$PLIMMAX
 10
420.0
 20
297.0
  9
$UNITMODE
 70
     0
  9
$VISRETAIN
 70
     1
  9
$PLINEGEN
 70
     0
  9
$PSLTSCALE
 70
     1
  0
ENDSEC
  0
SECTION
  2
TABLES
  0
TABLE
  2
VPORT
 70
     1
  0
VPORT
  2
*ACTIVE
 70
     0
 10
0.0
 20
0.0
 11
1.0
 21
1.0
 12
790.01104363439481
 22
820.75897404637294
 13
0.0
 23
0.0
 14
15.0
 24
15.0
 15
60.0
 25
60.0
 16
0.0
 26
0.0
 36
1.0
 17
0.0
 27
0.0
 37
0.0
 40
919.61064714620477
 41
1.7571592210767459
 42
50.0
 43
0.0
 44
0.0
 50
0.0
 51
0.0
 71
     0
 72
   100
 73
     1
 74
     3
 75
     0
 76
     0
 77
     0
 78
     0
  0
ENDTAB
  0
TABLE
  2
LTYPE
 70
    27
  0
LTYPE
  2
CONTINUOUS
 70
     0
  3
Solid line
 72
    65
 73
     0
 40
0.0
  0
LTYPE
  2
AM_ISO02W050
 70
     0
  3
__ __ __ __ __ __ __ __ __ __ __ __ __ __ __
 72
    65
 73
     2
 40
7.5
 49
6.0
 49
-1.5
  0
LTYPE
  2
AM_ISO08W050
 70
     0
  3
____ . ____ . ____ . ____ . ____ . ____ . ____
 72
    65
 73
     4
 40
18.0
 49
12.0
 49
-1.5
 49
3.0
 49
-1.5
  0
LTYPE
  2
AM_ISO09W050
 70
     0
  3
_____ . . _____ . . _____ . . ____ .. ____
 72
    65
 73
     6
 40
22.5
 49
12.0
 49
-1.5
 49
3.0
 49
-1.5
 49
3.0
 49
-1.5
  0
LTYPE
  2
AMCONSTR
 70
     0
  3
_______________________
 72
    65
 73
     2
 40
9999.0
 49
9999.0
 49
0.0
  0
LTYPE
  2
AM_ISO08W050X2
 70
     0
  3
__ . __ . __ . __ . __ . __
 72
    65
 73
     4
 40
9.0
 49
6.0
 49
-0.75
 49
1.5
 49
-0.75
  0
LTYPE
  2
AM_ISO02W050X2
 70
     0
  3
 _ _ _ _ _ _ _ _ _ _ _ _
 72
    65
 73
     2
 40
3.75
 49
3.0
 49
-0.75
  0
LTYPE
  2
AMZIGZAG
 70
     0
  3
/\/-/\/-/\/-/\/-/\/-/\/
 72
    65
 73
     2
 40
11.000099999999991
 49
0.0001
 49
-11.0
  0
LTYPE
  2
ACISOWELD
 70
     0
  3
_ _ _ _ _
 72
    65
 73
     2
 40
2.0
 49
2.0
 49
-1.0
  0
LTYPE
  2
ACISOTGB
 70
     0
  3
__ . . __ . .
 72
    65
 73
     6
 40
9.0
 49
4.0
 49
-1.0
 49
1.0
 49
-1.0
 49
1.0
 49
-1.0
  0
LTYPE
  2
ACISOTGL
 70
     0
  3
_ _ _ _ _
 72
    65
 73
     2
 40
3.0
 49
2.0
 49
-1.0
  0
LTYPE
  2
CENTER
 70
     0
  3
__ . __
 72
    65
 73
     4
 40
7.0
 49
4.0
 49
-1.0
 49
1.0
 49
-1.0
  0
LTYPE
  2
PHANTOM2
 70
     0
  3
Phantom (.5x) ___ _ _ ___ _ _ ___ _ _ ___ _ _
 72
    65
 73
     6
 40
31.75
 49
15.875
 49
-3.174999999999998
 49
3.174999999999998
 49
-3.174999999999998
 49
3.174999999999998
 49
-3.174999999999998
  0
LTYPE
  2
ACANSTGBM
 70
     0
  3
__ . . __ . .
 72
    65
 73
     6
 40
9.0
 49
4.0
 49
-1.0
 49
1.0
 49
-1.0
 49
1.0
 49
-1.0
  0
LTYPE
  2
ACANSTGLM
 70
     0
  3
_ _ _ _ _
 72
    65
 73
     2
 40
3.0
 49
2.0
 49
-1.0
  0
LTYPE
  2
GEN7
 70
     0
  3
____ . ____ . ____ . ____ . ____ . ____ . ____
 72
    65
 73
     4
 40
14.25
 49
9.75
 49
-1.5
 49
1.5
 49
-1.5
  0
LTYPE
  2
GEN3B
 70
     0
  3
 - - - - -
 72
    65
 73
     2
 40
1.0
 49
0.5
 49
-0.5
  0
LTYPE
  2
GEN7A
 70
     0
  3
__ . __ . __
 72
    65
 73
     4
 40
7.375
 49
4.75
 49
-0.875
 49
0.875
 49
-0.875
  0
LTYPE
  2
ACJISTGB
 70
     0
  3
__ . . __ . .
 72
    65
 73
     6
 40
9.0
 49
4.0
 49
-1.0
 49
1.0
 49
-1.0
 49
1.0
 49
-1.0
  0
LTYPE
  2
ACJISTGL
 70
     0
  3
_ _ _ _ _
 72
    65
 73
     2
 40
3.0
 49
2.0
 49
-1.0
  0
LTYPE
  2
HIDDEN
 70
     0
  3
Hidden __ __ __ __ __ __ __ __ __ __ __ __ __ _
 72
    65
 73
     2
 40
0.375
 49
0.25
 49
-0.125
  0
LTYPE
  2
CENTER2
 70
     0
  3
Center (.5x) ___ _ ___ _ ___ _ ___ _ ___ _ ___
 72
    65
 73
     4
 40
1.125
 49
0.75
 49
-0.125
 49
0.125
 49
-0.125
  0
LTYPE
  2
HIDDEN2
 70
     0
  3
Hidden (.5x) _ _ _ _ _ _ _ _ _ _ _ _ _ _ _ _ _
 72
    65
 73
     2
 40
0.1875
 49
0.125
 49
-0.0625
  0
LTYPE
  2
AMZIGZAG2
 70
     0
  3
/\/-/\/-/\/-/\/-/\/-/\/
 72
    65
 73
     2
 40
0.4401
 49
0.0001
 49
-0.4400000000000002
  0
LTYPE
  2
ACANSTGB
 70
     0
  3
__ . . __ . .
 72
    65
 73
     6
 40
0.35433070866
 49
0.15748031496
 49
-0.03937007874
 49
0.03937007874
 49
-0.03937007874
 49
0.03937007874
 49
-0.03937007874
  0
LTYPE
  2
ACANSTGL
 70
     0
  3
_ _ _ _ _
 72
    65
 73
     2
 40
0.11811023622
 49
0.07874015748
 49
-0.03937007874
  0
ENDTAB
  0
TABLE
  2
LAYER
 70
     7
  0
LAYER
  2
0
 70
     0
 62
     7
  6
CONTINUOUS
  0
LAYER
  2
AM_0
 70
     0
 62
     7
  6
CONTINUOUS
  0
LAYER
  2
AM_5
 70
     0
 62
     2
  6
CONTINUOUS
  0
LAYER
  2
DEFPOINTS
 70
     0
 62
     7
  6
CONTINUOUS
  0
LAYER
  2
ｶｸﾚｾﾝ2
 70
     0
 62
     3
  6
GEN3B
  0
LAYER
  2
ﾁｭｳｼﾝｾﾝ
 70
     0
 62
     1
  6
GEN7
  0
LAYER
  2
ﾁｭｳｼﾝｾﾝ1
 70
     0
 62
     1
  6
GEN7A
  0
ENDTAB
  0
TABLE
  2
STYLE
 70
     9
  0
STYLE
  2
STANDARD
 70
     0
 40
0.0
 41
0.8299999999999999
 50
0.0
 71
     0
 42
2.5
  3
txt.shx
  4
bigfont.shx
  0
STYLE
  2
ANNOTATIVE
 70
     0
 40
0.0
 41
1.0
 50
0.0
 71
     0
 42
0.2
  3
txt
  4

  0
STYLE
  2

 70
     1
 40
0.0
 41
1.0
 50
0.0
 71
     0
 42
2.5
  3
ltypeshp.shx
  4

  0
STYLE
  2
ACISOTS
 70
     0
 40
1.0
 41
1.0
 50
0.0
 71
     0
 42
2.5
  3
isocp.shx
  4
extfont.shx
  0
STYLE
  2
ACISOGDT
 70
     0
 40
0.0
 41
1.0
 50
0.0
 71
     0
 42
2.5
  3
amgdt.shx
  4

  0
STYLE
  2
ACANSTS
 70
     0
 40
1.0
 41
1.0
 50
0.0
 71
     0
 42
2.5
  3
romans.shx
  4
bigfont.shx
  0
STYLE
  2
ACANSGDT
 70
     0
 40
0.0
 41
1.0
 50
0.0
 71
     0
 42
2.5
  3
amgdt.shx
  4

  0
STYLE
  2
ACJISTS
 70
     0
 40
1.0
 41
1.0
 50
0.0
 71
     0
 42
2.5
  3
isocp.shx
  4
bigfont.shx
  0
STYLE
  2
ACJISGDT
 70
     0
 40
0.0
 41
1.0
 50
0.0
 71
     0
 42
2.5
  3
amgdt.shx
  4

  0
ENDTAB
  0
TABLE
  2
VIEW
 70
     6
  0
VIEW
  2
AM_VIEW1
 70
     0
 40
555.00000000000011
 10
499.2955801104971
 20
832.50000000000011
 41
998.59116022099431
 11
0.0
 21
0.0
 31
1.0
 12
0.0
 22
0.0
 32
0.0
 42
50.0
 43
0.0
 44
0.0
 50
0.0
 71
     0
  0
VIEW
  2
AM_VIEW2
 70
     0
 40
555.00000000000011
 10
1207.704419889501
 20
832.50000000000011
 41
998.59116022099431
 11
0.0
 21
0.0
 31
1.0
 12
0.0
 22
0.0
 32
0.0
 42
50.0
 43
0.0
 44
0.0
 50
0.0
 71
     0
  0
VIEW
  2
AM_VIEW3
 70
     0
 40
555.00000000000011
 10
499.2955801104971
 20
277.49999999999989
 41
998.59116022099431
 11
0.0
 21
0.0
 31
1.0
 12
0.0
 22
0.0
 32
0.0
 42
50.0
 43
0.0
 44
0.0
 50
0.0
 71
     0
  0
VIEW
  2
AM_VIEW4
 70
     0
 40
555.00000000000011
 10
1207.704419889501
 20
277.49999999999989
 41
998.59116022099431
 11
0.0
 21
0.0
 31
1.0
 12
0.0
 22
0.0
 32
0.0
 42
50.0
 43
0.0
 44
0.0
 50
0.0
 71
     0
  0
VIEW
  2
AM_VIEW5
 70
     0
 40
555.00000000000011
 10
853.5
 20
555.00000000000011
 41
998.59116022099431
 11
0.0
 21
0.0
 31
1.0
 12
0.0
 22
0.0
 32
0.0
 42
50.0
 43
0.0
 44
0.0
 50
0.0
 71
     0
  0
VIEW
  2
AM_VIEW6
 70
     0
 40
1109.9889000000001
 10
853.5
 20
555.0
 41
1997.162348618785
 11
0.0
 21
0.0
 31
1.0
 12
0.0
 22
0.0
 32
0.0
 42
50.0
 43
0.0
 44
0.0
 50
0.0
 71
     0
  0
ENDTAB
  0
TABLE
  2
UCS
 70
     0
  0
ENDTAB
  0
TABLE
  2
APPID
 70
    95
  0
APPID
  2
ACAD
 70
     0
  0
APPID
  2
ACADANNOTATIVE
 70
     0
  0
APPID
  2
MCAD_NO_VIS
 70
     0
  0
APPID
  2
ACAD_TEMP_GRAPHIC
 70
     0
  0
APPID
  2
ACATTRIBSERVICES
 70
     0
  0
APPID
  2
GENIUS_GENREC_14
 70
     0
  0
APPID
  2
GENIUS_GENOBJ-N-REC_13
 70
     0
  0
APPID
  2
GENIUS_GENODEF_13
 70
     0
  0
APPID
  2
GENIUS_GENOLIS_13
 70
     0
  0
APPID
  2
GENIUS_GENOBJ-N-TIT_13
 70
     0
  0
APPID
  2
GENIUS_GENOENT_13
 70
     0
  0
APPID
  2
GENIUS_GENTITLE_13
 70
     0
  0
APPID
  2
GENIUS_GENOREF_13
 70
     0
  0
APPID
  2
GENIUS_GENSCREG_15
 70
     0
  0
APPID
  2
GENIUS_GENOBJ-N-SDF_13
 70
     0
  0
APPID
  2
GENIUS_GENFIL_13
 70
     0
  0
APPID
  2
GENIUS_GENOBJ-N-CHA_13
 70
     0
  0
APPID
  2
GENIUS_GENDTOL_13
 70
     0
  0
APPID
  2
GENIUS_GENOBJ-N-FIL_13
 70
     0
  0
APPID
  2
AD_DRAW
 70
     0
  0
APPID
  2
DESIGNERASSEMBLIES
 70
     0
  0
APPID
  2
ASURF_PCURVE_APPNAME
 70
     0
  0
APPID
  2
GENIUS_GE3SECT_13
 70
     0
  0
APPID
  2
GENIUS_GENCFG_13
 70
     0
  0
APPID
  2
GENIUS_GE3CFG0_13
 70
     0
  0
APPID
  2
GENIUS_GENCFG0_13
 70
     0
  0
APPID
  2
GENIUS_GENCFG1_13
 70
     0
  0
APPID
  2
GENIUS_GENCFG2_13
 70
     0
  0
APPID
  2
GENIUS_GENCFG3_13
 70
     0
  0
APPID
  2
GENIUS_GENCFG4_13
 70
     0
  0
APPID
  2
GENIUS_GEVCFG0_13
 70
     0
  0
APPID
  2
GENIUS_GENHINW_13
 70
     0
  0
APPID
  2
GENIUS_FIRSTVISTXT_14
 70
     0
  0
APPID
  2
GENIUS_GENOBJ-N-LEADER_13
 70
     0
  0
APPID
  2
GEV_VCCNULL_SWITCH_OFF
 70
     0
  0
APPID
  2
GENIUS_GEFCFG0_13
 70
     0
  0
APPID
  2
GENIUS_GENZVEED_13
 70
     0
  0
APPID
  2
GENIUS_GENSCREG_13
 70
     0
  0
APPID
  2
GENIUS_DUMCFG0_13
 70
     0
  0
APPID
  2
GEVID936201362
 70
     0
  0
APPID
  2
GEVDC
 70
     0
  0
APPID
  2
GEVCON
 70
     0
  0
APPID
  2
VCC
 70
     0
  0
APPID
  2
GEVPT
 70
     0
  0
APPID
  2
GEVIT
 70
     0
  0
APPID
  2
GENBH
 70
     0
  0
APPID
  2
GEVMK
 70
     0
  0
APPID
  2
GENIUS_GENBH_13
 70
     0
  0
APPID
  2
GENIUS_GENOBJ-NBEHI-BHF_13
 70
     0
  0
APPID
  2
GENIUS_GENOBJ-NBEHI-BHB_13
 70
     0
  0
APPID
  2
GENIUS_GENOBJ-F-DESC_13
 70
     0
  0
APPID
  2
GENIUS_GEFDESC_14
 70
     0
  0
APPID
  2
GENIUS_GENOBJ-F-PART_13
 70
     0
  0
APPID
  2
GENIUS_GEFSTDP_13
 70
     0
  0
APPID
  2
GENIUS_GEFPARTINS_13
 70
     0
  0
APPID
  2
GENIUS_GENTRA_14
 70
     0
  0
APPID
  2
GENIUS_GENINF13_13
 70
     0
  0
APPID
  2
GENIUS_GENOBJ-N-INFOPT_13
 70
     0
  0
APPID
  2
GENIUS_GENOBJ-N-RSSYM_13
 70
     0
  0
APPID
  2
GENIUS_GENSYMENT_13
 70
     0
  0
APPID
  2
GENIUS_GENSCSYM_13
 70
     0
  0
APPID
  2
GENIUS_GEFINFNAM_13
 70
     0
  0
APPID
  2
GENIUS_GENOBJ-N-CEN_13
 70
     0
  0
APPID
  2
GENIUS_GENOBJ-N-CRS_13
 70
     0
  0
APPID
  2
GENIUS_GENOBJ-N-CRC_13
 70
     0
  0
APPID
  2
GENIUS_GENCRC_14
 70
     0
  0
APPID
  2
GEVID942827039
 70
     0
  0
APPID
  2
GEVID942827040
 70
     0
  0
APPID
  2
GEVID942827041
 70
     0
  0
APPID
  2
GENIUS_GENOBJ-F-SCPASSM_13
 70
     0
  0
APPID
  2
GENIUS_GENDIMSH_14
 70
     0
  0
APPID
  2
GEVID942827042
 70
     0
  0
APPID
  2
GEVID946020473
 70
     0
  0
APPID
  2
GEVID946020474
 70
     0
  0
APPID
  2
GEVID946020475
 70
     0
  0
APPID
  2
GENIUS_GENOBJ-N-HTC_13
 70
     0
  0
APPID
  2
GENIUS_GENHATCH_13
 70
     0
  0
APPID
  2
GEVID948854295
 70
     0
  0
APPID
  2
GEVID939402019
 70
     0
  0
APPID
  2
GEVID952919491
 70
     0
  0
APPID
  2
GEVID952919492
 70
     0
  0
APPID
  2
GENIUS_GEFWELD_13
 70
     0
  0
APPID
  2
GENIUS_GENOBJ-F-WELS_13
 70
     0
  0
APPID
  2
GEVID952919493
 70
     0
  0
APPID
  2
GENIUS_GENOBJ-N-RSBK_13
 70
     0
  0
APPID
  2
GENIUS_GENOBJ-N-LIB_13
 70
     0
  0
APPID
  2
GENIUS_GENSCALE_13
 70
     0
  0
APPID
  2
GEVID986376691
 70
     0
  0
APPID
  2
DCO15
 70
     0
  0
APPID
  2
ACAD_DSTYLE_DIMBREAK
 70
     0
  0
APPID
  2
ACAD_DSTYLE_DIMJAG
 70
     0
  0
APPID
  2
ACAD_NAV_VCDISPLAY
 70
     0
  0
APPID
  2
ACADANNOPO
 70
     0
  0
APPID
  2
ACAD_EXEMPT_FROM_CAD_STANDARDS
 70
     0
  0
APPID
  2
ACAD_MLEADERVER
 70
     0
  0
ENDTAB
  0
TABLE
  2
DIMSTYLE
 70
    22
  0
DIMSTYLE
  2
STANDARD
 70
     0
  3

  4

  5

  6

  7

 40
1.0
 41
0.18
 42
0.0625
 43
0.38
 44
0.18
 45
0.0
 46
0.0
 47
0.0
 48
0.0
140
0.18
141
0.09
142
0.0
143
25.399999999999999
144
1.0
145
0.0
146
1.0
147
0.09
 71
     0
 72
     0
 73
     1
 74
     1
 75
     0
 76
     0
 77
     0
 78
     0
170
     0
171
     2
172
     0
173
     0
174
     0
175
     0
176
     0
177
     0
178
     0
  0
DIMSTYLE
  2
ANNOTATIVE
 70
     0
  3

  4

  5

  6

  7

 40
1.0
 41
0.18
 42
0.0625
 43
0.38
 44
0.18
 45
0.0
 46
0.0
 47
0.0
 48
0.0
140
0.18
141
0.09
142
0.0
143
25.399999999999999
144
1.0
145
0.0
146
1.0
147
0.09
 71
     0
 72
     0
 73
     1
 74
     1
 75
     0
 76
     0
 77
     0
 78
     0
170
     0
171
     2
172
     0
173
     0
174
     0
175
     0
176
     0
177
     0
178
     0
  0
DIMSTYLE
  2
AM_ISO
 70
     0
  3

  4
"
  5

  6

  7

 40
1.0
 41
2.5
 42
1.0
 43
8.0
 44
0.6
 45
0.0
 46
0.0
 47
0.1
 48
0.1
140
2.5
141
0.0
142
0.0
143
0.0393701
144
1.0
145
0.0
146
0.71
147
0.8
 71
     0
 72
     0
 73
     0
 74
     0
 75
     0
 76
     0
 77
     1
 78
     8
170
     0
171
     2
172
     1
173
     0
174
     0
175
     0
176
   256
177
   256
178
     4
  0
DIMSTYLE
  2
AM_ISO$3
 70
     0
  3

  4
"
  5

  6

  7

 40
1.0
 41
2.5
 42
1.0
 43
8.0
 44
0.6
 45
0.0
 46
0.0
 47
0.1
 48
0.1
140
2.5
141
0.0
142
0.0
143
0.0393701
144
1.0
145
0.0
146
0.71
147
0.8
 71
     0
 72
     0
 73
     0
 74
     1
 75
     0
 76
     0
 77
     1
 78
     8
170
     0
171
     2
172
     0
173
     0
174
     0
175
     0
176
   256
177
   256
178
     4
  0
DIMSTYLE
  2
AM_ISO$4
 70
     0
  3

  4
"
  5

  6

  7

 40
1.0
 41
2.5
 42
1.0
 43
8.0
 44
0.6
 45
0.0
 46
0.0
 47
0.1
 48
0.1
140
2.5
141
0.0
142
0.0
143
0.0393701
144
1.0
145
0.0
146
0.71
147
0.8
 71
     0
 72
     0
 73
     0
 74
     1
 75
     0
 76
     0
 77
     1
 78
     8
170
     0
171
     2
172
     0
173
     0
174
     0
175
     0
176
   256
177
   256
178
     4
  0
DIMSTYLE
  2
AM_ISO$6
 70
     0
  3

  4
"
  5

  6

  7

 40
1.0
 41
2.5
 42
1.0
 43
8.0
 44
0.6
 45
0.0
 46
0.0
 47
0.1
 48
0.1
140
2.5
141
0.0
142
0.0
143
0.0393701
144
1.0
145
0.0
146
0.71
147
0.8
 71
     0
 72
     0
 73
     0
 74
     0
 75
     0
 76
     0
 77
     0
 78
     8
170
     0
171
     2
172
     1
173
     0
174
     0
175
     0
176
   256
177
   256
178
     4
  0
DIMSTYLE
  2
AM_ISO$7
 70
     0
  3

  4
"
  5

  6

  7

 40
1.0
 41
2.5
 42
1.0
 43
8.0
 44
0.6
 45
0.0
 46
0.0
 47
0.1
 48
0.1
140
2.5
141
0.0
142
0.0
143
0.0393701
144
1.0
145
0.0
146
0.71
147
0.8
 71
     0
 72
     0
 73
     0
 74
     0
 75
     0
 76
     0
 77
     1
 78
     8
170
     0
171
     2
172
     1
173
     0
174
     0
175
     0
176
   256
177
   256
178
     4
  0
DIMSTYLE
  2
AM_ISO$SF
 70
     0
  3

  4
"
  5

  6

  7

 40
1.0
 41
2.5
 42
1.0
 43
10.0
 44
1.0
 45
0.0
 46
0.0
 47
0.1
 48
0.1
140
3.5
141
0.0
142
0.0
143
0.0393701
144
1.0
145
0.0
146
0.71
147
1.5
 71
     0
 72
     0
 73
     0
 74
     0
 75
     1
 76
     1
 77
     1
 78
     8
170
     0
171
     2
172
     1
173
     0
174
     0
175
     0
176
   256
177
   256
178
     2
  0
DIMSTYLE
  2
AM_ISO$SH
 70
     0
  3

  4
"
  5

  6

  7

 40
1.0
 41
2.5
 42
1.0
 43
10.0
 44
1.0
 45
0.0
 46
0.0
 47
0.1
 48
0.1
140
3.5
141
0.0
142
0.0
143
0.0393701
144
2.0
145
0.0
146
0.71
147
1.5
 71
     0
 72
     0
 73
     0
 74
     0
 75
     1
 76
     1
 77
     1
 78
     8
170
     0
171
     2
172
     1
173
     1
174
     0
175
     0
176
   256
177
   256
178
     2
  0
DIMSTYLE
  2
AM_JIS
 70
     0
  3

  4
"
  5

  6

  7

 40
1.0
 41
2.5
 42
1.0
 43
7.0
 44
1.0
 45
0.0
 46
0.0
 47
0.1
 48
0.1000000001
140
2.5
141
0.0
142
0.0
143
0.0393701
144
1.0
145
0.0
146
0.71
147
1.0
 71
     0
 72
     0
 73
     0
 74
     0
 75
     0
 76
     0
 77
     3
 78
     8
170
     0
171
     2
172
     1
173
     0
174
     0
175
     0
176
   256
177
   256
178
     4
  0
DIMSTYLE
  2
AM_JIS$3
 70
     0
  3

  4
"
  5

  6

  7

 40
1.0
 41
2.5
 42
1.0
 43
7.0
 44
1.0
 45
0.0
 46
0.0
 47
0.1
 48
0.1000000001
140
2.5
141
0.0
142
0.0
143
0.0393701
144
1.0
145
0.0
146
0.71
147
1.0
 71
     0
 72
     0
 73
     0
 74
     1
 75
     0
 76
     0
 77
     3
 78
     8
170
     0
171
     2
172
     0
173
     0
174
     0
175
     0
176
   256
177
   256
178
     4
  0
DIMSTYLE
  2
AM_JIS$4
 70
     0
  3

  4
"
  5

  6

  7

 40
1.0
 41
2.5
 42
1.0
 43
7.0
 44
1.0
 45
0.0
 46
0.0
 47
0.1
 48
0.1000000001
140
2.5
141
0.0
142
0.0
143
0.0393701
144
1.0
145
0.0
146
0.71
147
1.0
 71
     0
 72
     0
 73
     0
 74
     0
 75
     0
 76
     0
 77
     3
 78
     8
170
     0
171
     2
172
     0
173
     0
174
     0
175
     0
176
   256
177
   256
178
     4
  0
DIMSTYLE
  2
AM_JIS$6
 70
     0
  3

  4
"
  5

  6

  7

 40
1.0
 41
2.5
 42
1.0
 43
7.0
 44
1.0
 45
0.0
 46
0.0
 47
0.1
 48
0.1000000001
140
2.5
141
0.0
142
0.0
143
0.0393701
144
1.0
145
0.0
146
0.71
147
1.0
 71
     0
 72
     0
 73
     0
 74
     0
 75
     0
 76
     0
 77
     0
 78
     8
170
     0
171
     2
172
     1
173
     0
174
     0
175
     0
176
   256
177
   256
178
     4
  0
DIMSTYLE
  2
AM_JIS$7
 70
     0
  3

  4
"
  5

  6

  7

 40
1.0
 41
2.5
 42
1.0
 43
7.0
 44
1.0
 45
0.0
 46
0.0
 47
0.1
 48
0.1000000001
140
2.5
141
0.0
142
0.0
143
0.0393701
144
1.0
145
0.0
146
0.71
147
1.0
 71
     0
 72
     0
 73
     0
 74
     0
 75
     0
 76
     0
 77
     3
 78
     8
170
     0
171
     2
172
     1
173
     0
174
     0
175
     0
176
   256
177
   256
178
     4
  0
DIMSTYLE
  2
AM_JIS$SF
 70
     0
  3

  4
"
  5

  6

  7

 40
1.0
 41
2.5
 42
1.0
 43
10.0
 44
1.0
 45
0.0
 46
0.0
 47
0.1
 48
0.1
140
3.5
141
0.0
142
0.0
143
0.0393701
144
1.0
145
0.0
146
0.71
147
1.5
 71
     0
 72
     0
 73
     0
 74
     0
 75
     1
 76
     1
 77
     3
 78
     8
170
     0
171
     2
172
     1
173
     0
174
     0
175
     0
176
   256
177
   256
178
     4
  0
DIMSTYLE
  2
AM_JIS$SH
 70
     0
  3

  4
"
  5

  6

  7

 40
1.0
 41
2.5
 42
1.0
 43
10.0
 44
1.0
 45
0.0
 46
0.0
 47
0.1
 48
0.1
140
3.5
141
0.0
142
0.0
143
0.0393701
144
1.0
145
0.0
146
0.71
147
1.5
 71
     0
 72
     0
 73
     0
 74
     0
 75
     1
 76
     0
 77
     3
 78
     8
170
     0
171
     2
172
     1
173
     1
174
     0
175
     0
176
   256
177
   256
178
     4
  0
DIMSTYLE
  2
AM_ANSI
 70
     0
  3

  4
mm
  5

  6

  7

 40
1.0
 41
0.1
 42
0.05
 43
0.5
 44
0.1
 45
0.0
 46
0.0
 47
0.1
 48
0.1
140
0.12
141
0.0
142
0.0
143
25.399999999999999
144
1.0
145
0.0
146
0.71
147
0.06
 71
     0
 72
     0
 73
     1
 74
     1
 75
     0
 76
     0
 77
     0
 78
     7
170
     0
171
     2
172
     0
173
     0
174
     0
175
     0
176
   256
177
   256
178
     2
  0
DIMSTYLE
  2
AM_ANSI$3
 70
     0
  3

  4
mm
  5

  6

  7

 40
1.0
 41
0.1
 42
0.05
 43
0.5
 44
0.1
 45
0.0
 46
0.0
 47
0.1
 48
0.1
140
0.12
141
0.0
142
0.0
143
25.399999999999999
144
1.0
145
0.0
146
0.71
147
0.06
 71
     0
 72
     0
 73
     1
 74
     1
 75
     0
 76
     0
 77
     0
 78
     7
170
     0
171
     2
172
     0
173
     0
174
     0
175
     0
176
   256
177
   256
178
     2
  0
DIMSTYLE
  2
AM_ANSI$4
 70
     0
  3

  4
mm
  5

  6

  7

 40
1.0
 41
0.1
 42
0.05
 43
0.5
 44
0.1
 45
0.0
 46
0.0
 47
0.1
 48
0.1
140
0.12
141
0.0
142
0.0
143
25.399999999999999
144
1.0
145
0.0
146
0.71
147
0.06
 71
     0
 72
     0
 73
     1
 74
     1
 75
     0
 76
     0
 77
     0
 78
     7
170
     0
171
     2
172
     0
173
     0
174
     0
175
     0
176
   256
177
   256
178
     2
  0
DIMSTYLE
  2
AM_ANSI$7
 70
     0
  3

  4
mm
  5

  6

  7

 40
1.0
 41
0.1
 42
0.05
 43
0.5
 44
0.1
 45
0.0
 46
0.0
 47
0.1
 48
0.1
140
0.24
141
0.0
142
0.0
143
25.399999999999999
144
1.0
145
0.0
146
0.71
147
0.06
 71
     0
 72
     0
 73
     1
 74
     1
 75
     0
 76
     0
 77
     0
 78
     7
170
     0
171
     2
172
     0
173
     0
174
     0
175
     0
176
   256
177
   256
178
     2
  0
DIMSTYLE
  2
AM_ANSI$SF
 70
     0
  3

  4
mm
  5

  6

  7

 40
1.0
 41
0.1
 42
0.05
 43
0.5
 44
0.1
 45
0.0
 46
0.0
 47
0.1
 48
0.1
140
0.12
141
0.0
142
0.0
143
25.399999999999999
144
1.0
145
0.0
146
0.71
147
0.06
 71
     0
 72
     0
 73
     1
 74
     1
 75
     1
 76
     1
 77
     0
 78
     7
170
     0
171
     2
172
     0
173
     0
174
     0
175
     0
176
   256
177
   256
178
     2
  0
DIMSTYLE
  2
AM_ANSI$SH
 70
     0
  3

  4
mm
  5

  6

  7

 40
1.0
 41
0.1
 42
0.05
 43
0.5
 44
0.1
 45
0.0
 46
0.0
 47
0.1
 48
0.1
140
0.12
141
0.0
142
0.0
143
25.399999999999999
144
1.0
145
0.0
146
0.71
147
0.06
 71
     0
 72
     0
 73
     1
 74
     1
 75
     1
 76
     1
 77
     0
 78
     7
170
     0
171
     2
172
     0
173
     1
174
     0
175
     0
176
   256
177
   256
178
     2
  0
ENDTAB
  0
ENDSEC
  0
SECTION
  2
BLOCKS
  0
BLOCK
  8
0
  2
$MODEL_SPACE
 70
     0
 10
0.0
 20
0.0
 30
0.0
  3
$MODEL_SPACE
  1

  0
ENDBLK
  5
30E7
  8
0
  0
BLOCK
 67
     1
  8
0
  2
$PAPER_SPACE
 70
     0
 10
0.0
 20
0.0
 30
0.0
  3
$PAPER_SPACE
  1

  0
ENDBLK
  5
30E3
 67
     1
  8
0
  0
BLOCK
  8
0
  2
GENAXEH
 70
     0
 10
0.0
 20
0.0
 30
0.0
  3
GENAXEH
  1

  0
LINE
  5
2E30
  8
0
 10
-1.0
 20
0.0
 30
0.0
 11
1.0
 21
0.0
 31
0.0
  0
ENDBLK
  5
2E31
  8
0
  0
BLOCK
  8
0
  2
_OPEN30
 70
     0
 10
0.0
 20
0.0
 30
0.0
  3
_OPEN30
  1

  0
LINE
  5
2E34
  8
0
 62
     0
 10
-1.0
 20
0.26794919
 30
0.0
 11
0.0
 21
0.0
 31
0.0
  0
LINE
  5
2E35
  8
0
 62
     0
 10
0.0
 20
0.0
 30
0.0
 11
-1.0
 21
-0.26794919
 31
0.0
  0
LINE
  5
2E36
  8
0
 62
     0
 10
0.0
 20
0.0
 30
0.0
 11
-1.0
 21
0.0
 31
0.0
  0
ENDBLK
  5
2E37
  8
0
  0
BLOCK
  8
0
  2
_NONE
 70
     0
 10
0.0
 20
0.0
 30
0.0
  3
_NONE
  1

  0
ENDBLK
  5
2E3A
  8
0
  0
BLOCK
  8
0
  2
*U5
 70
     1
 10
0.0
 20
0.0
 30
0.0
  3
*U5
  1

  0
TEXT
  5
2E3D
  8
AM_0
 62
     4
 10
1421.8385533218759
 20
451.695330512189
 30
0.0
 40
15.0
  1
225
 50
90.0
 41
0.8299999999999999
  0
TEXT
  5
2E3E
  8
AM_0
 62
     3
 10
1407.638553321875
 20
489.04533051218868
 30
0.0
 40
10.64999999999999
  1
 0
 50
90.0
 41
0.8299999999999999
  0
TEXT
  5
2E3F
  8
AM_0
 62
     3
 10
1421.8385533218759
 20
489.04533051218868
 30
0.0
 40
10.64999999999999
  1
-0.5
 50
90.0
 41
0.8299999999999999
  0
ENDBLK
  5
2E40
  8
0
  0
BLOCK
  8
0
  2
*U6
 70
     1
 10
0.0
 20
0.0
 30
0.0
  3
*U6
  1

  0
TEXT
  5
2E43
  8
AM_0
 62
     4
 10
858.50036842222039
 20
576.70964262524205
 30
0.0
 40
15.0
  1
\U+2205
 50
90.0
 41
0.8299999999999999
  0
TEXT
  5
2E44
  8
AM_0
 62
     4
 10
858.50036842222039
 20
589.15964262524221
 30
0.0
 40
15.0
  1
60
 50
90.0
 41
0.8299999999999999
  0
TEXT
  5
2E45
  8
AM_0
 62
     4
 10
858.50036842222039
 20
611.98464262524215
 30
0.0
 40
12.0
  1
h6
 50
90.0
 41
0.8299999999999999
  0
ENDBLK
  5
2E46
  8
0
  0
BLOCK
  8
0
  2
_ACMFILLEDHALF
 70
     0
 10
0.0
 20
0.0
 30
0.0
  3
_ACMFILLEDHALF
  1

  0
TRACE
  5
31E3
  8
AM_0
 62
     0
 10
-0.8
 20
0.0
 30
0.0
 11
-1.0
 21
0.166666666
 31
0.0
 12
0.0
 22
0.0
 32
0.0
 13
0.0
 23
0.0
 33
0.0
  0
LINE
  5
31E4
  8
AM_0
 62
     0
 10
-1.0
 20
0.0
 30
0.0
 11
-0.8
 21
0.0
 31
0.0
  0
ENDBLK
  5
31E2
  8
0
  0
ENDSEC
  0
SECTION
  2
ENTITIES
  0
LINE
  5
2E47
  8
AM_0
 10
480.48296969802863
 20
675.58667801218871
 30
0.0
 11
480.48296969802863
 21
425.77945801218868
 31
0.0
  0
LINE
  5
2E48
  8
AM_0
 10
420.98301969802901
 20
667.39297801218868
 30
0.0
 11
420.98301969802901
 21
427.39295301218868
 31
0.0
  0
LINE
  5
2E49
  8
AM_0
 10
433.98296969802863
 20
665.39297801218845
 30
0.0
 11
433.98296969802863
 21
429.3929880121886
 31
0.0
  0
LINE
  5
2E4A
  8
AM_0
 10
500.48296969802863
 20
725.39297801218845
 30
0.0
 11
500.48296969802863
 21
402.39295301218868
 31
0.0
  0
LINE
  5
2E4B
  8
AM_0
 10
585.48296969802868
 20
725.70757801218861
 30
0.0
 11
585.48296969802868
 21
524.69517301218855
 31
0.0
  0
LINE
  5
2E4C
  8
AM_0
 10
631.98296969802868
 20
631.31987801218861
 30
0.0
 11
631.98296969802868
 21
417.39295301218868
 31
0.0
  0
LINE
  5
2E4D
  8
AM_0
 10
661.98296969802868
 20
709.01392801218867
 30
0.0
 11
661.98296969802868
 21
451.04493301218872
 31
0.0
  0
LINE
  5
2E4E
  8
AM_0
 10
691.98296969802846
 20
680.06227801218847
 30
0.0
 11
691.98296969802846
 21
402.39295301218868
 31
0.0
  0
LINE
  5
2E4F
  8
AM_0
 10
697.98296969802868
 20
657.49587801218865
 30
0.0
 11
697.98296969802868
 21
533.29002301218873
 31
0.0
  0
LINE
  5
2E50
  8
AM_0
 10
555.48296969802846
 20
727.39297801218856
 30
0.0
 11
555.48296969802846
 21
447.6310530121886
 31
0.0
  0
LINE
  5
2E51
  8
AM_0
 10
347.48932669802917
 20
603.56076901218864
 30
0.0
 11
347.48932669802917
 21
547.39295801218873
 31
0.0
  0
LINE
  5
2E52
  8
AM_0
 10
318.48301969802912
 20
547.39295801218873
 30
0.0
 11
318.48301969802912
 21
602.44486701218875
 31
0.0
  0
LINE
  5
2E53
  8
AM_0
 10
254.4830196980291
 20
529.89295801218873
 30
0.0
 11
254.4830196980291
 21
564.89295801218873
 31
0.0
  0
LINE
  5
2E54
  8
AM_0
 10
312.48301969802912
 20
567.39295801218873
 30
0.0
 11
312.48301969802912
 21
527.39295801218873
 31
0.0
  0
LINE
  5
2E55
  8
AM_0
 10
316.48301969802912
 20
547.39295801218873
 30
0.0
 11
316.48301969802912
 21
582.39295801218873
 31
0.0
  0
LINE
  5
2E56
  8
AM_0
 10
400.98301969802912
 20
547.39295801218873
 30
0.0
 11
400.98301969802912
 21
617.10979501218844
 31
0.0
  0
LINE
  5
2E57
  8
AM_0
 10
418.98301969802918
 20
617.10979501218844
 30
0.0
 11
418.98301969802918
 21
463.86728701218868
 31
0.0
  0
ARC
  5
2E58
  8
AM_0
 10
321.48301969802912
 20
492.3410500121887
 30
0.0
 40
3.0
 50
180.0
 51
268.99999999999812
  0
LINE
  5
2E59
  8
ﾁｭｳｼﾝｾﾝ
 10
245.0625783358573
 20
547.39295801218873
 30
0.0
 11
561.70271969802889
 21
547.39295801218873
 31
0.0
  0
LINE
  5
2E5A
  8
AM_0
 10
318.48301969802912
 20
547.39295801218873
 30
0.0
 11
318.48301969802912
 21
492.3410500121887
 31
0.0
  0
LINE
  5
2E5B
  8
AM_0
 10
316.48301969802912
 20
512.39295801218873
 30
0.0
 11
318.48301969802912
 21
510.39295801218873
 31
0.0
  0
LINE
  5
2E5C
  8
AM_0
 10
312.48301969802912
 20
529.89295801218873
 30
0.0
 11
254.4830196980291
 21
529.89295801218873
 31
0.0
  0
LINE
  5
2E5D
  8
AM_0
 10
316.48301969802912
 20
547.39295801218873
 30
0.0
 11
316.48301969802912
 21
512.39295801218873
 31
0.0
  0
LINE
  5
2E5E
  8
AM_0
 10
312.48301969802912
 20
527.39295801218873
 30
0.0
 11
316.48301969802912
 21
527.39295801218873
 31
0.0
  0
LINE
  5
2E5F
  8
AM_0
 10
437.98296969802863
 20
370.39295301218868
 30
0.0
 11
697.98296969802868
 21
370.39295301218868
 31
0.0
  0
LINE
  5
2E60
  8
ﾁｭｳｼﾝｾﾝ1
 10
467.98296969802863
 20
406.69275801218868
 30
0.0
 11
467.98296969802863
 21
365.07979801218869
 31
0.0
  0
LINE
  5
2E61
  8
AM_0
 10
437.98296969802863
 20
397.39295301218868
 30
0.0
 11
437.98296969802863
 21
370.39295301218868
 31
0.0
  0
LINE
  5
2E62
  8
ｶｸﾚｾﾝ2
 10
479.98301969802878
 20
402.39295301218868
 30
0.0
 11
479.98301969802878
 21
370.39295301218868
 31
0.0
  0
LINE
  5
2E63
  8
ｶｸﾚｾﾝ2
 10
455.98301969802918
 20
402.39295301218868
 30
0.0
 11
455.98301969802918
 21
370.39295301218868
 31
0.0
  0
LINE
  5
2E64
  8
AM_0
 10
433.98296969802863
 20
476.46015801218869
 30
0.0
 11
480.48296969802863
 21
476.46015801218869
 31
0.0
  0
LINE
  5
2E65
  8
AM_0
 10
433.98296969802863
 20
460.71808801218862
 30
0.0
 11
480.48296969802863
 21
460.71808801218862
 31
0.0
  0
LINE
  5
2E66
  8
AM_0
 10
435.98301969802918
 20
435.39295301218868
 30
0.0
 11
475.48296969802863
 21
435.39295301218868
 31
0.0
  0
LINE
  5
2E67
  8
AM_0
 10
442.98296969802863
 20
402.39295301218868
 30
0.0
 11
503.98296969802863
 21
402.39295301218868
 31
0.0
  0
LINE
  5
2E68
  8
AM_0
 10
400.98301969802912
 20
547.39295801218873
 30
0.0
 11
400.98301969802912
 21
463.86728701218868
 31
0.0
  0
LINE
  5
2E69
  8
AM_0
 10
392.98301969802918
 20
477.67612101218862
 30
0.0
 11
394.03903369802879
 21
465.60582001218847
 31
0.0
  0
LINE
  5
2E6A
  8
AM_0
 10
399.51855369802922
 20
436.85742401218852
 30
0.0
 11
350.34622369802929
 21
486.02975501218867
 31
0.0
  0
ARC
  5
2E6B
  8
AM_0
 10
442.98296969802863
 20
397.39295301218868
 30
0.0
 40
5.0
 50
90.000003000000007
 51
180.00001
  0
LINE
  5
2E6C
  8
AM_0
 10
419.98301969802918
 20
462.86728701218868
 30
0.0
 11
420.98301969802901
 21
462.86728701218868
 31
0.0
  0
LINE
  5
2E6D
  8
AM_0
 10
397.09301769802897
 20
447.31093801218861
 30
0.0
 11
420.98301969802901
 21
447.31093801218861
 31
0.0
  0
LINE
  5
2E6E
  8
AM_0
 10
420.98301969802901
 20
429.39295801218873
 30
0.0
 11
418.98301969802918
 21
427.39295801218873
 31
0.0
  0
LINE
  5
2E6F
  8
AM_0
 10
400.98301969802912
 20
447.31093801218861
 30
0.0
 11
400.98301969802912
 21
430.39295801218873
 31
0.0
  0
ARC
  5
2E70
  8
AM_0
 10
403.98301969802901
 20
430.39295801218873
 30
0.0
 40
3.0
 50
180.0
 51
270.0
  0
ARC
  5
2E71
  8
AM_0
 10
395.98301969802912
 20
433.32189101218842
 30
0.0
 40
5.0
 50
0.0
 51
45.0
  0
LINE
  5
2E72
  8
AM_0
 10
403.98301969802901
 20
427.39295801218873
 30
0.0
 11
418.98301969802918
 21
427.39295801218873
 31
0.0
  0
LINE
  5
2E73
  8
AM_0
 10
397.0807556980289
 20
450.22767101218852
 30
0.0
 11
397.03753969802881
 21
460.50728101218863
 31
0.0
  0
ARC
  5
2E74
  8
AM_0
 10
397.09301769802897
 20
450.31093801218873
 30
0.0
 40
3.0
 50
184.99999999999969
 51
270.0
  0
LINE
  5
2E75
  8
AM_0
 10
397.0276186980289
 20
462.86728701218868
 30
0.0
 11
399.98301969802912
 21
462.86728701218868
 31
0.0
  0
ARC
  5
2E76
  8
AM_0
 10
397.0276186980289
 20
465.86728701218868
 30
0.0
 40
3.0
 50
184.99999999999969
 51
270.0
  0
ARC
  5
2E77
  8
AM_0
 10
399.98301969802912
 20
463.86728701218868
 30
0.0
 40
1.0
 50
270.0
 51
0.0
  0
LINE
  5
2E78
  8
AM_0
 10
392.98301969802918
 20
462.86728701218868
 30
0.0
 11
394.10443269802909
 21
450.04947001218869
 31
0.0
  0
ARC
  5
2E79
  8
AM_0
 10
419.98301969802918
 20
463.86728701218868
 30
0.0
 40
1.0
 50
180.0
 51
270.0
  0
ARC
  5
2E7A
  8
AM_0
 10
435.98301969802918
 20
433.39295301218868
 30
0.0
 40
2.0000000500000001
 50
90.000003000000007
 51
180.00001
  0
ARC
  5
2E7B
  8
AM_0
 10
431.98296969802868
 20
429.3929880121886
 30
0.0
 40
2.0000000500000001
 50
270.0
 51
0.0
  0
LINE
  5
2E7C
  8
AM_0
 10
420.98301969802901
 20
427.39295301218868
 30
0.0
 11
431.98296969802868
 21
427.39295301218868
 31
0.0
  0
LINE
  5
2E7D
  8
AM_0
 10
420.98301969802901
 20
447.66575301218882
 30
0.0
 11
433.98296969802863
 21
447.66575301218882
 31
0.0
  0
LINE
  5
2E7E
  8
AM_0
 10
420.98301969802901
 20
463.22208801218881
 30
0.0
 11
433.98296969802863
 21
463.22208801218881
 31
0.0
  0
LINE
  5
2E7F
  8
AM_0
 10
347.48932669802917
 20
491.2251480121887
 30
0.0
 11
347.48932669802917
 21
547.39295801218873
 31
0.0
  0
LINE
  5
2E80
  8
AM_0
 10
321.43066269802921
 20
489.34150701218869
 30
0.0
 11
343.44967969802917
 21
488.95716401218868
 31
0.0
  0
ARC
  5
2E81
  8
AM_0
 10
343.27515569802921
 20
478.9586870121887
 30
0.0
 40
10.0
 50
45.0
 51
89.000000000001506
  0
LINE
  5
2E82
  8
AM_0
 10
420.98301969802901
 20
477.67612101218862
 30
0.0
 11
418.98301969802918
 21
477.67612101218862
 31
0.0
  0
LINE
  5
2E83
  8
AM_0
 10
400.98301969802912
 20
477.67612101218862
 30
0.0
 11
394.02105069802911
 21
477.67612101218862
 31
0.0
  0
ARC
  5
2E84
  8
AM_0
 10
403.98301969802901
 20
498.3141450121887
 30
0.0
 40
3.0
 50
180.0
 51
270.0
  0
LINE
  5
2E85
  8
AM_0
 10
403.09167269802953
 20
506.47821101218852
 30
0.0
 11
416.74947669802867
 21
506.47821101218852
 31
0.0
  0
ARC
  5
2E86
  8
AM_0
 10
415.98301969802912
 20
498.3141450121887
 30
0.0
 40
3.0
 50
270.0
 51
0.0
  0
LINE
  5
2E87
  8
AM_0
 10
403.98301969802901
 20
495.31414501218859
 30
0.0
 11
415.98301969802912
 21
495.31414501218859
 31
0.0
  0
LINE
  5
2E88
  8
AM_0
 10
420.98301969802901
 20
471.39631301218878
 30
0.0
 11
433.98296969802863
 21
471.39631301218878
 31
0.0
  0
LINE
  5
2E89
  8
AM_0
 10
533.48301969802924
 20
496.33582801218859
 30
0.0
 11
533.48301969802924
 21
460.06650801218871
 31
0.0
  0
LINE
  5
2E8A
  8
AM_0
 10
560.48296969802868
 20
524.69517301218855
 30
0.0
 11
560.48296969802868
 21
456.67866301218868
 31
0.0
  0
LINE
  5
2E8B
  8
AM_0
 10
502.48301969802873
 20
458.06647801218872
 30
0.0
 11
531.48296969802868
 21
458.06647801218872
 31
0.0
  0
LINE
  5
2E8C
  8
AM_0
 10
510.87951969802879
 20
405.15162301218868
 30
0.0
 11
557.37951969802907
 21
449.43732801218869
 31
0.0
  0
ARC
  5
2E8D
  8
AM_0
 10
490.48296969802868
 20
425.77945801218868
 30
0.0
 40
10.0
 50
179.99998999999991
 51
225.28792000000001
  0
LINE
  5
2E8E
  8
AM_0
 10
483.44756969802881
 20
418.67295301218871
 30
0.0
 11
497.51851969802919
 21
404.74274801218871
 31
0.0
  0
ARC
  5
2E8F
  8
AM_0
 10
490.48296969802868
 20
397.6362430121888
 30
0.0
 40
10.0
 50
28.402999999999999
 51
45.287917999999991
  0
ARC
  5
2E90
  8
AM_0
 10
503.98296969802863
 20
412.39295301218868
 30
0.0
 40
10.0
 50
270.0
 51
313.60282000000001
  0
ARC
  5
2E91
  8
AM_0
 10
475.48296969802863
 20
430.39295301218868
 30
0.0
 40
5.0
 50
0.0
 51
90.000003000000007
  0
ARC
  5
2E92
  8
AM_0
 10
502.48301969802873
 20
456.06647801218878
 30
0.0
 40
2.0000000500000001
 50
90.000003000000007
 51
180.00001
  0
ARC
  5
2E93
  8
AM_0
 10
531.48296969802868
 20
460.06650801218871
 30
0.0
 40
2.0000000500000001
 50
270.0
 51
0.0
  0
ARC
  5
2E94
  8
AM_0
 10
550.48296969802846
 20
456.67866301218868
 30
0.0
 40
10.0
 50
313.60282000000001
 51
0.0
  0
LINE
  5
2E95
  8
AM_0
 10
502.48301969802873
 20
498.33585801218868
 30
0.0
 11
531.48296969802868
 21
498.33585801218868
 31
0.0
  0
ARC
  5
2E96
  8
AM_0
 10
502.48301969802873
 20
500.33582801218859
 30
0.0
 40
2.0000000500000001
 50
179.99998999999991
 51
270.0
  0
ARC
  5
2E97
  8
AM_0
 10
531.48296969802868
 20
496.33582801218859
 30
0.0
 40
2.0000000500000001
 50
0.0
 51
90.000003000000007
  0
LINE
  5
2E98
  8
AM_0
 10
555.48296969802846
 20
524.69517301218855
 30
0.0
 11
585.48296969802868
 21
524.69517301218855
 31
0.0
  0
LINE
  5
2E99
  8
ﾁｭｳｼﾝｾﾝ1
 10
667.98296969802846
 20
406.69275801218868
 30
0.0
 11
667.98296969802846
 21
365.07979801218869
 31
0.0
  0
LINE
  5
2E9A
  8
AM_0
 10
697.98296969802868
 20
397.39295301218868
 30
0.0
 11
697.98296969802868
 21
370.39295301218868
 31
0.0
  0
LINE
  5
2E9B
  8
ｶｸﾚｾﾝ2
 10
679.98301969802867
 20
402.39295301218868
 30
0.0
 11
679.98301969802867
 21
370.39295301218868
 31
0.0
  0
LINE
  5
2E9C
  8
ｶｸﾚｾﾝ2
 10
655.98301969802924
 20
402.39295301218868
 30
0.0
 11
655.98301969802924
 21
370.39295301218868
 31
0.0
  0
ARC
  5
2E9D
  8
AM_0
 10
651.98296969802868
 20
451.04493301218872
 30
0.0
 40
10.0
 50
270.0
 51
0.0
  0
LINE
  5
2E9E
  8
AM_0
 10
646.98296969802846
 20
402.39295301218868
 30
0.0
 11
692.98296969802846
 21
402.39295301218868
 31
0.0
  0
ARC
  5
2E9F
  8
AM_0
 10
646.98296969802846
 20
417.39295301218868
 30
0.0
 40
15.0
 50
179.99998999999991
 51
270.0
  0
LINE
  5
2EA0
  8
AM_0
 10
631.98296969802868
 20
441.04493301218872
 30
0.0
 11
651.98296969802868
 21
441.04493301218872
 31
0.0
  0
ARC
  5
2EA1
  8
AM_0
 10
692.98296969802846
 20
397.39295301218868
 30
0.0
 40
5.0
 50
0.0
 51
90.000003000000007
  0
ARC
  5
2EA2
  8
AM_0
 10
694.98301969802856
 20
533.29002301218873
 30
0.0
 40
3.0000000500000001
 50
272.0
 51
0.0
  0
LINE
  5
2EA3
  8
AM_0
 10
694.87831969802892
 20
530.28455801218865
 30
0.0
 11
695.087669698029
 21
530.29188301218846
 31
0.0
  0
ARC
  5
2EA4
  8
AM_0
 10
694.98301969802856
 20
527.28638801218881
 30
0.0
 40
3.0000000500000001
 50
91.999997999999948
 51
180.00001
  0
ARC
  5
2EA5
  8
AM_0
 10
321.48301969802912
 20
602.44486701218875
 30
0.0
 40
3.0
 50
90.999999999998465
 51
180.0
  0
LINE
  5
2EA6
  8
AM_0
 10
254.4830196980291
 20
564.89295801218873
 30
0.0
 11
312.48301969802912
 21
564.89295801218873
 31
0.0
  0
LINE
  5
2EA7
  8
AM_0
 10
254.4830196980291
 20
567.89295801218873
 30
0.0
 11
299.48301969802912
 21
567.89295801218873
 31
0.0
  0
LINE
  5
2EA8
  8
AM_0
 10
254.4830196980291
 20
564.89295801218873
 30
0.0
 11
254.4830196980291
 21
567.89295801218873
 31
0.0
  0
LINE
  5
2EA9
  8
AM_0
 10
299.48301969802912
 20
567.89295801218873
 30
0.0
 11
299.48301969802912
 21
564.89295801218873
 31
0.0
  0
LINE
  5
2EAA
  8
AM_0
 10
312.48301969802912
 20
567.39295801218873
 30
0.0
 11
316.48301969802912
 21
567.39295801218873
 31
0.0
  0
LINE
  5
2EAB
  8
AM_0
 10
316.48301969802912
 20
582.39295801218873
 30
0.0
 11
318.48301969802912
 21
584.39295801218873
 31
0.0
  0
ARC
  5
2EAC
  8
AM_0
 10
579.80146969802865
 20
706.53152801218846
 30
0.0
 40
20.000000499999999
 50
60.000002000000002
 51
88.0
  0
LINE
  5
2EAD
  8
ﾁｭｳｼﾝｾﾝ
 10
811.92201969802841
 20
595.39295801218861
 30
0.0
 11
538.01601969802869
 21
595.39295801218861
 31
0.0
  0
ARC
  5
2EAE
  8
AM_0
 10
533.90801969802885
 20
728.46267801218869
 30
0.0
 40
6.0
 50
126.4666999999999
 51
190.27006
  0
ARC
  5
2EAF
  8
AM_0
 10
497.05796969802873
 20
728.46267801218869
 30
0.0
 40
6.0
 50
349.72994999999997
 51
53.533291000000013
  0
LINE
  5
2EB0
  8
AM_0
 10
527.98296969802868
 20
727.39297801218856
 30
0.0
 11
525.73246969802835
 21
735.79187801218848
 31
0.0
  0
LINE
  5
2EB1
  8
AM_0
 10
502.98296969802868
 20
727.39302801218855
 30
0.0
 11
505.23346969802873
 21
735.79187801218848
 31
0.0
  0
ARC
  5
2EB2
  8
AM_0
 10
515.48296969802868
 20
753.39297801218845
 30
0.0
 40
25.000000499999999
 50
306.46672000000001
 51
233.53328999999999
  0
LINE
  5
2EB3
  8
AM_0
 10
435.98301969802918
 20
659.39297801218868
 30
0.0
 11
475.48296969802863
 21
659.39297801218868
 31
0.0
  0
LINE
  5
2EB4
  8
AM_0
 10
433.98296969802863
 20
618.32577801218872
 30
0.0
 11
480.48296969802863
 21
618.32577801218872
 31
0.0
  0
LINE
  5
2EB5
  8
AM_0
 10
433.98296969802863
 20
634.06782801218867
 30
0.0
 11
480.48296969802863
 21
634.06782801218867
 31
0.0
  0
LINE
  5
2EB6
  8
AM_0
 10
397.0807556980289
 20
644.55824601218876
 30
0.0
 11
397.03753969802881
 21
634.2786360121886
 31
0.0
  0
LINE
  5
2EB7
  8
AM_0
 10
392.98301969802918
 20
631.91863001218871
 30
0.0
 11
394.10443269802909
 21
644.73644601218871
 31
0.0
  0
LINE
  5
2EB8
  8
AM_0
 10
399.51855369802922
 20
657.92849201218826
 30
0.0
 11
350.34622369802929
 21
608.75616201218872
 31
0.0
  0
LINE
  5
2EB9
  8
AM_0
 10
321.43066269802921
 20
605.44441001218865
 30
0.0
 11
343.44967969802917
 21
605.82875301218871
 31
0.0
  0
ARC
  5
2EBA
  8
AM_0
 10
343.27515569802921
 20
615.82723001218835
 30
0.0
 40
10.0
 50
270.99999999999841
 51
315.0
  0
LINE
  5
2EBB
  8
AM_0
 10
397.0276186980289
 20
631.91863001218871
 30
0.0
 11
420.98301969802901
 21
631.91863001218871
 31
0.0
  0
LINE
  5
2EBC
  8
AM_0
 10
392.98301969802918
 20
617.10979501218844
 30
0.0
 11
394.03903369802879
 21
629.18009701218853
 31
0.0
  0
LINE
  5
2EBD
  8
AM_0
 10
419.80280469802869
 20
617.10979501218844
 30
0.0
 11
394.02105069802911
 21
617.10979501218844
 31
0.0
  0
ARC
  5
2EBE
  8
AM_0
 10
397.0276186980289
 20
628.91863001218871
 30
0.0
 40
3.0
 50
90.0
 51
175.00000000000011
  0
LINE
  5
2EBF
  8
AM_0
 10
420.98301969802901
 20
623.38957801218862
 30
0.0
 11
433.98296969802863
 21
623.38957801218862
 31
0.0
  0
LINE
  5
2EC0
  8
AM_0
 10
420.98301969802901
 20
631.56377801218866
 30
0.0
 11
433.98296969802863
 21
631.56377801218866
 31
0.0
  0
LINE
  5
2EC1
  8
AM_0
 10
418.98301969802918
 20
667.39295801218873
 30
0.0
 11
420.98301969802901
 21
665.39295801218873
 31
0.0
  0
LINE
  5
2EC2
  8
AM_0
 10
397.09301769802897
 20
647.47497901218867
 30
0.0
 11
420.98301969802901
 21
647.47497901218867
 31
0.0
  0
LINE
  5
2EC3
  8
AM_0
 10
400.98301969802912
 20
647.47497901218867
 30
0.0
 11
400.98301969802912
 21
674.53134601218835
 31
0.0
  0
LINE
  5
2EC4
  8
AM_0
 10
418.98301969802918
 20
647.47497901218867
 30
0.0
 11
418.98301969802918
 21
674.53134601218835
 31
0.0
  0
LINE
  5
2EC5
  8
AM_0
 10
402.11677369802919
 20
658.14145901218853
 30
0.0
 11
417.81263269802912
 21
658.14145901218853
 31
0.0
  0
ARC
  5
2EC6
  8
AM_0
 10
397.09301769802897
 20
644.47497901218844
 30
0.0
 40
3.0
 50
90.0
 51
175.00000000000011
  0
ARC
  5
2EC7
  8
AM_0
 10
395.98301969802912
 20
661.4640260121887
 30
0.0
 40
5.0
 50
315.0
 51
0.0
  0
ARC
  5
2EC8
  8
AM_0
 10
403.98301969802901
 20
674.53134601218835
 30
0.0
 40
3.0
 50
90.0
 51
180.0
  0
ARC
  5
2EC9
  8
AM_0
 10
415.98301969802912
 20
674.53134601218835
 30
0.0
 40
3.0
 50
0.0
 51
90.0
  0
LINE
  5
2ECA
  8
AM_0
 10
403.98301969802901
 20
677.53134601218846
 30
0.0
 11
415.98301969802912
 21
677.53134601218846
 31
0.0
  0
ARC
  5
2ECB
  8
AM_0
 10
435.98301969802918
 20
661.39297801218845
 30
0.0
 40
2.0000000500000001
 50
179.99998999999991
 51
270.0
  0
LINE
  5
2ECC
  8
AM_0
 10
420.98301969802901
 20
647.12017801218872
 30
0.0
 11
433.98296969802863
 21
647.12017801218872
 31
0.0
  0
ARC
  5
2ECD
  8
AM_0
 10
431.98296969802868
 20
665.39297801218845
 30
0.0
 40
2.0000000500000001
 50
0.0
 51
90.000003000000007
  0
LINE
  5
2ECE
  8
AM_0
 10
420.98301969802901
 20
667.39297801218868
 30
0.0
 11
431.98296969802868
 21
667.39297801218868
 31
0.0
  0
LINE
  5
2ECF
  8
AM_0
 10
502.48301969802873
 20
620.61797801218836
 30
0.0
 11
531.48296969802868
 21
620.61797801218836
 31
0.0
  0
LINE
  5
2ED0
  8
AM_0
 10
502.48301969802873
 20
583.44379801218872
 30
0.0
 11
531.48296969802868
 21
583.44379801218872
 31
0.0
  0
ARC
  5
2ED1
  8
AM_0
 10
502.48301969802873
 20
581.44379801218872
 30
0.0
 40
2.0000000500000001
 50
90.000003000000007
 51
180.00001
  0
ARC
  5
2ED2
  8
AM_0
 10
502.48301969802873
 20
622.6179780121887
 30
0.0
 40
2.0000000500000001
 50
179.99998999999991
 51
270.0
  0
LINE
  5
2ED3
  8
AM_0
 10
533.48301969802924
 20
618.6179780121887
 30
0.0
 11
533.48301969802924
 21
585.44379801218872
 31
0.0
  0
ARC
  5
2ED4
  8
AM_0
 10
531.48296969802868
 20
585.44379801218872
 30
0.0
 40
2.0000000500000001
 50
270.0
 51
0.0
  0
ARC
  5
2ED5
  8
AM_0
 10
531.48296969802868
 20
618.6179780121887
 30
0.0
 40
2.0000000500000001
 50
0.0
 51
90.000003000000007
  0
LINE
  5
2ED6
  8
AM_0
 10
502.48301969802873
 20
717.14052801218872
 30
0.0
 11
531.48296969802868
 21
717.14052801218872
 31
0.0
  0
LINE
  5
2ED7
  8
AM_0
 10
502.48301969802873
 20
700.61122801218846
 30
0.0
 11
531.48296969802868
 21
700.61122801218846
 31
0.0
  0
LINE
  5
2ED8
  8
AM_0
 10
502.48301969802873
 20
727.39297801218856
 30
0.0
 11
555.48296969802846
 21
727.39297801218856
 31
0.0
  0
LINE
  5
2ED9
  8
AM_0
 10
505.3084696980286
 20
725.64087801218852
 30
0.0
 11
555.48296969802846
 21
727.39297801218856
 31
0.0
  0
LINE
  5
2EDA
  8
AM_0
 10
496.72996969802892
 20
693.39052801218872
 30
0.0
 11
484.23601969802888
 21
683.39537801218876
 31
0.0
  0
ARC
  5
2EDB
  8
AM_0
 10
475.48296969802863
 20
664.39297801218868
 30
0.0
 40
5.0
 50
270.0
 51
0.0
  0
ARC
  5
2EDC
  8
AM_0
 10
490.48296969802868
 20
675.58667801218871
 30
0.0
 40
10.0
 50
128.65980999999991
 51
180.00001
  0
ARC
  5
2EDD
  8
AM_0
 10
490.48296969802868
 20
701.19917801218867
 30
0.0
 40
10.0
 50
308.65980999999982
 51
0.0
  0
ARC
  5
2EDE
  8
AM_0
 10
502.48301969802873
 20
698.61127801218845
 30
0.0
 40
2.0000000500000001
 50
90.000003000000007
 51
180.00001
  0
ARC
  5
2EDF
  8
AM_0
 10
505.48296969802863
 20
720.64387801218845
 30
0.0
 40
5.0
 50
91.999997999999948
 51
180.00001
  0
ARC
  5
2EE0
  8
AM_0
 10
502.48301969802873
 20
719.14052801218872
 30
0.0
 40
2.0000000500000001
 50
179.99998999999991
 51
270.0
  0
ARC
  5
2EE1
  8
AM_0
 10
502.48301969802873
 20
725.39297801218845
 30
0.0
 40
2.0000000500000001
 50
90.000003000000007
 51
180.00001
  0
LINE
  5
2EE2
  8
AM_0
 10
533.48301969802924
 20
715.14052801218872
 30
0.0
 11
533.48301969802924
 21
702.61122801218858
 31
0.0
  0
ARC
  5
2EE3
  8
AM_0
 10
531.48296969802868
 20
702.61122801218858
 30
0.0
 40
2.0000000500000001
 50
270.0
 51
0.0
  0
ARC
  5
2EE4
  8
AM_0
 10
531.48296969802868
 20
715.14052801218872
 30
0.0
 40
2.0000000500000001
 50
0.0
 51
90.000003000000007
  0
LINE
  5
2EE5
  8
AM_0
 10
555.48301969802924
 20
727.39297801218856
 30
0.0
 11
580.49951969802885
 21
726.51937801218855
 31
0.0
  0
LINE
  5
2EE6
  8
AM_0
 10
515.48296969802868
 20
738.39297801218868
 30
0.0
 11
524.96106969802895
 21
736.51392801218844
 31
0.0
  0
LINE
  5
2EE7
  8
AM_0
 10
505.68896969802881
 20
736.39297801218845
 30
0.0
 11
525.27706969802875
 21
736.39297801218845
 31
0.0
  0
CIRCLE
  5
2EE8
  8
AM_0
 10
515.48296969802868
 20
753.39297801218845
 30
0.0
 40
15.0
  0
ARC
  5
2EE9
  8
AM_0
 10
506.19941969802881
 20
735.53307801218853
 30
0.0
 40
1.0
 50
101.21329
 51
164.99999
  0
LINE
  5
2EEA
  8
AM_0
 10
506.00496969802862
 20
736.51392801218844
 30
0.0
 11
515.48296969802868
 21
738.3928780121887
 31
0.0
  0
ARC
  5
2EEB
  8
AM_0
 10
524.76661969802865
 20
735.53307801218853
 30
0.0
 40
1.0
 50
15.0
 51
78.786709999999999
  0
LINE
  5
2EEC
  8
AM_0
 10
703.98296969802857
 20
625.39297801218845
 30
0.0
 11
808.98301969802901
 21
625.39297801218845
 31
0.0
  0
LINE
  5
2EED
  8
AM_0
 10
703.98296969802857
 20
565.39295801218873
 30
0.0
 11
808.98301969802901
 21
565.39295801218873
 31
0.0
  0
ARC
  5
2EEE
  8
AM_0
 10
646.98296969802846
 20
631.31987801218861
 30
0.0
 40
15.0
 50
90.000003000000007
 51
180.00001
  0
LINE
  5
2EEF
  8
AM_0
 10
703.98296969802857
 20
627.89297801218845
 30
0.0
 11
703.98296969802857
 21
562.89295801218873
 31
0.0
  0
LINE
  5
2EF0
  8
AM_0
 10
697.98296969802868
 20
562.89295801218873
 30
0.0
 11
703.98296969802857
 21
562.89295801218873
 31
0.0
  0
LINE
  5
2EF1
  8
AM_0
 10
697.98296969802868
 20
627.89297801218845
 30
0.0
 11
703.98296969802857
 21
627.89297801218845
 31
0.0
  0
ARC
  5
2EF2
  8
AM_0
 10
651.98296969802868
 20
709.01392801218867
 30
0.0
 40
10.0
 50
0.0
 51
88.0
  0
LINE
  5
2EF3
  8
AM_0
 10
646.98296969802846
 20
646.31987801218861
 30
0.0
 11
661.98296969802868
 21
646.31987801218861
 31
0.0
  0
LINE
  5
2EF4
  8
AM_0
 10
597.19826969802898
 20
720.93317801218848
 30
0.0
 11
652.33201969802894
 21
719.00787801218848
 31
0.0
  0
LINE
  5
2EF5
  8
AM_0
 10
589.80151969802876
 20
723.8520780121886
 30
0.0
 11
592.54711969802872
 21
722.2668780121885
 31
0.0
  0
ARC
  5
2EF6
  8
AM_0
 10
597.54716969802905
 20
730.92707801218853
 30
0.0
 40
10.0
 50
239.99999999999989
 51
268.0
  0
ARC
  5
2EF7
  8
AM_0
 10
683.98296969802846
 20
680.06227801218847
 30
0.0
 40
8.0
 50
0.0
 51
84.999996999999979
  0
ARC
  5
2EF8
  8
AM_0
 10
694.98301969802856
 20
663.49952801218865
 30
0.0
 40
3.0000000500000001
 50
179.99998999999991
 51
268.00000999999992
  0
ARC
  5
2EF9
  8
AM_0
 10
694.98301969802856
 20
657.49587801218865
 30
0.0
 40
3.0000000500000001
 50
0.0
 51
88.0
  0
LINE
  5
2EFA
  8
AM_0
 10
694.87831969802892
 20
660.50142801218885
 30
0.0
 11
695.08776969802875
 21
660.49407801218877
 31
0.0
  0
ARC
  5
2EFB
  8
AM_0
 10
671.98296969802846
 20
699.1809280121887
 30
0.0
 40
10.0
 50
179.99998999999991
 51
265.0
  0
LINE
  5
2EFC
  8
AM_0
 10
671.11146969802905
 20
689.21892801218871
 30
0.0
 11
684.68031969802905
 21
688.0318780121886
 31
0.0
  0
LINE
  5
2EFD
  8
AM_0
 10
727.98296969802868
 20
629.39297801218845
 30
0.0
 11
808.98301969802901
 21
629.39297801218845
 31
0.0
  0
LINE
  5
2EFE
  8
AM_0
 10
727.98296969802868
 20
629.39297801218845
 30
0.0
 11
727.98296969802868
 21
625.39297801218845
 31
0.0
  0
LINE
  5
2EFF
  8
AM_0
 10
808.98301969802901
 20
629.39297801218845
 30
0.0
 11
808.98301969802901
 21
565.39295801218873
 31
0.0
  0
LINE
  5
2F00
  8
AM_0
 10
994.6763620799602
 20
627.19447801218871
 30
0.0
 11
951.49477207996063
 21
405.04447301218869
 31
0.0
  0
LINE
  5
2F01
  8
AM_0
 10
1001.49478707996
 20
644.69497801218824
 30
0.0
 11
1001.49478707996
 21
507.39295801218873
 31
0.0
  0
LINE
  5
2F02
  8
AM_0
 10
1024.49475707996
 20
580.39295801218873
 30
0.0
 11
1024.49475707996
 21
417.39295301218868
 31
0.0
  0
LINE
  5
2F03
  8
AM_0
 10
1238.49475707996
 20
580.39295801218873
 30
0.0
 11
1238.49475707996
 21
417.39295301218868
 31
0.0
  0
LINE
  5
2F04
  8
AM_0
 10
1261.4947720799601
 20
644.69497801218824
 30
0.0
 11
1261.4947720799601
 21
507.39295801218873
 31
0.0
  0
LINE
  5
2F05
  8
AM_0
 10
1268.31316207996
 20
627.1945280121887
 30
0.0
 11
1311.49475707996
 21
405.04447301218869
 31
0.0
  0
LINE
  5
2F06
  8
ﾁｭｳｼﾝｾﾝ
 10
1131.4947870799599
 20
784.21292643660161
 30
0.0
 11
1131.4947870799599
 21
368.49976801218872
 31
0.0
  0
CIRCLE
  5
2F07
  8
AM_0
 10
1131.4947870799599
 20
595.39295801218861
 30
0.0
 40
65.0
  0
LINE
  5
2F08
  8
AM_0
 10
1071.5496270799599
 20
383.1626680121887
 30
0.0
 11
1131.4947870799599
 21
383.1626680121887
 31
0.0
  0
LINE
  5
2F09
  8
ﾁｭｳｼﾝｾﾝ
 10
985.36163205489765
 20
547.39295801218873
 30
0.0
 11
1276.791294825083
 21
547.39295801218873
 31
0.0
  0
LINE
  5
2F0A
  8
AM_0
 10
1034.49475707996
 20
373.39295301218868
 30
0.0
 11
1131.4947870799599
 21
373.39295301218868
 31
0.0
  0
LINE
  5
2F0B
  8
AM_0
 10
951.49477207996063
 20
405.04447301218869
 30
0.0
 11
951.49477207996063
 21
370.39295301218868
 31
0.0
  0
LINE
  5
2F0C
  8
ｶｸﾚｾﾝ2
 10
974.49475207996022
 20
402.39295301218868
 30
0.0
 11
974.49475207996022
 21
370.39295301218868
 31
0.0
  0
LINE
  5
2F0D
  8
ｶｸﾚｾﾝ2
 10
998.49478707995991
 20
402.39295301218868
 30
0.0
 11
998.49478707995991
 21
370.39295301218868
 31
0.0
  0
LINE
  5
2F0E
  8
ﾁｭｳｼﾝｾﾝ1
 10
986.49478707996025
 20
407.23136301218869
 30
0.0
 11
986.49478707996025
 21
364.15339301218859
 31
0.0
  0
LINE
  5
2F0F
  8
AM_0
 10
1031.4947870799599
 20
397.39295301218868
 30
0.0
 11
1031.4947870799599
 21
370.39295301218868
 31
0.0
  0
ARC
  5
2F10
  8
AM_0
 10
1041.4947870799599
 20
376.25083301218848
 30
0.0
 40
10.0
 50
135.0
 51
180.00001
  0
LINE
  5
2F11
  8
AM_0
 10
951.49477207996063
 20
370.39295301218868
 30
0.0
 11
1031.4947870799599
 21
370.39295301218868
 31
0.0
  0
ARC
  5
2F12
  8
AM_0
 10
1034.49475707996
 20
370.39295301218868
 30
0.0
 40
3.0000000500000001
 50
90.000003000000007
 51
180.00001
  0
ARC
  5
2F13
  8
AM_0
 10
1131.4947870799599
 20
507.39295801218873
 30
0.0
 40
130.0
 50
179.99998999999991
 51
214.60598999999999
  0
ARC
  5
2F14
  8
AM_0
 10
1009.49475707996
 20
417.39295301218868
 30
0.0
 40
15.0
 50
270.0
 51
0.0
  0
LINE
  5
2F15
  8
AM_0
 10
956.49477207996028
 20
402.39295301218868
 30
0.0
 11
1026.4947870799599
 21
402.39295301218868
 31
0.0
  0
ARC
  5
2F16
  8
AM_0
 10
956.49477207996028
 20
397.39295301218868
 30
0.0
 40
5.0
 50
90.000003000000007
 51
180.00001
  0
ARC
  5
2F17
  8
AM_0
 10
1049.6188720799601
 20
384.37491801218869
 30
0.0
 40
10.0
 50
54.000002000000002
 51
135.0
  0
ARC
  5
2F18
  8
AM_0
 10
1026.4947870799599
 20
397.39295301218868
 30
0.0
 40
5.0
 50
0.0
 51
90.000003000000007
  0
LINE
  5
2F19
  8
AM_0
 10
1034.4237120799601
 20
383.32187801218862
 30
0.0
 11
1042.547827079959
 21
391.44599301218858
 31
0.0
  0
ARC
  5
2F1A
  8
AM_0
 10
1071.5496270799599
 20
393.1626680121887
 30
0.0
 40
10.0
 50
234.0
 51
270.0
  0
LINE
  5
2F1B
  8
AM_0
 10
1065.6718170799591
 20
385.07245801218869
 30
0.0
 11
1055.49673707996
 21
392.46506801218868
 31
0.0
  0
ARC
  5
2F1C
  8
AM_0
 10
1221.4947720799601
 20
376.25083301218848
 30
0.0
 40
10.0
 50
0.0
 51
45.00000099999999
  0
LINE
  5
2F1D
  8
ｶｸﾚｾﾝ2
 10
1264.4947720799601
 20
402.39295301218868
 30
0.0
 11
1264.4947720799601
 21
370.39295301218868
 31
0.0
  0
LINE
  5
2F1E
  8
ｶｸﾚｾﾝ2
 10
1288.49475707996
 20
402.39295301218868
 30
0.0
 11
1288.49475707996
 21
370.39295301218868
 31
0.0
  0
LINE
  5
2F1F
  8
AM_0
 10
1311.4947720799601
 20
405.04447301218869
 30
0.0
 11
1311.4947720799601
 21
370.39295301218868
 31
0.0
  0
LINE
  5
2F20
  8
ﾁｭｳｼﾝｾﾝ1
 10
1276.4947720799601
 20
407.23136301218869
 30
0.0
 11
1276.4947720799601
 21
364.15339301218859
 31
0.0
  0
LINE
  5
2F21
  8
AM_0
 10
1231.4947720799601
 20
397.39295301218868
 30
0.0
 11
1231.4947720799601
 21
370.39295301218868
 31
0.0
  0
LINE
  5
2F22
  8
AM_0
 10
1228.49475707996
 20
373.39295301218868
 30
0.0
 11
1131.4947870799599
 21
373.39295301218868
 31
0.0
  0
LINE
  5
2F23
  8
AM_0
 10
1311.4947720799601
 20
370.39295301218868
 30
0.0
 11
1231.4947720799601
 21
370.39295301218868
 31
0.0
  0
ARC
  5
2F24
  8
AM_0
 10
1228.49475707996
 20
370.39295301218868
 30
0.0
 40
3.0000000500000001
 50
0.0
 51
90.000003000000007
  0
ARC
  5
2F25
  8
AM_0
 10
1213.3706420799599
 20
384.37491801218869
 30
0.0
 40
10.0
 50
45.00000099999999
 51
126.0
  0
LINE
  5
2F26
  8
AM_0
 10
1191.43991707996
 20
383.1626680121887
 30
0.0
 11
1131.4947870799599
 21
383.1626680121887
 31
0.0
  0
LINE
  5
2F27
  8
AM_0
 10
1197.3177570799601
 20
385.07248801218873
 30
0.0
 11
1207.49280207996
 21
392.46509801218872
 31
0.0
  0
ARC
  5
2F28
  8
AM_0
 10
1191.43991707996
 20
393.1626680121887
 30
0.0
 40
10.0
 50
270.0
 51
306.0
  0
ARC
  5
2F29
  8
AM_0
 10
1131.4947870799599
 20
507.39295801218873
 30
0.0
 40
130.0
 50
325.39400000000001
 51
0.0
  0
LINE
  5
2F2A
  8
AM_0
 10
1306.4947720799601
 20
402.39295301218868
 30
0.0
 11
1236.4947720799601
 21
402.39295301218868
 31
0.0
  0
ARC
  5
2F2B
  8
AM_0
 10
1253.49475707996
 20
417.39295301218868
 30
0.0
 40
15.0
 50
179.99998999999991
 51
270.0
  0
ARC
  5
2F2C
  8
AM_0
 10
1236.4947720799601
 20
397.39295301218868
 30
0.0
 40
5.0
 50
90.000003000000007
 51
180.00001
  0
LINE
  5
2F2D
  8
AM_0
 10
1228.56583207996
 20
383.32187801218862
 30
0.0
 11
1220.44173207996
 21
391.44599301218858
 31
0.0
  0
ARC
  5
2F2E
  8
AM_0
 10
1306.4947720799601
 20
397.39295301218868
 30
0.0
 40
5.0
 50
0.0
 51
90.000003000000007
  0
ARC
  5
2F2F
  8
AM_0
 10
1131.4947870799599
 20
547.39295801218873
 30
0.0
 40
175.0000049999999
 50
90.000003000000007
 51
111.47534999999991
  0
ARC
  5
2F30
  8
AM_0
 10
1131.4947870799599
 20
547.39295801218873
 30
0.0
 40
180.0000049999999
 50
90.000003000000007
 51
108.48475999999999
  0
LINE
  5
2F31
  8
ﾁｭｳｼﾝｾﾝ
 10
1035.656751857545
 20
595.39295801218861
 30
0.0
 11
1227.9063207041399
 21
595.39295801218861
 31
0.0
  0
ARC
  5
2F32
  8
AM_0
 10
1131.4947870799599
 20
580.39295801218873
 30
0.0
 40
107.0
 50
90.000003000000007
 51
180.00001
  0
ARC
  5
2F33
  8
AM_0
 10
1112.47165207996
 20
604.29746801218846
 30
0.0
 40
120.0
 50
108.48475999999999
 51
169.0
  0
ARC
  5
2F34
  8
AM_0
 10
1111.35919707996
 20
598.57459801218874
 30
0.0
 40
120.0
 50
111.47534999999991
 51
169.0
  0
ARC
  5
2F35
  8
AM_0
 10
1011.494787079959
 20
644.69497801218824
 30
0.0
 40
10.0
 50
155.21109000000001
 51
180.00001
  0
ARC
  5
2F36
  8
AM_0
 10
1150.517917079959
 20
604.29746801218846
 30
0.0
 40
120.0
 50
11.0
 51
71.515242999999998
  0
LINE
  5
2F37
  8
AM_0
 10
1144.11343707996
 20
726.95002801218868
 30
0.0
 11
1141.74429707996
 21
735.79187801218848
 31
0.0
  0
LINE
  5
2F38
  8
AM_0
 10
1118.8761320799599
 20
726.95012801218854
 30
0.0
 11
1121.24527707996
 21
735.79187801218848
 31
0.0
  0
ARC
  5
2F39
  8
AM_0
 10
1131.4947870799599
 20
547.39295801218873
 30
0.0
 40
180.0000049999999
 50
71.515242999999998
 51
90.000003000000007
  0
ARC
  5
2F3A
  8
AM_0
 10
1151.630317079959
 20
598.57459801218874
 30
0.0
 40
120.0
 50
11.0
 51
68.524651000000006
  0
ARC
  5
2F3B
  8
AM_0
 10
1131.4947870799599
 20
580.39295801218873
 30
0.0
 40
107.0
 50
0.0000000000000761
 51
90.000003000000007
  0
ARC
  5
2F3C
  8
AM_0
 10
1131.4947870799599
 20
595.39295801218861
 30
0.0
 40
30.000000499999999
 50
107.4575999999999
 51
72.542383999999998
  0
CIRCLE
  5
2F3D
  8
AM_5
 10
1131.4947870799599
 20
595.39295801218861
 30
0.0
 40
6.0
  0
CIRCLE
  5
2F3E
  8
AM_0
 10
1131.4947870799599
 20
595.39295801218861
 30
0.0
 40
4.500000049999997
  0
LINE
  5
2F3F
  8
AM_0
 10
1122.4947570799591
 20
629.39297801218845
 30
0.0
 11
1122.4947570799591
 21
618.39297801218868
 31
0.0
  0
LINE
  5
2F40
  8
AM_0
 10
1140.4947570799591
 20
629.39297801218845
 30
0.0
 11
1140.4947570799591
 21
618.39297801218868
 31
0.0
  0
LINE
  5
2F41
  8
AM_0
 10
1122.4947570799591
 20
618.39297801218868
 30
0.0
 11
1140.4947570799591
 21
618.39297801218868
 31
0.0
  0
LINE
  5
2F42
  8
AM_0
 10
1122.4947570799591
 20
629.39297801218845
 30
0.0
 11
1140.4947570799591
 21
629.39297801218845
 31
0.0
  0
ARC
  5
2F43
  8
AM_0
 10
1131.4947870799599
 20
547.39295801218873
 30
0.0
 40
175.0000049999999
 50
68.524644999999992
 51
90.000003000000007
  0
ARC
  5
2F44
  8
AM_0
 10
1251.4947720799601
 20
644.69497801218824
 30
0.0
 40
10.0
 50
0.0
 51
24.788910999999999
  0
LINE
  5
2F45
  8
AM_0
 10
1126.4947870799599
 20
773.39297801218856
 30
0.0
 11
1126.4947870799599
 21
731.39297801218856
 31
0.0
  0
LINE
  5
2F46
  8
AM_0
 10
1136.4947870799599
 20
773.39297801218856
 30
0.0
 11
1136.4947870799599
 21
731.39297801218856
 31
0.0
  0
ARC
  5
2F47
  8
AM_0
 10
1124.4947570799591
 20
731.39297801218856
 30
0.0
 40
2.0000000500000001
 50
270.0
 51
0.0
  0
ARC
  5
2F48
  8
AM_0
 10
1122.2111870799599
 20
735.53307801218853
 30
0.0
 40
1.0
 50
101.21329
 51
164.99999
  0
LINE
  5
2F49
  8
AM_0
 10
1122.0167270799591
 20
736.51397801218855
 30
0.0
 11
1126.4947870799599
 21
737.40172801218853
 31
0.0
  0
ARC
  5
2F4A
  8
AM_0
 10
1140.7783870799601
 20
735.53307801218853
 30
0.0
 40
1.0
 50
15.0
 51
78.786709999999999
  0
ARC
  5
2F4B
  8
AM_0
 10
1138.4947870799599
 20
731.39297801218856
 30
0.0
 40
2.0000000500000001
 50
179.99998999999991
 51
270.0
  0
LINE
  5
2F4C
  8
AM_0
 10
1136.4947870799599
 20
737.40167801218854
 30
0.0
 11
1140.97284707996
 21
736.51392801218844
 31
0.0
  0
ARC
  5
2F4D
  8
AM_0
 10
1131.4947870799599
 20
773.39297801218856
 30
0.0
 40
5.0
 50
0.0
 51
179.99998999999991
  0
LINE
  5
2F4E
  8
AM_0
 10
254.48305969802919
 20
1092.4097630529641
 30
0.0
 11
299.48305969802919
 21
1092.4097630529641
 31
0.0
  0
LINE
  5
2F4F
  8
AM_0
 10
254.48305969802919
 20
1102.4097630529641
 30
0.0
 11
299.48305969802919
 21
1102.4097630529641
 31
0.0
  0
LINE
  5
2F50
  8
AM_0
 10
254.48305969802919
 20
1114.909768052964
 30
0.0
 11
312.48305969802919
 21
1114.909768052964
 31
0.0
  0
LINE
  5
2F51
  8
AM_0
 10
312.48305969802919
 20
1079.909768052963
 30
0.0
 11
254.48305969802919
 21
1079.909768052963
 31
0.0
  0
LINE
  5
2F52
  8
AM_0
 10
254.48305969802919
 20
1079.909768052963
 30
0.0
 11
254.48305969802919
 21
1114.909768052964
 31
0.0
  0
LINE
  5
2F53
  8
AM_0
 10
418.98305969802908
 20
997.32773705296404
 30
0.0
 11
418.98305969802908
 21
977.40976805296418
 31
0.0
  0
LINE
  5
2F54
  8
AM_0
 10
399.51859369802918
 20
986.8742340529642
 30
0.0
 11
350.3462636980293
 21
1036.0465650529629
 31
0.0
  0
LINE
  5
2F55
  8
AM_0
 10
400.98305969802902
 20
997.32774805296435
 30
0.0
 11
400.98305969802902
 21
980.4097680529643
 31
0.0
  0
LINE
  5
2F56
  8
AM_0
 10
403.98305969802931
 20
977.40976805296464
 30
0.0
 11
418.98305969802908
 21
977.40976805296464
 31
0.0
  0
ARC
  5
2F57
  8
AM_0
 10
395.98305969802919
 20
983.33870105296444
 30
0.0
 40
5.0
 50
0.0
 51
45.0
  0
ARC
  5
2F58
  8
AM_0
 10
403.98305969802931
 20
980.4097680529643
 30
0.0
 40
3.0
 50
180.0
 51
270.0
  0
LINE
  5
2F59
  8
AM_0
 10
420.98305969802919
 20
979.40976805296452
 30
0.0
 11
418.98305969802908
 21
977.40976805296464
 31
0.0
  0
LINE
  5
2F5A
  8
AM_0
 10
400.98305969802902
 20
1027.692921052964
 30
0.0
 11
400.98305969802902
 21
1167.1266050529639
 31
0.0
  0
LINE
  5
2F5B
  8
AM_0
 10
418.98305969802908
 20
1167.1266050529639
 30
0.0
 11
418.98305969802908
 21
1027.692921052964
 31
0.0
  0
LINE
  5
2F5C
  8
AM_0
 10
347.4893666980293
 20
1153.5775790529631
 30
0.0
 11
347.4893666980293
 21
1097.409768052963
 31
0.0
  0
LINE
  5
2F5D
  8
AM_0
 10
318.48305969802919
 20
1097.409768052963
 30
0.0
 11
318.48305969802919
 21
1152.461677052964
 31
0.0
  0
LINE
  5
2F5E
  8
AM_0
 10
397.0276586980292
 20
1012.884086052964
 30
0.0
 11
420.98305969802919
 21
1012.884086052964
 31
0.0
  0
LINE
  5
2F5F
  8
AM_0
 10
419.80284469802899
 20
1027.692921052964
 30
0.0
 11
394.02109069802913
 21
1027.692921052964
 31
0.0
  0
ARC
  5
2F60
  8
AM_0
 10
397.0930576980291
 20
1000.327737052964
 30
0.0
 40
3.0
 50
184.99999999999969
 51
270.0
  0
LINE
  5
2F61
  8
AM_0
 10
316.48305969802919
 20
1097.409768052963
 30
0.0
 11
316.48305969802919
 21
1062.409768052964
 31
0.0
  0
LINE
  5
2F62
  8
AM_0
 10
318.48305969802919
 20
1097.409768052963
 30
0.0
 11
318.48305969802919
 21
1042.357860052964
 31
0.0
  0
LINE
  5
2F63
  8
AM_0
 10
347.4893666980293
 20
1041.241958052964
 30
0.0
 11
347.4893666980293
 21
1097.409768052963
 31
0.0
  0
LINE
  5
2F64
  8
AM_0
 10
321.43070269802911
 20
1039.3583170529639
 30
0.0
 11
343.44971969802918
 21
1038.9739740529631
 31
0.0
  0
ARC
  5
2F65
  8
AM_0
 10
321.48305969802919
 20
1042.357860052964
 30
0.0
 40
3.0
 50
180.0
 51
268.99999999999812
  0
LINE
  5
2F66
  8
AM_0
 10
316.48305969802919
 20
1062.409768052964
 30
0.0
 11
318.48305969802919
 21
1060.409768052964
 31
0.0
  0
LINE
  5
2F67
  8
AM_0
 10
392.98305969802919
 20
1012.884086052964
 30
0.0
 11
394.1044726980291
 21
1000.066270052964
 31
0.0
  0
LINE
  5
2F68
  8
AM_0
 10
392.98305969802919
 20
1027.692921052964
 30
0.0
 11
394.0390736980292
 21
1015.622619052964
 31
0.0
  0
ARC
  5
2F69
  8
AM_0
 10
397.0276586980292
 20
1015.884086052964
 30
0.0
 40
3.0
 50
184.99999999999969
 51
270.0
  0
ARC
  5
2F6A
  8
AM_0
 10
343.27519569802911
 20
1028.9754970529641
 30
0.0
 40
10.0
 50
45.0
 51
89.000000000001506
  0
ARC
  5
2F6B
  8
AM_0
 10
299.48305969802919
 20
1097.4097630529641
 30
0.0
 40
5.0
 50
270.0
 51
90.0
  0
LINE
  5
2F6C
  8
AM_0
 10
299.48305969802919
 20
1102.4097630529641
 30
0.0
 11
299.48305969802919
 21
1092.4097630529641
 31
0.0
  0
LINE
  5
2F6D
  8
AM_0
 10
316.48305969802919
 20
1097.409768052963
 30
0.0
 11
316.48305969802919
 21
1132.409768052964
 31
0.0
  0
LINE
  5
2F6E
  8
AM_0
 10
312.48305969802919
 20
1117.409768052963
 30
0.0
 11
312.48305969802919
 21
1077.409768052963
 31
0.0
  0
LINE
  5
2F6F
  8
AM_0
 10
312.48305969802919
 20
1077.409768052963
 30
0.0
 11
316.48305969802919
 21
1077.409768052963
 31
0.0
  0
LINE
  5
2F70
  8
AM_0
 10
312.48305969802919
 20
1117.409768052963
 30
0.0
 11
316.48305969802919
 21
1117.409768052963
 31
0.0
  0
LINE
  5
2F71
  8
AM_0
 10
316.48305969802919
 20
1132.409768052964
 30
0.0
 11
318.48305969802919
 21
1134.409768052963
 31
0.0
  0
LINE
  5
2F72
  8
AM_0
 10
397.08079569802919
 20
1000.2444700529639
 30
0.0
 11
397.03757969802911
 21
1010.524080052964
 31
0.0
  0
LINE
  5
2F73
  8
AM_0
 10
397.0930576980291
 20
997.32773705296404
 30
0.0
 11
420.98305969802919
 21
997.32773705296404
 31
0.0
  0
LINE
  5
2F74
  8
AM_0
 10
418.98305969802908
 20
1080.834967109497
 30
0.0
 11
400.98305969802902
 21
1080.834967109497
 31
0.0
  0
LINE
  5
2F75
  8
AM_0
 10
400.98305969802902
 20
1082.4097630529641
 30
0.0
 11
418.98305969802908
 21
1082.4097630529641
 31
0.0
  0
LINE
  5
2F76
  8
AM_0
 10
418.98305969802908
 20
1113.9845589964309
 30
0.0
 11
400.98305969802902
 21
1113.9845589964309
 31
0.0
  0
LINE
  5
2F77
  8
AM_0
 10
400.98305969802902
 20
1112.4097630529641
 30
0.0
 11
418.98305969802908
 21
1112.4097630529641
 31
0.0
  0
ARC
  5
2F78
  8
AM_0
 10
397.0930576980291
 20
1194.4917890529639
 30
0.0
 40
3.0
 50
90.0
 51
175.00000000000011
  0
LINE
  5
2F79
  8
AM_0
 10
419.80284469802899
 20
1167.1266050529639
 30
0.0
 11
394.02109069802913
 21
1167.1266050529639
 31
0.0
  0
LINE
  5
2F7A
  8
AM_0
 10
397.0276586980292
 20
1181.9354400529639
 30
0.0
 11
420.98305969802919
 21
1181.9354400529639
 31
0.0
  0
LINE
  5
2F7B
  8
AM_0
 10
399.51859369802918
 20
1207.9453020529641
 30
0.0
 11
350.3462636980293
 21
1158.772972052964
 31
0.0
  0
LINE
  5
2F7C
  8
AM_0
 10
321.43070269802911
 20
1155.4612200529641
 30
0.0
 11
343.44971969802918
 21
1155.8455630529641
 31
0.0
  0
ARC
  5
2F7D
  8
AM_0
 10
321.48305969802919
 20
1152.461677052964
 30
0.0
 40
3.0
 50
90.999999999998494
 51
180.0
  0
LINE
  5
2F7E
  8
AM_0
 10
392.98305969802919
 20
1167.1266050529639
 30
0.0
 11
394.0390736980292
 21
1179.196907052964
 31
0.0
  0
ARC
  5
2F7F
  8
AM_0
 10
343.27519569802911
 20
1165.8440400529639
 30
0.0
 40
10.0
 50
270.99999999999841
 51
315.0
  0
LINE
  5
2F80
  8
AM_0
 10
392.98305969802919
 20
1181.9354400529639
 30
0.0
 11
394.1044726980291
 21
1194.753256052963
 31
0.0
  0
ARC
  5
2F81
  8
AM_0
 10
397.0276586980292
 20
1178.935440052963
 30
0.0
 40
3.0
 50
90.0
 51
175.00000000000011
  0
LINE
  5
2F82
  8
AM_0
 10
418.98305969802908
 20
1197.4917890529639
 30
0.0
 11
418.98305969802908
 21
1217.409758052964
 31
0.0
  0
ARC
  5
2F83
  8
AM_0
 10
395.98305969802919
 20
1211.4808250529641
 30
0.0
 40
5.0
 50
315.0
 51
0.0
  0
LINE
  5
2F84
  8
AM_0
 10
400.98305969802902
 20
1214.409758052964
 30
0.0
 11
400.98305969802902
 21
1197.4917890529639
 31
0.0
  0
LINE
  5
2F85
  8
AM_0
 10
397.08079569802919
 20
1194.5750560529641
 30
0.0
 11
397.03757969802911
 21
1184.2954460529629
 31
0.0
  0
LINE
  5
2F86
  8
AM_0
 10
397.0930576980291
 20
1197.4917890529639
 30
0.0
 11
420.98305969802919
 21
1197.4917890529639
 31
0.0
  0
LINE
  5
2F87
  8
AM_0
 10
403.98305969802931
 20
1217.409758052964
 30
0.0
 11
418.98305969802908
 21
1217.409758052964
 31
0.0
  0
ARC
  5
2F88
  8
AM_0
 10
403.98305969802931
 20
1214.409758052964
 30
0.0
 40
3.0
 50
90.0
 51
180.0
  0
LINE
  5
2F89
  8
AM_0
 10
420.98305969802919
 20
1215.409758052964
 30
0.0
 11
418.98305969802908
 21
1217.409758052964
 31
0.0
  0
LINE
  5
2F8B
  8
AM_0
 10
727.98301969802912
 20
1106.4097630529641
 30
0.0
 11
808.98301969802901
 21
1106.4097630529641
 31
0.0
  0
LINE
  5
2F8C
  8
AM_0
 10
727.98301969802912
 20
1088.409803052964
 30
0.0
 11
808.98301969802901
 21
1088.409803052964
 31
0.0
  0
LINE
  5
2F8D
  8
AM_0
 10
703.98301969802901
 20
1067.4098030529631
 30
0.0
 11
808.98301969802901
 21
1067.4098030529631
 31
0.0
  0
LINE
  5
2F8E
  8
AM_0
 10
703.98301969802901
 20
1127.4097630529641
 30
0.0
 11
808.98301969802901
 21
1127.4097630529641
 31
0.0
  0
LINE
  5
2F8F
  8
ﾁｭｳｼﾝｾﾝ
 10
245.0625783358573
 20
1097.4097630529641
 30
0.0
 11
824.80595969802926
 21
1097.4097630529641
 31
0.0
  0
LINE
  5
2F90
  8
AM_0
 10
585.48295969802905
 20
1255.3092630529641
 30
0.0
 11
585.48295969802905
 21
939.51045305296407
 31
0.0
  0
LINE
  5
2F91
  8
AM_0
 10
480.48295969802888
 20
972.47840305296404
 30
0.0
 11
480.48295969802888
 21
1222.341163052964
 31
0.0
  0
LINE
  5
2F92
  8
AM_0
 10
500.48295969802888
 20
945.21186305296408
 30
0.0
 11
500.48295969802888
 21
1092.4097630529641
 31
0.0
  0
LINE
  5
2F93
  8
AM_0
 10
420.98305969802919
 20
1217.4097630529641
 30
0.0
 11
420.98305969802919
 21
977.40980305296409
 31
0.0
  0
LINE
  5
2F94
  8
AM_0
 10
433.98295969802888
 20
1215.4097630529641
 30
0.0
 11
433.98295969802888
 21
979.40980305296421
 31
0.0
  0
LINE
  5
2F95
  8
AM_0
 10
661.98301969802924
 20
977.06666305296415
 30
0.0
 11
661.98301969802924
 21
1217.7529630529641
 31
0.0
  0
LINE
  5
2F96
  8
AM_0
 10
555.48301969802924
 20
1256.3568630529639
 30
0.0
 11
555.48301969802924
 21
938.46278305296391
 31
0.0
  0
LINE
  5
2F97
  8
AM_0
 10
697.98301969802912
 20
1159.512663052963
 30
0.0
 11
697.98301969802912
 21
1035.3068930529639
 31
0.0
  0
LINE
  5
2F98
  8
AM_0
 10
691.98301969802912
 20
1197.8746630529629
 30
0.0
 11
691.98301969802912
 21
996.94489305296418
 31
0.0
  0
LINE
  5
2F99
  8
AM_0
 10
624.26219969802924
 20
940.864633052964
 30
0.0
 11
555.48301969802924
 21
938.46284305296444
 31
0.0
  0
LINE
  5
2F9A
  8
AM_0
 10
560.48301969802924
 20
917.40980305296409
 30
0.0
 11
693.1575196980292
 21
922.04292305296406
 31
0.0
  0
CIRCLE
  5
2F9B
  8
AM_0
 10
467.98301969802912
 20
952.40980305296409
 30
0.0
 40
12.0
  0
LINE
  5
2F9C
  8
AM_0
 10
433.98295969802888
 20
1010.734933052964
 30
0.0
 11
480.48295969802888
 21
1010.734933052964
 31
0.0
  0
LINE
  5
2F9D
  8
AM_0
 10
433.98295969802888
 20
1026.477003052963
 30
0.0
 11
480.48295969802888
 21
1026.477003052963
 31
0.0
  0
LINE
  5
2F9E
  8
AM_0
 10
435.98305969802919
 20
985.40980305296409
 30
0.0
 11
475.48295969802888
 21
985.40980305296409
 31
0.0
  0
LINE
  5
2F9F
  8
AM_0
 10
442.80835969802899
 20
921.51911305296414
 30
0.0
 11
560.48301969802924
 21
917.40986305296394
 31
0.0
  0
LINE
  5
2FA0
  8
AM_0
 10
437.98305969802908
 20
926.51606305296423
 30
0.0
 11
437.98305969802908
 21
982.11079305296425
 31
0.0
  0
ARC
  5
2FA1
  8
AM_0
 10
442.98305969802902
 20
926.51606305296423
 30
0.0
 40
5.0
 50
180.00001000000091
 51
268.00000000000301
  0
LINE
  5
2FA2
  8
AM_0
 10
420.98305969802919
 20
997.68256305296404
 30
0.0
 11
433.98295969802888
 21
997.68256305296404
 31
0.0
  0
LINE
  5
2FA3
  8
AM_0
 10
420.98305969802919
 20
977.40980305296409
 30
0.0
 11
431.98305969802919
 21
977.40980305296409
 31
0.0
  0
ARC
  5
2FA4
  8
AM_0
 10
435.98305969802919
 20
983.40980305296409
 30
0.0
 40
2.0
 50
90.00000299999769
 51
180.00001000000091
  0
ARC
  5
2FA5
  8
AM_0
 10
442.98305969802902
 20
982.11079305296425
 30
0.0
 40
5.0
 50
138.7152999999978
 51
180.00001000000091
  0
ARC
  5
2FA6
  8
AM_0
 10
431.98305969802919
 20
979.40980305296421
 30
0.0
 40
2.0
 50
270.0
 51
0.0
  0
LINE
  5
2FA7
  8
AM_0
 10
420.98305969802919
 20
1013.238903052964
 30
0.0
 11
433.98295969802888
 21
1013.238903052964
 31
0.0
  0
LINE
  5
2FA8
  8
AM_0
 10
420.98305969802919
 20
1021.413093052964
 30
0.0
 11
433.98295969802888
 21
1021.413093052964
 31
0.0
  0
ARC
  5
2FA9
  8
AM_0
 10
495.48295969802922
 20
961.78639305296394
 30
0.0
 40
5.0
 50
0.0
 51
86.16916099999878
  0
ARC
  5
2FAA
  8
AM_0
 10
505.48295969802888
 20
966.11018305296409
 30
0.0
 40
5.0
 50
180.00001000000091
 51
270.0
  0
ARC
  5
2FAB
  8
AM_0
 10
512.98301969802924
 20
932.97315305296422
 30
0.0
 40
5.0
 50
180.00001000000091
 51
279.35984999999653
  0
LINE
  5
2FAC
  8
AM_0
 10
505.48295969802888
 20
950.31977305296425
 30
0.0
 11
531.48301969802924
 21
950.31977305296425
 31
0.0
  0
LINE
  5
2FAD
  8
AM_0
 10
505.48295969802888
 20
961.1101830529642
 30
0.0
 11
531.48301969802924
 21
961.1101830529642
 31
0.0
  0
LINE
  5
2FAE
  8
AM_0
 10
555.48301969802924
 20
938.46284305296444
 30
0.0
 11
505.30845969802908
 21
940.21497305296407
 31
0.0
  0
LINE
  5
2FAF
  8
AM_0
 10
508.76835969802909
 20
919.34028305296442
 30
0.0
 11
551.71018969802924
 21
924.65028305296414
 31
0.0
  0
ARC
  5
2FB0
  8
AM_0
 10
505.48295969802888
 20
945.31977305296391
 30
0.0
 40
5.0
 50
90.00000299999769
 51
180.00001000000091
  0
ARC
  5
2FB1
  8
AM_0
 10
505.48295969802888
 20
945.21186305296408
 30
0.0
 40
5.0
 50
180.00001000000091
 51
268.00000999999878
  0
LINE
  5
2FB2
  8
AM_0
 10
556.29618969802925
 20
935.04499305296395
 30
0.0
 11
513.79618969802925
 21
928.03974305296413
 31
0.0
  0
ARC
  5
2FB3
  8
AM_0
 10
531.48301969802924
 20
959.11018305296409
 30
0.0
 40
2.0
 50
0.0
 51
90.00000299999769
  0
ARC
  5
2FB4
  8
AM_0
 10
531.48301969802924
 20
952.31977305296402
 30
0.0
 40
2.0
 50
270.0
 51
0.0
  0
LINE
  5
2FB5
  8
AM_0
 10
533.48301969802924
 20
952.31977305296402
 30
0.0
 11
533.48301969802924
 21
959.11018305296409
 31
0.0
  0
ARC
  5
2FB6
  8
AM_0
 10
550.48301969802924
 20
934.57472305296403
 30
0.0
 40
10.0
 50
277.0491999999964
 51
0.0
  0
ARC
  5
2FB7
  8
AM_0
 10
555.48301969802924
 20
939.97840305296415
 30
0.0
 40
5.0
 50
279.35985999999889
 51
344.36583000000519
  0
LINE
  5
2FB8
  8
AM_0
 10
560.48301969802924
 20
934.57472305296403
 30
0.0
 11
560.48301969802924
 21
938.63740305296415
 31
0.0
  0
LINE
  5
2FB9
  8
AM_0
 10
505.48295969802888
 20
1048.381233052964
 30
0.0
 11
531.48301969802924
 21
1048.381233052964
 31
0.0
  0
LINE
  5
2FBA
  8
AM_0
 10
505.48295969802888
 20
1002.4656530529639
 30
0.0
 11
531.48301969802924
 21
1002.4656530529639
 31
0.0
  0
ARC
  5
2FBB
  8
AM_0
 10
485.48295969802911
 20
972.47840305296404
 30
0.0
 40
5.0
 50
180.00001000000091
 51
266.1691699999995
  0
ARC
  5
2FBC
  8
AM_0
 10
475.48295969802888
 20
980.40980305296421
 30
0.0
 40
5.0
 50
0.0
 51
90.00000299999769
  0
LINE
  5
2FBD
  8
AM_0
 10
495.81699969802912
 20
966.77522305296407
 30
0.0
 11
485.14890969802917
 21
967.48957305296392
 31
0.0
  0
ARC
  5
2FBE
  8
AM_0
 10
505.48295969802888
 20
997.46565305296406
 30
0.0
 40
5.0
 50
90.00000299999769
 51
180.00001000000091
  0
ARC
  5
2FBF
  8
AM_0
 10
505.48295969802888
 20
1053.381233052964
 30
0.0
 40
5.0
 50
180.00001000000091
 51
270.0
  0
LINE
  5
2FC0
  8
AM_0
 10
533.48301969802924
 20
1004.4656530529639
 30
0.0
 11
533.48301969802924
 21
1046.381233052964
 31
0.0
  0
ARC
  5
2FC1
  8
AM_0
 10
531.48301969802924
 20
1004.4656530529639
 30
0.0
 40
2.0
 50
270.0
 51
0.0
  0
ARC
  5
2FC2
  8
AM_0
 10
531.48301969802924
 20
1046.381233052964
 30
0.0
 40
2.0
 50
0.0
 51
90.00000299999769
  0
CIRCLE
  5
2FC3
  8
AM_0
 10
667.98301969802924
 20
952.40980305296409
 30
0.0
 40
12.0
  0
LINE
  5
2FC4
  8
AM_0
 10
684.26219969802924
 20
990.14014305296405
 30
0.0
 11
671.63401969802931
 21
989.69917305296406
 31
0.0
  0
LINE
  5
2FC5
  8
ﾁｭｳｼﾝｾﾝ1
 10
645.98301969802924
 20
952.40980305296409
 30
0.0
 11
689.98301969802912
 21
952.40980305296409
 31
0.0
  0
ARC
  5
2FC6
  8
AM_0
 10
646.98301969802924
 20
951.87684305296409
 30
0.0
 40
15.0
 50
91.999998000000787
 51
180.00001000000091
  0
LINE
  5
2FC7
  8
ﾁｭｳｼﾝｾﾝ1
 10
667.98301969802924
 20
930.40980305296421
 30
0.0
 11
667.98301969802924
 21
974.40980305296421
 31
0.0
  0
LINE
  5
2FC8
  8
AM_0
 10
631.98301969802924
 20
930.26191305296425
 30
0.0
 11
631.98301969802924
 21
951.87684305296409
 31
0.0
  0
ARC
  5
2FC9
  8
AM_0
 10
641.98301969802924
 20
930.26191305296425
 30
0.0
 40
10.0
 50
180.00001000000091
 51
271.99999000000111
  0
ARC
  5
2FCA
  8
AM_0
 10
623.98301969802924
 20
948.85975305296404
 30
0.0
 40
8.0
 50
271.99999999999682
 51
0.0
  0
ARC
  5
2FCB
  8
AM_0
 10
671.98301969802924
 20
979.70527305296412
 30
0.0
 40
10.0
 50
91.999998000000787
 51
180.00001000000091
  0
ARC
  5
2FCC
  8
AM_0
 10
651.98301969802924
 20
977.06666305296415
 30
0.0
 40
10.0
 50
271.99999999999682
 51
0.0
  0
LINE
  5
2FCD
  8
AM_0
 10
652.33195969802921
 20
967.07282305296405
 30
0.0
 11
646.45951969802923
 21
966.86775305296419
 31
0.0
  0
LINE
  5
2FCE
  8
AM_0
 10
697.98301969802912
 20
927.03986305296405
 30
0.0
 11
697.98301969802912
 21
987.77973305296405
 31
0.0
  0
ARC
  5
2FCF
  8
AM_0
 10
692.98301969802912
 20
927.03986305296405
 30
0.0
 40
5.0
 50
271.99999999999682
 51
0.0
  0
ARC
  5
2FD0
  8
AM_0
 10
683.98301969802924
 20
998.13532305296405
 30
0.0
 40
8.0
 50
271.99999999999682
 51
0.0
  0
ARC
  5
2FD1
  8
AM_0
 10
692.98301969802912
 20
987.77973305296405
 30
0.0
 40
5.0
 50
0.0
 51
66.421821000003519
  0
ARC
  5
2FD2
  8
AM_0
 10
696.98301969802912
 20
996.94489305296418
 30
0.0
 40
5.0
 50
180.00001000000091
 51
246.421820000005
  0
ARC
  5
2FD3
  8
AM_0
 10
694.98301969802912
 20
1035.3068930529639
 30
0.0
 40
3.0
 50
271.99999999999682
 51
0.0
  0
ARC
  5
2FD4
  8
AM_0
 10
694.98301969802912
 20
1029.3032330529641
 30
0.0
 40
3.0
 50
91.999998000000787
 51
180.00001000000091
  0
LINE
  5
2FD5
  8
AM_0
 10
694.87834969802918
 20
1032.301343052962
 30
0.0
 11
695.08775969802923
 21
1032.308663052964
 31
0.0
  0
LINE
  5
2FD6
  8
AM_0
 10
624.26219969802924
 20
1253.9550630529641
 30
0.0
 11
555.48301969802924
 21
1256.3568630529639
 31
0.0
  0
LINE
  5
2FD7
  8
AM_0
 10
560.48295969802905
 20
1277.4097630529641
 30
0.0
 11
693.15745969802913
 21
1272.7766630529641
 31
0.0
  0
CIRCLE
  5
2FD8
  8
AM_0
 10
467.98301969802912
 20
1242.4097630529641
 30
0.0
 40
12.0
  0
LINE
  5
2FD9
  8
AM_0
 10
500.48295969802888
 20
1102.4097630529641
 30
0.0
 11
500.48295969802888
 21
1249.607663052964
 31
0.0
  0
LINE
  5
2FDA
  8
AM_0
 10
533.48301969802924
 20
1242.499763052964
 30
0.0
 11
533.48301969802924
 21
1235.7093630529639
 31
0.0
  0
LINE
  5
2FDB
  8
AM_0
 10
437.98305969802908
 20
1268.303563052963
 30
0.0
 11
437.98305969802908
 21
1212.708863052964
 31
0.0
  0
LINE
  5
2FDC
  8
AM_0
 10
433.98295969802888
 20
1184.084763052964
 30
0.0
 11
480.48295969802888
 21
1184.084763052964
 31
0.0
  0
LINE
  5
2FDD
  8
AM_0
 10
433.98295969802888
 20
1168.3425630529639
 30
0.0
 11
480.48295969802888
 21
1168.3425630529639
 31
0.0
  0
LINE
  5
2FDE
  8
AM_0
 10
435.98305969802919
 20
1209.4097630529641
 30
0.0
 11
475.48295969802888
 21
1209.4097630529641
 31
0.0
  0
LINE
  5
2FDF
  8
AM_0
 10
420.98305969802919
 20
1173.406363052964
 30
0.0
 11
433.98295969802888
 21
1173.406363052964
 31
0.0
  0
LINE
  5
2FE0
  8
AM_0
 10
420.98305969802919
 20
1181.580563052964
 30
0.0
 11
433.98295969802888
 21
1181.580563052964
 31
0.0
  0
LINE
  5
2FE1
  8
AM_0
 10
420.98305969802919
 20
1197.1369630529639
 30
0.0
 11
433.98295969802888
 21
1197.1369630529639
 31
0.0
  0
LINE
  5
2FE2
  8
AM_0
 10
420.98305969802919
 20
1217.4097630529641
 30
0.0
 11
431.98305969802919
 21
1217.4097630529641
 31
0.0
  0
ARC
  5
2FE3
  8
AM_0
 10
431.98305969802919
 20
1215.4097630529641
 30
0.0
 40
2.0
 50
0.0
 51
90.00000299999769
  0
ARC
  5
2FE4
  8
AM_0
 10
435.98305969802919
 20
1211.4097630529641
 30
0.0
 40
2.0
 50
179.9999899999988
 51
270.0
  0
ARC
  5
2FE5
  8
AM_0
 10
442.98305969802902
 20
1212.708863052964
 30
0.0
 40
5.0
 50
180.00001000000091
 51
221.28494000000109
  0
ARC
  5
2FE6
  8
AM_0
 10
531.48301969802924
 20
1148.438363052963
 30
0.0
 40
2.0
 50
270.0
 51
0.0
  0
ARC
  5
2FE7
  8
AM_0
 10
515.48301969802924
 20
1097.4097630529641
 30
0.0
 40
12.5
 50
203.5781799999973
 51
336.42182999999471
  0
ARC
  5
2FE8
  8
AM_0
 10
515.48301969802924
 20
1097.4097630529641
 30
0.0
 40
12.5
 50
23.578179999997531
 51
156.42182000000241
  0
LINE
  5
2FE9
  8
AM_0
 10
505.48295969802888
 20
1146.438363052963
 30
0.0
 11
531.48301969802924
 21
1146.438363052963
 31
0.0
  0
LINE
  5
2FEA
  8
AM_0
 10
495.48301969802912
 20
1102.4097630529641
 30
0.0
 11
535.48301969802924
 21
1102.4097630529641
 31
0.0
  0
LINE
  5
2FEB
  8
AM_0
 10
495.48301969802912
 20
1092.4097630529641
 30
0.0
 11
535.48301969802924
 21
1092.4097630529641
 31
0.0
  0
ARC
  5
2FEC
  8
AM_0
 10
495.48301969802912
 20
1097.4097630529641
 30
0.0
 40
5.0
 50
90.00000299999769
 51
270.0
  0
ARC
  5
2FED
  8
AM_0
 10
505.48295969802888
 20
1141.438363052964
 30
0.0
 40
5.0
 50
90.00000299999769
 51
180.00001000000091
  0
ARC
  5
2FEE
  8
AM_0
 10
535.48301969802924
 20
1097.4097630529641
 30
0.0
 40
5.0
 50
270.0
 51
90.00000299999769
  0
LINE
  5
2FEF
  8
AM_0
 10
505.48295969802888
 20
1233.709363052963
 30
0.0
 11
531.48301969802924
 21
1233.709363052963
 31
0.0
  0
LINE
  5
2FF0
  8
AM_0
 10
505.48295969802888
 20
1192.354063052964
 30
0.0
 11
531.48301969802924
 21
1192.354063052964
 31
0.0
  0
ARC
  5
2FF1
  8
AM_0
 10
505.48295969802888
 20
1197.354063052964
 30
0.0
 40
5.0
 50
180.00001000000091
 51
270.0
  0
ARC
  5
2FF2
  8
AM_0
 10
485.48295969802911
 20
1222.341163052964
 30
0.0
 40
5.0
 50
93.830836999998056
 51
180.00001000000091
  0
ARC
  5
2FF3
  8
AM_0
 10
475.48295969802888
 20
1214.4097630529641
 30
0.0
 40
5.0
 50
270.0
 51
0.0
  0
ARC
  5
2FF4
  8
AM_0
 10
495.48295969802922
 20
1233.033263052964
 30
0.0
 40
5.0
 50
273.83084000000241
 51
0.0
  0
LINE
  5
2FF5
  8
AM_0
 10
495.81706969802917
 20
1228.0443630529639
 30
0.0
 11
485.14890969802917
 21
1227.3299630529641
 31
0.0
  0
ARC
  5
2FF6
  8
AM_0
 10
505.48295969802888
 20
1228.709363052963
 30
0.0
 40
5.0
 50
90.00000299999769
 51
180.00001000000091
  0
LINE
  5
2FF7
  8
AM_0
 10
533.48301969802924
 20
1190.354063052964
 30
0.0
 11
533.48301969802924
 21
1148.438363052963
 31
0.0
  0
ARC
  5
2FF8
  8
AM_0
 10
531.48301969802924
 20
1190.354063052964
 30
0.0
 40
2.0
 50
0.0
 51
90.00000299999769
  0
ARC
  5
2FF9
  8
AM_0
 10
531.48301969802924
 20
1235.7093630529639
 30
0.0
 40
2.0
 50
270.0
 51
0.0
  0
LINE
  5
2FFA
  8
AM_0
 10
442.80845969802908
 20
1273.300563052964
 30
0.0
 11
560.48301969802924
 21
1277.4097630529641
 31
0.0
  0
ARC
  5
2FFB
  8
AM_0
 10
442.98305969802902
 20
1268.303563052963
 30
0.0
 40
5.0
 50
91.999998000000787
 51
180.00001000000091
  0
ARC
  5
2FFC
  8
AM_0
 10
512.98301969802924
 20
1261.8464630529641
 30
0.0
 40
5.0
 50
80.640142999995817
 51
180.00001000000091
  0
LINE
  5
2FFD
  8
AM_0
 10
505.48295969802888
 20
1244.499763052964
 30
0.0
 11
531.48301969802924
 21
1244.499763052964
 31
0.0
  0
LINE
  5
2FFE
  8
AM_0
 10
555.48301969802924
 20
1256.3568630529639
 30
0.0
 11
505.30845969802908
 21
1254.604663052964
 31
0.0
  0
LINE
  5
2FFF
  8
AM_0
 10
508.76841969802911
 20
1275.4793630529639
 30
0.0
 11
551.71018969802924
 21
1270.1693630529639
 31
0.0
  0
ARC
  5
3000
  8
AM_0
 10
505.48295969802888
 20
1249.499763052964
 30
0.0
 40
5.0
 50
180.00001000000091
 51
270.0
  0
ARC
  5
3001
  8
AM_0
 10
505.48295969802888
 20
1249.607663052964
 30
0.0
 40
5.0
 50
91.999998000000787
 51
180.00001000000091
  0
LINE
  5
3002
  8
AM_0
 10
556.29618969802925
 20
1259.7746630529639
 30
0.0
 11
513.79618969802925
 21
1266.7799630529639
 31
0.0
  0
ARC
  5
3003
  8
AM_0
 10
531.48301969802924
 20
1242.499763052964
 30
0.0
 40
2.0
 50
0.0
 51
90.00000299999769
  0
ARC
  5
3004
  8
AM_0
 10
550.48301969802924
 20
1260.2448630529641
 30
0.0
 40
10.0
 50
0.0
 51
82.950795999998775
  0
ARC
  5
3005
  8
AM_0
 10
555.48301969802924
 20
1254.841163052964
 30
0.0
 40
5.0
 50
15.63417199999704
 51
80.640142999995817
  0
LINE
  5
3006
  8
AM_0
 10
560.48301969802924
 20
1260.2448630529641
 30
0.0
 11
560.48301969802924
 21
1256.182163052963
 31
0.0
  0
ARC
  5
3007
  8
AM_0
 10
646.98301969802924
 20
1242.942763052964
 30
0.0
 40
15.0
 50
180.00001000000091
 51
268.00000000000301
  0
CIRCLE
  5
3008
  8
AM_0
 10
667.98301969802924
 20
1242.4097630529641
 30
0.0
 40
12.0
  0
LINE
  5
3009
  8
AM_0
 10
697.98301969802912
 20
1267.7797630529631
 30
0.0
 11
697.98301969802912
 21
1207.039763052964
 31
0.0
  0
LINE
  5
300A
  8
AM_0
 10
684.26219969802924
 20
1204.6794630529639
 30
0.0
 11
671.63401969802931
 21
1205.120363052964
 31
0.0
  0
ARC
  5
300B
  8
AM_0
 10
671.98301969802924
 20
1215.1142630529639
 30
0.0
 40
10.0
 50
180.00001000000091
 51
268.00000000000301
  0
ARC
  5
300C
  8
AM_0
 10
651.98301969802924
 20
1217.7529630529641
 30
0.0
 40
10.0
 50
0.0
 51
88.000000000002998
  0
LINE
  5
300D
  8
AM_0
 10
652.33195969802921
 20
1227.7468630529629
 30
0.0
 11
646.45951969802923
 21
1227.9519630529639
 31
0.0
  0
ARC
  5
300E
  8
AM_0
 10
727.98301969802912
 20
1097.4097630529641
 30
0.0
 40
8.9999962
 50
90.00000299999769
 51
270.0
  0
LINE
  5
300F
  8
AM_0
 10
703.98301969802901
 20
1129.9097630529641
 30
0.0
 11
703.98301969802901
 21
1064.909803052964
 31
0.0
  0
LINE
  5
3010
  8
AM_0
 10
697.98301969802912
 20
1064.909803052964
 30
0.0
 11
703.98301969802901
 21
1064.909803052964
 31
0.0
  0
LINE
  5
3011
  8
AM_0
 10
697.98301969802912
 20
1129.9097630529641
 30
0.0
 11
703.98301969802901
 21
1129.9097630529641
 31
0.0
  0
LINE
  5
3012
  8
AM_0
 10
727.98301969802912
 20
1106.4097630529641
 30
0.0
 11
727.98301969802912
 21
1088.409803052964
 31
0.0
  0
ARC
  5
3013
  8
AM_0
 10
694.98301969802912
 20
1165.516363052963
 30
0.0
 40
3.0
 50
180.00001000000091
 51
268.00000000000301
  0
ARC
  5
3014
  8
AM_0
 10
694.98301969802912
 20
1159.512663052963
 30
0.0
 40
3.0
 50
0.0
 51
88.000000000002998
  0
LINE
  5
3015
  8
AM_0
 10
694.87834969802918
 20
1162.518163052963
 30
0.0
 11
695.08769969802916
 21
1162.5108630529639
 31
0.0
  0
ARC
  5
3016
  8
AM_0
 10
683.98301969802924
 20
1196.684363052962
 30
0.0
 40
8.0
 50
0.0
 51
88.000000000002998
  0
ARC
  5
3017
  8
AM_0
 10
696.98301969802912
 20
1197.8746630529629
 30
0.0
 40
5.0
 50
113.5781799999949
 51
180.00001000000091
  0
ARC
  5
3018
  8
AM_0
 10
692.98301969802912
 20
1207.039763052964
 30
0.0
 40
5.0
 50
293.57817999999492
 51
0.0
  0
LINE
  5
3019
  8
AM_0
 10
631.98301969802924
 20
1264.557663052964
 30
0.0
 11
631.98301969802924
 21
1242.942763052964
 31
0.0
  0
ARC
  5
301A
  8
AM_0
 10
623.98301969802924
 20
1245.959863052964
 30
0.0
 40
8.0
 50
0.0
 51
88.000000000002998
  0
ARC
  5
301B
  8
AM_0
 10
641.98301969802924
 20
1264.557663052964
 30
0.0
 40
10.0
 50
88.000000000002998
 51
180.00001000000091
  0
ARC
  5
301C
  8
AM_0
 10
692.98301969802912
 20
1267.7797630529631
 30
0.0
 40
5.0
 50
0.0
 51
88.000000000002998
  0
LINE
  5
301D
  8
AM_0
 10
808.98301969802901
 20
1127.4097630529641
 30
0.0
 11
808.98301969802901
 21
1067.4098030529631
 31
0.0
  0
LINE
  5
301E
  8
ﾁｭｳｼﾝｾﾝ1
 10
467.98301969802912
 20
930.40980305296421
 30
0.0
 11
467.98301969802912
 21
974.40980305296421
 31
0.0
  0
LINE
  5
301F
  8
ﾁｭｳｼﾝｾﾝ1
 10
445.98301969802901
 20
952.40980305296409
 30
0.0
 11
489.98301969802918
 21
952.40980305296409
 31
0.0
  0
LINE
  5
3020
  8
ﾁｭｳｼﾝｾﾝ1
 10
467.98301969802912
 20
1220.4097630529641
 30
0.0
 11
467.98301969802912
 21
1264.4097630529641
 31
0.0
  0
LINE
  5
3021
  8
ﾁｭｳｼﾝｾﾝ1
 10
445.98301969802901
 20
1242.4097630529641
 30
0.0
 11
489.98301969802918
 21
1242.4097630529641
 31
0.0
  0
LINE
  5
3022
  8
ﾁｭｳｼﾝｾﾝ1
 10
667.98301969802924
 20
1220.4097630529641
 30
0.0
 11
667.98301969802924
 21
1264.4097630529641
 31
0.0
  0
LINE
  5
3023
  8
ﾁｭｳｼﾝｾﾝ1
 10
645.98301969802924
 20
1242.4097630529641
 30
0.0
 11
689.98301969802912
 21
1242.4097630529641
 31
0.0
  0
TEXT
  5
320A
  8
AM_0
 10
961.55876290018148
 20
1109.7188982270261
 30
0.0
 40
20.0
  1
VX55-040G~VX55-060G
  0
ENDSEC
  0
EOF
