  0
SECTION
  2
HEADER
  9
$ACADVER
  1
AC1009
  9
$INSBASE
 10
0.0
 20
0.0
 30
0.0
  9
$EXTMIN
 10
245.9594921757926
 20
323.52969131402921
 30
-0.0015258207003583
  9
$EXTMAX
 10
1427.049503160232
 20
1393.316383323629
 30
0.0000000349246037
  9
$LIMMIN
 10
0.0
 20
0.0
  9
$LIMMAX
 10
1707.0
 20
1110.0
  9
$ORTHOMODE
 70
     0
  9
$REGENMODE
 70
     1
  9
$FILLMODE
 70
     1
  9
$QTEXTMODE
 70
     0
  9
$MIRRTEXT
 70
     1
  9
$DRAGMODE
 70
     2
  9
$LTSCALE
 40
6.0
  9
$OSMODE
 70
   551
  9
$ATTMODE
 70
     1
  9
$TEXTSIZE
 40
2.5
  9
$TRACEWID
 40
1.0
  9
$TEXTSTYLE
  7
STANDARD
  9
$CLAYER
  8
AM_0
  9
$CELTYPE
  6
BYLAYER
  9
$CECOLOR
 62
   256
  9
$DIMSCALE
 40
1.0
  9
$DIMASZ
 40
2.5
  9
$DIMEXO
 40
1.0
  9
$DIMDLI
 40
8.0
  9
$DIMRND
 40
0.0
  9
$DIMDLE
 40
0.0
  9
$DIMEXE
 40
0.6
  9
$DIMTP
 40
0.1
  9
$DIMTM
 40
0.1
  9
$DIMTXT
 40
2.5
  9
$DIMCEN
 40
0.0
  9
$DIMTSZ
 40
0.0
  9
$DIMTOL
 70
     0
  9
$DIMLIM
 70
     0
  9
$DIMTIH
 70
     0
  9
$DIMTOH
 70
     0
  9
$DIMSE1
 70
     0
  9
$DIMSE2
 70
     0
  9
$DIMTAD
 70
     1
  9
$DIMZIN
 70
     8
  9
$DIMBLK
  1

  9
$DIMASO
 70
     1
  9
$DIMSHO
 70
     1
  9
$DIMPOST
  1

  9
$DIMAPOST
  1
"
  9
$DIMALT
 70
     0
  9
$DIMALTD
 70
     2
  9
$DIMALTF
 40
0.0393701
  9
$DIMLFAC
 40
1.0
  9
$DIMTOFL
 70
     1
  9
$DIMTVP
 40
0.0
  9
$DIMTIX
 70
     0
  9
$DIMSOXD
 70
     0
  9
$DIMSAH
 70
     0
  9
$DIMBLK1
  1

  9
$DIMBLK2
  1

  9
$DIMSTYLE
  2
AM_ISO
  9
$DIMCLRD
 70
   256
  9
$DIMCLRE
 70
   256
  9
$DIMCLRT
 70
     4
  9
$DIMTFAC
 40
0.71
  9
$DIMGAP
 40
0.8
  9
$LUNITS
 70
     2
  9
$LUPREC
 70
     2
  9
$SKETCHINC
 40
1.0
  9
$FILLETRAD
 40
30.0
  9
$AUNITS
 70
     0
  9
$AUPREC
 70
     0
  9
$MENU
  1
.
  9
$ELEVATION
 40
0.0
  9
$PELEVATION
 40
0.0
  9
$THICKNESS
 40
0.0
  9
$LIMCHECK
 70
     0
  9
$BLIPMODE
 70
     0
  9
$CHAMFERA
 40
12.0
  9
$CHAMFERB
 40
6.0
  9
$SKPOLY
 70
     0
  9
$TDCREATE
 40
2452067.3664434948
  9
$TDUPDATE
 40
2458541.424845614
  9
$TDINDWG
 40
0.0959154398
  9
$TDUSRTIMER
 40
0.0959150926
  9
$USRTIMER
 70
     1
  9
$ANGBASE
 50
0.0
  9
$ANGDIR
 70
     0
  9
$PDMODE
 70
     0
  9
$PDSIZE
 40
0.0
  9
$PLINEWID
 40
0.0
  9
$COORDS
 70
     1
  9
$SPLFRAME
 70
     0
  9
$SPLINETYPE
 70
     6
  9
$SPLINESEGS
 70
     8
  9
$ATTDIA
 70
     1
  9
$ATTREQ
 70
     1
  9
$HANDLING
 70
     1
  9
$HANDSEED
  5
3686
  9
$SURFTAB1
 70
     6
  9
$SURFTAB2
 70
     6
  9
$SURFTYPE
 70
     6
  9
$SURFU
 70
     6
  9
$SURFV
 70
     6
  9
$UCSNAME
  2

  9
$UCSORG
 10
0.0
 20
0.0
 30
0.0
  9
$UCSXDIR
 10
1.0
 20
0.0
 30
0.0
  9
$UCSYDIR
 10
0.0
 20
1.0
 30
0.0
  9
$PUCSNAME
  2

  9
$PUCSORG
 10
0.0
 20
0.0
 30
0.0
  9
$PUCSXDIR
 10
1.0
 20
0.0
 30
0.0
  9
$PUCSYDIR
 10
0.0
 20
1.0
 30
0.0
  9
$USERI1
 70
     0
  9
$USERI2
 70
     0
  9
$USERI3
 70
     0
  9
$USERI4
 70
     0
  9
$USERI5
 70
     0
  9
$USERR1
 40
0.0
  9
$USERR2
 40
0.0
  9
$USERR3
 40
0.0
  9
$USERR4
 40
0.0
  9
$USERR5
 40
0.0
  9
$WORLDVIEW
 70
     1
  9
$SHADEDGE
 70
     3
  9
$SHADEDIF
 70
    70
  9
$TILEMODE
 70
     1
  9
$MAXACTVP
 70
    64
  9
$PLIMCHECK
 70
     0
  9
$PEXTMIN
 10
1.0000000000000000E+020
 20
1.0000000000000000E+020
 30
1.0000000000000000E+020
  9
$PEXTMAX
 10
-1.0000000000000000E+020
 20
-1.0000000000000000E+020
 30
-1.0000000000000000E+020
  9
$PLIMMIN
 10
0.0
 20
0.0
  9
$PLIMMAX
 10
420.0
 20
297.0
  9
$UNITMODE
 70
     0
  9
$VISRETAIN
 70
     1
  9
$PLINEGEN
 70
     0
  9
$PSLTSCALE
 70
     1
  0
ENDSEC
  0
SECTION
  2
TABLES
  0
TABLE
  2
VPORT
 70
     1
  0
VPORT
  2
*ACTIVE
 70
     0
 10
0.0
 20
0.0
 11
1.0
 21
1.0
 12
836.50449766801239
 22
858.42303731882919
 13
0.0
 23
0.0
 14
15.0
 24
15.0
 15
60.0
 25
60.0
 16
0.0
 26
0.0
 36
1.0
 17
0.0
 27
0.0
 37
0.0
 40
1077.130765410124
 41
1.7571592210767459
 42
50.0
 43
0.0
 44
0.0
 50
0.0
 51
0.0
 71
     0
 72
   100
 73
     1
 74
     3
 75
     0
 76
     0
 77
     0
 78
     0
  0
ENDTAB
  0
TABLE
  2
LTYPE
 70
    27
  0
LTYPE
  2
CONTINUOUS
 70
     0
  3
Solid line
 72
    65
 73
     0
 40
0.0
  0
LTYPE
  2
AM_ISO02W050
 70
     0
  3
__ __ __ __ __ __ __ __ __ __ __ __ __ __ __
 72
    65
 73
     2
 40
7.5
 49
6.0
 49
-1.5
  0
LTYPE
  2
AM_ISO08W050
 70
     0
  3
____ . ____ . ____ . ____ . ____ . ____ . ____
 72
    65
 73
     4
 40
18.0
 49
12.0
 49
-1.5
 49
3.0
 49
-1.5
  0
LTYPE
  2
AM_ISO09W050
 70
     0
  3
_____ . . _____ . . _____ . . ____ .. ____
 72
    65
 73
     6
 40
22.5
 49
12.0
 49
-1.5
 49
3.0
 49
-1.5
 49
3.0
 49
-1.5
  0
LTYPE
  2
AMCONSTR
 70
     0
  3
_______________________
 72
    65
 73
     2
 40
9999.0
 49
9999.0
 49
0.0
  0
LTYPE
  2
AM_ISO08W050X2
 70
     0
  3
__ . __ . __ . __ . __ . __
 72
    65
 73
     4
 40
9.0
 49
6.0
 49
-0.75
 49
1.5
 49
-0.75
  0
LTYPE
  2
AM_ISO02W050X2
 70
     0
  3
 _ _ _ _ _ _ _ _ _ _ _ _
 72
    65
 73
     2
 40
3.75
 49
3.0
 49
-0.75
  0
LTYPE
  2
AMZIGZAG
 70
     0
  3
/\/-/\/-/\/-/\/-/\/-/\/
 72
    65
 73
     2
 40
11.000099999999991
 49
0.0001
 49
-11.0
  0
LTYPE
  2
ACISOWELD
 70
     0
  3
_ _ _ _ _
 72
    65
 73
     2
 40
2.0
 49
2.0
 49
-1.0
  0
LTYPE
  2
ACISOTGB
 70
     0
  3
__ . . __ . .
 72
    65
 73
     6
 40
9.0
 49
4.0
 49
-1.0
 49
1.0
 49
-1.0
 49
1.0
 49
-1.0
  0
LTYPE
  2
ACISOTGL
 70
     0
  3
_ _ _ _ _
 72
    65
 73
     2
 40
3.0
 49
2.0
 49
-1.0
  0
LTYPE
  2
CENTER
 70
     0
  3
__ . __
 72
    65
 73
     4
 40
7.0
 49
4.0
 49
-1.0
 49
1.0
 49
-1.0
  0
LTYPE
  2
PHANTOM2
 70
     0
  3
Phantom (.5x) ___ _ _ ___ _ _ ___ _ _ ___ _ _
 72
    65
 73
     6
 40
31.75
 49
15.875
 49
-3.174999999999998
 49
3.174999999999998
 49
-3.174999999999998
 49
3.174999999999998
 49
-3.174999999999998
  0
LTYPE
  2
ACANSTGBM
 70
     0
  3
__ . . __ . .
 72
    65
 73
     6
 40
9.0
 49
4.0
 49
-1.0
 49
1.0
 49
-1.0
 49
1.0
 49
-1.0
  0
LTYPE
  2
ACANSTGLM
 70
     0
  3
_ _ _ _ _
 72
    65
 73
     2
 40
3.0
 49
2.0
 49
-1.0
  0
LTYPE
  2
GEN7
 70
     0
  3
____ . ____ . ____ . ____ . ____ . ____ . ____
 72
    65
 73
     4
 40
14.25
 49
9.75
 49
-1.5
 49
1.5
 49
-1.5
  0
LTYPE
  2
GEN3B
 70
     0
  3
 - - - - -
 72
    65
 73
     2
 40
1.0
 49
0.5
 49
-0.5
  0
LTYPE
  2
GEN7A
 70
     0
  3
__ . __ . __
 72
    65
 73
     4
 40
7.375
 49
4.75
 49
-0.875
 49
0.875
 49
-0.875
  0
LTYPE
  2
ACJISTGB
 70
     0
  3
__ . . __ . .
 72
    65
 73
     6
 40
9.0
 49
4.0
 49
-1.0
 49
1.0
 49
-1.0
 49
1.0
 49
-1.0
  0
LTYPE
  2
ACJISTGL
 70
     0
  3
_ _ _ _ _
 72
    65
 73
     2
 40
3.0
 49
2.0
 49
-1.0
  0
LTYPE
  2
HIDDEN
 70
     0
  3
Hidden __ __ __ __ __ __ __ __ __ __ __ __ __ _
 72
    65
 73
     2
 40
0.375
 49
0.25
 49
-0.125
  0
LTYPE
  2
CENTER2
 70
     0
  3
Center (.5x) ___ _ ___ _ ___ _ ___ _ ___ _ ___
 72
    65
 73
     4
 40
1.125
 49
0.75
 49
-0.125
 49
0.125
 49
-0.125
  0
LTYPE
  2
HIDDEN2
 70
     0
  3
Hidden (.5x) _ _ _ _ _ _ _ _ _ _ _ _ _ _ _ _ _
 72
    65
 73
     2
 40
0.1875
 49
0.125
 49
-0.0625
  0
LTYPE
  2
AMZIGZAG2
 70
     0
  3
/\/-/\/-/\/-/\/-/\/-/\/
 72
    65
 73
     2
 40
0.4401
 49
0.0001
 49
-0.4400000000000003
  0
LTYPE
  2
ACANSTGB
 70
     0
  3
__ . . __ . .
 72
    65
 73
     6
 40
0.35433070866
 49
0.15748031496
 49
-0.03937007874
 49
0.03937007874
 49
-0.03937007874
 49
0.03937007874
 49
-0.03937007874
  0
LTYPE
  2
ACANSTGL
 70
     0
  3
_ _ _ _ _
 72
    65
 73
     2
 40
0.11811023622
 49
0.07874015748
 49
-0.03937007874
  0
ENDTAB
  0
TABLE
  2
LAYER
 70
     7
  0
LAYER
  2
0
 70
     0
 62
     7
  6
CONTINUOUS
  0
LAYER
  2
AM_0
 70
     0
 62
     7
  6
CONTINUOUS
  0
LAYER
  2
AM_5
 70
     0
 62
     2
  6
CONTINUOUS
  0
LAYER
  2
DEFPOINTS
 70
     0
 62
     7
  6
CONTINUOUS
  0
LAYER
  2
ｶｸﾚｾﾝ2
 70
     0
 62
     3
  6
GEN3B
  0
LAYER
  2
ﾁｭｳｼﾝｾﾝ
 70
     0
 62
     1
  6
GEN7
  0
LAYER
  2
ﾁｭｳｼﾝｾﾝ1
 70
     0
 62
     1
  6
GEN7A
  0
ENDTAB
  0
TABLE
  2
STYLE
 70
     9
  0
STYLE
  2
STANDARD
 70
     0
 40
0.0
 41
0.8299999999999999
 50
0.0
 71
     0
 42
2.5
  3
txt.shx
  4
bigfont.shx
  0
STYLE
  2
ANNOTATIVE
 70
     0
 40
0.0
 41
1.0
 50
0.0
 71
     0
 42
0.2
  3
txt
  4

  0
STYLE
  2

 70
     1
 40
0.0
 41
1.0
 50
0.0
 71
     0
 42
2.5
  3
ltypeshp.shx
  4

  0
STYLE
  2
ACISOTS
 70
     0
 40
1.0
 41
1.0
 50
0.0
 71
     0
 42
2.5
  3
isocp.shx
  4
extfont.shx
  0
STYLE
  2
ACISOGDT
 70
     0
 40
0.0
 41
1.0
 50
0.0
 71
     0
 42
2.5
  3
amgdt.shx
  4

  0
STYLE
  2
ACANSTS
 70
     0
 40
1.0
 41
1.0
 50
0.0
 71
     0
 42
2.5
  3
romans.shx
  4
bigfont.shx
  0
STYLE
  2
ACANSGDT
 70
     0
 40
0.0
 41
1.0
 50
0.0
 71
     0
 42
2.5
  3
amgdt.shx
  4

  0
STYLE
  2
ACJISTS
 70
     0
 40
1.0
 41
1.0
 50
0.0
 71
     0
 42
2.5
  3
isocp.shx
  4
bigfont.shx
  0
STYLE
  2
ACJISGDT
 70
     0
 40
0.0
 41
1.0
 50
0.0
 71
     0
 42
2.5
  3
amgdt.shx
  4

  0
ENDTAB
  0
TABLE
  2
VIEW
 70
     6
  0
VIEW
  2
AM_VIEW1
 70
     0
 40
555.00000000000011
 10
499.2955801104971
 20
832.50000000000011
 41
998.59116022099431
 11
0.0
 21
0.0
 31
1.0
 12
0.0
 22
0.0
 32
0.0
 42
50.0
 43
0.0
 44
0.0
 50
0.0
 71
     0
  0
VIEW
  2
AM_VIEW2
 70
     0
 40
555.00000000000011
 10
1207.704419889501
 20
832.50000000000011
 41
998.59116022099431
 11
0.0
 21
0.0
 31
1.0
 12
0.0
 22
0.0
 32
0.0
 42
50.0
 43
0.0
 44
0.0
 50
0.0
 71
     0
  0
VIEW
  2
AM_VIEW3
 70
     0
 40
555.00000000000011
 10
499.2955801104971
 20
277.49999999999989
 41
998.59116022099431
 11
0.0
 21
0.0
 31
1.0
 12
0.0
 22
0.0
 32
0.0
 42
50.0
 43
0.0
 44
0.0
 50
0.0
 71
     0
  0
VIEW
  2
AM_VIEW4
 70
     0
 40
555.00000000000011
 10
1207.704419889501
 20
277.49999999999989
 41
998.59116022099431
 11
0.0
 21
0.0
 31
1.0
 12
0.0
 22
0.0
 32
0.0
 42
50.0
 43
0.0
 44
0.0
 50
0.0
 71
     0
  0
VIEW
  2
AM_VIEW5
 70
     0
 40
555.00000000000011
 10
853.5
 20
555.00000000000011
 41
998.59116022099431
 11
0.0
 21
0.0
 31
1.0
 12
0.0
 22
0.0
 32
0.0
 42
50.0
 43
0.0
 44
0.0
 50
0.0
 71
     0
  0
VIEW
  2
AM_VIEW6
 70
     0
 40
1109.9889000000001
 10
853.5
 20
555.0
 41
1997.162348618785
 11
0.0
 21
0.0
 31
1.0
 12
0.0
 22
0.0
 32
0.0
 42
50.0
 43
0.0
 44
0.0
 50
0.0
 71
     0
  0
ENDTAB
  0
TABLE
  2
UCS
 70
     0
  0
ENDTAB
  0
TABLE
  2
APPID
 70
    97
  0
APPID
  2
ACAD
 70
     0
  0
APPID
  2
ACADANNOTATIVE
 70
     0
  0
APPID
  2
ACAD_MLEADERVER
 70
     0
  0
APPID
  2
MCAD_NO_VIS
 70
     0
  0
APPID
  2
ACAD_TEMP_GRAPHIC
 70
     0
  0
APPID
  2
ACATTRIBSERVICES
 70
     0
  0
APPID
  2
GENIUS_GENREC_14
 70
     0
  0
APPID
  2
GENIUS_GENOBJ-N-REC_13
 70
     0
  0
APPID
  2
GENIUS_GENODEF_13
 70
     0
  0
APPID
  2
GENIUS_GENOLIS_13
 70
     0
  0
APPID
  2
GENIUS_GENOBJ-N-TIT_13
 70
     0
  0
APPID
  2
GENIUS_GENOENT_13
 70
     0
  0
APPID
  2
GENIUS_GENTITLE_13
 70
     0
  0
APPID
  2
GENIUS_GENOREF_13
 70
     0
  0
APPID
  2
GENIUS_GENSCREG_15
 70
     0
  0
APPID
  2
GENIUS_GENOBJ-N-SDF_13
 70
     0
  0
APPID
  2
GENIUS_GENFIL_13
 70
     0
  0
APPID
  2
GENIUS_GENOBJ-N-CHA_13
 70
     0
  0
APPID
  2
GENIUS_GENDTOL_13
 70
     0
  0
APPID
  2
GENIUS_GENOBJ-N-FIL_13
 70
     0
  0
APPID
  2
AD_DRAW
 70
     0
  0
APPID
  2
DESIGNERASSEMBLIES
 70
     0
  0
APPID
  2
ASURF_PCURVE_APPNAME
 70
     0
  0
APPID
  2
GENIUS_GE3SECT_13
 70
     0
  0
APPID
  2
GENIUS_GENCFG_13
 70
     0
  0
APPID
  2
GENIUS_GE3CFG0_13
 70
     0
  0
APPID
  2
GENIUS_GENCFG0_13
 70
     0
  0
APPID
  2
GENIUS_GENCFG1_13
 70
     0
  0
APPID
  2
GENIUS_GENCFG2_13
 70
     0
  0
APPID
  2
GENIUS_GENCFG3_13
 70
     0
  0
APPID
  2
GENIUS_GENCFG4_13
 70
     0
  0
APPID
  2
GENIUS_GEVCFG0_13
 70
     0
  0
APPID
  2
GENIUS_GENHINW_13
 70
     0
  0
APPID
  2
GENIUS_FIRSTVISTXT_14
 70
     0
  0
APPID
  2
GENIUS_GENOBJ-N-LEADER_13
 70
     0
  0
APPID
  2
GEV_VCCNULL_SWITCH_OFF
 70
     0
  0
APPID
  2
GENIUS_GEFCFG0_13
 70
     0
  0
APPID
  2
GENIUS_GENZVEED_13
 70
     0
  0
APPID
  2
GENIUS_GENSCREG_13
 70
     0
  0
APPID
  2
GENIUS_DUMCFG0_13
 70
     0
  0
APPID
  2
GEVID936201362
 70
     0
  0
APPID
  2
GEVDC
 70
     0
  0
APPID
  2
GEVCON
 70
     0
  0
APPID
  2
VCC
 70
     0
  0
APPID
  2
GEVPT
 70
     0
  0
APPID
  2
GEVIT
 70
     0
  0
APPID
  2
GENBH
 70
     0
  0
APPID
  2
GEVMK
 70
     0
  0
APPID
  2
GENIUS_GENBH_13
 70
     0
  0
APPID
  2
GENIUS_GENOBJ-NBEHI-BHF_13
 70
     0
  0
APPID
  2
GENIUS_GENOBJ-NBEHI-BHB_13
 70
     0
  0
APPID
  2
GENIUS_GENOBJ-F-DESC_13
 70
     0
  0
APPID
  2
GENIUS_GEFDESC_14
 70
     0
  0
APPID
  2
GENIUS_GENOBJ-F-PART_13
 70
     0
  0
APPID
  2
GENIUS_GEFSTDP_13
 70
     0
  0
APPID
  2
GENIUS_GEFPARTINS_13
 70
     0
  0
APPID
  2
GENIUS_GENTRA_14
 70
     0
  0
APPID
  2
GENIUS_GENINF13_13
 70
     0
  0
APPID
  2
GENIUS_GENOBJ-N-INFOPT_13
 70
     0
  0
APPID
  2
GENIUS_GENOBJ-N-RSSYM_13
 70
     0
  0
APPID
  2
GENIUS_GENSYMENT_13
 70
     0
  0
APPID
  2
GENIUS_GENSCSYM_13
 70
     0
  0
APPID
  2
GENIUS_GEFINFNAM_13
 70
     0
  0
APPID
  2
GENIUS_GENOBJ-N-CEN_13
 70
     0
  0
APPID
  2
GENIUS_GENOBJ-N-CRS_13
 70
     0
  0
APPID
  2
GENIUS_GENOBJ-N-CRC_13
 70
     0
  0
APPID
  2
GENIUS_GENCRC_14
 70
     0
  0
APPID
  2
GEVID942827039
 70
     0
  0
APPID
  2
GEVID942827040
 70
     0
  0
APPID
  2
GEVID942827041
 70
     0
  0
APPID
  2
GENIUS_GENOBJ-F-SCPASSM_13
 70
     0
  0
APPID
  2
GENIUS_GENDIMSH_14
 70
     0
  0
APPID
  2
GEVID942827042
 70
     0
  0
APPID
  2
GEVID946020473
 70
     0
  0
APPID
  2
GEVID946020474
 70
     0
  0
APPID
  2
GEVID946020475
 70
     0
  0
APPID
  2
GENIUS_GENOBJ-N-HTC_13
 70
     0
  0
APPID
  2
GENIUS_GENHATCH_13
 70
     0
  0
APPID
  2
GEVID948854295
 70
     0
  0
APPID
  2
GEVID939402019
 70
     0
  0
APPID
  2
GEVID952919491
 70
     0
  0
APPID
  2
GEVID952919492
 70
     0
  0
APPID
  2
GENIUS_GEFWELD_13
 70
     0
  0
APPID
  2
GENIUS_GENOBJ-F-WELS_13
 70
     0
  0
APPID
  2
GEVID952919493
 70
     0
  0
APPID
  2
GENIUS_GENOBJ-N-RSBK_13
 70
     0
  0
APPID
  2
GENIUS_GENOBJ-N-LIB_13
 70
     0
  0
APPID
  2
GENIUS_GENSCALE_13
 70
     0
  0
APPID
  2
GEVID986376691
 70
     0
  0
APPID
  2
DCO15
 70
     0
  0
APPID
  2
ACADM_DIM_EDIT
 70
     0
  0
APPID
  2
AMDT_DM_ADJ
 70
     0
  0
APPID
  2
ACAD_DSTYLE_DIMBREAK
 70
     0
  0
APPID
  2
ACAD_DSTYLE_DIMJAG
 70
     0
  0
APPID
  2
ACAD_NAV_VCDISPLAY
 70
     0
  0
APPID
  2
ACADANNOPO
 70
     0
  0
APPID
  2
ACAD_EXEMPT_FROM_CAD_STANDARDS
 70
     0
  0
ENDTAB
  0
TABLE
  2
DIMSTYLE
 70
    22
  0
DIMSTYLE
  2
STANDARD
 70
     0
  3

  4

  5

  6

  7

 40
1.0
 41
0.18
 42
0.0625
 43
0.38
 44
0.18
 45
0.0
 46
0.0
 47
0.0
 48
0.0
140
0.18
141
0.09
142
0.0
143
25.399999999999999
144
1.0
145
0.0
146
1.0
147
0.09
 71
     0
 72
     0
 73
     1
 74
     1
 75
     0
 76
     0
 77
     0
 78
     0
170
     0
171
     2
172
     0
173
     0
174
     0
175
     0
176
     0
177
     0
178
     0
  0
DIMSTYLE
  2
ANNOTATIVE
 70
     0
  3

  4

  5

  6

  7

 40
1.0
 41
0.18
 42
0.0625
 43
0.38
 44
0.18
 45
0.0
 46
0.0
 47
0.0
 48
0.0
140
0.18
141
0.09
142
0.0
143
25.399999999999999
144
1.0
145
0.0
146
1.0
147
0.09
 71
     0
 72
     0
 73
     1
 74
     1
 75
     0
 76
     0
 77
     0
 78
     0
170
     0
171
     2
172
     0
173
     0
174
     0
175
     0
176
     0
177
     0
178
     0
  0
DIMSTYLE
  2
AM_ISO
 70
     0
  3

  4
"
  5

  6

  7

 40
1.0
 41
2.5
 42
1.0
 43
8.0
 44
0.6
 45
0.0
 46
0.0
 47
0.1
 48
0.1
140
2.5
141
0.0
142
0.0
143
0.0393701
144
1.0
145
0.0
146
0.71
147
0.8
 71
     0
 72
     0
 73
     0
 74
     0
 75
     0
 76
     0
 77
     1
 78
     8
170
     0
171
     2
172
     1
173
     0
174
     0
175
     0
176
   256
177
   256
178
     4
  0
DIMSTYLE
  2
AM_ISO$3
 70
     0
  3

  4
"
  5

  6

  7

 40
1.0
 41
2.5
 42
1.0
 43
8.0
 44
0.6
 45
0.0
 46
0.0
 47
0.1
 48
0.1
140
2.5
141
0.0
142
0.0
143
0.0393701
144
1.0
145
0.0
146
0.71
147
0.8
 71
     0
 72
     0
 73
     0
 74
     1
 75
     0
 76
     0
 77
     1
 78
     8
170
     0
171
     2
172
     0
173
     0
174
     0
175
     0
176
   256
177
   256
178
     4
  0
DIMSTYLE
  2
AM_ISO$4
 70
     0
  3

  4
"
  5

  6

  7

 40
1.0
 41
2.5
 42
1.0
 43
8.0
 44
0.6
 45
0.0
 46
0.0
 47
0.1
 48
0.1
140
2.5
141
0.0
142
0.0
143
0.0393701
144
1.0
145
0.0
146
0.71
147
0.8
 71
     0
 72
     0
 73
     0
 74
     1
 75
     0
 76
     0
 77
     1
 78
     8
170
     0
171
     2
172
     0
173
     0
174
     0
175
     0
176
   256
177
   256
178
     4
  0
DIMSTYLE
  2
AM_ISO$6
 70
     0
  3

  4
"
  5

  6

  7

 40
1.0
 41
2.5
 42
1.0
 43
8.0
 44
0.6
 45
0.0
 46
0.0
 47
0.1
 48
0.1
140
2.5
141
0.0
142
0.0
143
0.0393701
144
1.0
145
0.0
146
0.71
147
0.8
 71
     0
 72
     0
 73
     0
 74
     0
 75
     0
 76
     0
 77
     0
 78
     8
170
     0
171
     2
172
     1
173
     0
174
     0
175
     0
176
   256
177
   256
178
     4
  0
DIMSTYLE
  2
AM_ISO$7
 70
     0
  3

  4
"
  5

  6

  7

 40
1.0
 41
2.5
 42
1.0
 43
8.0
 44
0.6
 45
0.0
 46
0.0
 47
0.1
 48
0.1
140
2.5
141
0.0
142
0.0
143
0.0393701
144
1.0
145
0.0
146
0.71
147
0.8
 71
     0
 72
     0
 73
     0
 74
     0
 75
     0
 76
     0
 77
     1
 78
     8
170
     0
171
     2
172
     1
173
     0
174
     0
175
     0
176
   256
177
   256
178
     4
  0
DIMSTYLE
  2
AM_ISO$SF
 70
     0
  3

  4
"
  5

  6

  7

 40
1.0
 41
2.5
 42
1.0
 43
10.0
 44
1.0
 45
0.0
 46
0.0
 47
0.1
 48
0.1
140
3.5
141
0.0
142
0.0
143
0.0393701
144
1.0
145
0.0
146
0.71
147
1.5
 71
     0
 72
     0
 73
     0
 74
     0
 75
     1
 76
     1
 77
     1
 78
     8
170
     0
171
     2
172
     1
173
     0
174
     0
175
     0
176
   256
177
   256
178
     2
  0
DIMSTYLE
  2
AM_ISO$SH
 70
     0
  3

  4
"
  5

  6

  7

 40
1.0
 41
2.5
 42
1.0
 43
10.0
 44
1.0
 45
0.0
 46
0.0
 47
0.1
 48
0.1
140
3.5
141
0.0
142
0.0
143
0.0393701
144
2.0
145
0.0
146
0.71
147
1.5
 71
     0
 72
     0
 73
     0
 74
     0
 75
     1
 76
     1
 77
     1
 78
     8
170
     0
171
     2
172
     1
173
     1
174
     0
175
     0
176
   256
177
   256
178
     2
  0
DIMSTYLE
  2
AM_JIS
 70
     0
  3

  4
"
  5

  6

  7

 40
1.0
 41
2.5
 42
1.0
 43
7.0
 44
1.0
 45
0.0
 46
0.0
 47
0.1
 48
0.1000000001
140
2.5
141
0.0
142
0.0
143
0.0393701
144
1.0
145
0.0
146
0.71
147
1.0
 71
     0
 72
     0
 73
     0
 74
     0
 75
     0
 76
     0
 77
     3
 78
     8
170
     0
171
     2
172
     1
173
     0
174
     0
175
     0
176
   256
177
   256
178
     4
  0
DIMSTYLE
  2
AM_JIS$3
 70
     0
  3

  4
"
  5

  6

  7

 40
1.0
 41
2.5
 42
1.0
 43
7.0
 44
1.0
 45
0.0
 46
0.0
 47
0.1
 48
0.1000000001
140
2.5
141
0.0
142
0.0
143
0.0393701
144
1.0
145
0.0
146
0.71
147
1.0
 71
     0
 72
     0
 73
     0
 74
     1
 75
     0
 76
     0
 77
     3
 78
     8
170
     0
171
     2
172
     0
173
     0
174
     0
175
     0
176
   256
177
   256
178
     4
  0
DIMSTYLE
  2
AM_JIS$4
 70
     0
  3

  4
"
  5

  6

  7

 40
1.0
 41
2.5
 42
1.0
 43
7.0
 44
1.0
 45
0.0
 46
0.0
 47
0.1
 48
0.1000000001
140
2.5
141
0.0
142
0.0
143
0.0393701
144
1.0
145
0.0
146
0.71
147
1.0
 71
     0
 72
     0
 73
     0
 74
     0
 75
     0
 76
     0
 77
     3
 78
     8
170
     0
171
     2
172
     0
173
     0
174
     0
175
     0
176
   256
177
   256
178
     4
  0
DIMSTYLE
  2
AM_JIS$6
 70
     0
  3

  4
"
  5

  6

  7

 40
1.0
 41
2.5
 42
1.0
 43
7.0
 44
1.0
 45
0.0
 46
0.0
 47
0.1
 48
0.1000000001
140
2.5
141
0.0
142
0.0
143
0.0393701
144
1.0
145
0.0
146
0.71
147
1.0
 71
     0
 72
     0
 73
     0
 74
     0
 75
     0
 76
     0
 77
     0
 78
     8
170
     0
171
     2
172
     1
173
     0
174
     0
175
     0
176
   256
177
   256
178
     4
  0
DIMSTYLE
  2
AM_JIS$7
 70
     0
  3

  4
"
  5

  6

  7

 40
1.0
 41
2.5
 42
1.0
 43
7.0
 44
1.0
 45
0.0
 46
0.0
 47
0.1
 48
0.1000000001
140
2.5
141
0.0
142
0.0
143
0.0393701
144
1.0
145
0.0
146
0.71
147
1.0
 71
     0
 72
     0
 73
     0
 74
     0
 75
     0
 76
     0
 77
     3
 78
     8
170
     0
171
     2
172
     1
173
     0
174
     0
175
     0
176
   256
177
   256
178
     4
  0
DIMSTYLE
  2
AM_JIS$SF
 70
     0
  3

  4
"
  5

  6

  7

 40
1.0
 41
2.5
 42
1.0
 43
10.0
 44
1.0
 45
0.0
 46
0.0
 47
0.1
 48
0.1
140
3.5
141
0.0
142
0.0
143
0.0393701
144
1.0
145
0.0
146
0.71
147
1.5
 71
     0
 72
     0
 73
     0
 74
     0
 75
     1
 76
     1
 77
     3
 78
     8
170
     0
171
     2
172
     1
173
     0
174
     0
175
     0
176
   256
177
   256
178
     4
  0
DIMSTYLE
  2
AM_JIS$SH
 70
     0
  3

  4
"
  5

  6

  7

 40
1.0
 41
2.5
 42
1.0
 43
10.0
 44
1.0
 45
0.0
 46
0.0
 47
0.1
 48
0.1
140
3.5
141
0.0
142
0.0
143
0.0393701
144
1.0
145
0.0
146
0.71
147
1.5
 71
     0
 72
     0
 73
     0
 74
     0
 75
     1
 76
     0
 77
     3
 78
     8
170
     0
171
     2
172
     1
173
     1
174
     0
175
     0
176
   256
177
   256
178
     4
  0
DIMSTYLE
  2
AM_ANSI
 70
     0
  3

  4
mm
  5

  6

  7

 40
1.0
 41
0.1
 42
0.05
 43
0.5
 44
0.1
 45
0.0
 46
0.0
 47
0.1
 48
0.1
140
0.12
141
0.0
142
0.0
143
25.399999999999999
144
1.0
145
0.0
146
0.71
147
0.06
 71
     0
 72
     0
 73
     1
 74
     1
 75
     0
 76
     0
 77
     0
 78
     7
170
     0
171
     2
172
     0
173
     0
174
     0
175
     0
176
   256
177
   256
178
     2
  0
DIMSTYLE
  2
AM_ANSI$3
 70
     0
  3

  4
mm
  5

  6

  7

 40
1.0
 41
0.1
 42
0.05
 43
0.5
 44
0.1
 45
0.0
 46
0.0
 47
0.1
 48
0.1
140
0.12
141
0.0
142
0.0
143
25.399999999999999
144
1.0
145
0.0
146
0.71
147
0.06
 71
     0
 72
     0
 73
     1
 74
     1
 75
     0
 76
     0
 77
     0
 78
     7
170
     0
171
     2
172
     0
173
     0
174
     0
175
     0
176
   256
177
   256
178
     2
  0
DIMSTYLE
  2
AM_ANSI$4
 70
     0
  3

  4
mm
  5

  6

  7

 40
1.0
 41
0.1
 42
0.05
 43
0.5
 44
0.1
 45
0.0
 46
0.0
 47
0.1
 48
0.1
140
0.12
141
0.0
142
0.0
143
25.399999999999999
144
1.0
145
0.0
146
0.71
147
0.06
 71
     0
 72
     0
 73
     1
 74
     1
 75
     0
 76
     0
 77
     0
 78
     7
170
     0
171
     2
172
     0
173
     0
174
     0
175
     0
176
   256
177
   256
178
     2
  0
DIMSTYLE
  2
AM_ANSI$7
 70
     0
  3

  4
mm
  5

  6

  7

 40
1.0
 41
0.1
 42
0.05
 43
0.5
 44
0.1
 45
0.0
 46
0.0
 47
0.1
 48
0.1
140
0.24
141
0.0
142
0.0
143
25.399999999999999
144
1.0
145
0.0
146
0.71
147
0.06
 71
     0
 72
     0
 73
     1
 74
     1
 75
     0
 76
     0
 77
     0
 78
     7
170
     0
171
     2
172
     0
173
     0
174
     0
175
     0
176
   256
177
   256
178
     2
  0
DIMSTYLE
  2
AM_ANSI$SF
 70
     0
  3

  4
mm
  5

  6

  7

 40
1.0
 41
0.1
 42
0.05
 43
0.5
 44
0.1
 45
0.0
 46
0.0
 47
0.1
 48
0.1
140
0.12
141
0.0
142
0.0
143
25.399999999999999
144
1.0
145
0.0
146
0.71
147
0.06
 71
     0
 72
     0
 73
     1
 74
     1
 75
     1
 76
     1
 77
     0
 78
     7
170
     0
171
     2
172
     0
173
     0
174
     0
175
     0
176
   256
177
   256
178
     2
  0
DIMSTYLE
  2
AM_ANSI$SH
 70
     0
  3

  4
mm
  5

  6

  7

 40
1.0
 41
0.1
 42
0.05
 43
0.5
 44
0.1
 45
0.0
 46
0.0
 47
0.1
 48
0.1
140
0.12
141
0.0
142
0.0
143
25.399999999999999
144
1.0
145
0.0
146
0.71
147
0.06
 71
     0
 72
     0
 73
     1
 74
     1
 75
     1
 76
     1
 77
     0
 78
     7
170
     0
171
     2
172
     0
173
     1
174
     0
175
     0
176
   256
177
   256
178
     2
  0
ENDTAB
  0
ENDSEC
  0
SECTION
  2
BLOCKS
  0
BLOCK
  8
0
  2
$MODEL_SPACE
 70
     0
 10
0.0
 20
0.0
 30
0.0
  3
$MODEL_SPACE
  1

  0
ENDBLK
  5
3462
  8
0
  0
BLOCK
 67
     1
  8
0
  2
$PAPER_SPACE
 70
     0
 10
0.0
 20
0.0
 30
0.0
  3
$PAPER_SPACE
  1

  0
ENDBLK
  5
345E
 67
     1
  8
0
  0
BLOCK
  8
0
  2
GENAXEH
 70
     0
 10
0.0
 20
0.0
 30
0.0
  3
GENAXEH
  1

  0
LINE
  5
3107
  8
0
 10
-1.0
 20
0.0
 30
0.0
 11
1.0
 21
0.0
 31
0.0
  0
ENDBLK
  5
3108
  8
0
  0
BLOCK
  8
0
  2
_OPEN30
 70
     0
 10
0.0
 20
0.0
 30
0.0
  3
_OPEN30
  1

  0
LINE
  5
310B
  8
0
 62
     0
 10
-1.0
 20
0.26794919
 30
0.0
 11
0.0
 21
0.0
 31
0.0
  0
LINE
  5
310C
  8
0
 62
     0
 10
0.0
 20
0.0
 30
0.0
 11
-1.0
 21
-0.26794919
 31
0.0
  0
LINE
  5
310D
  8
0
 62
     0
 10
0.0
 20
0.0
 30
0.0
 11
-1.0
 21
0.0
 31
0.0
  0
ENDBLK
  5
310E
  8
0
  0
BLOCK
  8
0
  2
_NONE
 70
     0
 10
0.0
 20
0.0
 30
0.0
  3
_NONE
  1

  0
ENDBLK
  5
3111
  8
0
  0
BLOCK
  8
0
  2
_ACMFILLEDHALF
 70
     0
 10
0.0
 20
0.0
 30
0.0
  3
_ACMFILLEDHALF
  1

  0
TRACE
  5
360C
  8
AM_0
 62
     0
 10
-0.8
 20
0.0
 30
0.0
 11
-1.0
 21
0.166666666
 31
0.0
 12
0.0
 22
0.0
 32
0.0
 13
0.0
 23
0.0
 33
0.0
  0
LINE
  5
360D
  8
AM_0
 62
     0
 10
-1.0
 20
0.0
 30
0.0
 11
-0.8
 21
0.0
 31
0.0
  0
ENDBLK
  5
360B
  8
0
  0
ENDSEC
  0
SECTION
  2
ENTITIES
  0
ARC
  5
3112
  8
AM_0
 10
563.59401649148174
 20
557.56001246746075
 30
0.0
 40
4.000000049999997
 50
270.0
 51
0.0
  0
LINE
  5
3113
  8
AM_0
 10
309.59411649148137
 20
570.96000246746087
 30
0.0
 11
309.59411649148137
 21
530.96000246746109
 31
0.0
  0
LINE
  5
3114
  8
AM_0
 10
251.5941164914816
 20
533.46000246746087
 30
0.0
 11
251.5941164914816
 21
568.46000246746075
 31
0.0
  0
LINE
  5
3115
  8
AM_0
 10
344.60042349148171
 20
607.12781346746112
 30
0.0
 11
344.60042349148171
 21
550.96000246746075
 31
0.0
  0
LINE
  5
3116
  8
AM_0
 10
315.59411649148149
 20
550.96000246746075
 30
0.0
 11
315.59411649148149
 21
606.01191146746112
 31
0.0
  0
LINE
  5
3117
  8
AM_0
 10
313.59411649148149
 20
550.96000246746075
 30
0.0
 11
313.59411649148149
 21
585.96000246746098
 31
0.0
  0
LINE
  5
3118
  8
AM_0
 10
398.09411649148137
 20
550.96000246746075
 30
0.0
 11
398.09411649148137
 21
620.67683946746104
 31
0.0
  0
LINE
  5
3119
  8
AM_0
 10
416.0941164914816
 20
620.67683946746104
 30
0.0
 11
416.0941164914816
 21
467.43433146746111
 31
0.0
  0
LINE
  5
311A
  8
AM_0
 10
564.59411649148205
 20
622.65427246746128
 30
0.0
 11
564.59411649148205
 21
553.68705746746105
 31
0.0
  0
LINE
  5
311B
  8
AM_0
 10
642.6901164914816
 20
591.72636246746094
 30
0.0
 11
653.23526649148153
 21
390.51328746746111
 31
0.0
  0
LINE
  5
311C
  8
AM_0
 10
722.59401649148174
 20
672.73157246746098
 30
0.0
 11
722.59401649148174
 21
554.38847246746082
 31
0.0
  0
LINE
  5
311D
  8
AM_0
 10
718.59401649148197
 20
685.56002246746095
 30
0.0
 11
718.59401649148197
 21
410.18000246746078
 31
0.0
  0
LINE
  5
311E
  8
AM_0
 10
697.59401649148197
 20
720.26592246746111
 30
0.0
 11
697.59401649148197
 21
436.99869746746111
 31
0.0
  0
LINE
  5
311F
  8
AM_0
 10
476.0940164914818
 20
667.71417246746114
 30
0.0
 11
476.0940164914818
 21
436.77454746746088
 31
0.0
  0
LINE
  5
3120
  8
AM_0
 10
526.59401649148174
 20
760.55997246746074
 30
0.0
 11
526.59401649148174
 21
420.5600374674608
 31
0.0
  0
LINE
  5
3121
  8
AM_0
 10
418.09411649148137
 20
668.96002246746104
 30
0.0
 11
418.09411649148137
 21
432.96000246746092
 31
0.0
  0
LINE
  5
3122
  8
AM_0
 10
431.09396649148158
 20
667.96002246746116
 30
0.0
 11
431.09396649148158
 21
550.96000246746075
 31
0.0
  0
LINE
  5
3123
  8
AM_0
 10
542.59401649148174
 20
764.55997246746063
 30
0.0
 11
542.59401649148174
 21
436.56000746746111
 31
0.0
  0
ARC
  5
3124
  8
AM_0
 10
2928.8387664914821
 20
635.6264724674611
 30
0.0
 40
2256.3525499999992
 50
180.56034
 51
186.00566000000001
  0
LINE
  5
3125
  8
ﾁｭｳｼﾝｾﾝ
 10
246.06832791498431
 20
550.96000246746075
 30
0.0
 11
535.56165697744905
 21
550.96000246746075
 31
0.0
  0
LINE
  5
3126
  8
AM_0
 10
318.54175949148151
 20
492.908551467461
 30
0.0
 11
340.5607764914817
 21
492.52420846746111
 31
0.0
  0
LINE
  5
3127
  8
AM_0
 10
309.59411649148137
 20
533.46000246746087
 30
0.0
 11
251.5941164914816
 21
533.46000246746087
 31
0.0
  0
LINE
  5
3128
  8
AM_0
 10
315.59411649148149
 20
550.96000246746075
 30
0.0
 11
315.59411649148149
 21
495.90809446746078
 31
0.0
  0
ARC
  5
3129
  8
AM_0
 10
318.59411649148171
 20
495.90809446746078
 30
0.0
 40
3.0
 50
180.0
 51
268.99999999999812
  0
LINE
  5
312A
  8
AM_0
 10
313.59411649148149
 20
550.96000246746075
 30
0.0
 11
313.59411649148149
 21
515.96000246746098
 31
0.0
  0
LINE
  5
312B
  8
AM_0
 10
309.59411649148137
 20
530.96000246746109
 30
0.0
 11
313.59411649148149
 21
530.96000246746109
 31
0.0
  0
LINE
  5
312C
  8
AM_0
 10
313.59411649148149
 20
515.96000246746098
 30
0.0
 11
315.59411649148149
 21
513.96000246746109
 31
0.0
  0
LINE
  5
312D
  8
AM_0
 10
422.594116491482
 20
333.56002246746101
 30
0.0
 11
722.59401649148174
 21
333.56002246746101
 31
0.0
  0
LINE
  5
312E
  8
ﾁｭｳｼﾝｾﾝ1
 10
457.59401649148168
 20
381.56000746746111
 30
0.0
 11
457.59401649148168
 21
323.56002246746101
 31
0.0
  0
LINE
  5
312F
  8
AM_0
 10
546.73616649148175
 20
440.70212746746108
 30
0.0
 11
484.91641649148158
 21
378.88233246746108
 31
0.0
  0
LINE
  5
3130
  8
AM_0
 10
426.594116491482
 20
371.56000746746111
 30
0.0
 11
467.23876649148173
 21
371.56000746746111
 31
0.0
  0
LINE
  5
3131
  8
ｶｸﾚｾﾝ2
 10
445.59403149148147
 20
371.56000746746111
 30
0.0
 11
445.59403149148147
 21
333.56002246746101
 31
0.0
  0
LINE
  5
3132
  8
AM_0
 10
422.594116491482
 20
367.56000746746111
 30
0.0
 11
422.594116491482
 21
333.56002246746101
 31
0.0
  0
ARC
  5
3133
  8
AM_0
 10
426.594116491482
 20
367.56000746746111
 30
0.0
 40
4.000000049999997
 50
90.000003000000007
 51
180.00001
  0
LINE
  5
3134
  8
ｶｸﾚｾﾝ2
 10
469.5940164914818
 20
371.56000746746111
 30
0.0
 11
469.5940164914818
 21
333.56002246746101
 31
0.0
  0
ARC
  5
3135
  8
AM_0
 10
467.23876649148173
 20
396.56000746746111
 30
0.0
 40
25.000000499999999
 50
270.0
 51
315.0
  0
LINE
  5
3136
  8
AM_0
 10
431.6027664914817
 20
434.95115246746087
 30
0.0
 11
472.1639164914817
 21
434.2431424674611
 31
0.0
  0
LINE
  5
3137
  8
AM_0
 10
431.09396649148158
 20
479.12760746746108
 30
0.0
 11
476.0940164914818
 21
479.12760746746108
 31
0.0
  0
LINE
  5
3138
  8
AM_0
 10
431.09396649148158
 20
459.8770574674611
 30
0.0
 11
476.0940164914818
 21
459.8770574674611
 31
0.0
  0
ARC
  5
3139
  8
AM_0
 10
429.09411649148171
 20
468.78916746746091
 30
0.0
 40
2.0000000500000001
 50
270.0
 51
0.0
  0
ARC
  5
313A
  8
AM_0
 10
394.13871549148138
 20
469.43433146746082
 30
0.0
 40
3.0
 50
184.99999999999969
 51
270.0
  0
LINE
  5
313B
  8
AM_0
 10
398.09411649148137
 20
550.96000246746075
 30
0.0
 11
398.09411649148137
 21
467.43433146746111
 31
0.0
  0
LINE
  5
313C
  8
AM_0
 10
396.62965049148158
 20
440.42446846746071
 30
0.0
 11
347.45732049148171
 21
489.59679946746093
 31
0.0
  0
LINE
  5
313D
  8
AM_0
 10
431.09396649148158
 20
433.96003246746068
 30
0.0
 11
431.09396649148158
 21
550.96000246746075
 31
0.0
  0
LINE
  5
313E
  8
AM_0
 10
418.09411649148137
 20
466.78916746746108
 30
0.0
 11
429.09411649148171
 21
466.78916746746108
 31
0.0
  0
LINE
  5
313F
  8
AM_0
 10
418.09411649148137
 20
451.23279746746113
 30
0.0
 11
429.09411649148171
 21
451.23279746746113
 31
0.0
  0
LINE
  5
3140
  8
AM_0
 10
418.09411649148137
 20
432.96000246746092
 30
0.0
 11
430.094116491482
 21
432.96000246746092
 31
0.0
  0
LINE
  5
3141
  8
AM_0
 10
398.09411649148137
 20
450.87798246746092
 30
0.0
 11
398.09411649148137
 21
433.96000246746081
 31
0.0
  0
LINE
  5
3142
  8
AM_0
 10
401.09411649148149
 20
430.96000246746109
 30
0.0
 11
416.0941164914816
 21
430.96000246746109
 31
0.0
  0
ARC
  5
3143
  8
AM_0
 10
393.09411649148171
 20
436.88893546746078
 30
0.0
 40
5.0
 50
0.0
 51
45.0
  0
ARC
  5
3144
  8
AM_0
 10
401.09411649148149
 20
433.96000246746081
 30
0.0
 40
3.0
 50
180.0
 51
270.0
  0
LINE
  5
3145
  8
AM_0
 10
418.09411649148137
 20
432.96000246746092
 30
0.0
 11
416.0941164914816
 21
430.96000246746109
 31
0.0
  0
LINE
  5
3146
  8
AM_0
 10
394.20411449148139
 20
450.87798246746092
 30
0.0
 11
418.09411649148137
 21
450.87798246746092
 31
0.0
  0
LINE
  5
3147
  8
AM_0
 10
394.13871549148138
 20
466.43433146746111
 30
0.0
 11
397.09411649148171
 21
466.43433146746111
 31
0.0
  0
LINE
  5
3148
  8
AM_0
 10
394.19185249148109
 20
453.79471546746089
 30
0.0
 11
394.14863649148123
 21
464.07432546746088
 31
0.0
  0
ARC
  5
3149
  8
AM_0
 10
394.20411449148139
 20
453.87798246746081
 30
0.0
 40
3.0
 50
184.99999999999969
 51
270.0
  0
LINE
  5
314A
  8
AM_0
 10
390.09411649148149
 20
466.43433146746111
 30
0.0
 11
391.21552949148139
 21
453.616514467461
 31
0.0
  0
ARC
  5
314B
  8
AM_0
 10
397.09411649148171
 20
467.43433146746111
 30
0.0
 40
1.0
 50
270.0
 51
0.0
  0
LINE
  5
314C
  8
AM_0
 10
417.0941164914816
 20
466.43433146746111
 30
0.0
 11
418.09411649148137
 21
466.43433146746111
 31
0.0
  0
ARC
  5
314D
  8
AM_0
 10
417.0941164914816
 20
467.43433146746111
 30
0.0
 40
1.0
 50
180.0
 51
270.0
  0
ARC
  5
314E
  8
AM_0
 10
431.594116491482
 20
434.45121246746112
 30
0.0
 40
0.5
 50
89.000000999999955
 51
180.00001
  0
ARC
  5
314F
  8
AM_0
 10
430.094116491482
 20
433.96003246746068
 30
0.0
 40
1.0
 50
270.0
 51
0.0
  0
ARC
  5
3150
  8
AM_0
 10
429.09411649148171
 20
453.23279746746078
 30
0.0
 40
2.0000000500000001
 50
270.0
 51
0.0
  0
LINE
  5
3151
  8
AM_0
 10
344.60042349148171
 20
494.79219246746078
 30
0.0
 11
344.60042349148171
 21
550.96000246746075
 31
0.0
  0
ARC
  5
3152
  8
AM_0
 10
340.38625249148163
 20
482.52573146746067
 30
0.0
 40
10.0
 50
45.0
 51
89.000000000001506
  0
LINE
  5
3153
  8
AM_0
 10
419.0729664914814
 20
476.52305246746113
 30
0.0
 11
430.10176649148161
 21
476.52305246746113
 31
0.0
  0
LINE
  5
3154
  8
AM_0
 10
398.09411649148137
 20
481.2431654674607
 30
0.0
 11
391.13214749148159
 21
481.2431654674607
 31
0.0
  0
LINE
  5
3155
  8
AM_0
 10
390.09411649148149
 20
481.2431654674607
 30
0.0
 11
391.15013049148109
 21
469.17286446746101
 31
0.0
  0
LINE
  5
3156
  8
AM_0
 10
418.09411649148137
 20
481.2431654674607
 30
0.0
 11
416.0941164914816
 21
481.2431654674607
 31
0.0
  0
LINE
  5
3157
  8
AM_0
 10
401.09411649148149
 20
498.88118946746101
 30
0.0
 11
413.09411649148149
 21
498.88118946746101
 31
0.0
  0
LINE
  5
3158
  8
AM_0
 10
400.20276949148177
 20
510.045255467461
 30
0.0
 11
413.86057349148098
 21
510.045255467461
 31
0.0
  0
ARC
  5
3159
  8
AM_0
 10
401.09411649148149
 20
501.88118946746113
 30
0.0
 40
3.0
 50
180.0
 51
270.0
  0
ARC
  5
315A
  8
AM_0
 10
413.09411649148149
 20
501.88118946746113
 30
0.0
 40
3.0
 50
270.0
 51
0.0
  0
LINE
  5
315B
  8
AM_0
 10
552.59401649148174
 20
549.56001246746075
 30
0.0
 11
552.59401649148174
 21
454.8442824674608
 31
0.0
  0
LINE
  5
315C
  8
AM_0
 10
476.0940164914818
 20
430.24375246746081
 30
0.0
 11
476.0940164914818
 21
414.21424246746079
 31
0.0
  0
LINE
  5
315D
  8
AM_0
 10
500.1327164914818
 20
394.09870246746101
 30
0.0
 11
480.9391164914818
 21
405.64527246746121
 31
0.0
  0
ARC
  5
315E
  8
AM_0
 10
486.0940164914818
 20
414.21424246746079
 30
0.0
 40
10.0
 50
179.99998999999991
 51
238.96955
  0
ARC
  5
315F
  8
AM_0
 10
472.094116491482
 20
430.24375246746081
 30
0.0
 40
4.000000049999997
 50
0.0
 51
89.000000999999955
  0
ARC
  5
3160
  8
AM_0
 10
532.59401649148174
 20
454.8442824674608
 30
0.0
 40
20.000000499999999
 50
315.0
 51
0.0
  0
LINE
  5
3161
  8
AM_0
 10
526.59401649148174
 20
463.56000746746111
 30
0.0
 11
542.59401649148174
 21
463.56000746746111
 31
0.0
  0
LINE
  5
3162
  8
AM_0
 10
542.59401649148174
 20
463.56000746746111
 30
0.0
 11
552.59401649148174
 21
463.56000746746111
 31
0.0
  0
LINE
  5
3163
  8
AM_0
 10
526.59401649148174
 20
497.56000746746111
 30
0.0
 11
542.59401649148174
 21
497.56000746746111
 31
0.0
  0
LINE
  5
3164
  8
AM_0
 10
542.59401649148174
 20
497.56000746746111
 30
0.0
 11
552.59401649148174
 21
497.56000746746111
 31
0.0
  0
ARC
  5
3165
  8
AM_0
 10
556.59401649148174
 20
549.56001246746075
 30
0.0
 40
4.000000049999997
 50
90.000003000000007
 51
180.00001
  0
LINE
  5
3166
  8
AM_0
 10
556.59401649148174
 20
553.56001246746075
 30
0.0
 11
563.59401649148174
 21
553.56001246746075
 31
0.0
  0
LINE
  5
3167
  8
ﾁｭｳｼﾝｾﾝ1
 10
687.59401649148185
 20
381.56000746746111
 30
0.0
 11
687.59401649148185
 21
323.56002246746101
 31
0.0
  0
ARC
  5
3168
  8
AM_0
 10
673.20786649148158
 20
391.56000746746111
 30
0.0
 40
20.000000499999999
 50
183.00001
 51
270.0
  0
LINE
  5
3169
  8
AM_0
 10
718.59401649148197
 20
371.56000746746111
 30
0.0
 11
716.0098664914816
 21
445.56177746746079
 31
0.0
  0
ARC
  5
316A
  8
AM_0
 10
718.59401649148197
 20
367.56000746746111
 30
0.0
 40
4.000000049999997
 50
0.0
 51
90.000003000000007
  0
LINE
  5
316B
  8
ｶｸﾚｾﾝ2
 10
699.59401649148185
 20
371.56000746746111
 30
0.0
 11
699.59401649148185
 21
333.56002246746101
 31
0.0
  0
LINE
  5
316C
  8
ｶｸﾚｾﾝ2
 10
675.59403149148136
 20
371.56000746746111
 30
0.0
 11
675.59403149148136
 21
333.56002246746101
 31
0.0
  0
LINE
  5
316D
  8
AM_0
 10
673.20786649148158
 20
371.56000746746111
 30
0.0
 11
718.59401649148197
 21
371.56000746746111
 31
0.0
  0
LINE
  5
316E
  8
AM_0
 10
722.59401649148174
 20
333.56002246746101
 30
0.0
 11
722.59401649148174
 21
367.56000746746111
 31
0.0
  0
LINE
  5
316F
  8
AM_0
 10
722.00826649148166
 20
552.97419746746084
 30
0.0
 11
718.59401649148197
 21
549.55997746746107
 31
0.0
  0
LINE
  5
3170
  8
AM_0
 10
653.00736649148155
 20
394.86176746746111
 30
0.0
 11
683.80916649148173
 21
397.08530746746078
 31
0.0
  0
LINE
  5
3171
  8
AM_0
 10
697.59401649148197
 20
430.15311746746067
 30
0.0
 11
697.59401649148197
 21
406.4092824674608
 31
0.0
  0
LINE
  5
3172
  8
AM_0
 10
686.33296649148156
 20
397.6895574674611
 30
0.0
 11
693.91891649148135
 21
400.87803246746063
 31
0.0
  0
ARC
  5
3173
  8
AM_0
 10
683.2331164914815
 20
405.06458746746108
 30
0.0
 40
8.0
 50
274.1289799999999
 51
292.79777999999982
  0
ARC
  5
3174
  8
AM_0
 10
691.59401649148185
 20
406.4092824674608
 30
0.0
 40
6.0
 50
292.79777999999982
 51
0.0
  0
LINE
  5
3175
  8
AM_0
 10
718.59401649148197
 20
410.18000246746078
 30
0.0
 11
717.24536649148195
 21
410.18000246746078
 31
0.0
  0
LINE
  5
3176
  8
AM_0
 10
716.00981649148162
 20
445.56174746746092
 30
0.0
 11
717.05736649148162
 21
447.74024746746107
 31
0.0
  0
LINE
  5
3177
  8
AM_0
 10
700.41626649148191
 20
435.2424424674611
 30
0.0
 11
714.14156649148208
 21
443.81254246746079
 31
0.0
  0
ARC
  5
3178
  8
AM_0
 10
703.59401649148185
 20
430.15311746746067
 30
0.0
 40
6.0
 50
121.98072999999999
 51
180.00001
  0
ARC
  5
3179
  8
AM_0
 10
720.59401649148174
 20
554.38847246746082
 30
0.0
 40
2.0000000500000001
 50
315.0
 51
0.0
  0
LINE
  5
317A
  8
AM_0
 10
318.54175949148151
 20
609.01145446746102
 30
0.0
 11
340.5607764914817
 21
609.39579746746085
 31
0.0
  0
LINE
  5
317B
  8
AM_0
 10
251.5941164914816
 20
568.46000246746075
 30
0.0
 11
309.59411649148137
 21
568.46000246746075
 31
0.0
  0
LINE
  5
317C
  8
AM_0
 10
251.5941164914816
 20
571.46000246746075
 30
0.0
 11
296.59411649148149
 21
571.46000246746075
 31
0.0
  0
LINE
  5
317D
  8
AM_0
 10
251.5941164914816
 20
568.46000246746075
 30
0.0
 11
251.5941164914816
 21
571.46000246746075
 31
0.0
  0
LINE
  5
317E
  8
AM_0
 10
296.59411649148149
 20
571.46000246746075
 30
0.0
 11
296.59411649148149
 21
568.46000246746075
 31
0.0
  0
LINE
  5
317F
  8
AM_0
 10
309.59411649148137
 20
570.96000246746087
 30
0.0
 11
313.59411649148149
 21
570.96000246746087
 31
0.0
  0
LINE
  5
3180
  8
AM_0
 10
313.59411649148149
 20
585.96000246746098
 30
0.0
 11
315.59411649148149
 21
587.96000246746075
 31
0.0
  0
ARC
  5
3181
  8
AM_0
 10
318.59411649148171
 20
606.01191146746112
 30
0.0
 40
3.0
 50
90.999999999998451
 51
180.0
  0
LINE
  5
3182
  8
AM_0
 10
591.05881649148125
 20
764.55997246746063
 30
0.0
 11
542.59401649148174
 21
764.55997246746063
 31
0.0
  0
LINE
  5
3183
  8
AM_0
 10
542.59401649148174
 20
758.56002246746095
 30
0.0
 11
595.93716649148155
 21
758.56002246746095
 31
0.0
  0
LINE
  5
3184
  8
AM_0
 10
567.59401649148174
 20
731.84592246746092
 30
0.0
 11
595.93716649148155
 21
731.84592246746092
 31
0.0
  0
LINE
  5
3185
  8
AM_0
 10
571.6227664914818
 20
593.56002246746095
 30
0.0
 11
639.14976649148139
 21
593.56002246746095
 31
0.0
  0
LINE
  5
3186
  8
AM_0
 10
567.59401649148174
 20
619.65427246746106
 30
0.0
 11
595.93716649148155
 21
619.65427246746106
 31
0.0
  0
LINE
  5
3187
  8
AM_0
 10
567.59401649148174
 20
658.24667246746117
 30
0.0
 11
595.93716649148155
 21
658.24667246746117
 31
0.0
  0
LINE
  5
3188
  8
ﾁｭｳｼﾝｾﾝ
 10
504.69071649148179
 20
613.56002246746095
 30
0.0
 11
844.59401649148185
 21
613.56002246746095
 31
0.0
  0
LINE
  5
3189
  8
AM_0
 10
525.07766649148198
 20
737.35887246746074
 30
0.0
 11
479.88506649148161
 21
701.56272246746073
 31
0.0
  0
LINE
  5
318A
  8
AM_0
 10
564.59411649148205
 20
734.84587246746094
 30
0.0
 11
564.59411649148205
 21
655.24677246746114
 31
0.0
  0
LINE
  5
318B
  8
AM_0
 10
567.59401649148174
 20
731.84592246746092
 30
0.0
 11
567.59401649148174
 21
658.24667246746117
 31
0.0
  0
LINE
  5
318C
  8
AM_0
 10
500.59401649148163
 20
764.55997246746063
 30
0.0
 11
500.59401649148163
 21
719.90037246746112
 31
0.0
  0
LINE
  5
318D
  8
AM_0
 10
431.6027664914817
 20
666.9689224674612
 30
0.0
 11
471.18126649148172
 21
667.65977246746115
 31
0.0
  0
LINE
  5
318E
  8
AM_0
 10
431.09396649148158
 20
642.04302246746101
 30
0.0
 11
476.0940164914818
 21
642.04302246746101
 31
0.0
  0
LINE
  5
318F
  8
AM_0
 10
431.09396649148158
 20
622.79242246746117
 30
0.0
 11
476.0940164914818
 21
622.79242246746117
 31
0.0
  0
LINE
  5
3190
  8
AM_0
 10
394.19185249148109
 20
648.12529046746101
 30
0.0
 11
394.14863649148123
 21
637.84568046746074
 31
0.0
  0
LINE
  5
3191
  8
AM_0
 10
390.09411649148149
 20
635.48567446746074
 30
0.0
 11
391.21552949148139
 21
648.30349046746073
 31
0.0
  0
LINE
  5
3192
  8
AM_0
 10
396.62965049148158
 20
661.49553646746074
 30
0.0
 11
347.45732049148171
 21
612.32320646746098
 31
0.0
  0
ARC
  5
3193
  8
AM_0
 10
340.38625249148163
 20
619.39427446746095
 30
0.0
 40
10.0
 50
270.99999999999841
 51
315.0
  0
LINE
  5
3194
  8
AM_0
 10
419.0729664914814
 20
625.39697246746096
 30
0.0
 11
430.10176649148161
 21
625.39697246746096
 31
0.0
  0
LINE
  5
3195
  8
AM_0
 10
418.09411649148137
 20
635.13082246746103
 30
0.0
 11
429.09411649148171
 21
635.13082246746103
 31
0.0
  0
LINE
  5
3196
  8
AM_0
 10
416.91390149148111
 20
620.67683946746104
 30
0.0
 11
391.13214749148159
 21
620.67683946746104
 31
0.0
  0
LINE
  5
3197
  8
AM_0
 10
394.13871549148138
 20
635.48567446746074
 30
0.0
 11
418.09411649148137
 21
635.48567446746074
 31
0.0
  0
ARC
  5
3198
  8
AM_0
 10
394.13871549148138
 20
632.48567446746074
 30
0.0
 40
3.0
 50
90.0
 51
175.00000000000011
  0
LINE
  5
3199
  8
AM_0
 10
390.09411649148149
 20
620.67683946746104
 30
0.0
 11
391.15013049148109
 21
632.74714146746089
 31
0.0
  0
ARC
  5
319A
  8
AM_0
 10
429.09411649148171
 20
633.13082246746103
 30
0.0
 40
2.0000000500000001
 50
0.0
 51
90.000003000000007
  0
LINE
  5
319B
  8
AM_0
 10
418.09411649148137
 20
668.96002246746104
 30
0.0
 11
430.094116491482
 21
668.96002246746104
 31
0.0
  0
LINE
  5
319C
  8
AM_0
 10
418.09411649148137
 20
650.6871724674611
 30
0.0
 11
429.09411649148171
 21
650.6871724674611
 31
0.0
  0
ARC
  5
319D
  8
AM_0
 10
393.09411649148171
 20
665.03107046746095
 30
0.0
 40
5.0
 50
315.0
 51
0.0
  0
LINE
  5
319E
  8
AM_0
 10
398.09411649148137
 20
651.04202346746104
 30
0.0
 11
398.09411649148137
 21
678.09839046746094
 31
0.0
  0
LINE
  5
319F
  8
AM_0
 10
416.0941164914816
 20
651.04202346746104
 30
0.0
 11
416.0941164914816
 21
678.09839046746094
 31
0.0
  0
LINE
  5
31A0
  8
AM_0
 10
399.2278704914815
 20
661.7085034674609
 30
0.0
 11
414.92372949148142
 21
661.7085034674609
 31
0.0
  0
LINE
  5
31A1
  8
AM_0
 10
394.20411449148139
 20
651.04202346746104
 30
0.0
 11
418.09411649148137
 21
651.04202346746104
 31
0.0
  0
ARC
  5
31A2
  8
AM_0
 10
394.20411449148139
 20
648.04202346746104
 30
0.0
 40
3.0
 50
90.0
 51
175.00000000000011
  0
LINE
  5
31A3
  8
AM_0
 10
401.09411649148149
 20
681.09839046746106
 30
0.0
 11
413.09411649148149
 21
681.09839046746106
 31
0.0
  0
ARC
  5
31A4
  8
AM_0
 10
401.09411649148149
 20
678.09839046746094
 30
0.0
 40
3.0
 50
90.0
 51
180.0
  0
ARC
  5
31A5
  8
AM_0
 10
413.09411649148149
 20
678.09839046746094
 30
0.0
 40
3.0
 50
0.0
 51
90.0
  0
LINE
  5
31A6
  8
AM_0
 10
416.0941164914816
 20
670.96000246746087
 30
0.0
 11
418.09411649148137
 21
668.96000246746098
 31
0.0
  0
ARC
  5
31A7
  8
AM_0
 10
429.09411649148171
 20
648.68722246746074
 30
0.0
 40
2.0000000500000001
 50
0.0
 51
90.000003000000007
  0
ARC
  5
31A8
  8
AM_0
 10
430.094116491482
 20
667.96002246746116
 30
0.0
 40
1.0
 50
0.0
 51
90.000003000000007
  0
ARC
  5
31A9
  8
AM_0
 10
431.594116491482
 20
667.46877246746112
 30
0.0
 40
0.5
 50
179.99998999999991
 51
271.0
  0
LINE
  5
31AA
  8
AM_0
 10
567.59401649148174
 20
619.65427246746106
 30
0.0
 11
567.59401649148174
 21
557.56001246746075
 31
0.0
  0
LINE
  5
31AB
  8
AM_0
 10
564.59411649148205
 20
622.65427246746128
 30
0.0
 11
542.59401649148174
 21
622.65427246746128
 31
0.0
  0
LINE
  5
31AC
  8
AM_0
 10
542.59401649148174
 20
622.65427246746128
 30
0.0
 11
526.59401649148174
 21
622.65427246746128
 31
0.0
  0
LINE
  5
31AD
  8
AM_0
 10
567.59401649148174
 20
619.65427246746106
 30
0.0
 11
564.59401649148174
 21
622.65427246746128
 31
0.0
  0
LINE
  5
31AE
  8
AM_0
 10
476.0940164914818
 20
693.72392246746119
 30
0.0
 11
476.0940164914818
 21
672.65897246746113
 31
0.0
  0
ARC
  5
31AF
  8
AM_0
 10
471.09401649148151
 20
672.65897246746113
 30
0.0
 40
5.0
 50
271.0
 51
0.0
  0
ARC
  5
31B0
  8
AM_0
 10
486.0940164914818
 20
693.72392246746119
 30
0.0
 40
10.0
 50
128.38201000000001
 51
180.00001
  0
ARC
  5
31B1
  8
AM_0
 10
496.5940164914818
 20
719.90037246746112
 30
0.0
 40
4.000000049999997
 50
308.38200999999998
 51
0.0
  0
LINE
  5
31B2
  8
AM_0
 10
564.59411649148205
 20
655.24677246746114
 30
0.0
 11
542.59401649148174
 21
655.24677246746114
 31
0.0
  0
LINE
  5
31B3
  8
AM_0
 10
542.59401649148174
 20
655.24677246746114
 30
0.0
 11
526.59401649148174
 21
655.24677246746114
 31
0.0
  0
LINE
  5
31B4
  8
AM_0
 10
567.59401649148174
 20
658.24667246746117
 30
0.0
 11
564.59401649148174
 21
655.24667246746105
 31
0.0
  0
ARC
  5
31B5
  8
AM_0
 10
520.59401649148174
 20
794.55997246746063
 30
0.0
 40
30.000000499999999
 50
304.59870999999998
 51
235.4012899999999
  0
LINE
  5
31B6
  8
AM_0
 10
520.59396649148175
 20
777.05997246746063
 30
0.0
 11
510.61531649148139
 21
775.93102246746093
 31
0.0
  0
LINE
  5
31B7
  8
AM_0
 10
531.68306649148155
 20
775.55997246746108
 30
0.0
 11
509.5050664914815
 21
775.55997246746108
 31
0.0
  0
LINE
  5
31B8
  8
AM_0
 10
542.59401649148174
 20
764.55997246746063
 30
0.0
 11
500.59401649148163
 21
764.55997246746063
 31
0.0
  0
CIRCLE
  5
31B9
  8
AM_0
 10
520.59401649148174
 20
794.55997246746063
 30
0.0
 40
17.500000499999992
  0
LINE
  5
31BA
  8
AM_0
 10
506.81996649148192
 20
772.30062246746093
 30
0.0
 11
505.59396649148158
 21
764.55997246746063
 31
0.0
  0
ARC
  5
31BB
  8
AM_0
 10
500.72021649148132
 20
765.74982246746094
 30
0.0
 40
5.0
 50
351.0
 51
55.401290000000017
  0
ARC
  5
31BC
  8
AM_0
 10
511.61806649148178
 20
771.08367246746093
 30
0.0
 40
4.949999899999999
 50
101.68763
 51
165.76742999999999
  0
LINE
  5
31BD
  8
AM_0
 10
535.59401649148174
 20
764.56002246746095
 30
0.0
 11
534.36806649148173
 21
772.30062246746093
 31
0.0
  0
LINE
  5
31BE
  8
AM_0
 10
564.59411649148205
 20
734.84587246746094
 30
0.0
 11
542.59401649148174
 21
734.84587246746094
 31
0.0
  0
LINE
  5
31BF
  8
AM_0
 10
542.59401649148174
 20
734.84587246746094
 30
0.0
 11
526.59401649148174
 21
734.84587246746094
 31
0.0
  0
ARC
  5
31C0
  8
AM_0
 10
522.59401649148174
 20
740.49442246746094
 30
0.0
 40
4.000000049999997
 50
308.38200999999998
 51
0.0
  0
LINE
  5
31C1
  8
AM_0
 10
526.59401649148174
 20
758.56002246746095
 30
0.0
 11
542.59401649148174
 21
758.56002246746095
 31
0.0
  0
ARC
  5
31C2
  8
AM_0
 10
540.46791649148145
 20
765.74982246746094
 30
0.0
 40
5.0
 50
124.59872
 51
189.0
  0
ARC
  5
31C3
  8
AM_0
 10
530.59401649148174
 20
760.55997246746074
 30
0.0
 40
4.000000049999997
 50
90.000003000000007
 51
180.00001
  0
LINE
  5
31C4
  8
AM_0
 10
567.59401649148174
 20
731.84587246746094
 30
0.0
 11
564.59411649148205
 21
734.84587246746094
 31
0.0
  0
ARC
  5
31C5
  8
AM_0
 10
562.43176649148165
 20
761.56002246746095
 30
0.0
 40
3.0000000500000001
 50
18.434948999999971
 51
90.000003000000007
  0
LINE
  5
31C6
  8
AM_0
 10
564.59411649148205
 20
762.60547246746114
 30
0.0
 11
564.59411649148205
 21
758.56002246746095
 31
0.0
  0
LINE
  5
31C7
  8
AM_0
 10
565.27781649148164
 20
762.5087224674611
 30
0.0
 11
566.59411649148205
 21
758.56002246746095
 31
0.0
  0
LINE
  5
31C8
  8
AM_0
 10
530.57271649148151
 20
775.93102246746093
 30
0.0
 11
520.5941164914816
 21
777.05997246746063
 31
0.0
  0
ARC
  5
31C9
  8
AM_0
 10
529.56996649148175
 20
771.08367246746093
 30
0.0
 40
4.949999899999999
 50
14.23256799999999
 51
78.312367000000023
  0
ARC
  5
31CA
  8
AM_0
 10
681.59401649148185
 20
720.26592246746111
 30
0.0
 40
16.0
 50
0.0
 51
45.00000099999999
  0
LINE
  5
31CB
  8
AM_0
 10
672.59401649148174
 20
744.39512246746074
 30
0.0
 11
672.59401649148174
 21
613.56002246746095
 31
0.0
  0
ARC
  5
31CC
  8
AM_0
 10
710.59401649148185
 20
685.56002246746095
 30
0.0
 40
8.0
 50
0.0
 51
90.000003000000007
  0
LINE
  5
31CD
  8
AM_0
 10
722.00826649148166
 20
674.14577246746114
 30
0.0
 11
718.59401649148197
 21
677.56002246746118
 31
0.0
  0
LINE
  5
31CE
  8
AM_0
 10
597.59401649148174
 20
655.70532246746097
 30
0.0
 11
597.59401649148174
 21
622.5911224674611
 31
0.0
  0
ARC
  5
31CF
  8
AM_0
 10
611.23336649148155
 20
638.95047246746105
 30
0.0
 40
4.000000049999997
 50
315.0
 51
45.00000099999999
  0
ARC
  5
31D0
  8
AM_0
 10
646.68466649148195
 20
591.93571246746114
 30
0.0
 40
4.000000049999997
 50
133.6857399999999
 51
183.0
  0
LINE
  5
31D1
  8
AM_0
 10
643.92181649148188
 20
594.82827246746115
 30
0.0
 11
646.90106649148174
 21
597.67387246746114
 31
0.0
  0
ARC
  5
31D2
  8
AM_0
 10
595.93716649148155
 20
623.65427246746106
 30
0.0
 40
4.000000049999997
 50
270.0
 51
315.0
  0
LINE
  5
31D3
  8
AM_0
 10
598.76566649148219
 20
620.82587246746095
 30
0.0
 11
614.06186649148174
 21
636.12207246746095
 31
0.0
  0
LINE
  5
31D4
  8
AM_0
 10
598.76561649148152
 20
657.07512246746114
 30
0.0
 11
614.06181649148175
 21
641.77892246746114
 31
0.0
  0
ARC
  5
31D5
  8
AM_0
 10
595.93716649148155
 20
654.24667246746105
 30
0.0
 40
4.000000049999997
 50
45.00000099999999
 51
90.000003000000007
  0
ARC
  5
31D6
  8
AM_0
 10
705.59401649148197
 20
701.55997246746097
 30
0.0
 40
8.0
 50
179.99998999999991
 51
270.0
  0
LINE
  5
31D7
  8
AM_0
 10
705.59401649148197
 20
693.56002246746095
 30
0.0
 11
710.59401649148185
 21
693.56002246746095
 31
0.0
  0
LINE
  5
31D8
  8
AM_0
 10
839.59401649148174
 20
648.56002246746107
 30
0.0
 11
839.59401649148174
 21
578.56001246746075
 31
0.0
  0
LINE
  5
31D9
  8
AM_0
 10
729.59411649148194
 20
651.06002246746095
 30
0.0
 11
729.59411649148194
 21
576.06001246746075
 31
0.0
  0
LINE
  5
31DA
  8
AM_0
 10
839.59401649148174
 20
578.56001246746075
 30
0.0
 11
729.59411649148194
 21
578.56001246746075
 31
0.0
  0
LINE
  5
31DB
  8
AM_0
 10
729.59411649148194
 20
576.06001246746075
 30
0.0
 11
722.59401649148174
 21
576.06001246746075
 31
0.0
  0
LINE
  5
31DC
  8
AM_0
 10
754.59411649148194
 20
653.06002246746107
 30
0.0
 11
839.59401649148174
 21
653.06002246746107
 31
0.0
  0
LINE
  5
31DD
  8
AM_0
 10
729.59411649148194
 20
648.56002246746107
 30
0.0
 11
839.59401649148174
 21
648.56002246746107
 31
0.0
  0
LINE
  5
31DE
  8
AM_0
 10
722.59401649148174
 20
651.06002246746095
 30
0.0
 11
729.59411649148194
 21
651.06002246746095
 31
0.0
  0
ARC
  5
31DF
  8
AM_0
 10
720.59401649148174
 20
672.73157246746098
 30
0.0
 40
2.0000000500000001
 50
0.0
 51
45.00000099999999
  0
LINE
  5
31E0
  8
AM_0
 10
754.59411649148194
 20
648.56002246746107
 30
0.0
 11
754.59411649148194
 21
653.06002246746107
 31
0.0
  0
LINE
  5
31E1
  8
AM_0
 10
839.59401649148174
 20
653.06002246746107
 30
0.0
 11
839.59401649148174
 21
648.56002246746107
 31
0.0
  0
LINE
  5
31E2
  8
AM_0
 10
601.78811649148156
 20
754.36597246746112
 30
0.0
 11
666.29531649148146
 21
752.1133224674611
 31
0.0
  0
LINE
  5
31E3
  8
AM_0
 10
597.59401649148174
 20
755.76797246746094
 30
0.0
 11
597.59401649148174
 21
735.22772246746092
 31
0.0
  0
LINE
  5
31E4
  8
AM_0
 10
598.76566649148219
 20
757.38842246746094
 30
0.0
 11
608.1227164914817
 21
748.03137246746087
 31
0.0
  0
LINE
  5
31E5
  8
AM_0
 10
598.76561649148152
 20
733.01752246746094
 30
0.0
 11
608.12266649148205
 21
742.37457246746112
 31
0.0
  0
ARC
  5
31E6
  8
AM_0
 10
595.93716649148155
 20
735.84592246746092
 30
0.0
 40
4.000000049999997
 50
270.0
 51
315.0
  0
ARC
  5
31E7
  8
AM_0
 10
605.29421649148162
 20
745.20292246746089
 30
0.0
 40
4.000000049999997
 50
315.0
 51
45.00000099999999
  0
ARC
  5
31E8
  8
AM_0
 10
595.93716649148155
 20
754.55997246746063
 30
0.0
 40
4.000000049999997
 50
45.00000099999999
 51
90.000003000000007
  0
LINE
  5
31E9
  8
AM_0
 10
592.99096649148146
 20
763.07702246746112
 30
0.0
 11
594.19966649148159
 21
758.56002246746095
 31
0.0
  0
ARC
  5
31EA
  8
AM_0
 10
591.05881649148125
 20
762.56002246746095
 30
0.0
 40
2.0000000500000001
 50
14.981598
 51
90.000003000000007
  0
LINE
  5
31EB
  8
AM_0
 10
677.05066649148182
 20
747.43677246746097
 30
0.0
 11
692.90776649148211
 21
731.57957246746093
 31
0.0
  0
ARC
  5
31EC
  8
AM_0
 10
665.73696649148155
 20
736.12302246746094
 30
0.0
 40
16.0
 50
45.00000099999999
 51
88.0
  0
LINE
  5
31ED
  8
AM_0
 10
1315.899236038925
 20
491.33802246746069
 30
0.0
 11
1279.428381038925
 21
633.44682246746095
 31
0.0
  0
LINE
  5
31EE
  8
AM_0
 10
1324.5907510389241
 20
596.95587246746106
 30
0.0
 11
1319.0279760389251
 21
493.644817467461
 31
0.0
  0
LINE
  5
31EF
  8
AM_0
 10
1330.100056038925
 20
463.76682746746081
 30
0.0
 11
1347.590856038925
 21
582.01603746746105
 31
0.0
  0
LINE
  5
31F0
  8
AM_0
 10
1371.139241038926
 20
546.50425246746113
 30
0.0
 11
1362.0889010389251
 21
620.33097246746115
 31
0.0
  0
LINE
  5
31F1
  8
AM_0
 10
1356.130316038925
 20
593.55997246746085
 30
0.0
 11
1426.939581038926
 21
371.56000746746111
 31
0.0
  0
LINE
  5
31F2
  8
AM_0
 10
1356.130316038925
 20
583.60468746746074
 30
0.0
 11
1356.130316038925
 21
538.4517924674609
 31
0.0
  0
LINE
  5
31F3
  8
AM_0
 10
1047.748846038925
 20
583.60468746746074
 30
0.0
 11
1047.748846038925
 21
538.4517924674609
 31
0.0
  0
LINE
  5
31F4
  8
AM_0
 10
1047.7488960389251
 20
593.56002246746095
 30
0.0
 11
976.93964603892562
 21
371.56000746746111
 31
0.0
  0
LINE
  5
31F5
  8
AM_0
 10
1032.739946038924
 20
546.50425246746113
 30
0.0
 11
1041.790246038925
 21
620.33097246746115
 31
0.0
  0
LINE
  5
31F6
  8
AM_0
 10
1073.7790860389259
 20
463.76679746746078
 30
0.0
 11
1056.288301038926
 21
582.01603746746105
 31
0.0
  0
LINE
  5
31F7
  8
AM_0
 10
1079.2883910389251
 20
596.95587246746106
 30
0.0
 11
1084.851166038924
 21
493.644817467461
 31
0.0
  0
LINE
  5
31F8
  8
AM_0
 10
1087.9799210389251
 20
491.33802246746069
 30
0.0
 11
1124.450776038924
 21
633.44682246746095
 31
0.0
  0
LINE
  5
31F9
  8
ﾁｭｳｼﾝｾﾝ
 10
1201.9396060389261
 20
829.55997246746051
 30
0.0
 11
1201.9396060389261
 21
327.43720246746108
 31
0.0
  0
ARC
  5
31FA
  8
AM_0
 10
1201.9396060389261
 20
603.56002246746095
 30
0.0
 40
147.23598000000001
 50
351.58611999999982
 51
188.41388000000001
  0
ARC
  5
31FB
  8
AM_0
 10
1201.9396060389261
 20
603.56002246746095
 30
0.0
 40
122.8288349999999
 50
356.91789
 51
183.0821099999998
  0
CIRCLE
  5
31FC
  8
AM_0
 10
1201.9396060389261
 20
613.56002246746095
 30
0.0
 40
60.0
  0
LINE
  5
31FD
  8
AM_0
 10
1356.5716460389251
 20
532.94193746746112
 30
0.0
 11
1392.154316038924
 21
421.3837674674611
 31
0.0
  0
LINE
  5
31FE
  8
AM_0
 10
1347.331886038924
 20
371.56000746746111
 30
0.0
 11
1426.939591038926
 21
371.56000746746111
 31
0.0
  0
LINE
  5
31FF
  8
AM_0
 10
1426.939591038926
 20
333.56002246746101
 30
0.0
 11
1336.939581038926
 21
333.56002246746101
 31
0.0
  0
ARC
  5
3200
  8
AM_0
 10
1383.0632660389249
 20
386.56000746746111
 30
0.0
 40
15.0
 50
270.0
 51
9.9999996999999983
  0
ARC
  5
3201
  8
AM_0
 10
1113.622286038925
 20
404.41688246746111
 30
0.0
 40
15.0
 50
62.194868999999997
 51
150.0
  0
LINE
  5
3202
  8
ﾁｭｳｼﾝｾﾝ
 10
1092.9572460389261
 20
550.96000246746075
 30
0.0
 11
1310.921911038924
 21
550.96000246746075
 31
0.0
  0
ARC
  5
3203
  8
AM_0
 10
1150.9395760389241
 20
475.18000246746112
 30
0.0
 40
116.0
 50
235.6933999999998
 51
270.0
  0
ARC
  5
3204
  8
AM_0
 10
1150.9395760389241
 20
475.18000246746112
 30
0.0
 40
126.0
 50
246.79907
 51
270.0
  0
ARC
  5
3205
  8
AM_0
 10
1150.9395760389241
 20
475.18000246746112
 30
0.0
 40
78.0
 50
233.1528099999999
 51
270.0
  0
ARC
  5
3206
  8
AM_0
 10
1150.9395760389241
 20
475.18000246746112
 30
0.0
 40
65.0
 50
242.19486000000001
 51
270.0
  0
ARC
  5
3207
  8
AM_0
 10
1020.815896038925
 20
386.56000746746111
 30
0.0
 40
15.0
 50
169.99998999999991
 51
270.0
  0
LINE
  5
3208
  8
ﾁｭｳｼﾝｾﾝ1
 10
1021.939596038924
 20
381.56000746746111
 30
0.0
 11
1021.939596038924
 21
323.56002246746101
 31
0.0
  0
LINE
  5
3209
  8
AM_0
 10
1066.9396060389261
 20
353.56000746746111
 30
0.0
 11
1100.6319610389251
 21
411.91688246746111
 31
0.0
  0
LINE
  5
320A
  8
AM_0
 10
1055.103911038924
 20
379.06000746746088
 30
0.0
 11
1089.918276038924
 21
439.36021246746111
 31
0.0
  0
LINE
  5
320B
  8
AM_0
 10
1056.547301038926
 20
371.56000746746111
 30
0.0
 11
976.93959603892574
 21
371.56000746746111
 31
0.0
  0
LINE
  5
320C
  8
AM_0
 10
976.93959603892574
 20
333.56002246746101
 30
0.0
 11
1066.9396060389261
 21
333.56002246746101
 31
0.0
  0
LINE
  5
320D
  8
AM_0
 10
976.93959603892574
 20
371.56000746746111
 30
0.0
 11
976.93959603892574
 21
333.56002246746101
 31
0.0
  0
ARC
  5
320E
  8
AM_0
 10
1042.113496038924
 20
386.56000746746111
 30
0.0
 40
15.0
 50
270.0
 51
330.0
  0
LINE
  5
320F
  8
ｶｸﾚｾﾝ2
 10
1033.939596038924
 20
371.56000746746111
 30
0.0
 11
1033.939596038924
 21
333.56002246746101
 31
0.0
  0
LINE
  5
3210
  8
ｶｸﾚｾﾝ2
 10
1009.939611038925
 20
371.56000746746111
 30
0.0
 11
1009.939611038925
 21
333.56002246746101
 31
0.0
  0
LINE
  5
3211
  8
AM_0
 10
1066.9396060389261
 20
333.56002246746101
 30
0.0
 11
1066.9396060389261
 21
353.56000746746111
 31
0.0
  0
LINE
  5
3212
  8
AM_0
 10
1061.939606038924
 20
362.22025746746101
 30
0.0
 11
1061.939606038924
 21
333.56002246746101
 31
0.0
  0
LINE
  5
3213
  8
AM_0
 10
1091.939606038924
 20
356.56000746746111
 30
0.0
 11
1084.939576038925
 21
356.56000746746111
 31
0.0
  0
ARC
  5
3214
  8
AM_0
 10
1091.939606038924
 20
373.56000746746111
 30
0.0
 40
17.000000499999992
 50
231.60332999999989
 51
320.62101000000001
  0
ARC
  5
3215
  8
AM_0
 10
1084.939576038925
 20
338.56002246746101
 30
0.0
 40
18.000000499999992
 50
90.000003000000007
 51
180.00001
  0
ARC
  5
3216
  8
AM_0
 10
1076.4120210389251
 20
353.9667774674611
 30
0.0
 40
8.0
 50
51.603336000000013
 51
150.0
  0
LINE
  5
3217
  8
AM_0
 10
1066.939576038925
 20
353.56003746746092
 30
0.0
 11
1056.547271038924
 21
371.56000746746111
 31
0.0
  0
ARC
  5
3218
  8
AM_0
 10
1083.868651038925
 20
376.88205746746092
 30
0.0
 40
3.0000000500000001
 50
55.693403000000018
 51
150.0
  0
ARC
  5
3219
  8
AM_0
 10
1111.263736038924
 20
357.6988324674611
 30
0.0
 40
8.0
 50
71.339099000000004
 51
140.62101000000001
  0
ARC
  5
321A
  8
AM_0
 10
1150.9395760389241
 20
475.18000246746112
 30
0.0
 40
65.0
 50
165.60623000000001
 51
202.07961999999989
  0
LINE
  5
321B
  8
AM_0
 10
1047.3075460389241
 20
532.94196746746104
 30
0.0
 11
1011.7248460389241
 21
421.3837674674611
 31
0.0
  0
ARC
  5
321C
  8
AM_0
 10
1150.9395760389241
 20
475.18000246746112
 30
0.0
 40
116.0
 50
173.4402199999999
 51
221.41016999999999
  0
LINE
  5
321D
  8
AM_0
 10
1006.043746038925
 20
389.16474246746111
 30
0.0
 11
1011.7248460389241
 21
421.3837674674611
 31
0.0
  0
ARC
  5
321E
  8
AM_0
 10
1029.117196038924
 20
443.00388746746069
 30
0.0
 40
10.0
 50
14.79527699999999
 51
162.30935999999991
  0
ARC
  5
321F
  8
AM_0
 10
1061.6903410389259
 20
396.46805746746111
 30
0.0
 40
3.0000000500000001
 50
330.0
 51
41.410173
  0
ARC
  5
3220
  8
AM_0
 10
1150.9395760389241
 20
475.18000246746112
 30
0.0
 40
78.0
 50
188.41387
 51
211.23272999999989
  0
ARC
  5
3221
  8
AM_0
 10
1078.659911038925
 20
445.86024246746081
 30
0.0
 40
12.99999899999999
 50
330.0
 51
22.079620999999999
  0
ARC
  5
3222
  8
AM_0
 10
1150.9395760389241
 20
475.18000246746112
 30
0.0
 40
65.0
 50
207.48782
 51
229.4185699999999
  0
LINE
  5
3223
  8
AM_0
 10
1048.975046038925
 20
535.10383246746073
 30
0.0
 11
1054.1687910389251
 21
538.39979246746111
 31
0.0
  0
ARC
  5
3224
  8
AM_0
 10
1051.1183960389251
 20
531.72645246746106
 30
0.0
 40
4.000000049999997
 50
122.39941
 51
162.30935999999991
  0
LINE
  5
3225
  8
ﾁｭｳｼﾝｾﾝ1
 10
1381.939581038926
 20
381.56000746746111
 30
0.0
 11
1381.939581038926
 21
323.56002246746101
 31
0.0
  0
ARC
  5
3226
  8
AM_0
 10
1201.9396060389261
 20
393.56000746746088
 30
0.0
 40
18.000000499999992
 50
185.69117999999989
 51
354.30880999999999
  0
LINE
  5
3227
  8
AM_0
 10
1336.939581038926
 20
353.56000746746111
 30
0.0
 11
1303.2472260389261
 21
411.91691246746109
 31
0.0
  0
LINE
  5
3228
  8
AM_0
 10
1348.775256038924
 20
379.06000746746088
 30
0.0
 11
1313.960926038925
 21
439.36021246746111
 31
0.0
  0
ARC
  5
3229
  8
AM_0
 10
1252.9395810389251
 20
475.18000246746112
 30
0.0
 40
116.0
 50
270.0
 51
304.3066
  0
ARC
  5
322A
  8
AM_0
 10
1252.9395810389251
 20
475.18000246746112
 30
0.0
 40
126.0
 50
270.0
 51
293.2009299999998
  0
LINE
  5
322B
  8
AM_0
 10
1150.9395760389241
 20
359.1800324674611
 30
0.0
 11
1252.9395810389251
 21
359.1800324674611
 31
0.0
  0
ARC
  5
322C
  8
AM_0
 10
1201.9396060389261
 20
349.1800324674611
 30
0.0
 40
17.000000499999992
 50
175.41143
 51
235.4396799999999
  0
LINE
  5
322D
  8
AM_0
 10
1150.9395760389241
 20
349.1800324674611
 30
0.0
 11
1178.2541510389251
 21
349.1800324674611
 31
0.0
  0
ARC
  5
322E
  8
AM_0
 10
1177.019716038925
 20
351.18000246746101
 30
0.0
 40
8.0
 50
355.41143
 51
90.000003000000007
  0
ARC
  5
322F
  8
AM_0
 10
1178.2541510389251
 20
341.18001746746103
 30
0.0
 40
8.0
 50
18.662925000000001
 51
90.000003000000007
  0
ARC
  5
3230
  8
AM_0
 10
1201.9396060389261
 20
349.1800324674611
 30
0.0
 40
17.000000499999992
 50
304.56031999999988
 51
4.5885658999999981
  0
LINE
  5
3231
  8
AM_0
 10
1192.295931038924
 20
335.18000246746112
 30
0.0
 11
1211.583226038925
 21
335.18000246746112
 31
0.0
  0
ARC
  5
3232
  8
AM_0
 10
1225.625001038926
 20
341.18001746746103
 30
0.0
 40
8.0
 50
90.000003000000007
 51
161.3370699999999
  0
ARC
  5
3233
  8
AM_0
 10
1226.859441038926
 20
351.18000246746101
 30
0.0
 40
8.0
 50
90.000003000000007
 51
184.58856999999981
  0
LINE
  5
3234
  8
AM_0
 10
1252.9395810389251
 20
349.1800324674611
 30
0.0
 11
1225.625001038926
 21
349.1800324674611
 31
0.0
  0
ARC
  5
3235
  8
AM_0
 10
1311.939581038926
 20
373.56000746746111
 30
0.0
 40
17.000000499999992
 50
219.37898999999999
 51
308.39666
  0
ARC
  5
3236
  8
AM_0
 10
1318.939581038926
 20
338.56002246746101
 30
0.0
 40
18.000000499999992
 50
0.0
 51
90.000003000000007
  0
ARC
  5
3237
  8
AM_0
 10
1320.010501038925
 20
376.88205746746092
 30
0.0
 40
3.0000000500000001
 50
30.00000099999999
 51
124.3066
  0
LINE
  5
3238
  8
AM_0
 10
1311.939581038926
 20
356.56000746746111
 30
0.0
 11
1318.939581038926
 21
356.56000746746111
 31
0.0
  0
ARC
  5
3239
  8
AM_0
 10
1292.6154210389259
 20
357.6988324674611
 30
0.0
 40
8.0
 50
39.378995000000003
 51
108.6608999999999
  0
LINE
  5
323A
  8
AM_0
 10
1336.939581038926
 20
333.56002246746101
 30
0.0
 11
1336.939581038926
 21
353.56000746746111
 31
0.0
  0
LINE
  5
323B
  8
ｶｸﾚｾﾝ2
 10
1369.939596038924
 20
371.56000746746111
 30
0.0
 11
1369.939596038924
 21
333.56002246746101
 31
0.0
  0
LINE
  5
323C
  8
AM_0
 10
1341.939581038926
 20
362.22025746746101
 30
0.0
 11
1341.939581038926
 21
333.56002246746101
 31
0.0
  0
ARC
  5
323D
  8
AM_0
 10
1361.7656460389251
 20
386.56000746746111
 30
0.0
 40
15.0
 50
210.0
 51
270.0
  0
LINE
  5
323E
  8
AM_0
 10
1336.939596038924
 20
353.56000746746111
 30
0.0
 11
1347.331901038925
 21
371.56000746746111
 31
0.0
  0
ARC
  5
323F
  8
AM_0
 10
1327.467136038925
 20
353.9667774674611
 30
0.0
 40
8.0
 50
30.00000099999999
 51
128.39667
  0
ARC
  5
3240
  8
AM_0
 10
1252.9395810389251
 20
475.18000246746112
 30
0.0
 40
65.0
 50
270.0
 51
297.80512999999991
  0
ARC
  5
3241
  8
AM_0
 10
1252.9395810389251
 20
475.18000246746112
 30
0.0
 40
78.0
 50
270.0
 51
306.84719000000001
  0
LINE
  5
3242
  8
AM_0
 10
1150.9395760389241
 20
410.18000246746078
 30
0.0
 11
1252.9395810389251
 21
410.18000246746078
 31
0.0
  0
LINE
  5
3243
  8
ﾁｭｳｼﾝｾﾝ1
 10
1178.939576038925
 20
393.56000746746088
 30
0.0
 11
1224.939576038925
 21
393.56000746746088
 31
0.0
  0
LINE
  5
3244
  8
AM_0
 10
1150.9395760389241
 20
397.18000246746089
 30
0.0
 11
1178.0578660389251
 21
397.18000246746089
 31
0.0
  0
ARC
  5
3245
  8
AM_0
 10
1178.0578660389251
 20
391.18000246746078
 30
0.0
 40
6.0
 50
5.6911850999999993
 51
90.000003000000007
  0
ARC
  5
3246
  8
AM_0
 10
1225.821291038925
 20
391.18000246746078
 30
0.0
 40
6.0
 50
90.000003000000007
 51
174.30882
  0
CIRCLE
  5
3247
  8
AM_0
 10
1201.9396060389261
 20
393.56000746746088
 30
0.0
 40
9.6974994999999993
  0
CIRCLE
  5
3248
  8
AM_0
 10
1201.9396060389261
 20
393.56000746746088
 30
0.0
 40
10.4974995
  0
POLYLINE
  5
3249
  8
AM_0
 66
     1
 10
0.0
 20
0.0
 30
0.0
  0
VERTEX
  5
324A
  8
AM_0
  6
CONTINUOUS
 10
1196.939606038924
 20
390.67325746746093
 30
0.0
  0
VERTEX
  5
324B
  8
AM_0
  6
CONTINUOUS
 10
1201.9396060389261
 20
387.78650746746092
 30
0.0
  0
VERTEX
  5
324C
  8
AM_0
  6
CONTINUOUS
 10
1206.939606038924
 20
390.67325746746093
 30
0.0
  0
VERTEX
  5
324D
  8
AM_0
  6
CONTINUOUS
 10
1206.939606038924
 20
396.44675746746111
 30
0.0
  0
VERTEX
  5
324E
  8
AM_0
  6
CONTINUOUS
 10
1201.9396060389261
 20
399.3335374674611
 30
0.0
  0
VERTEX
  5
324F
  8
AM_0
  6
CONTINUOUS
 10
1196.939606038924
 20
396.44675746746111
 30
0.0
  0
VERTEX
  5
3250
  8
AM_0
  6
CONTINUOUS
 10
1196.939606038924
 20
390.67325746746093
 30
0.0
  0
SEQEND
  5
3251
  8
AM_0
  0
LINE
  5
3252
  8
AM_0
 10
1252.9395810389251
 20
397.18000246746089
 30
0.0
 11
1225.821291038925
 21
397.18000246746089
 31
0.0
  0
ARC
  5
3253
  8
AM_0
 10
1252.9395810389251
 20
475.18000246746112
 30
0.0
 40
65.0
 50
337.92037999999991
 51
14.393765
  0
ARC
  5
3254
  8
AM_0
 10
1252.9395810389251
 20
475.18000246746112
 30
0.0
 40
116.0
 50
318.58983000000001
 51
6.559782799999998
  0
ARC
  5
3255
  8
AM_0
 10
1252.9395810389251
 20
475.18000246746112
 30
0.0
 40
78.0
 50
328.76727999999991
 51
351.58611999999982
  0
ARC
  5
3256
  8
AM_0
 10
1290.256871038926
 20
404.41688246746111
 30
0.0
 40
15.0
 50
30.00000099999999
 51
117.8051399999998
  0
ARC
  5
3257
  8
AM_0
 10
1325.219241038925
 20
445.86024246746081
 30
0.0
 40
12.99999899999999
 50
157.92037999999991
 51
210.0
  0
ARC
  5
3258
  8
AM_0
 10
1252.9395810389251
 20
475.18000246746112
 30
0.0
 40
65.0
 50
310.5814299999999
 51
332.51218999999992
  0
ARC
  5
3259
  8
AM_0
 10
1342.188831038924
 20
396.46805746746111
 30
0.0
 40
3.0000000500000001
 50
138.5898199999998
 51
210.0
  0
ARC
  5
325A
  8
AM_0
 10
1374.7619810389249
 20
443.00388746746069
 30
0.0
 40
10.0
 50
17.690640999999999
 51
165.20472000000001
  0
LINE
  5
325B
  8
AM_0
 10
1354.904041038925
 20
535.10380246746081
 30
0.0
 11
1349.710316038924
 21
538.39976246746119
 31
0.0
  0
ARC
  5
325C
  8
AM_0
 10
1352.760791038924
 20
531.72645246746106
 30
0.0
 40
4.000000049999997
 50
17.690640999999999
 51
57.600597
  0
LINE
  5
325D
  8
ｶｸﾚｾﾝ2
 10
1393.939581038926
 20
371.56000746746111
 30
0.0
 11
1393.939581038926
 21
333.56002246746101
 31
0.0
  0
LINE
  5
325E
  8
AM_0
 10
1426.939591038926
 20
371.56000746746111
 30
0.0
 11
1426.939591038926
 21
333.56002246746101
 31
0.0
  0
LINE
  5
325F
  8
AM_0
 10
1397.8354110389239
 20
389.16474246746111
 30
0.0
 11
1392.154316038924
 21
421.38380246746078
 31
0.0
  0
ARC
  5
3260
  8
AM_0
 10
1133.939576038925
 20
741.56002246746095
 30
0.0
 40
17.000000499999992
 50
36.014659000000002
 51
196.44922
  0
LINE
  5
3261
  8
ﾁｭｳｼﾝｾﾝ
 10
1035.9227960389251
 20
613.56002246746095
 30
0.0
 11
1367.956366038924
 21
613.56002246746095
 31
0.0
  0
ARC
  5
3262
  8
AM_0
 10
1201.9396060389261
 20
603.56002246746095
 30
0.0
 40
152.0
 50
109.89673999999999
 51
122.5671399999999
  0
ARC
  5
3263
  8
AM_0
 10
1109.9628310389251
 20
734.48087246746093
 30
0.0
 40
8.0
 50
305.08947000000001
 51
16.44922
  0
ARC
  5
3264
  8
AM_0
 10
1201.9396060389261
 20
603.56002246746095
 30
0.0
 40
161.0
 50
123.30124000000001
 51
159.75120000000001
  0
ARC
  5
3265
  8
AM_0
 10
1201.9396060389261
 20
603.56002246746095
 30
0.0
 40
152.0
 50
125.08946
 51
157.99683999999999
  0
ARC
  5
3266
  8
AM_0
 10
1051.939606038924
 20
638.56002246746095
 30
0.0
 40
17.000000499999992
 50
86.206794999999985
 51
247.52514999999991
  0
ARC
  5
3267
  8
AM_0
 10
1201.9396060389261
 20
603.56002246746095
 30
0.0
 40
152.0
 50
160.54256000000001
 51
173.18940000000001
  0
LINE
  5
3268
  8
AM_0
 10
1050.360496038925
 20
614.86387246746096
 30
0.0
 11
1047.7488960389251
 21
593.56002246746095
 31
0.0
  0
ARC
  5
3269
  8
AM_0
 10
1042.382646038925
 20
615.45882246746112
 30
0.0
 40
8.0
 50
355.73511000000002
 51
67.525156000000024
  0
ARC
  5
326A
  8
AM_0
 10
1033.8497460389251
 20
621.30437246746112
 30
0.0
 40
8.0
 50
353.01103000000001
 51
43.647920999999982
  0
ARC
  5
326B
  8
AM_0
 10
1053.5934460389251
 20
663.50522246746095
 30
0.0
 40
8.0
 50
266.20679999999999
 51
337.99683999999991
  0
ARC
  5
326C
  8
AM_0
 10
1043.384046038924
 20
662.05052246746106
 30
0.0
 40
8.0
 50
290.01231999999987
 51
339.75119999999993
  0
ARC
  5
326D
  8
AM_0
 10
1109.151676038925
 20
744.8094224674611
 30
0.0
 40
8.0
 50
303.30124000000001
 51
352.53172999999992
  0
ARC
  5
326E
  8
AM_0
 10
1293.916356038925
 20
734.48087246746093
 30
0.0
 40
8.0
 50
163.55078
 51
234.91052999999999
  0
ARC
  5
326F
  8
AM_0
 10
1201.9396060389261
 20
603.56002246746095
 30
0.0
 40
152.0
 50
22.003158999999989
 51
54.91053100000002
  0
ARC
  5
3270
  8
AM_0
 10
1201.9396060389261
 20
603.56002246746095
 30
0.0
 40
161.0
 50
20.248804
 51
56.69875600000001
  0
ARC
  5
3271
  8
AM_0
 10
1201.9396060389261
 20
613.56002246746095
 30
0.0
 40
80.0
 50
14.393765
 51
165.60623000000001
  0
LINE
  5
3272
  8
AM_0
 10
1211.939611038925
 20
641.06002246746095
 30
0.0
 11
1211.939611038925
 21
653.06002246746107
 31
0.0
  0
LINE
  5
3273
  8
AM_0
 10
1191.9396060389261
 20
653.06002246746107
 30
0.0
 11
1191.9396060389261
 21
641.06002246746095
 31
0.0
  0
ARC
  5
3274
  8
AM_0
 10
1201.9396060389261
 20
613.56002246746095
 30
0.0
 40
35.000000499999992
 50
106.60155
 51
73.398452000000006
  0
CIRCLE
  5
3275
  8
AM_0
 10
1201.9396060389261
 20
613.56002246746095
 30
0.0
 40
5.0
  0
CIRCLE
  5
3276
  8
AM_5
 10
1201.9396060389261
 20
613.56002246746095
 30
0.0
 40
6.0
  0
LINE
  5
3277
  8
AM_0
 10
1191.9396060389261
 20
641.06002246746095
 30
0.0
 11
1211.939611038925
 21
641.06002246746095
 31
0.0
  0
LINE
  5
3278
  8
AM_0
 10
1211.939611038925
 20
653.06002246746107
 30
0.0
 11
1191.9396060389261
 21
653.06002246746107
 31
0.0
  0
ARC
  5
3279
  8
AM_0
 10
1201.9396060389261
 20
603.56002246746095
 30
0.0
 40
152.0
 50
6.8105959
 51
19.457447999999989
  0
ARC
  5
327A
  8
AM_0
 10
1351.939581038926
 20
638.56002246746095
 30
0.0
 40
17.000000499999992
 50
292.47483999999997
 51
93.793203000000005
  0
LINE
  5
327B
  8
AM_0
 10
1353.518681038925
 20
614.86392246746095
 30
0.0
 11
1356.130301038924
 21
593.56002246746095
 31
0.0
  0
ARC
  5
327C
  8
AM_0
 10
1361.496526038926
 20
615.45882246746112
 30
0.0
 40
8.0
 50
112.4748399999998
 51
184.26488000000001
  0
ARC
  5
327D
  8
AM_0
 10
1370.029441038924
 20
621.30437246746112
 30
0.0
 40
8.0
 50
136.35208
 51
186.98896999999991
  0
ARC
  5
327E
  8
AM_0
 10
1360.4951360389259
 20
662.05052246746106
 30
0.0
 40
8.0
 50
200.24879999999999
 51
249.98768000000001
  0
ARC
  5
327F
  8
AM_0
 10
1350.285696038924
 20
663.50522246746095
 30
0.0
 40
8.0
 50
202.00315999999981
 51
273.79320000000001
  0
ARC
  5
3280
  8
AM_0
 10
1201.9396060389261
 20
603.56002246746095
 30
0.0
 40
161.0
 50
70.837367
 51
82.759509999999963
  0
ARC
  5
3281
  8
AM_0
 10
1249.717931038924
 20
756.25982246746094
 30
0.0
 40
8.0
 50
252.6255899999999
 51
323.98534000000001
  0
ARC
  5
3282
  8
AM_0
 10
1201.9396060389261
 20
818.30997246746097
 30
0.0
 40
6.25
 50
0.0
 51
180.00001
  0
LINE
  5
3283
  8
AM_0
 10
1195.689606038924
 20
818.30997246746097
 30
0.0
 11
1195.689606038924
 21
770.55997246746108
 31
0.0
  0
LINE
  5
3284
  8
AM_0
 10
1208.189611038925
 20
818.30997246746097
 30
0.0
 11
1208.189611038925
 21
770.55997246746108
 31
0.0
  0
LINE
  5
3285
  8
AM_0
 10
1221.939611038925
 20
764.55997246746063
 30
0.0
 11
1181.9396060389261
 21
764.55997246746063
 31
0.0
  0
ARC
  5
3286
  8
AM_0
 10
1201.9396060389261
 20
603.56002246746095
 30
0.0
 40
152.0
 50
72.625585999999998
 51
107.37441
  0
ARC
  5
3287
  8
AM_0
 10
1201.9396060389261
 20
603.56002246746095
 30
0.0
 40
161.0
 50
97.240494999999996
 51
109.1626399999999
  0
ARC
  5
3288
  8
AM_0
 10
1154.161226038925
 20
756.25982246746094
 30
0.0
 40
8.0
 50
216.0146499999999
 51
287.37441000000001
  0
ARC
  5
3289
  8
AM_0
 10
1146.465211038925
 20
763.19582246746108
 30
0.0
 40
8.0
 50
239.93214999999981
 51
289.16262999999998
  0
ARC
  5
328A
  8
AM_0
 10
1177.043766038925
 20
756.54757246746112
 30
0.0
 40
3.0000000500000001
 50
279.24277999999998
 51
347.20632999999981
  0
LINE
  5
328B
  8
AM_0
 10
1181.939576038925
 20
764.56002246746095
 30
0.0
 11
1179.969271038924
 21
755.88327246746087
 31
0.0
  0
LINE
  5
328C
  8
AM_0
 10
1188.165561038925
 20
772.30062246746093
 30
0.0
 11
1186.939576038925
 21
764.55997246746063
 31
0.0
  0
LINE
  5
328D
  8
AM_0
 10
1216.9395760389241
 20
764.56002246746095
 30
0.0
 11
1215.713566038924
 21
772.30062246746093
 31
0.0
  0
ARC
  5
328E
  8
AM_0
 10
1190.689606038924
 20
770.55997246746108
 30
0.0
 40
5.0
 50
302.97255999999987
 51
0.0
  0
ARC
  5
328F
  8
AM_0
 10
1213.189611038925
 20
770.55997246746108
 30
0.0
 40
5.0
 50
179.99998999999991
 51
237.02744999999999
  0
LINE
  5
3290
  8
AM_0
 10
1221.939611038925
 20
764.55997246746063
 30
0.0
 11
1223.909886038924
 21
755.88322246746111
 31
0.0
  0
ARC
  5
3291
  8
AM_0
 10
1226.8354210389241
 20
756.54757246746112
 30
0.0
 40
3.0000000500000001
 50
192.7936599999999
 51
260.75722000000002
  0
ARC
  5
3292
  8
AM_0
 10
1192.963656038924
 20
771.08367246746093
 30
0.0
 40
4.949999899999999
 50
101.68763
 51
165.76742999999999
  0
LINE
  5
3293
  8
AM_0
 10
1195.6895760389241
 20
776.35287246746077
 30
0.0
 11
1191.960881038925
 21
775.93102246746093
 31
0.0
  0
ARC
  5
3294
  8
AM_0
 10
1210.9155310389251
 20
771.08367246746093
 30
0.0
 40
4.949999899999999
 50
14.23256799999999
 51
78.312367000000023
  0
LINE
  5
3295
  8
AM_0
 10
1211.918276038924
 20
775.93102246746093
 30
0.0
 11
1208.189546038926
 21
776.35287246746077
 31
0.0
  0
ARC
  5
3296
  8
AM_0
 10
1294.7275110389251
 20
744.8094224674611
 30
0.0
 40
8.0
 50
187.4682699999999
 51
236.69875999999999
  0
ARC
  5
3297
  8
AM_0
 10
1269.9395810389251
 20
741.56002246746095
 30
0.0
 40
17.000000499999992
 50
343.55077999999992
 51
143.98535000000001
  0
ARC
  5
3298
  8
AM_0
 10
1201.9396060389261
 20
603.56002246746095
 30
0.0
 40
152.0
 50
57.432860999999988
 51
70.103257999999997
  0
ARC
  5
3299
  8
AM_0
 10
1257.413946038924
 20
763.19582246746108
 30
0.0
 40
8.0
 50
250.83735999999999
 51
300.06785000000002
  0
LINE
  5
329A
  8
AM_0
 10
251.59400649148171
 20
1163.273860735716
 30
0.0
 11
296.59400649148182
 21
1163.273860735716
 31
0.0
  0
LINE
  5
329B
  8
AM_0
 10
251.59400649148171
 20
1173.273860735716
 30
0.0
 11
296.59400649148182
 21
1173.273860735716
 31
0.0
  0
LINE
  5
329C
  8
AM_0
 10
251.59400649148171
 20
1185.773865735717
 30
0.0
 11
309.59400649148182
 21
1185.773865735717
 31
0.0
  0
LINE
  5
329D
  8
AM_0
 10
309.59400649148182
 20
1150.7738657357149
 30
0.0
 11
251.59400649148171
 21
1150.7738657357149
 31
0.0
  0
LINE
  5
329E
  8
AM_0
 10
251.59400649148171
 20
1150.7738657357149
 30
0.0
 11
251.59400649148171
 21
1185.773865735717
 31
0.0
  0
LINE
  5
329F
  8
AM_0
 10
416.09400649148159
 20
1068.191834735715
 30
0.0
 11
416.09400649148159
 21
1048.2738657357149
 31
0.0
  0
LINE
  5
32A0
  8
AM_0
 10
396.62954049148181
 20
1057.738331735716
 30
0.0
 11
347.4572104914817
 21
1106.9106627357171
 31
0.0
  0
LINE
  5
32A1
  8
AM_0
 10
398.09400649148171
 20
1068.191845735716
 30
0.0
 11
398.09400649148171
 21
1051.273865735717
 31
0.0
  0
LINE
  5
32A2
  8
AM_0
 10
401.09400649148182
 20
1048.273865735717
 30
0.0
 11
416.09400649148159
 21
1048.273865735717
 31
0.0
  0
ARC
  5
32A3
  8
AM_0
 10
393.09400649148171
 20
1054.202798735716
 30
0.0
 40
5.0
 50
0.0
 51
45.0
  0
ARC
  5
32A4
  8
AM_0
 10
401.09400649148182
 20
1051.273865735717
 30
0.0
 40
3.0
 50
180.0
 51
270.0
  0
LINE
  5
32A5
  8
AM_0
 10
418.09400649148182
 20
1050.273865735717
 30
0.0
 11
416.09400649148159
 21
1048.273865735717
 31
0.0
  0
LINE
  5
32A6
  8
AM_0
 10
398.09400649148171
 20
1098.5570187357171
 30
0.0
 11
398.09400649148171
 21
1237.990702735716
 31
0.0
  0
LINE
  5
32A7
  8
AM_0
 10
416.09400649148159
 20
1237.990702735716
 30
0.0
 11
416.09400649148159
 21
1098.5570187357171
 31
0.0
  0
LINE
  5
32A8
  8
AM_0
 10
344.6003134914817
 20
1224.441676735717
 30
0.0
 11
344.6003134914817
 21
1168.273865735717
 31
0.0
  0
LINE
  5
32A9
  8
AM_0
 10
315.59400649148188
 20
1168.273865735717
 30
0.0
 11
315.59400649148188
 21
1223.325774735717
 31
0.0
  0
LINE
  5
32AA
  8
AM_0
 10
394.13860549148171
 20
1083.748183735717
 30
0.0
 11
418.09400649148182
 21
1083.748183735717
 31
0.0
  0
LINE
  5
32AB
  8
AM_0
 10
416.91379149148167
 20
1098.5570187357171
 30
0.0
 11
391.13203749148158
 21
1098.5570187357171
 31
0.0
  0
ARC
  5
32AC
  8
AM_0
 10
394.20400449148178
 20
1071.191834735715
 30
0.0
 40
3.0
 50
184.99999999999969
 51
270.0
  0
LINE
  5
32AD
  8
AM_0
 10
313.59400649148188
 20
1168.273865735717
 30
0.0
 11
313.59400649148188
 21
1133.273865735717
 31
0.0
  0
LINE
  5
32AE
  8
AM_0
 10
315.59400649148188
 20
1168.273865735717
 30
0.0
 11
315.59400649148188
 21
1113.2219577357171
 31
0.0
  0
LINE
  5
32AF
  8
AM_0
 10
344.6003134914817
 20
1112.1060557357159
 30
0.0
 11
344.6003134914817
 21
1168.273865735717
 31
0.0
  0
LINE
  5
32B0
  8
AM_0
 10
318.54164949148168
 20
1110.222414735716
 30
0.0
 11
340.5606664914817
 21
1109.838071735717
 31
0.0
  0
ARC
  5
32B1
  8
AM_0
 10
318.59400649148182
 20
1113.2219577357171
 30
0.0
 40
3.0
 50
180.0
 51
268.99999999999812
  0
LINE
  5
32B2
  8
AM_0
 10
313.59400649148188
 20
1133.273865735717
 30
0.0
 11
315.59400649148188
 21
1131.273865735717
 31
0.0
  0
LINE
  5
32B3
  8
AM_0
 10
390.09400649148171
 20
1083.748183735717
 30
0.0
 11
391.21541949148173
 21
1070.9303677357159
 31
0.0
  0
LINE
  5
32B4
  8
AM_0
 10
390.09400649148171
 20
1098.5570187357171
 30
0.0
 11
391.15002049148171
 21
1086.486716735717
 31
0.0
  0
ARC
  5
32B5
  8
AM_0
 10
394.13860549148171
 20
1086.7481837357161
 30
0.0
 40
3.0
 50
184.99999999999969
 51
270.0
  0
ARC
  5
32B6
  8
AM_0
 10
340.38614249148162
 20
1099.839594735716
 30
0.0
 40
10.0
 50
45.0
 51
89.000000000001506
  0
ARC
  5
32B7
  8
AM_0
 10
296.59400649148182
 20
1168.2738607357171
 30
0.0
 40
5.0
 50
270.0
 51
90.0
  0
LINE
  5
32B8
  8
AM_0
 10
296.59400649148182
 20
1173.273860735716
 30
0.0
 11
296.59400649148182
 21
1163.273860735716
 31
0.0
  0
LINE
  5
32B9
  8
AM_0
 10
313.59400649148188
 20
1168.273865735717
 30
0.0
 11
313.59400649148188
 21
1203.273865735717
 31
0.0
  0
LINE
  5
32BA
  8
AM_0
 10
309.59400649148182
 20
1188.273865735717
 30
0.0
 11
309.59400649148182
 21
1148.273865735717
 31
0.0
  0
LINE
  5
32BB
  8
AM_0
 10
309.59400649148182
 20
1148.273865735717
 30
0.0
 11
313.59400649148188
 21
1148.273865735717
 31
0.0
  0
LINE
  5
32BC
  8
AM_0
 10
309.59400649148182
 20
1188.273865735717
 30
0.0
 11
313.59400649148188
 21
1188.273865735717
 31
0.0
  0
LINE
  5
32BD
  8
AM_0
 10
313.59400649148188
 20
1203.273865735717
 30
0.0
 11
315.59400649148188
 21
1205.2738657357161
 31
0.0
  0
LINE
  5
32BE
  8
AM_0
 10
394.1917424914817
 20
1071.108567735715
 30
0.0
 11
394.14852649148168
 21
1081.388177735716
 31
0.0
  0
LINE
  5
32BF
  8
AM_0
 10
394.20400449148178
 20
1068.191834735715
 30
0.0
 11
418.09400649148182
 21
1068.191834735715
 31
0.0
  0
LINE
  5
32C0
  8
AM_0
 10
416.09400649148159
 20
1151.6990647922501
 30
0.0
 11
398.09400649148171
 21
1151.6990647922501
 31
0.0
  0
LINE
  5
32C1
  8
AM_0
 10
398.09400649148171
 20
1153.2738607357171
 30
0.0
 11
416.09400649148159
 21
1153.273860735716
 31
0.0
  0
LINE
  5
32C2
  8
AM_0
 10
416.09400649148159
 20
1184.848656679183
 30
0.0
 11
398.09400649148171
 21
1184.848656679183
 31
0.0
  0
LINE
  5
32C3
  8
AM_0
 10
398.09400649148171
 20
1183.273860735716
 30
0.0
 11
416.09400649148159
 21
1183.273860735716
 31
0.0
  0
ARC
  5
32C4
  8
AM_0
 10
394.20400449148178
 20
1265.355886735716
 30
0.0
 40
3.0
 50
90.0
 51
175.00000000000011
  0
LINE
  5
32C5
  8
AM_0
 10
416.91379149148167
 20
1237.990702735716
 30
0.0
 11
391.13203749148158
 21
1237.990702735716
 31
0.0
  0
LINE
  5
32C6
  8
AM_0
 10
394.13860549148171
 20
1252.799537735717
 30
0.0
 11
418.09400649148182
 21
1252.799537735717
 31
0.0
  0
LINE
  5
32C7
  8
AM_0
 10
396.62954049148181
 20
1278.8093997357171
 30
0.0
 11
347.4572104914817
 21
1229.637069735717
 31
0.0
  0
LINE
  5
32C8
  8
AM_0
 10
318.54164949148168
 20
1226.325317735716
 30
0.0
 11
340.5606664914817
 21
1226.7096607357171
 31
0.0
  0
ARC
  5
32C9
  8
AM_0
 10
318.59400649148182
 20
1223.325774735717
 30
0.0
 40
3.0
 50
90.999999999998494
 51
180.0
  0
LINE
  5
32CA
  8
AM_0
 10
390.09400649148171
 20
1237.990702735716
 30
0.0
 11
391.15002049148171
 21
1250.061004735717
 31
0.0
  0
ARC
  5
32CB
  8
AM_0
 10
340.38614249148162
 20
1236.708137735716
 30
0.0
 40
10.0
 50
270.99999999999841
 51
315.0
  0
LINE
  5
32CC
  8
AM_0
 10
390.09400649148171
 20
1252.799537735717
 30
0.0
 11
391.21541949148173
 21
1265.6173537357161
 31
0.0
  0
ARC
  5
32CD
  8
AM_0
 10
394.13860549148171
 20
1249.799537735717
 30
0.0
 40
3.0
 50
90.0
 51
175.00000000000011
  0
LINE
  5
32CE
  8
AM_0
 10
416.09400649148159
 20
1268.355886735716
 30
0.0
 11
416.09400649148159
 21
1288.273855735717
 31
0.0
  0
ARC
  5
32CF
  8
AM_0
 10
393.09400649148171
 20
1282.3449227357171
 30
0.0
 40
5.0
 50
315.0
 51
0.0
  0
LINE
  5
32D0
  8
AM_0
 10
398.09400649148171
 20
1285.273855735717
 30
0.0
 11
398.09400649148171
 21
1268.355886735716
 31
0.0
  0
LINE
  5
32D1
  8
AM_0
 10
394.1917424914817
 20
1265.439153735716
 30
0.0
 11
394.14852649148168
 21
1255.159543735715
 31
0.0
  0
LINE
  5
32D2
  8
AM_0
 10
394.20400449148178
 20
1268.355886735716
 30
0.0
 11
418.09400649148182
 21
1268.355886735716
 31
0.0
  0
LINE
  5
32D3
  8
AM_0
 10
401.09400649148182
 20
1288.273855735717
 30
0.0
 11
416.09400649148159
 21
1288.273855735717
 31
0.0
  0
ARC
  5
32D4
  8
AM_0
 10
401.09400649148182
 20
1285.273855735717
 30
0.0
 40
3.0
 50
90.0
 51
180.0
  0
LINE
  5
32D5
  8
AM_0
 10
418.09400649148182
 20
1286.273855735717
 30
0.0
 11
416.09400649148159
 21
1288.273855735717
 31
0.0
  0
LINE
  5
32D7
  8
AM_0
 10
729.59401649148174
 20
1203.273860735716
 30
0.0
 11
839.59401649148174
 21
1203.273860735716
 31
0.0
  0
LINE
  5
32D8
  8
AM_0
 10
839.59401649148174
 20
1133.2738607357171
 30
0.0
 11
729.59401649148174
 21
1133.2738607357171
 31
0.0
  0
LINE
  5
32D9
  8
AM_0
 10
839.59401649148174
 20
1178.2738607357171
 30
0.0
 11
754.59401649148174
 21
1178.2738607357171
 31
0.0
  0
LINE
  5
32DA
  8
AM_0
 10
754.59401649148174
 20
1158.2738607357171
 30
0.0
 11
839.59401649148174
 21
1158.2738607357171
 31
0.0
  0
LINE
  5
32DB
  8
ﾁｭｳｼﾝｾﾝ
 10
844.30129649148171
 20
1168.2738607357171
 30
0.0
 11
246.06832791498439
 21
1168.2738607357171
 31
0.0
  0
ARC
  5
32DC
  8
AM_0
 10
520.59400649148165
 20
1168.2738607357171
 30
0.0
 40
20.0
 50
198.2099599999984
 51
341.79004000000128
  0
ARC
  5
32DD
  8
AM_0
 10
572.59401649148174
 20
1168.2738607357171
 30
0.0
 40
20.0
 50
270.0
 51
90.00000299999769
  0
ARC
  5
32DE
  8
AM_0
 10
520.59400649148165
 20
1168.2738607357171
 30
0.0
 40
15.0
 50
204.6243199999974
 51
335.37568000000249
  0
LINE
  5
32DF
  8
AM_0
 10
476.09400649148182
 20
1285.027960735717
 30
0.0
 11
476.09400649148182
 21
1054.0884307357171
 31
0.0
  0
LINE
  5
32E0
  8
AM_0
 10
418.09400649148182
 20
1051.2738607357171
 30
0.0
 11
418.09400649148182
 21
1168.2738607357171
 31
0.0
  0
LINE
  5
32E1
  8
AM_0
 10
431.09400649148171
 20
1051.2738607357171
 30
0.0
 11
431.09400649148171
 21
1168.2738607357171
 31
0.0
  0
LINE
  5
32E2
  8
AM_0
 10
722.59401649148174
 20
1168.2738607357171
 30
0.0
 11
722.59401649148174
 21
1108.2738607357151
 31
0.0
  0
LINE
  5
32E3
  8
AM_0
 10
697.59401649148197
 20
1168.2738607357171
 30
0.0
 11
697.59401649148197
 21
1052.5798907357159
 31
0.0
  0
LINE
  5
32E4
  8
AM_0
 10
718.59401649148197
 20
1168.2738607357171
 30
0.0
 11
718.59401649148197
 21
1028.427730735717
 31
0.0
  0
LINE
  5
32E5
  8
AM_0
 10
672.59401649148174
 20
1032.2075107357159
 30
0.0
 11
672.59401649148174
 21
1168.2738607357171
 31
0.0
  0
LINE
  5
32E6
  8
AM_0
 10
542.59401649148174
 20
1001.273860735717
 30
0.0
 11
542.59401649148174
 21
1162.023860735716
 31
0.0
  0
LINE
  5
32E7
  8
AM_0
 10
729.59401649148174
 20
1205.7738607357171
 30
0.0
 11
729.59401649148174
 21
1130.773860735716
 31
0.0
  0
LINE
  5
32E8
  8
AM_0
 10
476.09400649148182
 20
1293.2738607357171
 30
0.0
 11
476.09400649148182
 21
1043.2738607357171
 31
0.0
  0
LINE
  5
32E9
  8
AM_0
 10
529.59400649148165
 20
1001.273860735717
 30
0.0
 11
597.59401649148174
 21
1001.273860735717
 31
0.0
  0
LINE
  5
32EA
  8
AM_0
 10
569.31441649148178
 20
1021.691100735717
 30
0.0
 11
612.73720649148174
 21
1023.8018707357151
 31
0.0
  0
LINE
  5
32EB
  8
AM_0
 10
526.59400649148176
 20
1083.2738607357171
 30
0.0
 11
596.60237649148155
 21
1083.2738607357171
 31
0.0
  0
LINE
  5
32EC
  8
AM_0
 10
596.56954649148167
 20
1117.982860735716
 30
0.0
 11
567.59401649148174
 21
1117.982860735716
 31
0.0
  0
LINE
  5
32ED
  8
AM_0
 10
426.59400649148182
 20
943.27386073571643
 30
0.0
 11
718.59401649148197
 21
943.27386073571643
 31
0.0
  0
ARC
  5
32EE
  8
AM_0
 10
542.59407649148181
 20
964.8893407357167
 30
0.0
 40
10.0
 50
279.99999999999739
 51
0.0
  0
LINE
  5
32EF
  8
AM_0
 10
478.45570649148169
 20
943.42578073571656
 30
0.0
 11
544.33052649148181
 21
955.04125073571674
 31
0.0
  0
LINE
  5
32F0
  8
AM_0
 10
422.59400649148171
 20
1024.4141807357159
 30
0.0
 11
422.59400649148171
 21
947.27386073571654
 31
0.0
  0
ARC
  5
32F1
  8
AM_0
 10
476.7193064914818
 20
953.27386073571631
 30
0.0
 40
10.0
 50
270.0
 51
279.99999999999739
  0
ARC
  5
32F2
  8
AM_0
 10
426.59400649148182
 20
947.27386073571654
 30
0.0
 40
4.0
 50
179.9999899999988
 51
270.0
  0
ARC
  5
32F3
  8
AM_0
 10
487.5941064914818
 20
970.4227907357166
 30
0.0
 40
10.0
 50
179.9999899999988
 51
279.99999999999739
  0
ARC
  5
32F4
  8
AM_0
 10
486.09400649148159
 20
1043.2738607357171
 30
0.0
 40
10.0
 50
179.9999899999988
 51
270.0
  0
LINE
  5
32F5
  8
AM_0
 10
525.56560649148173
 20
1031.9514107357149
 30
0.0
 11
426.4512064914818
 21
1028.411620735717
 31
0.0
  0
LINE
  5
32F6
  8
AM_0
 10
419.09400649148159
 20
1050.273860735716
 30
0.0
 11
430.09400649148182
 21
1050.273860735716
 31
0.0
  0
LINE
  5
32F7
  8
AM_0
 10
418.09400649148182
 20
1051.273920735716
 30
0.0
 11
419.09400649148159
 21
1050.273920735716
 31
0.0
  0
CIRCLE
  5
32F8
  8
AM_0
 10
457.59400649148159
 20
988.27386073571654
 30
0.0
 40
12.0
  0
LINE
  5
32F9
  8
AM_0
 10
431.60280649148149
 20
1052.265010735716
 30
0.0
 11
472.16380649148169
 21
1051.557000735716
 31
0.0
  0
ARC
  5
32FA
  8
AM_0
 10
426.59400649148182
 20
1024.4141807357159
 30
0.0
 40
4.0
 50
92.045405000001679
 51
180.00001000000091
  0
ARC
  5
32FB
  8
AM_0
 10
431.59400649148159
 20
1051.765070735717
 30
0.0
 40
0.5
 50
89.000001000002214
 51
180.00001000000091
  0
ARC
  5
32FC
  8
AM_0
 10
430.09400649148182
 20
1051.2738607357171
 30
0.0
 40
1.0
 50
270.0
 51
0.0
  0
ARC
  5
32FD
  8
AM_0
 10
472.09400649148182
 20
1047.557610735716
 30
0.0
 40
4.0
 50
0.0
 51
89.000001000002214
  0
LINE
  5
32FE
  8
AM_0
 10
419.07290649148172
 20
1093.836910735715
 30
0.0
 11
430.10180649148163
 21
1093.836910735715
 31
0.0
  0
LINE
  5
32FF
  8
AM_0
 10
418.09400649148182
 20
1084.103020735716
 30
0.0
 11
429.09400649148171
 21
1084.103020735716
 31
0.0
  0
LINE
  5
3300
  8
AM_0
 10
418.09400649148182
 20
1068.5466907357149
 30
0.0
 11
429.09400649148171
 21
1068.5466907357149
 31
0.0
  0
LINE
  5
3301
  8
AM_0
 10
431.09400649148171
 20
1096.441460735716
 30
0.0
 11
476.09400649148182
 21
1096.441460735716
 31
0.0
  0
LINE
  5
3302
  8
AM_0
 10
431.09400649148171
 20
1077.190910735716
 30
0.0
 11
476.09400649148182
 21
1077.190910735716
 31
0.0
  0
ARC
  5
3303
  8
AM_0
 10
429.09400649148171
 20
1070.5466907357149
 30
0.0
 40
2.0
 50
270.0
 51
0.0
  0
ARC
  5
3304
  8
AM_0
 10
429.09400649148171
 20
1086.103020735716
 30
0.0
 40
2.0
 50
270.0
 51
0.0
  0
LINE
  5
3305
  8
AM_0
 10
567.59401649148174
 20
1021.607480735716
 30
0.0
 11
567.59401649148174
 21
1083.2738607357171
 31
0.0
  0
LINE
  5
3306
  8
AM_0
 10
526.59400649148176
 20
1140.345360735716
 30
0.0
 11
526.59400649148176
 21
1004.273860735716
 31
0.0
  0
LINE
  5
3307
  8
AM_0
 10
489.33060649148172
 20
960.57470073571676
 30
0.0
 11
544.33052649148181
 21
970.27264073571655
 31
0.0
  0
LINE
  5
3308
  8
AM_0
 10
529.59400649148165
 20
1015.843130735716
 30
0.0
 11
562.77340649148175
 21
1015.843130735716
 31
0.0
  0
ARC
  5
3309
  8
AM_0
 10
529.59400649148165
 20
1004.273860735716
 30
0.0
 40
3.0
 50
179.9999899999988
 51
270.0
  0
LINE
  5
330A
  8
AM_0
 10
486.09400649148159
 20
1033.2738607357171
 30
0.0
 11
522.59400649148165
 21
1033.2738607357171
 31
0.0
  0
ARC
  5
330B
  8
AM_0
 10
522.59400649148165
 20
1029.2738607357171
 30
0.0
 40
4.0
 50
0.0
 51
90.00000299999769
  0
ARC
  5
330C
  8
AM_0
 10
529.59400649148165
 20
1018.843130735715
 30
0.0
 40
3.0
 50
179.9999899999988
 51
270.0
  0
ARC
  5
330D
  8
AM_0
 10
542.59407649148181
 20
980.12078073571672
 30
0.0
 40
10.0
 50
279.99999999999739
 51
0.0
  0
LINE
  5
330E
  8
AM_0
 10
552.59407649148181
 20
964.8893407357167
 30
0.0
 11
552.59407649148181
 21
1001.273860735717
 31
0.0
  0
ARC
  5
330F
  8
AM_0
 10
562.77340649148175
 20
1018.843130735715
 30
0.0
 40
3.0
 50
270.0
 51
332.50571000000349
  0
ARC
  5
3310
  8
AM_0
 10
569.46004649148176
 20
1018.694640735715
 30
0.0
 40
3.0
 50
92.782929000000266
 51
152.5057100000034
  0
LINE
  5
3311
  8
AM_0
 10
565.43453649148182
 20
1017.458190735716
 30
0.0
 11
566.79885649148162
 21
1020.0796507357149
 31
0.0
  0
LINE
  5
3312
  8
AM_0
 10
564.59401649148174
 20
1111.585990735716
 30
0.0
 11
526.59400649148176
 21
1111.585990735716
 31
0.0
  0
ARC
  5
3313
  8
AM_0
 10
518.59400649148165
 20
1140.345360735716
 30
0.0
 40
8.0
 50
0.0
 51
85.903958999999659
  0
LINE
  5
3314
  8
AM_0
 10
542.59401649148174
 20
1148.2738607357151
 30
0.0
 11
572.59401649148174
 21
1148.2738607357151
 31
0.0
  0
LINE
  5
3315
  8
AM_0
 10
567.59401649148174
 20
1117.982860735716
 30
0.0
 11
567.59401649148174
 21
1148.2738607357151
 31
0.0
  0
LINE
  5
3316
  8
AM_0
 10
567.59401649148174
 20
1117.982860735716
 30
0.0
 11
564.59401649148174
 21
1111.585990735716
 31
0.0
  0
LINE
  5
3317
  8
AM_0
 10
643.42525649148183
 20
1014.443960735715
 30
0.0
 11
652.93850649148158
 21
951.7730707357166
 31
0.0
  0
LINE
  5
3318
  8
AM_0
 10
722.59401649148174
 20
947.27386073571654
 30
0.0
 11
722.59401649148174
 21
1024.4248007357171
 31
0.0
  0
ARC
  5
3319
  8
AM_0
 10
662.8252164914818
 20
953.27386073571631
 30
0.0
 40
10.0
 50
188.63138999999711
 51
270.0
  0
ARC
  5
331A
  8
AM_0
 10
718.59401649148197
 20
947.27386073571654
 30
0.0
 40
4.0
 50
270.0
 51
0.0
  0
LINE
  5
331B
  8
AM_0
 10
704.11092649148156
 20
1052.273860735716
 30
0.0
 11
710.59401649148185
 21
1052.273860735716
 31
0.0
  0
LINE
  5
331C
  8
AM_0
 10
710.59401649148185
 20
1090.785090735716
 30
0.0
 11
699.54915649148165
 21
1090.785090735716
 31
0.0
  0
LINE
  5
331D
  8
AM_0
 10
679.79512649148182
 20
1028.427730735717
 30
0.0
 11
715.37807649148158
 21
1028.4223007357159
 31
0.0
  0
LINE
  5
331E
  8
AM_0
 10
616.43557649148181
 20
1018.648000735715
 30
0.0
 11
666.52193649148182
 21
1021.082700735715
 31
0.0
  0
LINE
  5
331F
  8
AM_0
 10
597.59401649148174
 20
1001.273920735715
 30
0.0
 11
613.80135649148167
 21
1017.481200735715
 31
0.0
  0
ARC
  5
3320
  8
AM_0
 10
616.62978649148181
 20
1014.652770735716
 30
0.0
 40
4.0
 50
92.782929000000266
 51
135.0000000000046
  0
ARC
  5
3321
  8
AM_0
 10
648.36861649148182
 20
1015.194330735716
 30
0.0
 40
5.0
 50
92.782929000000266
 51
188.63138000000109
  0
LINE
  5
3322
  8
ﾁｭｳｼﾝｾﾝ1
 10
687.59401649148185
 20
962.27386073571631
 30
0.0
 11
687.59401649148185
 21
1014.273860735716
 31
0.0
  0
CIRCLE
  5
3323
  8
AM_0
 10
687.59401649148185
 20
988.27386073571654
 30
0.0
 40
12.0
  0
LINE
  5
3324
  8
ﾁｭｳｼﾝｾﾝ1
 10
661.59401649148174
 20
988.27386073571654
 30
0.0
 11
713.59401649148197
 21
988.27386073571654
 31
0.0
  0
LINE
  5
3325
  8
AM_0
 10
676.93813649148183
 20
1025.6306707357171
 30
0.0
 11
692.7870764914818
 21
1041.146720735715
 31
0.0
  0
ARC
  5
3326
  8
AM_0
 10
665.74507649148165
 20
1037.063840735716
 30
0.0
 40
16.0
 50
272.78293000000212
 51
314.39193000000108
  0
ARC
  5
3327
  8
AM_0
 10
681.59401649148185
 20
1052.5798907357159
 30
0.0
 40
16.0
 50
314.39193000000108
 51
0.0
  0
ARC
  5
3328
  8
AM_0
 10
704.11092649148156
 20
1044.273860735716
 30
0.0
 40
8.0
 50
90.00000299999769
 51
159.75202000000809
  0
LINE
  5
3329
  8
AM_0
 10
617.36635649148161
 20
1102.696160735715
 30
0.0
 11
598.40450649148181
 21
1117.356360735715
 31
0.0
  0
LINE
  5
332A
  8
AM_0
 10
598.39034649148175
 20
1083.864860735715
 30
0.0
 11
617.31935649148181
 21
1097.913690735716
 31
0.0
  0
ARC
  5
332B
  8
AM_0
 10
596.60237649148155
 20
1086.273860735716
 30
0.0
 40
3.0
 50
270.0
 51
306.58231000000382
  0
ARC
  5
332C
  8
AM_0
 10
615.5313964914817
 20
1100.322750735716
 30
0.0
 40
3.0
 50
306.58231000000382
 51
52.290951999999571
  0
ARC
  5
332D
  8
AM_0
 10
596.56954649148167
 20
1114.982860735716
 30
0.0
 40
3.0
 50
52.290951999999571
 51
90.00000299999769
  0
ARC
  5
332E
  8
AM_0
 10
710.59401649148185
 20
1060.273860735716
 30
0.0
 40
8.0
 50
270.0
 51
0.0
  0
ARC
  5
332F
  8
AM_0
 10
718.59401649148197
 20
1024.4248007357171
 30
0.0
 40
4.0
 50
0.0
 51
87.797402999997558
  0
LINE
  5
3330
  8
AM_0
 10
718.74776649148157
 20
1028.421810735716
 30
0.0
 11
718.59407649148181
 21
1028.427730735717
 31
0.0
  0
LINE
  5
3331
  8
AM_0
 10
722.59401649148174
 20
1108.273920735716
 30
0.0
 11
718.59401649148197
 21
1104.2739207357149
 31
0.0
  0
ARC
  5
3332
  8
AM_0
 10
710.59401649148185
 20
1098.7850907357149
 30
0.0
 40
8.0
 50
270.0
 51
313.981210000001
  0
LINE
  5
3333
  8
AM_0
 10
722.59401649148174
 20
1130.773860735716
 30
0.0
 11
729.59401649148174
 21
1130.773860735716
 31
0.0
  0
LINE
  5
3334
  8
AM_0
 10
426.59400649148182
 20
1393.2738607357171
 30
0.0
 11
718.59401649148197
 21
1393.2738607357171
 31
0.0
  0
LINE
  5
3335
  8
AM_0
 10
569.31441649148178
 20
1314.856660735717
 30
0.0
 11
612.73720649148174
 21
1312.745860735716
 31
0.0
  0
LINE
  5
3336
  8
AM_0
 10
529.59400649148165
 20
1335.2738607357171
 30
0.0
 11
597.59401649148174
 21
1335.2738607357171
 31
0.0
  0
LINE
  5
3337
  8
AM_0
 10
596.56954649148167
 20
1218.564860735717
 30
0.0
 11
567.59401649148174
 21
1218.564860735717
 31
0.0
  0
LINE
  5
3338
  8
AM_0
 10
526.59400649148176
 20
1253.2738607357171
 30
0.0
 11
596.60237649148155
 21
1253.2738607357171
 31
0.0
  0
CIRCLE
  5
3339
  8
AM_0
 10
457.59400649148159
 20
1348.273860735716
 30
0.0
 40
12.0
  0
LINE
  5
333A
  8
AM_0
 10
552.59407649148181
 20
1371.658360735717
 30
0.0
 11
552.59407649148181
 21
1335.2738607357171
 31
0.0
  0
LINE
  5
333B
  8
AM_0
 10
422.59400649148171
 20
1312.1335607357159
 30
0.0
 11
422.59400649148171
 21
1389.273860735716
 31
0.0
  0
ARC
  5
333C
  8
AM_0
 10
486.09400649148159
 20
1293.2738607357171
 30
0.0
 40
10.0
 50
90.00000299999769
 51
180.00001000000091
  0
LINE
  5
333D
  8
AM_0
 10
525.56560649148173
 20
1304.5962607357151
 30
0.0
 11
426.4512064914818
 21
1308.136060735716
 31
0.0
  0
LINE
  5
333E
  8
AM_0
 10
418.09400649148182
 20
1285.2738607357171
 30
0.0
 11
418.09400649148182
 21
1168.2738607357171
 31
0.0
  0
LINE
  5
333F
  8
AM_0
 10
431.09400649148171
 20
1285.2738607357171
 30
0.0
 11
431.09400649148171
 21
1168.2738607357171
 31
0.0
  0
LINE
  5
3340
  8
AM_0
 10
418.09400649148182
 20
1252.444760735716
 30
0.0
 11
429.09400649148171
 21
1252.444760735716
 31
0.0
  0
LINE
  5
3341
  8
AM_0
 10
419.07290649148172
 20
1242.7108607357161
 30
0.0
 11
430.10180649148163
 21
1242.7108607357161
 31
0.0
  0
LINE
  5
3342
  8
AM_0
 10
431.09400649148171
 20
1240.106260735716
 30
0.0
 11
476.09400649148182
 21
1240.106260735716
 31
0.0
  0
ARC
  5
3343
  8
AM_0
 10
429.09400649148171
 20
1250.444760735716
 30
0.0
 40
2.0
 50
0.0
 51
90.00000299999769
  0
LINE
  5
3344
  8
AM_0
 10
419.09400649148159
 20
1286.273860735716
 30
0.0
 11
430.09400649148182
 21
1286.273860735716
 31
0.0
  0
LINE
  5
3345
  8
AM_0
 10
418.09400649148182
 20
1268.001160735716
 30
0.0
 11
429.09400649148171
 21
1268.001160735716
 31
0.0
  0
LINE
  5
3346
  8
AM_0
 10
418.09400649148182
 20
1285.2738607357171
 30
0.0
 11
419.09400649148159
 21
1286.273860735716
 31
0.0
  0
LINE
  5
3347
  8
AM_0
 10
431.60280649148149
 20
1284.282760735716
 30
0.0
 11
471.18130649148139
 21
1284.973560735717
 31
0.0
  0
LINE
  5
3348
  8
AM_0
 10
431.09400649148171
 20
1259.356860735717
 30
0.0
 11
476.09400649148182
 21
1259.356860735717
 31
0.0
  0
ARC
  5
3349
  8
AM_0
 10
429.09400649148171
 20
1266.001160735716
 30
0.0
 40
2.0
 50
0.0
 51
90.00000299999769
  0
ARC
  5
334A
  8
AM_0
 10
430.09400649148182
 20
1285.2738607357171
 30
0.0
 40
1.0
 50
0.0
 51
90.00000299999769
  0
ARC
  5
334B
  8
AM_0
 10
431.59400649148159
 20
1284.782660735716
 30
0.0
 40
0.5
 50
179.9999899999988
 51
271.00000000000171
  0
ARC
  5
334C
  8
AM_0
 10
471.09400649148171
 20
1289.972860735716
 30
0.0
 40
5.0
 50
271.00000000000171
 51
0.0
  0
ARC
  5
334D
  8
AM_0
 10
426.59400649148182
 20
1312.1335607357159
 30
0.0
 40
4.0
 50
179.9999899999988
 51
267.95459999999889
  0
LINE
  5
334E
  8
AM_0
 10
526.59400649148176
 20
1332.273860735716
 30
0.0
 11
526.59400649148176
 21
1196.2023607357171
 31
0.0
  0
LINE
  5
334F
  8
AM_0
 10
542.59401649148174
 20
1335.2738607357171
 30
0.0
 11
542.59401649148174
 21
1174.523860735716
 31
0.0
  0
LINE
  5
3350
  8
AM_0
 10
567.59401649148174
 20
1314.940260735716
 30
0.0
 11
567.59401649148174
 21
1253.2738607357171
 31
0.0
  0
ARC
  5
3351
  8
AM_0
 10
520.59400649148165
 20
1168.2738607357171
 30
0.0
 40
20.0
 50
18.209957000000301
 51
161.7900400000014
  0
LINE
  5
3352
  8
AM_0
 10
564.59401649148174
 20
1224.961860735717
 30
0.0
 11
526.59400649148176
 21
1224.961860735717
 31
0.0
  0
LINE
  5
3353
  8
AM_0
 10
496.84400649148159
 20
1174.523860735716
 30
0.0
 11
544.34401649148174
 21
1174.523860735716
 31
0.0
  0
LINE
  5
3354
  8
AM_0
 10
496.84400649148159
 20
1162.023860735716
 30
0.0
 11
544.34401649148174
 21
1162.023860735716
 31
0.0
  0
ARC
  5
3355
  8
AM_0
 10
496.84400649148159
 20
1168.2738607357171
 30
0.0
 40
6.25
 50
90.00000299999769
 51
270.0
  0
ARC
  5
3356
  8
AM_0
 10
520.59400649148165
 20
1168.2738607357171
 30
0.0
 40
15.0
 50
24.624318000003381
 51
155.3756800000024
  0
ARC
  5
3357
  8
AM_0
 10
518.59400649148165
 20
1196.2023607357171
 30
0.0
 40
8.0
 50
274.09603999999791
 51
0.0
  0
LINE
  5
3358
  8
AM_0
 10
567.59401649148174
 20
1218.564860735717
 30
0.0
 11
567.59401649148174
 21
1188.2738607357151
 31
0.0
  0
CIRCLE
  5
3359
  8
AM_0
 10
572.59401649148174
 20
1168.2738607357171
 30
0.0
 40
10.0
  0
LINE
  5
335A
  8
AM_0
 10
542.59401649148174
 20
1188.2738607357151
 30
0.0
 11
572.59401649148174
 21
1188.2738607357151
 31
0.0
  0
ARC
  5
335B
  8
AM_0
 10
544.34401649148174
 20
1168.2738607357171
 30
0.0
 40
6.25
 50
270.0
 51
90.00000299999769
  0
LINE
  5
335C
  8
AM_0
 10
575.48073649148159
 20
1163.273860735716
 30
0.0
 11
578.36751649148175
 21
1168.2738607357171
 31
0.0
  0
LINE
  5
335D
  8
AM_0
 10
578.36751649148175
 20
1168.273960735715
 30
0.0
 11
575.48079649148156
 21
1173.273860735716
 31
0.0
  0
LINE
  5
335E
  8
AM_0
 10
569.70729649148166
 20
1173.273860735716
 30
0.0
 11
566.82051649148161
 21
1168.2738607357171
 31
0.0
  0
LINE
  5
335F
  8
AM_0
 10
566.82058649148155
 20
1168.2738607357171
 30
0.0
 11
569.70729649148166
 21
1163.273960735715
 31
0.0
  0
LINE
  5
3360
  8
AM_0
 10
569.70729649148166
 20
1163.273860735716
 30
0.0
 11
575.48079649148156
 21
1163.273860735716
 31
0.0
  0
LINE
  5
3361
  8
AM_0
 10
575.48079649148156
 20
1173.273860735716
 30
0.0
 11
569.70729649148166
 21
1173.273860735716
 31
0.0
  0
LINE
  5
3362
  8
AM_0
 10
567.59407649148181
 20
1218.564860735717
 30
0.0
 11
564.59407649148181
 21
1224.961760735715
 31
0.0
  0
LINE
  5
3363
  8
AM_0
 10
529.59400649148165
 20
1320.704660735717
 30
0.0
 11
562.77340649148175
 21
1320.704660735717
 31
0.0
  0
ARC
  5
3364
  8
AM_0
 10
522.59400649148165
 20
1307.2738607357151
 30
0.0
 40
4.0
 50
270.0
 51
0.0
  0
LINE
  5
3365
  8
AM_0
 10
522.59400649148165
 20
1303.2738607357171
 30
0.0
 11
486.09400649148159
 21
1303.2738607357171
 31
0.0
  0
ARC
  5
3366
  8
AM_0
 10
529.59400649148165
 20
1317.704660735717
 30
0.0
 40
3.0
 50
90.00000299999769
 51
180.00001000000091
  0
ARC
  5
3367
  8
AM_0
 10
529.59400649148165
 20
1332.273860735716
 30
0.0
 40
3.0
 50
90.00000299999769
 51
180.00001000000091
  0
ARC
  5
3368
  8
AM_0
 10
562.77340649148175
 20
1317.704660735717
 30
0.0
 40
3.0
 50
27.494289999996429
 51
90.00000299999769
  0
ARC
  5
3369
  8
AM_0
 10
569.46004649148176
 20
1317.853060735717
 30
0.0
 40
3.0
 50
207.4942899999964
 51
267.21706999999782
  0
LINE
  5
336A
  8
AM_0
 10
565.43453649148182
 20
1319.089560735717
 30
0.0
 11
566.79885649148162
 21
1316.468160735717
 31
0.0
  0
ARC
  5
336B
  8
AM_0
 10
476.7193064914818
 20
1383.2738607357171
 30
0.0
 40
10.0
 50
79.999998000001099
 51
90.00000299999769
  0
ARC
  5
336C
  8
AM_0
 10
487.5941064914818
 20
1366.1249607357149
 30
0.0
 40
10.0
 50
79.999998000001099
 51
180.00001000000091
  0
ARC
  5
336D
  8
AM_0
 10
426.59400649148182
 20
1389.273860735716
 30
0.0
 40
4.0
 50
90.00000299999769
 51
180.00001000000091
  0
LINE
  5
336E
  8
AM_0
 10
489.33060649148172
 20
1375.9730607357169
 30
0.0
 11
544.33052649148181
 21
1366.275060735717
 31
0.0
  0
LINE
  5
336F
  8
AM_0
 10
478.45580649148178
 20
1393.1219607357159
 30
0.0
 11
544.33052649148181
 21
1381.5065607357169
 31
0.0
  0
ARC
  5
3370
  8
AM_0
 10
542.59407649148181
 20
1371.658360735717
 30
0.0
 40
10.0
 50
0.0
 51
79.999998000001099
  0
ARC
  5
3371
  8
AM_0
 10
542.59407649148181
 20
1356.426960735716
 30
0.0
 40
10.0
 50
0.0
 51
79.999998000001099
  0
CIRCLE
  5
3372
  8
AM_0
 10
687.59401649148185
 20
1348.273860735716
 30
0.0
 40
12.0
  0
LINE
  5
3373
  8
AM_0
 10
643.42525649148183
 20
1322.1036607357171
 30
0.0
 11
652.93843649148175
 21
1384.774560735716
 31
0.0
  0
LINE
  5
3374
  8
AM_0
 10
722.59401649148174
 20
1389.273860735716
 30
0.0
 11
722.59401649148174
 21
1312.1229607357161
 31
0.0
  0
LINE
  5
3375
  8
AM_0
 10
704.11092649148156
 20
1284.2738607357171
 30
0.0
 11
710.59401649148185
 21
1284.2738607357171
 31
0.0
  0
LINE
  5
3376
  8
AM_0
 10
710.59401649148185
 20
1245.762760735716
 30
0.0
 11
699.54915649148165
 21
1245.762760735716
 31
0.0
  0
LINE
  5
3377
  8
AM_0
 10
679.79512649148182
 20
1308.120060735715
 30
0.0
 11
715.37801649148162
 21
1308.125560735717
 31
0.0
  0
LINE
  5
3378
  8
AM_0
 10
672.59401649148174
 20
1304.340260735717
 30
0.0
 11
672.59401649148174
 21
1168.2738607357171
 31
0.0
  0
LINE
  5
3379
  8
AM_0
 10
697.59401649148197
 20
1168.2738607357171
 30
0.0
 11
697.59401649148197
 21
1283.9678607357171
 31
0.0
  0
LINE
  5
337A
  8
AM_0
 10
617.36635649148161
 20
1233.851660735716
 30
0.0
 11
598.40450649148181
 21
1219.191460735716
 31
0.0
  0
ARC
  5
337B
  8
AM_0
 10
596.56954649148167
 20
1221.564860735717
 30
0.0
 40
3.0
 50
270.0
 51
307.70904999999362
  0
LINE
  5
337C
  8
AM_0
 10
598.39034649148175
 20
1252.6829607357161
 30
0.0
 11
617.31929649148174
 21
1238.634060735717
 31
0.0
  0
ARC
  5
337D
  8
AM_0
 10
596.60237649148155
 20
1250.2738607357171
 30
0.0
 40
3.0
 50
53.417689999996149
 51
90.00000299999769
  0
ARC
  5
337E
  8
AM_0
 10
615.5313964914817
 20
1236.2250607357171
 30
0.0
 40
3.0
 50
307.70904999999362
 51
53.417689999996149
  0
LINE
  5
337F
  8
AM_0
 10
616.43557649148181
 20
1317.8997607357171
 30
0.0
 11
666.52193649148182
 21
1315.465060735716
 31
0.0
  0
LINE
  5
3380
  8
AM_0
 10
597.59401649148174
 20
1335.2738607357171
 30
0.0
 11
613.80135649148167
 21
1319.066560735715
 31
0.0
  0
ARC
  5
3381
  8
AM_0
 10
616.62978649148181
 20
1321.894960735716
 30
0.0
 40
4.0
 50
224.9999999999952
 51
267.21706999999782
  0
ARC
  5
3382
  8
AM_0
 10
648.36861649148182
 20
1321.353360735716
 30
0.0
 40
5.0
 50
171.3686100000028
 51
267.2170800000024
  0
LINE
  5
3383
  8
AM_0
 10
676.93807649148175
 20
1310.9170607357171
 30
0.0
 11
692.78701649148184
 21
1295.400960735717
 31
0.0
  0
ARC
  5
3384
  8
AM_0
 10
704.11092649148156
 20
1292.2738607357171
 30
0.0
 40
8.0
 50
200.24797999999171
 51
270.0
  0
ARC
  5
3385
  8
AM_0
 10
681.59401649148185
 20
1283.9678607357171
 30
0.0
 40
16.0
 50
0.0
 51
45.608072999994867
  0
ARC
  5
3386
  8
AM_0
 10
665.74507649148165
 20
1299.483960735716
 30
0.0
 40
16.0
 50
45.608072999994867
 51
87.217069000002539
  0
LINE
  5
3387
  8
AM_0
 10
718.59401649148197
 20
1168.2738607357171
 30
0.0
 11
718.59401649148197
 21
1308.120060735715
 31
0.0
  0
LINE
  5
3388
  8
AM_0
 10
722.59401649148174
 20
1168.2738607357171
 30
0.0
 11
722.59401649148174
 21
1228.2738607357171
 31
0.0
  0
ARC
  5
3389
  8
AM_0
 10
754.59401649148174
 20
1168.2738607357171
 30
0.0
 40
10.0
 50
90.00000299999769
 51
270.0
  0
LINE
  5
338A
  8
AM_0
 10
754.59401649148174
 20
1178.2738607357171
 30
0.0
 11
754.59401649148174
 21
1158.2738607357171
 31
0.0
  0
LINE
  5
338B
  8
AM_0
 10
722.59401649148174
 20
1228.2738607357171
 30
0.0
 11
718.59401649148197
 21
1232.2738607357151
 31
0.0
  0
LINE
  5
338C
  8
AM_0
 10
722.59401649148174
 20
1205.7738607357171
 30
0.0
 11
729.59401649148174
 21
1205.7738607357171
 31
0.0
  0
ARC
  5
338D
  8
AM_0
 10
710.59401649148185
 20
1237.762760735716
 30
0.0
 40
8.0
 50
46.018789000002847
 51
90.00000299999769
  0
ARC
  5
338E
  8
AM_0
 10
710.59401649148185
 20
1276.2738607357171
 30
0.0
 40
8.0
 50
0.0
 51
90.00000299999769
  0
ARC
  5
338F
  8
AM_0
 10
718.59401649148197
 20
1312.1229607357161
 30
0.0
 40
4.0
 50
272.20260000000161
 51
0.0
  0
LINE
  5
3390
  8
AM_0
 10
718.74776649148157
 20
1308.126060735716
 30
0.0
 11
718.59401649148197
 21
1308.120060735715
 31
0.0
  0
ARC
  5
3391
  8
AM_0
 10
662.8252164914818
 20
1383.2738607357171
 30
0.0
 40
10.0
 50
90.00000299999769
 51
171.3686100000028
  0
ARC
  5
3392
  8
AM_0
 10
718.59401649148197
 20
1389.273860735716
 30
0.0
 40
4.0
 50
0.0
 51
90.00000299999769
  0
LINE
  5
3393
  8
AM_0
 10
839.59401649148174
 20
1203.273860735716
 30
0.0
 11
839.59401649148174
 21
1133.2738607357171
 31
0.0
  0
LINE
  5
3394
  8
ﾁｭｳｼﾝｾﾝ1
 10
457.59400649148159
 20
962.27386073571631
 30
0.0
 11
457.59400649148159
 21
1014.273860735716
 31
0.0
  0
LINE
  5
3395
  8
ﾁｭｳｼﾝｾﾝ1
 10
431.59400649148159
 20
988.27386073571654
 30
0.0
 11
483.59400649148171
 21
988.27386073571654
 31
0.0
  0
LINE
  5
3396
  8
ﾁｭｳｼﾝｾﾝ1
 10
457.59400649148159
 20
1322.273860735716
 30
0.0
 11
457.59400649148159
 21
1374.2738607357171
 31
0.0
  0
LINE
  5
3397
  8
ﾁｭｳｼﾝｾﾝ1
 10
431.59400649148159
 20
1348.273860735716
 30
0.0
 11
483.59400649148171
 21
1348.273860735716
 31
0.0
  0
LINE
  5
3398
  8
ﾁｭｳｼﾝｾﾝ1
 10
687.59401649148185
 20
1322.273860735716
 30
0.0
 11
687.59401649148185
 21
1374.2738607357171
 31
0.0
  0
LINE
  5
3399
  8
ﾁｭｳｼﾝｾﾝ1
 10
661.59401649148174
 20
1348.273860735716
 30
0.0
 11
713.59401649148197
 21
1348.273860735716
 31
0.0
  0
TEXT
  5
362C
  8
AM_0
 10
1006.801108659398
 20
1160.1453664329081
 30
0.0
 40
20.0
  1
VX55-080G~VX55-120G
  0
ENDSEC
  0
EOF
