  0
SECTION
  2
HEADER
  9
$ACADVER
  1
AC1009
  9
$INSBASE
 10
0.0
 20
0.0
 30
0.0
  9
$EXTMIN
 10
316.28572516781918
 20
369.05579483661592
 30
-0.0000000000112498
  9
$EXTMAX
 10
1388.5003087794171
 20
1208.783149077319
 30
0.0000000000002956
  9
$LIMMIN
 10
0.0
 20
0.0
  9
$LIMMAX
 10
1707.0
 20
1110.0
  9
$ORTHOMODE
 70
     0
  9
$REGENMODE
 70
     1
  9
$FILLMODE
 70
     1
  9
$QTEXTMODE
 70
     0
  9
$MIRRTEXT
 70
     1
  9
$DRAGMODE
 70
     2
  9
$LTSCALE
 40
6.0
  9
$OSMODE
 70
   551
  9
$ATTMODE
 70
     1
  9
$TEXTSIZE
 40
2.5
  9
$TRACEWID
 40
1.0
  9
$TEXTSTYLE
  7
STANDARD
  9
$CLAYER
  8
AM_0
  9
$CELTYPE
  6
BYLAYER
  9
$CECOLOR
 62
   256
  9
$DIMSCALE
 40
6.0
  9
$DIMASZ
 40
2.5
  9
$DIMEXO
 40
1.0
  9
$DIMDLI
 40
8.0
  9
$DIMRND
 40
0.0
  9
$DIMDLE
 40
0.0
  9
$DIMEXE
 40
0.6
  9
$DIMTP
 40
0.1
  9
$DIMTM
 40
0.1
  9
$DIMTXT
 40
2.5
  9
$DIMCEN
 40
0.0
  9
$DIMTSZ
 40
0.0
  9
$DIMTOL
 70
     0
  9
$DIMLIM
 70
     0
  9
$DIMTIH
 70
     0
  9
$DIMTOH
 70
     0
  9
$DIMSE1
 70
     0
  9
$DIMSE2
 70
     0
  9
$DIMTAD
 70
     1
  9
$DIMZIN
 70
     8
  9
$DIMBLK
  1

  9
$DIMASO
 70
     1
  9
$DIMSHO
 70
     1
  9
$DIMPOST
  1

  9
$DIMAPOST
  1
"
  9
$DIMALT
 70
     0
  9
$DIMALTD
 70
     2
  9
$DIMALTF
 40
0.0393701
  9
$DIMLFAC
 40
1.0
  9
$DIMTOFL
 70
     1
  9
$DIMTVP
 40
0.0
  9
$DIMTIX
 70
     0
  9
$DIMSOXD
 70
     0
  9
$DIMSAH
 70
     0
  9
$DIMBLK1
  1

  9
$DIMBLK2
  1

  9
$DIMSTYLE
  2
AM_ISO
  9
$DIMCLRD
 70
   256
  9
$DIMCLRE
 70
   256
  9
$DIMCLRT
 70
     4
  9
$DIMTFAC
 40
0.71
  9
$DIMGAP
 40
0.8
  9
$LUNITS
 70
     2
  9
$LUPREC
 70
     2
  9
$SKETCHINC
 40
1.0
  9
$FILLETRAD
 40
30.0
  9
$AUNITS
 70
     0
  9
$AUPREC
 70
     0
  9
$MENU
  1
.
  9
$ELEVATION
 40
0.0
  9
$PELEVATION
 40
0.0
  9
$THICKNESS
 40
0.0
  9
$LIMCHECK
 70
     0
  9
$BLIPMODE
 70
     0
  9
$CHAMFERA
 40
12.0
  9
$CHAMFERB
 40
6.0
  9
$SKPOLY
 70
     0
  9
$TDCREATE
 40
2452067.3859054861
  9
$TDUPDATE
 40
2458541.425255232
  9
$TDINDWG
 40
0.1098007523
  9
$TDUSRTIMER
 40
0.1098005671
  9
$USRTIMER
 70
     1
  9
$ANGBASE
 50
0.0
  9
$ANGDIR
 70
     0
  9
$PDMODE
 70
     0
  9
$PDSIZE
 40
0.0
  9
$PLINEWID
 40
0.0
  9
$COORDS
 70
     1
  9
$SPLFRAME
 70
     0
  9
$SPLINETYPE
 70
     6
  9
$SPLINESEGS
 70
     8
  9
$ATTDIA
 70
     1
  9
$ATTREQ
 70
     1
  9
$HANDLING
 70
     1
  9
$HANDSEED
  5
34F9
  9
$SURFTAB1
 70
     6
  9
$SURFTAB2
 70
     6
  9
$SURFTYPE
 70
     6
  9
$SURFU
 70
     6
  9
$SURFV
 70
     6
  9
$UCSNAME
  2

  9
$UCSORG
 10
0.0
 20
0.0
 30
0.0
  9
$UCSXDIR
 10
1.0
 20
0.0
 30
0.0
  9
$UCSYDIR
 10
0.0
 20
1.0
 30
0.0
  9
$PUCSNAME
  2

  9
$PUCSORG
 10
0.0
 20
0.0
 30
0.0
  9
$PUCSXDIR
 10
1.0
 20
0.0
 30
0.0
  9
$PUCSYDIR
 10
0.0
 20
1.0
 30
0.0
  9
$USERI1
 70
     0
  9
$USERI2
 70
     0
  9
$USERI3
 70
     0
  9
$USERI4
 70
     0
  9
$USERI5
 70
     0
  9
$USERR1
 40
0.0
  9
$USERR2
 40
0.0
  9
$USERR3
 40
0.0
  9
$USERR4
 40
0.0
  9
$USERR5
 40
0.0
  9
$WORLDVIEW
 70
     1
  9
$SHADEDGE
 70
     3
  9
$SHADEDIF
 70
    70
  9
$TILEMODE
 70
     1
  9
$MAXACTVP
 70
    64
  9
$PLIMCHECK
 70
     0
  9
$PEXTMIN
 10
1.0000000000000000E+020
 20
1.0000000000000000E+020
 30
1.0000000000000000E+020
  9
$PEXTMAX
 10
-1.0000000000000000E+020
 20
-1.0000000000000000E+020
 30
-1.0000000000000000E+020
  9
$PLIMMIN
 10
0.0
 20
0.0
  9
$PLIMMAX
 10
420.0
 20
297.0
  9
$UNITMODE
 70
     0
  9
$VISRETAIN
 70
     1
  9
$PLINEGEN
 70
     0
  9
$PSLTSCALE
 70
     1
  0
ENDSEC
  0
SECTION
  2
TABLES
  0
TABLE
  2
VPORT
 70
     1
  0
VPORT
  2
*ACTIVE
 70
     0
 10
0.0
 20
0.0
 11
1.0
 21
1.0
 12
852.39301697361861
 22
788.91947195696719
 13
0.0
 23
0.0
 14
15.0
 24
15.0
 15
60.0
 25
60.0
 16
0.0
 26
0.0
 36
1.0
 17
0.0
 27
0.0
 37
0.0
 40
845.49207291970095
 41
1.7571592210767459
 42
50.0
 43
0.0
 44
0.0
 50
0.0
 51
0.0
 71
     0
 72
   100
 73
     1
 74
     3
 75
     0
 76
     0
 77
     0
 78
     0
  0
ENDTAB
  0
TABLE
  2
LTYPE
 70
    27
  0
LTYPE
  2
CONTINUOUS
 70
     0
  3
Solid line
 72
    65
 73
     0
 40
0.0
  0
LTYPE
  2
AM_ISO02W050
 70
     0
  3
__ __ __ __ __ __ __ __ __ __ __ __ __ __ __
 72
    65
 73
     2
 40
7.5
 49
6.0
 49
-1.5
  0
LTYPE
  2
AM_ISO08W050
 70
     0
  3
____ . ____ . ____ . ____ . ____ . ____ . ____
 72
    65
 73
     4
 40
18.0
 49
12.0
 49
-1.5
 49
3.0
 49
-1.5
  0
LTYPE
  2
AM_ISO09W050
 70
     0
  3
_____ . . _____ . . _____ . . ____ .. ____
 72
    65
 73
     6
 40
22.5
 49
12.0
 49
-1.5
 49
3.0
 49
-1.5
 49
3.0
 49
-1.5
  0
LTYPE
  2
AMCONSTR
 70
     0
  3
_______________________
 72
    65
 73
     2
 40
9999.0
 49
9999.0
 49
0.0
  0
LTYPE
  2
AM_ISO08W050X2
 70
     0
  3
__ . __ . __ . __ . __ . __
 72
    65
 73
     4
 40
9.0
 49
6.0
 49
-0.75
 49
1.5
 49
-0.75
  0
LTYPE
  2
AM_ISO02W050X2
 70
     0
  3
 _ _ _ _ _ _ _ _ _ _ _ _
 72
    65
 73
     2
 40
3.75
 49
3.0
 49
-0.75
  0
LTYPE
  2
AMZIGZAG
 70
     0
  3
/\/-/\/-/\/-/\/-/\/-/\/
 72
    65
 73
     2
 40
11.000099999999991
 49
0.0001
 49
-11.0
  0
LTYPE
  2
ACISOWELD
 70
     0
  3
_ _ _ _ _
 72
    65
 73
     2
 40
2.0
 49
2.0
 49
-1.0
  0
LTYPE
  2
ACISOTGB
 70
     0
  3
__ . . __ . .
 72
    65
 73
     6
 40
9.0
 49
4.0
 49
-1.0
 49
1.0
 49
-1.0
 49
1.0
 49
-1.0
  0
LTYPE
  2
ACISOTGL
 70
     0
  3
_ _ _ _ _
 72
    65
 73
     2
 40
3.0
 49
2.0
 49
-1.0
  0
LTYPE
  2
CENTER
 70
     0
  3
__ . __
 72
    65
 73
     4
 40
7.0
 49
4.0
 49
-1.0
 49
1.0
 49
-1.0
  0
LTYPE
  2
PHANTOM2
 70
     0
  3
Phantom (.5x) ___ _ _ ___ _ _ ___ _ _ ___ _ _
 72
    65
 73
     6
 40
31.75
 49
15.875
 49
-3.174999999999998
 49
3.174999999999998
 49
-3.174999999999998
 49
3.174999999999998
 49
-3.174999999999998
  0
LTYPE
  2
ACANSTGBM
 70
     0
  3
__ . . __ . .
 72
    65
 73
     6
 40
9.0
 49
4.0
 49
-1.0
 49
1.0
 49
-1.0
 49
1.0
 49
-1.0
  0
LTYPE
  2
ACANSTGLM
 70
     0
  3
_ _ _ _ _
 72
    65
 73
     2
 40
3.0
 49
2.0
 49
-1.0
  0
LTYPE
  2
GEN7
 70
     0
  3
____ . ____ . ____ . ____ . ____ . ____ . ____
 72
    65
 73
     4
 40
14.25
 49
9.75
 49
-1.5
 49
1.5
 49
-1.5
  0
LTYPE
  2
GEN3B
 70
     0
  3
 - - - - -
 72
    65
 73
     2
 40
1.0
 49
0.5
 49
-0.5
  0
LTYPE
  2
GEN7A
 70
     0
  3
__ . __ . __
 72
    65
 73
     4
 40
7.375
 49
4.75
 49
-0.875
 49
0.875
 49
-0.875
  0
LTYPE
  2
ACJISTGB
 70
     0
  3
__ . . __ . .
 72
    65
 73
     6
 40
9.0
 49
4.0
 49
-1.0
 49
1.0
 49
-1.0
 49
1.0
 49
-1.0
  0
LTYPE
  2
ACJISTGL
 70
     0
  3
_ _ _ _ _
 72
    65
 73
     2
 40
3.0
 49
2.0
 49
-1.0
  0
LTYPE
  2
HIDDEN
 70
     0
  3
Hidden __ __ __ __ __ __ __ __ __ __ __ __ __ _
 72
    65
 73
     2
 40
0.375
 49
0.25
 49
-0.125
  0
LTYPE
  2
CENTER2
 70
     0
  3
Center (.5x) ___ _ ___ _ ___ _ ___ _ ___ _ ___
 72
    65
 73
     4
 40
1.125
 49
0.75
 49
-0.125
 49
0.125
 49
-0.125
  0
LTYPE
  2
HIDDEN2
 70
     0
  3
Hidden (.5x) _ _ _ _ _ _ _ _ _ _ _ _ _ _ _ _ _
 72
    65
 73
     2
 40
0.1875
 49
0.125
 49
-0.0625
  0
LTYPE
  2
AMZIGZAG2
 70
     0
  3
/\/-/\/-/\/-/\/-/\/-/\/
 72
    65
 73
     2
 40
0.4401
 49
0.0001
 49
-0.4400000000000002
  0
LTYPE
  2
ACANSTGB
 70
     0
  3
__ . . __ . .
 72
    65
 73
     6
 40
0.35433070866
 49
0.15748031496
 49
-0.03937007874
 49
0.03937007874
 49
-0.03937007874
 49
0.03937007874
 49
-0.03937007874
  0
LTYPE
  2
ACANSTGL
 70
     0
  3
_ _ _ _ _
 72
    65
 73
     2
 40
0.11811023622
 49
0.07874015748
 49
-0.03937007874
  0
ENDTAB
  0
TABLE
  2
LAYER
 70
     7
  0
LAYER
  2
0
 70
     0
 62
     7
  6
CONTINUOUS
  0
LAYER
  2
AM_0
 70
     0
 62
     7
  6
CONTINUOUS
  0
LAYER
  2
AM_5
 70
     0
 62
     2
  6
CONTINUOUS
  0
LAYER
  2
DEFPOINTS
 70
     0
 62
     7
  6
CONTINUOUS
  0
LAYER
  2
ｶｸﾚｾﾝ2
 70
     0
 62
     3
  6
GEN3B
  0
LAYER
  2
ﾁｭｳｼﾝｾﾝ
 70
     0
 62
     1
  6
GEN7
  0
LAYER
  2
ﾁｭｳｼﾝｾﾝ1
 70
     0
 62
     1
  6
GEN7A
  0
ENDTAB
  0
TABLE
  2
STYLE
 70
     9
  0
STYLE
  2
STANDARD
 70
     0
 40
0.0
 41
0.8299999999999999
 50
0.0
 71
     0
 42
2.5
  3
txt.shx
  4
bigfont.shx
  0
STYLE
  2
ANNOTATIVE
 70
     0
 40
0.0
 41
1.0
 50
0.0
 71
     0
 42
0.2
  3
txt
  4

  0
STYLE
  2

 70
     1
 40
0.0
 41
1.0
 50
0.0
 71
     0
 42
2.5
  3
ltypeshp.shx
  4

  0
STYLE
  2
ACISOTS
 70
     0
 40
1.0
 41
1.0
 50
0.0
 71
     0
 42
2.5
  3
isocp.shx
  4
extfont.shx
  0
STYLE
  2
ACISOGDT
 70
     0
 40
0.0
 41
1.0
 50
0.0
 71
     0
 42
2.5
  3
amgdt.shx
  4

  0
STYLE
  2
ACANSTS
 70
     0
 40
1.0
 41
1.0
 50
0.0
 71
     0
 42
2.5
  3
romans.shx
  4
bigfont.shx
  0
STYLE
  2
ACANSGDT
 70
     0
 40
0.0
 41
1.0
 50
0.0
 71
     0
 42
2.5
  3
amgdt.shx
  4

  0
STYLE
  2
ACJISTS
 70
     0
 40
1.0
 41
1.0
 50
0.0
 71
     0
 42
2.5
  3
isocp.shx
  4
bigfont.shx
  0
STYLE
  2
ACJISGDT
 70
     0
 40
0.0
 41
1.0
 50
0.0
 71
     0
 42
2.5
  3
amgdt.shx
  4

  0
ENDTAB
  0
TABLE
  2
VIEW
 70
     6
  0
VIEW
  2
AM_VIEW1
 70
     0
 40
555.00000000000011
 10
499.2955801104971
 20
832.50000000000011
 41
998.59116022099431
 11
0.0
 21
0.0
 31
1.0
 12
0.0
 22
0.0
 32
0.0
 42
50.0
 43
0.0
 44
0.0
 50
0.0
 71
     0
  0
VIEW
  2
AM_VIEW2
 70
     0
 40
555.00000000000011
 10
1207.704419889501
 20
832.50000000000011
 41
998.59116022099431
 11
0.0
 21
0.0
 31
1.0
 12
0.0
 22
0.0
 32
0.0
 42
50.0
 43
0.0
 44
0.0
 50
0.0
 71
     0
  0
VIEW
  2
AM_VIEW3
 70
     0
 40
555.00000000000011
 10
499.2955801104971
 20
277.49999999999989
 41
998.59116022099431
 11
0.0
 21
0.0
 31
1.0
 12
0.0
 22
0.0
 32
0.0
 42
50.0
 43
0.0
 44
0.0
 50
0.0
 71
     0
  0
VIEW
  2
AM_VIEW4
 70
     0
 40
555.00000000000011
 10
1207.704419889501
 20
277.49999999999989
 41
998.59116022099431
 11
0.0
 21
0.0
 31
1.0
 12
0.0
 22
0.0
 32
0.0
 42
50.0
 43
0.0
 44
0.0
 50
0.0
 71
     0
  0
VIEW
  2
AM_VIEW5
 70
     0
 40
555.00000000000011
 10
853.5
 20
555.00000000000011
 41
998.59116022099431
 11
0.0
 21
0.0
 31
1.0
 12
0.0
 22
0.0
 32
0.0
 42
50.0
 43
0.0
 44
0.0
 50
0.0
 71
     0
  0
VIEW
  2
AM_VIEW6
 70
     0
 40
1109.9889000000001
 10
853.5
 20
555.0
 41
1997.162348618785
 11
0.0
 21
0.0
 31
1.0
 12
0.0
 22
0.0
 32
0.0
 42
50.0
 43
0.0
 44
0.0
 50
0.0
 71
     0
  0
ENDTAB
  0
TABLE
  2
UCS
 70
     0
  0
ENDTAB
  0
TABLE
  2
APPID
 70
    95
  0
APPID
  2
ACAD
 70
     0
  0
APPID
  2
ACADANNOTATIVE
 70
     0
  0
APPID
  2
MCAD_NO_VIS
 70
     0
  0
APPID
  2
ACAD_TEMP_GRAPHIC
 70
     0
  0
APPID
  2
ACATTRIBSERVICES
 70
     0
  0
APPID
  2
GENIUS_GENREC_14
 70
     0
  0
APPID
  2
GENIUS_GENOBJ-N-REC_13
 70
     0
  0
APPID
  2
GENIUS_GENODEF_13
 70
     0
  0
APPID
  2
GENIUS_GENOLIS_13
 70
     0
  0
APPID
  2
GENIUS_GENOBJ-N-TIT_13
 70
     0
  0
APPID
  2
GENIUS_GENOENT_13
 70
     0
  0
APPID
  2
GENIUS_GENTITLE_13
 70
     0
  0
APPID
  2
GENIUS_GENOREF_13
 70
     0
  0
APPID
  2
GENIUS_GENSCREG_15
 70
     0
  0
APPID
  2
GENIUS_GENOBJ-N-SDF_13
 70
     0
  0
APPID
  2
GENIUS_GENFIL_13
 70
     0
  0
APPID
  2
GENIUS_GENOBJ-N-CHA_13
 70
     0
  0
APPID
  2
GENIUS_GENDTOL_13
 70
     0
  0
APPID
  2
GENIUS_GENOBJ-N-FIL_13
 70
     0
  0
APPID
  2
AD_DRAW
 70
     0
  0
APPID
  2
DESIGNERASSEMBLIES
 70
     0
  0
APPID
  2
ASURF_PCURVE_APPNAME
 70
     0
  0
APPID
  2
GENIUS_GE3SECT_13
 70
     0
  0
APPID
  2
GENIUS_GENCFG_13
 70
     0
  0
APPID
  2
GENIUS_GE3CFG0_13
 70
     0
  0
APPID
  2
GENIUS_GENCFG0_13
 70
     0
  0
APPID
  2
GENIUS_GENCFG1_13
 70
     0
  0
APPID
  2
GENIUS_GENCFG2_13
 70
     0
  0
APPID
  2
GENIUS_GENCFG3_13
 70
     0
  0
APPID
  2
GENIUS_GENCFG4_13
 70
     0
  0
APPID
  2
GENIUS_GEVCFG0_13
 70
     0
  0
APPID
  2
GENIUS_GENHINW_13
 70
     0
  0
APPID
  2
GENIUS_FIRSTVISTXT_14
 70
     0
  0
APPID
  2
GENIUS_GENOBJ-N-LEADER_13
 70
     0
  0
APPID
  2
GEV_VCCNULL_SWITCH_OFF
 70
     0
  0
APPID
  2
GENIUS_GEFCFG0_13
 70
     0
  0
APPID
  2
GENIUS_GENZVEED_13
 70
     0
  0
APPID
  2
GENIUS_GENSCREG_13
 70
     0
  0
APPID
  2
GENIUS_DUMCFG0_13
 70
     0
  0
APPID
  2
GEVID936201362
 70
     0
  0
APPID
  2
GEVDC
 70
     0
  0
APPID
  2
GEVCON
 70
     0
  0
APPID
  2
VCC
 70
     0
  0
APPID
  2
GEVPT
 70
     0
  0
APPID
  2
GEVIT
 70
     0
  0
APPID
  2
GENBH
 70
     0
  0
APPID
  2
GEVMK
 70
     0
  0
APPID
  2
GENIUS_GENBH_13
 70
     0
  0
APPID
  2
GENIUS_GENOBJ-NBEHI-BHF_13
 70
     0
  0
APPID
  2
GENIUS_GENOBJ-NBEHI-BHB_13
 70
     0
  0
APPID
  2
GENIUS_GENOBJ-F-DESC_13
 70
     0
  0
APPID
  2
GENIUS_GEFDESC_14
 70
     0
  0
APPID
  2
GENIUS_GENOBJ-F-PART_13
 70
     0
  0
APPID
  2
GENIUS_GEFSTDP_13
 70
     0
  0
APPID
  2
GENIUS_GEFPARTINS_13
 70
     0
  0
APPID
  2
GENIUS_GENTRA_14
 70
     0
  0
APPID
  2
GENIUS_GENINF13_13
 70
     0
  0
APPID
  2
GENIUS_GENOBJ-N-INFOPT_13
 70
     0
  0
APPID
  2
GENIUS_GENOBJ-N-RSSYM_13
 70
     0
  0
APPID
  2
GENIUS_GENSYMENT_13
 70
     0
  0
APPID
  2
GENIUS_GENSCSYM_13
 70
     0
  0
APPID
  2
GENIUS_GEFINFNAM_13
 70
     0
  0
APPID
  2
GENIUS_GENOBJ-N-CEN_13
 70
     0
  0
APPID
  2
GENIUS_GENOBJ-N-CRS_13
 70
     0
  0
APPID
  2
GENIUS_GENOBJ-N-CRC_13
 70
     0
  0
APPID
  2
GENIUS_GENCRC_14
 70
     0
  0
APPID
  2
GEVID942827039
 70
     0
  0
APPID
  2
GEVID942827040
 70
     0
  0
APPID
  2
GEVID942827041
 70
     0
  0
APPID
  2
GENIUS_GENOBJ-F-SCPASSM_13
 70
     0
  0
APPID
  2
GENIUS_GENDIMSH_14
 70
     0
  0
APPID
  2
GEVID942827042
 70
     0
  0
APPID
  2
GEVID946020473
 70
     0
  0
APPID
  2
GEVID946020474
 70
     0
  0
APPID
  2
GEVID946020475
 70
     0
  0
APPID
  2
GENIUS_GENOBJ-N-HTC_13
 70
     0
  0
APPID
  2
GENIUS_GENHATCH_13
 70
     0
  0
APPID
  2
GEVID948854295
 70
     0
  0
APPID
  2
GEVID939402019
 70
     0
  0
APPID
  2
GEVID952919491
 70
     0
  0
APPID
  2
GEVID952919492
 70
     0
  0
APPID
  2
GENIUS_GEFWELD_13
 70
     0
  0
APPID
  2
GENIUS_GENOBJ-F-WELS_13
 70
     0
  0
APPID
  2
GEVID952919493
 70
     0
  0
APPID
  2
GENIUS_GENOBJ-N-RSBK_13
 70
     0
  0
APPID
  2
GENIUS_GENOBJ-N-LIB_13
 70
     0
  0
APPID
  2
GENIUS_GENSCALE_13
 70
     0
  0
APPID
  2
GEVID986376691
 70
     0
  0
APPID
  2
DCO15
 70
     0
  0
APPID
  2
ACAD_DSTYLE_DIMBREAK
 70
     0
  0
APPID
  2
ACAD_DSTYLE_DIMJAG
 70
     0
  0
APPID
  2
ACAD_NAV_VCDISPLAY
 70
     0
  0
APPID
  2
ACADANNOPO
 70
     0
  0
APPID
  2
ACAD_EXEMPT_FROM_CAD_STANDARDS
 70
     0
  0
APPID
  2
ACAD_MLEADERVER
 70
     0
  0
ENDTAB
  0
TABLE
  2
DIMSTYLE
 70
    22
  0
DIMSTYLE
  2
STANDARD
 70
     0
  3

  4

  5

  6

  7

 40
1.0
 41
0.18
 42
0.0625
 43
0.38
 44
0.18
 45
0.0
 46
0.0
 47
0.0
 48
0.0
140
0.18
141
0.09
142
0.0
143
25.399999999999999
144
1.0
145
0.0
146
1.0
147
0.09
 71
     0
 72
     0
 73
     1
 74
     1
 75
     0
 76
     0
 77
     0
 78
     0
170
     0
171
     2
172
     0
173
     0
174
     0
175
     0
176
     0
177
     0
178
     0
  0
DIMSTYLE
  2
ANNOTATIVE
 70
     0
  3

  4

  5

  6

  7

 40
1.0
 41
0.18
 42
0.0625
 43
0.38
 44
0.18
 45
0.0
 46
0.0
 47
0.0
 48
0.0
140
0.18
141
0.09
142
0.0
143
25.399999999999999
144
1.0
145
0.0
146
1.0
147
0.09
 71
     0
 72
     0
 73
     1
 74
     1
 75
     0
 76
     0
 77
     0
 78
     0
170
     0
171
     2
172
     0
173
     0
174
     0
175
     0
176
     0
177
     0
178
     0
  0
DIMSTYLE
  2
AM_ISO
 70
     0
  3

  4
"
  5

  6

  7

 40
1.0
 41
2.5
 42
1.0
 43
8.0
 44
0.6
 45
0.0
 46
0.0
 47
0.1
 48
0.1
140
2.5
141
0.0
142
0.0
143
0.0393701
144
1.0
145
0.0
146
0.71
147
0.8
 71
     0
 72
     0
 73
     0
 74
     0
 75
     0
 76
     0
 77
     1
 78
     8
170
     0
171
     2
172
     1
173
     0
174
     0
175
     0
176
   256
177
   256
178
     4
  0
DIMSTYLE
  2
AM_ISO$3
 70
     0
  3

  4
"
  5

  6

  7

 40
1.0
 41
2.5
 42
1.0
 43
8.0
 44
0.6
 45
0.0
 46
0.0
 47
0.1
 48
0.1
140
2.5
141
0.0
142
0.0
143
0.0393701
144
1.0
145
0.0
146
0.71
147
0.8
 71
     0
 72
     0
 73
     0
 74
     1
 75
     0
 76
     0
 77
     1
 78
     8
170
     0
171
     2
172
     0
173
     0
174
     0
175
     0
176
   256
177
   256
178
     4
  0
DIMSTYLE
  2
AM_ISO$4
 70
     0
  3

  4
"
  5

  6

  7

 40
1.0
 41
2.5
 42
1.0
 43
8.0
 44
0.6
 45
0.0
 46
0.0
 47
0.1
 48
0.1
140
2.5
141
0.0
142
0.0
143
0.0393701
144
1.0
145
0.0
146
0.71
147
0.8
 71
     0
 72
     0
 73
     0
 74
     1
 75
     0
 76
     0
 77
     1
 78
     8
170
     0
171
     2
172
     0
173
     0
174
     0
175
     0
176
   256
177
   256
178
     4
  0
DIMSTYLE
  2
AM_ISO$6
 70
     0
  3

  4
"
  5

  6

  7

 40
1.0
 41
2.5
 42
1.0
 43
8.0
 44
0.6
 45
0.0
 46
0.0
 47
0.1
 48
0.1
140
2.5
141
0.0
142
0.0
143
0.0393701
144
1.0
145
0.0
146
0.71
147
0.8
 71
     0
 72
     0
 73
     0
 74
     0
 75
     0
 76
     0
 77
     0
 78
     8
170
     0
171
     2
172
     1
173
     0
174
     0
175
     0
176
   256
177
   256
178
     4
  0
DIMSTYLE
  2
AM_ISO$7
 70
     0
  3

  4
"
  5

  6

  7

 40
1.0
 41
2.5
 42
1.0
 43
8.0
 44
0.6
 45
0.0
 46
0.0
 47
0.1
 48
0.1
140
2.5
141
0.0
142
0.0
143
0.0393701
144
1.0
145
0.0
146
0.71
147
0.8
 71
     0
 72
     0
 73
     0
 74
     0
 75
     0
 76
     0
 77
     1
 78
     8
170
     0
171
     2
172
     1
173
     0
174
     0
175
     0
176
   256
177
   256
178
     4
  0
DIMSTYLE
  2
AM_ISO$SF
 70
     0
  3

  4
"
  5

  6

  7

 40
1.0
 41
2.5
 42
1.0
 43
10.0
 44
1.0
 45
0.0
 46
0.0
 47
0.1
 48
0.1
140
3.5
141
0.0
142
0.0
143
0.0393701
144
1.0
145
0.0
146
0.71
147
1.5
 71
     0
 72
     0
 73
     0
 74
     0
 75
     1
 76
     1
 77
     1
 78
     8
170
     0
171
     2
172
     1
173
     0
174
     0
175
     0
176
   256
177
   256
178
     2
  0
DIMSTYLE
  2
AM_ISO$SH
 70
     0
  3

  4
"
  5

  6

  7

 40
1.0
 41
2.5
 42
1.0
 43
10.0
 44
1.0
 45
0.0
 46
0.0
 47
0.1
 48
0.1
140
3.5
141
0.0
142
0.0
143
0.0393701
144
2.0
145
0.0
146
0.71
147
1.5
 71
     0
 72
     0
 73
     0
 74
     0
 75
     1
 76
     1
 77
     1
 78
     8
170
     0
171
     2
172
     1
173
     1
174
     0
175
     0
176
   256
177
   256
178
     2
  0
DIMSTYLE
  2
AM_JIS
 70
     0
  3

  4
"
  5

  6

  7

 40
1.0
 41
2.5
 42
1.0
 43
7.0
 44
1.0
 45
0.0
 46
0.0
 47
0.1
 48
0.1000000001
140
2.5
141
0.0
142
0.0
143
0.0393701
144
1.0
145
0.0
146
0.71
147
1.0
 71
     0
 72
     0
 73
     0
 74
     0
 75
     0
 76
     0
 77
     3
 78
     8
170
     0
171
     2
172
     1
173
     0
174
     0
175
     0
176
   256
177
   256
178
     4
  0
DIMSTYLE
  2
AM_JIS$3
 70
     0
  3

  4
"
  5

  6

  7

 40
1.0
 41
2.5
 42
1.0
 43
7.0
 44
1.0
 45
0.0
 46
0.0
 47
0.1
 48
0.1000000001
140
2.5
141
0.0
142
0.0
143
0.0393701
144
1.0
145
0.0
146
0.71
147
1.0
 71
     0
 72
     0
 73
     0
 74
     1
 75
     0
 76
     0
 77
     3
 78
     8
170
     0
171
     2
172
     0
173
     0
174
     0
175
     0
176
   256
177
   256
178
     4
  0
DIMSTYLE
  2
AM_JIS$4
 70
     0
  3

  4
"
  5

  6

  7

 40
1.0
 41
2.5
 42
1.0
 43
7.0
 44
1.0
 45
0.0
 46
0.0
 47
0.1
 48
0.1000000001
140
2.5
141
0.0
142
0.0
143
0.0393701
144
1.0
145
0.0
146
0.71
147
1.0
 71
     0
 72
     0
 73
     0
 74
     0
 75
     0
 76
     0
 77
     3
 78
     8
170
     0
171
     2
172
     0
173
     0
174
     0
175
     0
176
   256
177
   256
178
     4
  0
DIMSTYLE
  2
AM_JIS$6
 70
     0
  3

  4
"
  5

  6

  7

 40
1.0
 41
2.5
 42
1.0
 43
7.0
 44
1.0
 45
0.0
 46
0.0
 47
0.1
 48
0.1000000001
140
2.5
141
0.0
142
0.0
143
0.0393701
144
1.0
145
0.0
146
0.71
147
1.0
 71
     0
 72
     0
 73
     0
 74
     0
 75
     0
 76
     0
 77
     0
 78
     8
170
     0
171
     2
172
     1
173
     0
174
     0
175
     0
176
   256
177
   256
178
     4
  0
DIMSTYLE
  2
AM_JIS$7
 70
     0
  3

  4
"
  5

  6

  7

 40
1.0
 41
2.5
 42
1.0
 43
7.0
 44
1.0
 45
0.0
 46
0.0
 47
0.1
 48
0.1000000001
140
2.5
141
0.0
142
0.0
143
0.0393701
144
1.0
145
0.0
146
0.71
147
1.0
 71
     0
 72
     0
 73
     0
 74
     0
 75
     0
 76
     0
 77
     3
 78
     8
170
     0
171
     2
172
     1
173
     0
174
     0
175
     0
176
   256
177
   256
178
     4
  0
DIMSTYLE
  2
AM_JIS$SF
 70
     0
  3

  4
"
  5

  6

  7

 40
1.0
 41
2.5
 42
1.0
 43
10.0
 44
1.0
 45
0.0
 46
0.0
 47
0.1
 48
0.1
140
3.5
141
0.0
142
0.0
143
0.0393701
144
1.0
145
0.0
146
0.71
147
1.5
 71
     0
 72
     0
 73
     0
 74
     0
 75
     1
 76
     1
 77
     3
 78
     8
170
     0
171
     2
172
     1
173
     0
174
     0
175
     0
176
   256
177
   256
178
     4
  0
DIMSTYLE
  2
AM_JIS$SH
 70
     0
  3

  4
"
  5

  6

  7

 40
1.0
 41
2.5
 42
1.0
 43
10.0
 44
1.0
 45
0.0
 46
0.0
 47
0.1
 48
0.1
140
3.5
141
0.0
142
0.0
143
0.0393701
144
1.0
145
0.0
146
0.71
147
1.5
 71
     0
 72
     0
 73
     0
 74
     0
 75
     1
 76
     0
 77
     3
 78
     8
170
     0
171
     2
172
     1
173
     1
174
     0
175
     0
176
   256
177
   256
178
     4
  0
DIMSTYLE
  2
AM_ANSI
 70
     0
  3

  4
mm
  5

  6

  7

 40
1.0
 41
0.1
 42
0.05
 43
0.5
 44
0.1
 45
0.0
 46
0.0
 47
0.1
 48
0.1
140
0.12
141
0.0
142
0.0
143
25.399999999999999
144
1.0
145
0.0
146
0.71
147
0.06
 71
     0
 72
     0
 73
     1
 74
     1
 75
     0
 76
     0
 77
     0
 78
     7
170
     0
171
     2
172
     0
173
     0
174
     0
175
     0
176
   256
177
   256
178
     2
  0
DIMSTYLE
  2
AM_ANSI$3
 70
     0
  3

  4
mm
  5

  6

  7

 40
1.0
 41
0.1
 42
0.05
 43
0.5
 44
0.1
 45
0.0
 46
0.0
 47
0.1
 48
0.1
140
0.12
141
0.0
142
0.0
143
25.399999999999999
144
1.0
145
0.0
146
0.71
147
0.06
 71
     0
 72
     0
 73
     1
 74
     1
 75
     0
 76
     0
 77
     0
 78
     7
170
     0
171
     2
172
     0
173
     0
174
     0
175
     0
176
   256
177
   256
178
     2
  0
DIMSTYLE
  2
AM_ANSI$4
 70
     0
  3

  4
mm
  5

  6

  7

 40
1.0
 41
0.1
 42
0.05
 43
0.5
 44
0.1
 45
0.0
 46
0.0
 47
0.1
 48
0.1
140
0.12
141
0.0
142
0.0
143
25.399999999999999
144
1.0
145
0.0
146
0.71
147
0.06
 71
     0
 72
     0
 73
     1
 74
     1
 75
     0
 76
     0
 77
     0
 78
     7
170
     0
171
     2
172
     0
173
     0
174
     0
175
     0
176
   256
177
   256
178
     2
  0
DIMSTYLE
  2
AM_ANSI$7
 70
     0
  3

  4
mm
  5

  6

  7

 40
1.0
 41
0.1
 42
0.05
 43
0.5
 44
0.1
 45
0.0
 46
0.0
 47
0.1
 48
0.1
140
0.24
141
0.0
142
0.0
143
25.399999999999999
144
1.0
145
0.0
146
0.71
147
0.06
 71
     0
 72
     0
 73
     1
 74
     1
 75
     0
 76
     0
 77
     0
 78
     7
170
     0
171
     2
172
     0
173
     0
174
     0
175
     0
176
   256
177
   256
178
     2
  0
DIMSTYLE
  2
AM_ANSI$SF
 70
     0
  3

  4
mm
  5

  6

  7

 40
1.0
 41
0.1
 42
0.05
 43
0.5
 44
0.1
 45
0.0
 46
0.0
 47
0.1
 48
0.1
140
0.12
141
0.0
142
0.0
143
25.399999999999999
144
1.0
145
0.0
146
0.71
147
0.06
 71
     0
 72
     0
 73
     1
 74
     1
 75
     1
 76
     1
 77
     0
 78
     7
170
     0
171
     2
172
     0
173
     0
174
     0
175
     0
176
   256
177
   256
178
     2
  0
DIMSTYLE
  2
AM_ANSI$SH
 70
     0
  3

  4
mm
  5

  6

  7

 40
1.0
 41
0.1
 42
0.05
 43
0.5
 44
0.1
 45
0.0
 46
0.0
 47
0.1
 48
0.1
140
0.12
141
0.0
142
0.0
143
25.399999999999999
144
1.0
145
0.0
146
0.71
147
0.06
 71
     0
 72
     0
 73
     1
 74
     1
 75
     1
 76
     1
 77
     0
 78
     7
170
     0
171
     2
172
     0
173
     1
174
     0
175
     0
176
   256
177
   256
178
     2
  0
ENDTAB
  0
ENDSEC
  0
SECTION
  2
BLOCKS
  0
BLOCK
  8
0
  2
$MODEL_SPACE
 70
     0
 10
0.0
 20
0.0
 30
0.0
  3
$MODEL_SPACE
  1

  0
ENDBLK
  5
3369
  8
0
  0
BLOCK
 67
     1
  8
0
  2
$PAPER_SPACE
 70
     0
 10
0.0
 20
0.0
 30
0.0
  3
$PAPER_SPACE
  1

  0
ENDBLK
  5
3365
 67
     1
  8
0
  0
BLOCK
  8
0
  2
GENAXEH
 70
     0
 10
0.0
 20
0.0
 30
0.0
  3
GENAXEH
  1

  0
LINE
  5
30CB
  8
0
 10
-1.0
 20
0.0
 30
0.0
 11
1.0
 21
0.0
 31
0.0
  0
ENDBLK
  5
30CC
  8
0
  0
BLOCK
  8
0
  2
_OPEN30
 70
     0
 10
0.0
 20
0.0
 30
0.0
  3
_OPEN30
  1

  0
LINE
  5
30CF
  8
0
 62
     0
 10
-1.0
 20
0.26794919
 30
0.0
 11
0.0
 21
0.0
 31
0.0
  0
LINE
  5
30D0
  8
0
 62
     0
 10
0.0
 20
0.0
 30
0.0
 11
-1.0
 21
-0.26794919
 31
0.0
  0
LINE
  5
30D1
  8
0
 62
     0
 10
0.0
 20
0.0
 30
0.0
 11
-1.0
 21
0.0
 31
0.0
  0
ENDBLK
  5
30D2
  8
0
  0
BLOCK
  8
0
  2
_NONE
 70
     0
 10
0.0
 20
0.0
 30
0.0
  3
_NONE
  1

  0
ENDBLK
  5
30D5
  8
0
  0
BLOCK
  8
0
  2
_ACMFILLEDHALF
 70
     0
 10
0.0
 20
0.0
 30
0.0
  3
_ACMFILLEDHALF
  1

  0
TRACE
  5
3461
  8
AM_0
 62
     0
 10
-0.8
 20
0.0
 30
0.0
 11
-1.0
 21
0.166666666
 31
0.0
 12
0.0
 22
0.0
 32
0.0
 13
0.0
 23
0.0
 33
0.0
  0
LINE
  5
3462
  8
AM_0
 62
     0
 10
-1.0
 20
0.0
 30
0.0
 11
-0.8
 21
0.0
 31
0.0
  0
ENDBLK
  5
3460
  8
0
  0
ENDSEC
  0
SECTION
  2
ENTITIES
  0
LINE
  5
30D6
  8
AM_0
 10
388.37844087483762
 20
585.16074438103874
 30
0.0
 11
388.37844087483762
 21
475.05692738103852
 31
0.0
  0
LINE
  5
30D7
  8
AM_0
 10
386.37844087483762
 20
565.10883538103849
 30
0.0
 11
386.37844087483762
 21
495.10883538103872
 31
0.0
  0
LINE
  5
30D8
  8
AM_0
 10
486.87844087483768
 20
602.07103638103854
 30
0.0
 11
486.87844087483768
 21
445.58316438103873
 31
0.0
  0
LINE
  5
30D9
  8
AM_0
 10
423.2491318748377
 20
585.73607738103874
 30
0.0
 11
423.2491318748377
 21
474.15488838103852
 31
0.0
  0
LINE
  5
30DA
  8
AM_0
 10
566.37839087483769
 20
659.65867038103875
 30
0.0
 11
566.37839087483769
 21
423.13913538103839
 31
0.0
  0
LINE
  5
30DB
  8
AM_0
 10
506.87844087483768
 20
650.10887038103874
 30
0.0
 11
506.87844087483768
 21
410.10883038103862
 31
0.0
  0
LINE
  5
30DC
  8
AM_0
 10
519.87839087483758
 20
648.10882038103853
 30
0.0
 11
519.87839087483758
 21
412.10880038103858
 31
0.0
  0
LINE
  5
30DD
  8
AM_0
 10
575.87839087483769
 20
694.82822038103848
 30
0.0
 11
575.87839087483769
 21
443.29065538103862
 31
0.0
  0
LINE
  5
30DE
  8
AM_0
 10
585.87839087483758
 20
697.10882038103853
 30
0.0
 11
585.87839087483758
 21
464.5027503810386
 31
0.0
  0
LINE
  5
30DF
  8
AM_0
 10
667.87839087483769
 20
612.0664703810387
 30
0.0
 11
667.87839087483769
 21
415.10883038103862
 31
0.0
  0
LINE
  5
30E0
  8
AM_0
 10
700.87839087483781
 20
679.43602038103825
 30
0.0
 11
700.87839087483781
 21
431.41584038103849
 31
0.0
  0
LINE
  5
30E1
  8
AM_0
 10
590.87839087483758
 20
567.21482038103852
 30
0.0
 11
590.87839087483758
 21
477.34781538103852
 31
0.0
  0
LINE
  5
30E2
  8
AM_0
 10
732.87839087483724
 20
633.17747038103835
 30
0.0
 11
732.87839087483724
 21
517.04023038103855
 31
0.0
  0
LINE
  5
30E3
  8
AM_0
 10
727.87839087483724
 20
655.52712038103834
 30
0.0
 11
727.87839087483724
 21
408.76908038103852
 31
0.0
  0
LINE
  5
30E4
  8
AM_0
 10
738.87839087483769
 20
605.10883538103872
 30
0.0
 11
738.87839087483769
 21
545.10883538103872
 31
0.0
  0
LINE
  5
30E5
  8
AM_0
 10
820.87839087483724
 20
606.6088353810386
 30
0.0
 11
820.87839087483724
 21
547.60883538103872
 31
0.0
  0
LINE
  5
30E6
  8
ﾁｭｳｼﾝｾﾝ
 10
316.30328944466402
 20
530.10883538103872
 30
0.0
 11
571.63961758776156
 21
530.10883538103872
 31
0.0
  0
LINE
  5
30E7
  8
AM_0
 10
559.23039087483755
 20
407.97672038103838
 30
0.0
 11
589.92369087483769
 21
473.08362538103859
 31
0.0
  0
LINE
  5
30E8
  8
AM_0
 10
502.87839087483741
 20
375.10883038103862
 30
0.0
 11
732.87839087483724
 21
375.10883038103862
 31
0.0
  0
LINE
  5
30E9
  8
ｶｸﾚｾﾝ2
 10
542.37839087483769
 20
405.10883038103862
 30
0.0
 11
542.37839087483769
 21
375.10883038103862
 31
0.0
  0
LINE
  5
30EA
  8
AM_0
 10
502.87839087483741
 20
400.1088303810385
 30
0.0
 11
502.87839087483741
 21
375.10883038103862
 31
0.0
  0
LINE
  5
30EB
  8
ｶｸﾚｾﾝ2
 10
523.37839087483758
 20
405.10883038103862
 30
0.0
 11
523.37839087483758
 21
375.10883038103862
 31
0.0
  0
LINE
  5
30EC
  8
ﾁｭｳｼﾝｾﾝ1
 10
532.87839087483735
 20
408.10883038103862
 30
0.0
 11
532.87839087483735
 21
372.10883038103862
 31
0.0
  0
LINE
  5
30ED
  8
AM_0
 10
485.09237887483761
 20
419.60751938103851
 30
0.0
 11
425.96183687483762
 21
469.22393538103859
 31
0.0
  0
LINE
  5
30EE
  8
AM_0
 10
386.37844087483762
 20
495.10883538103872
 30
0.0
 11
388.37844087483762
 21
493.10883538103872
 31
0.0
  0
LINE
  5
30EF
  8
AM_0
 10
382.37844087483762
 20
550.10883538103872
 30
0.0
 11
382.37844087483762
 21
510.10883538103872
 31
0.0
  0
LINE
  5
30F0
  8
AM_0
 10
382.37844087483762
 20
510.10883538103872
 30
0.0
 11
386.37844087483762
 21
510.10883538103872
 31
0.0
  0
LINE
  5
30F1
  8
AM_0
 10
324.37844087483762
 20
550.60883538103872
 30
0.0
 11
369.37844087483762
 21
550.60883538103872
 31
0.0
  0
LINE
  5
30F2
  8
AM_0
 10
382.37844087483762
 20
547.60883538103872
 30
0.0
 11
324.37844087483762
 21
547.60883538103872
 31
0.0
  0
LINE
  5
30F3
  8
AM_0
 10
324.37844087483762
 20
512.60883538103872
 30
0.0
 11
382.37844087483762
 21
512.60883538103872
 31
0.0
  0
LINE
  5
30F4
  8
AM_0
 10
324.37844087483762
 20
547.60883538103872
 30
0.0
 11
324.37844087483762
 21
512.60883538103872
 31
0.0
  0
LINE
  5
30F5
  8
AM_0
 10
324.37844087483762
 20
550.60883538103872
 30
0.0
 11
324.37844087483762
 21
547.60883538103872
 31
0.0
  0
LINE
  5
30F6
  8
AM_0
 10
369.37844087483762
 20
550.60883538103872
 30
0.0
 11
369.37844087483762
 21
547.60883538103872
 31
0.0
  0
LINE
  5
30F7
  8
AM_0
 10
386.37844087483762
 20
550.10883538103872
 30
0.0
 11
382.37844087483762
 21
550.10883538103872
 31
0.0
  0
ARC
  5
30F8
  8
AM_0
 10
419.53396087483759
 20
461.56349038103872
 30
0.0
 40
10.0
 50
49.999999999999922
 51
89.000000000001506
  0
LINE
  5
30F9
  8
AM_0
 10
391.32608387483771
 20
472.0573843810385
 30
0.0
 11
419.70848487483772
 21
471.56196738103858
 31
0.0
  0
ARC
  5
30FA
  8
AM_0
 10
391.37844087483768
 20
475.05692738103852
 30
0.0
 40
3.0
 50
180.0
 51
268.99999999999812
  0
LINE
  5
30FB
  8
AM_0
 10
504.87844087483751
 20
430.02681538103872
 30
0.0
 11
504.87844087483751
 21
478.03002238103841
 31
0.0
  0
LINE
  5
30FC
  8
AM_0
 10
519.87839087483758
 20
443.43393538103851
 30
0.0
 11
566.37839087483769
 21
443.43393538103851
 31
0.0
  0
LINE
  5
30FD
  8
AM_0
 10
519.87839087483758
 20
459.17603038103852
 30
0.0
 11
566.37839087483769
 21
459.17603038103852
 31
0.0
  0
LINE
  5
30FE
  8
AM_0
 10
507.87839087483752
 20
405.10883038103862
 30
0.0
 11
554.70779087483766
 21
405.10883038103862
 31
0.0
  0
ARC
  5
30FF
  8
AM_0
 10
521.87844087483757
 20
416.10883038103862
 30
0.0
 40
2.0000000500000001
 50
90.000003000000007
 51
180.00001
  0
ARC
  5
3100
  8
AM_0
 10
517.87839087483769
 20
412.10880038103858
 30
0.0
 40
2.0000000500000001
 50
270.0
 51
0.0
  0
ARC
  5
3101
  8
AM_0
 10
517.87839087483769
 20
447.93796538103862
 30
0.0
 40
2.0000000500000001
 50
270.0
 51
0.0
  0
ARC
  5
3102
  8
AM_0
 10
517.87839087483769
 20
432.38159538103849
 30
0.0
 40
2.0000000500000001
 50
270.0
 51
0.0
  0
LINE
  5
3103
  8
AM_0
 10
486.87844087483768
 20
414.10883538103872
 30
0.0
 11
486.87844087483768
 21
430.02681538103872
 31
0.0
  0
ARC
  5
3104
  8
AM_0
 10
490.87844087483768
 20
414.10883538103872
 30
0.0
 40
4.0
 50
180.0
 51
270.0
  0
ARC
  5
3105
  8
AM_0
 10
481.87844087483768
 20
415.77729738103852
 30
0.0
 40
5.0
 50
0.0
 51
49.999999999999922
  0
ARC
  5
3106
  8
AM_0
 10
507.87839087483752
 20
400.1088303810385
 30
0.0
 40
5.0
 50
90.000003000000007
 51
180.00001
  0
LINE
  5
3107
  8
AM_0
 10
490.87844087483768
 20
410.10883538103872
 30
0.0
 11
504.87844087483751
 21
410.10883538103872
 31
0.0
  0
LINE
  5
3108
  8
AM_0
 10
506.87844087483768
 20
410.10883038103862
 30
0.0
 11
517.87839087483769
 21
410.10883038103862
 31
0.0
  0
LINE
  5
3109
  8
AM_0
 10
504.87844087483751
 20
410.10883538103872
 30
0.0
 11
506.87844087483768
 21
412.10883538103872
 31
0.0
  0
LINE
  5
310A
  8
AM_0
 10
504.87844087483751
 20
430.02681538103872
 30
0.0
 11
482.37967387483769
 21
430.02681538103872
 31
0.0
  0
LINE
  5
310B
  8
AM_0
 10
486.87844087483768
 20
445.58316438103873
 30
0.0
 11
482.4551618748377
 21
445.58316438103873
 31
0.0
  0
ARC
  5
310C
  8
AM_0
 10
482.4551618748377
 20
449.58316438103873
 30
0.0
 40
4.0
 50
186.39509300000049
 51
270.0
  0
ARC
  5
310D
  8
AM_0
 10
473.8247088748376
 20
445.20267138103873
 30
0.0
 40
3.0
 50
7.6081479999975583
 51
68.357691000001253
  0
LINE
  5
310E
  8
AM_0
 10
478.87844087483768
 20
445.58316438103873
 30
0.0
 11
478.87844087483768
 21
434.83711538103847
 31
0.0
  0
LINE
  5
310F
  8
AM_0
 10
478.41488687483769
 20
433.49722538103879
 30
0.0
 11
476.7982988748376
 21
445.59986338103852
 31
0.0
  0
ARC
  5
3110
  8
AM_0
 10
482.37967387483769
 20
434.02681538103872
 30
0.0
 40
4.0
 50
187.60814799999741
 51
270.0
  0
ARC
  5
3111
  8
AM_0
 10
473.76809187483769
 20
464.24430638103883
 30
0.0
 40
3.0
 50
6.3950930000004771
 51
71.538410999999911
  0
LINE
  5
3112
  8
AM_0
 10
476.45063287483759
 20
467.24430638103871
 30
0.0
 11
486.33480487483769
 21
467.24430638103871
 31
0.0
  0
LINE
  5
3113
  8
AM_0
 10
476.45063287483759
 20
448.20267138103873
 30
0.0
 11
476.45063287483759
 21
462.99234038103862
 31
0.0
  0
LINE
  5
3114
  8
AM_0
 10
478.48005187483773
 20
449.13762938103878
 30
0.0
 11
476.74942487483759
 21
464.57845838103879
 31
0.0
  0
LINE
  5
3115
  8
AM_0
 10
506.87844087483768
 20
445.93796538103851
 30
0.0
 11
517.87839087483769
 21
445.93796538103851
 31
0.0
  0
LINE
  5
3116
  8
AM_0
 10
506.87844087483768
 20
430.38163038103858
 30
0.0
 11
517.87839087483769
 21
430.38163038103858
 31
0.0
  0
LINE
  5
3117
  8
AM_0
 10
504.87844087483751
 20
430.02681538103872
 30
0.0
 11
506.87844087483768
 21
432.02681538103872
 31
0.0
  0
LINE
  5
3118
  8
AM_0
 10
507.8572908748377
 20
455.67188038103859
 30
0.0
 11
518.88619087483767
 21
455.67188038103859
 31
0.0
  0
LINE
  5
3119
  8
AM_0
 10
521.87844087483757
 20
418.10883038103862
 30
0.0
 11
564.0069408748376
 21
418.10883038103862
 31
0.0
  0
ARC
  5
311A
  8
AM_0
 10
554.70779087483766
 20
410.10883038103862
 30
0.0
 40
5.0
 50
270.0
 51
334.75947000000002
  0
ARC
  5
311B
  8
AM_0
 10
490.87844087483768
 20
482.03002238103841
 30
0.0
 40
4.0
 50
180.0
 51
270.0
  0
LINE
  5
311C
  8
AM_0
 10
492.13127287483758
 20
478.03002238103841
 30
0.0
 11
504.87844087483751
 21
478.03002238103841
 31
0.0
  0
LINE
  5
311D
  8
AM_0
 10
488.4134368748376
 20
484.48277238103873
 30
0.0
 11
503.2377168748377
 21
484.48277238103873
 31
0.0
  0
LINE
  5
311E
  8
AM_0
 10
504.87844087483751
 20
478.03002238103841
 30
0.0
 11
506.87844087483768
 21
480.0300223810388
 31
0.0
  0
LINE
  5
311F
  8
ｶｸﾚｾﾝ2
 10
693.37839087483769
 20
405.10883038103862
 30
0.0
 11
693.37839087483769
 21
375.10883038103862
 31
0.0
  0
LINE
  5
3120
  8
ｶｸﾚｾﾝ2
 10
712.37839087483769
 20
405.10883038103862
 30
0.0
 11
712.37839087483769
 21
375.10883038103862
 31
0.0
  0
LINE
  5
3121
  8
AM_0
 10
732.87839087483724
 20
400.1088303810385
 30
0.0
 11
732.87839087483724
 21
375.10883038103862
 31
0.0
  0
LINE
  5
3122
  8
ﾁｭｳｼﾝｾﾝ1
 10
702.87839087483735
 20
409.0167003810385
 30
0.0
 11
702.87839087483735
 21
372.10883038103862
 31
0.0
  0
LINE
  5
3123
  8
AM_0
 10
677.87839087483735
 20
405.10883038103862
 30
0.0
 11
727.87839087483724
 21
405.10883038103862
 31
0.0
  0
ARC
  5
3124
  8
AM_0
 10
690.87839087483781
 20
431.41584038103849
 30
0.0
 40
10.0
 50
270.0
 51
0.0
  0
LINE
  5
3125
  8
AM_0
 10
667.87839087483769
 20
421.41584038103861
 30
0.0
 11
690.87839087483781
 21
421.41584038103861
 31
0.0
  0
ARC
  5
3126
  8
AM_0
 10
677.87839087483735
 20
415.10883038103862
 30
0.0
 40
10.0
 50
179.99998999999991
 51
270.0
  0
ARC
  5
3127
  8
AM_0
 10
580.87839087483769
 20
477.34781538103852
 30
0.0
 40
10.0
 50
334.75947000000002
 51
0.0
  0
ARC
  5
3128
  8
AM_0
 10
727.87839087483724
 20
400.1088303810385
 30
0.0
 40
5.0
 50
0.0
 51
90.000003000000007
  0
ARC
  5
3129
  8
AM_0
 10
732.87839087483724
 20
408.76908038103852
 30
0.0
 40
5.0
 50
179.99998999999991
 51
240.00001
  0
LINE
  5
312A
  8
AM_0
 10
738.87839087483769
 20
547.60883538103872
 30
0.0
 11
820.87839087483724
 21
547.60883538103872
 31
0.0
  0
ARC
  5
312B
  8
AM_0
 10
730.87839087483769
 20
517.04023038103855
 30
0.0
 40
2.0000000500000001
 50
272.0
 51
0.0
  0
ARC
  5
312C
  8
AM_0
 10
729.87839087483781
 20
513.00287538103851
 30
0.0
 40
2.0000000500000001
 50
91.999997999999948
 51
180.00001
  0
LINE
  5
312D
  8
AM_0
 10
729.80859087483782
 20
515.00162538103848
 30
0.0
 11
730.9481408748378
 21
515.04142038103873
 31
0.0
  0
LINE
  5
312E
  8
AM_0
 10
732.87839087483724
 20
545.10883538103872
 30
0.0
 11
738.87839087483769
 21
545.10883538103872
 31
0.0
  0
ARC
  5
312F
  8
AM_0
 10
567.87839087483769
 20
723.10882038103853
 30
0.0
 40
25.000000499999999
 50
306.46672000000001
 51
233.53328999999999
  0
LINE
  5
3130
  8
ﾁｭｳｼﾝｾﾝ
 10
530.12756810098494
 20
575.10883538103872
 30
0.0
 11
826.30724087483782
 21
575.10883538103872
 31
0.0
  0
LINE
  5
3131
  8
AM_0
 10
585.87839087483758
 20
697.10882038103853
 30
0.0
 11
606.05294087483776
 21
696.40432038103825
 31
0.0
  0
CIRCLE
  5
3132
  8
AM_0
 10
567.87839087483769
 20
723.10882038103853
 30
0.0
 40
15.0
  0
LINE
  5
3133
  8
AM_0
 10
485.09237887483761
 20
640.61015138103835
 30
0.0
 11
425.96183687483762
 21
590.99373638103884
 31
0.0
  0
LINE
  5
3134
  8
AM_0
 10
386.37844087483762
 20
565.10883538103849
 30
0.0
 11
388.37844087483762
 21
567.10883538103872
 31
0.0
  0
ARC
  5
3135
  8
AM_0
 10
419.53396087483759
 20
598.65418038103871
 30
0.0
 40
10.0
 50
270.99999999999841
 51
310.0
  0
LINE
  5
3136
  8
AM_0
 10
391.32608387483771
 20
588.16028738103876
 30
0.0
 11
419.70848487483772
 21
588.65570338103885
 31
0.0
  0
ARC
  5
3137
  8
AM_0
 10
391.37844087483768
 20
585.16074438103874
 30
0.0
 40
3.0
 50
90.999999999998465
 51
180.0
  0
LINE
  5
3138
  8
AM_0
 10
486.87844087483768
 20
630.19085638103854
 30
0.0
 11
486.87844087483768
 21
657.10883538103872
 31
0.0
  0
ARC
  5
3139
  8
AM_0
 10
481.87844087483768
 20
644.44037438103874
 30
0.0
 40
5.0
 50
310.0
 51
0.0
  0
ARC
  5
313A
  8
AM_0
 10
550.87839087483769
 20
644.10882038103853
 30
0.0
 40
2.0000000500000001
 50
270.0
 51
0.0
  0
ARC
  5
313B
  8
AM_0
 10
521.87844087483757
 20
644.10882038103853
 30
0.0
 40
2.0000000500000001
 50
179.99998999999991
 51
270.0
  0
ARC
  5
313C
  8
AM_0
 10
564.37844087483757
 20
644.10882038103853
 30
0.0
 40
2.0000000500000001
 50
270.0
 51
0.0
  0
LINE
  5
313D
  8
AM_0
 10
519.87839087483758
 20
601.04166538103846
 30
0.0
 11
566.37839087483769
 21
601.04166538103846
 31
0.0
  0
LINE
  5
313E
  8
AM_0
 10
519.87839087483758
 20
616.78372038103851
 30
0.0
 11
566.37839087483769
 21
616.78372038103851
 31
0.0
  0
ARC
  5
313F
  8
AM_0
 10
517.87839087483769
 20
612.2796703810385
 30
0.0
 40
2.0000000500000001
 50
0.0
 51
90.000003000000007
  0
ARC
  5
3140
  8
AM_0
 10
517.87839087483769
 20
627.83602038103845
 30
0.0
 40
2.0000000500000001
 50
0.0
 51
90.000003000000007
  0
LINE
  5
3141
  8
AM_0
 10
476.45063287483759
 20
612.01499938103871
 30
0.0
 11
476.45063287483759
 21
597.22533038103848
 31
0.0
  0
LINE
  5
3142
  8
AM_0
 10
478.48005187483773
 20
611.08004238103854
 30
0.0
 11
476.74942487483759
 21
595.63921338103853
 31
0.0
  0
ARC
  5
3143
  8
AM_0
 10
473.76809187483769
 20
595.97336538103855
 30
0.0
 40
3.0
 50
288.461589
 51
353.6049069999994
  0
LINE
  5
3144
  8
AM_0
 10
476.45063287483759
 20
592.97336538103855
 30
0.0
 11
486.33480487483769
 21
592.97336538103855
 31
0.0
  0
LINE
  5
3145
  8
AM_0
 10
504.87844087483751
 20
630.19085638103854
 30
0.0
 11
482.37967387483769
 21
630.19085638103854
 31
0.0
  0
LINE
  5
3146
  8
AM_0
 10
504.87844087483751
 20
614.6345073810387
 30
0.0
 11
482.4551618748377
 21
614.6345073810387
 31
0.0
  0
ARC
  5
3147
  8
AM_0
 10
490.87844087483768
 20
602.07103638103854
 30
0.0
 40
4.0
 50
90.0
 51
180.0
  0
LINE
  5
3148
  8
AM_0
 10
478.41488687483769
 20
626.72044538103853
 30
0.0
 11
476.7982988748376
 21
614.61780738103835
 31
0.0
  0
LINE
  5
3149
  8
AM_0
 10
478.87844087483768
 20
614.6345073810387
 30
0.0
 11
478.87844087483768
 21
625.38055638103845
 31
0.0
  0
ARC
  5
314A
  8
AM_0
 10
473.8247088748376
 20
615.01499938103871
 30
0.0
 40
3.0
 50
291.6423089999987
 51
352.3918520000023
  0
ARC
  5
314B
  8
AM_0
 10
482.4551618748377
 20
610.6345073810387
 30
0.0
 40
4.0
 50
90.0
 51
173.60490699999951
  0
ARC
  5
314C
  8
AM_0
 10
482.37967387483769
 20
626.19085638103854
 30
0.0
 40
4.0
 50
90.0
 51
172.39185199999591
  0
LINE
  5
314D
  8
AM_0
 10
504.87844087483751
 20
630.19085638103854
 30
0.0
 11
504.87844087483751
 21
614.6345073810387
 31
0.0
  0
LINE
  5
314E
  8
AM_0
 10
490.87844087483768
 20
606.07103638103854
 30
0.0
 11
504.87844087483751
 21
606.07103638103854
 31
0.0
  0
LINE
  5
314F
  8
AM_0
 10
506.87844087483768
 20
614.27967038103827
 30
0.0
 11
517.87839087483769
 21
614.27967038103827
 31
0.0
  0
LINE
  5
3150
  8
AM_0
 10
507.8572908748377
 20
604.54578538103874
 30
0.0
 11
518.88619087483767
 21
604.54578538103874
 31
0.0
  0
LINE
  5
3151
  8
AM_0
 10
504.87844087483751
 20
614.6345073810387
 30
0.0
 11
506.87844087483768
 21
612.63450738103847
 31
0.0
  0
LINE
  5
3152
  8
AM_0
 10
506.87844087483768
 20
629.83602038103857
 30
0.0
 11
517.87839087483769
 21
629.83602038103857
 31
0.0
  0
LINE
  5
3153
  8
AM_0
 10
504.87844087483751
 20
630.19085638103854
 30
0.0
 11
506.87844087483768
 21
628.19085638103877
 31
0.0
  0
ARC
  5
3154
  8
AM_0
 10
517.87839087483769
 20
648.10882038103853
 30
0.0
 40
2.0000000500000001
 50
0.0
 51
90.000003000000007
  0
ARC
  5
3155
  8
AM_0
 10
490.87844087483768
 20
657.10883538103872
 30
0.0
 40
4.0
 50
90.0
 51
180.0
  0
LINE
  5
3156
  8
AM_0
 10
487.61712087483772
 20
649.04000638103878
 30
0.0
 11
503.87942887483757
 21
649.04000638103878
 31
0.0
  0
LINE
  5
3157
  8
AM_0
 10
502.87844087483768
 20
661.10883538103872
 30
0.0
 11
504.87844087483751
 21
659.10883538103872
 31
0.0
  0
LINE
  5
3158
  8
AM_0
 10
490.87844087483768
 20
661.10883538103872
 30
0.0
 11
502.87844087483768
 21
661.10883538103872
 31
0.0
  0
LINE
  5
3159
  8
AM_0
 10
506.87844087483768
 20
650.10887038103874
 30
0.0
 11
517.87839087483769
 21
650.10887038103874
 31
0.0
  0
LINE
  5
315A
  8
AM_0
 10
504.87844087483751
 20
659.10883538103872
 30
0.0
 11
504.87844087483751
 21
650.10883538103872
 31
0.0
  0
LINE
  5
315B
  8
AM_0
 10
504.87844087483751
 20
650.10883538103872
 30
0.0
 11
506.87844087483768
 21
648.1088353810386
 31
0.0
  0
LINE
  5
315C
  8
AM_0
 10
552.87839087483735
 20
692.10882038103853
 30
0.0
 11
552.87839087483735
 21
644.10882038103853
 31
0.0
  0
LINE
  5
315D
  8
AM_0
 10
550.87839087483769
 20
642.10882038103853
 30
0.0
 11
564.37844087483757
 21
642.10882038103853
 31
0.0
  0
LINE
  5
315E
  8
AM_0
 10
521.87844087483757
 20
642.10882038103853
 30
0.0
 11
550.87839087483769
 21
642.10882038103853
 31
0.0
  0
LINE
  5
315F
  8
AM_0
 10
575.1024908748376
 20
674.88372038103853
 30
0.0
 11
567.15434087483777
 21
662.33392038103875
 31
0.0
  0
ARC
  5
3160
  8
AM_0
 10
571.37839087483769
 20
659.65867038103875
 30
0.0
 40
5.0
 50
147.65255999999991
 51
180.00001
  0
ARC
  5
3161
  8
AM_0
 10
570.87839087483769
 20
677.55902038103852
 30
0.0
 40
5.0
 50
327.65255999999982
 51
0.0
  0
ARC
  5
3162
  8
AM_0
 10
549.45334087483775
 20
698.17857038103853
 30
0.0
 40
6.0
 50
349.72994999999997
 51
53.533291000000013
  0
ARC
  5
3163
  8
AM_0
 10
557.87839087483735
 20
692.10882038103853
 30
0.0
 40
5.0
 50
90.000003000000007
 51
180.00001
  0
LINE
  5
3164
  8
AM_0
 10
558.40034087483775
 20
706.22977038103852
 30
0.0
 11
567.87839087483769
 21
708.10882038103853
 31
0.0
  0
LINE
  5
3165
  8
AM_0
 10
567.87844087483757
 20
708.10882038103853
 30
0.0
 11
577.35644087483774
 21
706.22982038103885
 31
0.0
  0
LINE
  5
3166
  8
AM_0
 10
558.08434087483772
 20
706.10882038103853
 30
0.0
 11
577.67239087483756
 21
706.10882038103853
 31
0.0
  0
LINE
  5
3167
  8
AM_0
 10
557.87839087483735
 20
697.10882038103853
 30
0.0
 11
585.57839087483774
 21
697.10882038103853
 31
0.0
  0
ARC
  5
3168
  8
AM_0
 10
558.5948408748377
 20
705.24892038103883
 30
0.0
 40
1.0
 50
101.21329
 51
164.99999
  0
LINE
  5
3169
  8
AM_0
 10
555.16374087483791
 20
696.30772038103885
 30
0.0
 11
557.62889087483757
 21
705.50777038103865
 31
0.0
  0
ARC
  5
316A
  8
AM_0
 10
577.87839087483735
 20
694.82822038103848
 30
0.0
 40
2.0000000500000001
 50
91.999997999999948
 51
180.00001
  0
ARC
  5
316B
  8
AM_0
 10
586.30339087483765
 20
698.17857038103853
 30
0.0
 40
6.0
 50
126.4666999999999
 51
190.27006
  0
ARC
  5
316C
  8
AM_0
 10
577.16204087483754
 20
705.24892038103883
 30
0.0
 40
1.0
 50
15.0
 51
78.786709999999999
  0
LINE
  5
316D
  8
AM_0
 10
585.57839087483774
 20
697.10882038103853
 30
0.0
 11
585.87839087483758
 21
697.10882038103853
 31
0.0
  0
LINE
  5
316E
  8
AM_0
 10
580.37839087483769
 20
697.10882038103853
 30
0.0
 11
578.1278908748377
 21
705.50772038103855
 31
0.0
  0
LINE
  5
316F
  8
AM_0
 10
577.80859087483759
 20
696.82702038103855
 30
0.0
 11
585.57834087483775
 21
697.09837038103865
 31
0.0
  0
LINE
  5
3170
  8
AM_0
 10
710.00689087483761
 20
661.67242038103848
 30
0.0
 11
723.31419087483755
 21
660.50817038103855
 31
0.0
  0
LINE
  5
3171
  8
AM_0
 10
610.87839087483758
 20
691.4073703810385
 30
0.0
 11
610.87839087483758
 21
567.21482038103852
 31
0.0
  0
LINE
  5
3172
  8
AM_0
 10
590.87839087483758
 20
567.21482038103852
 30
0.0
 11
610.87839087483758
 21
567.21482038103852
 31
0.0
  0
LINE
  5
3173
  8
AM_0
 10
682.87839087483735
 20
627.06647038103847
 30
0.0
 11
700.87839087483781
 21
627.06647038103847
 31
0.0
  0
ARC
  5
3174
  8
AM_0
 10
682.87839087483735
 20
612.0664703810387
 30
0.0
 40
15.0
 50
90.000003000000007
 51
180.00001
  0
LINE
  5
3175
  8
AM_0
 10
613.90664087483765
 20
692.13002038103855
 30
0.0
 11
691.22739087483785
 21
689.42997038103852
 31
0.0
  0
ARC
  5
3176
  8
AM_0
 10
605.87839087483769
 20
691.4073703810385
 30
0.0
 40
5.0
 50
34.887349999999998
 51
88.0
  0
ARC
  5
3177
  8
AM_0
 10
614.0811908748376
 20
697.12697038103852
 30
0.0
 40
5.0
 50
214.88733999999991
 51
268.0
  0
ARC
  5
3178
  8
AM_0
 10
690.87839087483781
 20
679.43602038103825
 30
0.0
 40
10.0
 50
0.0
 51
88.0
  0
ARC
  5
3179
  8
AM_0
 10
710.87839087483781
 20
671.63432038103826
 30
0.0
 40
10.0
 50
179.99998999999991
 51
265.0
  0
LINE
  5
317A
  8
AM_0
 10
738.87839087483769
 20
602.60883538103849
 30
0.0
 11
820.87839087483724
 21
602.60883538103849
 31
0.0
  0
LINE
  5
317B
  8
AM_0
 10
758.87839087483781
 20
606.6088353810386
 30
0.0
 11
820.87839087483724
 21
606.6088353810386
 31
0.0
  0
LINE
  5
317C
  8
AM_0
 10
732.87839087483724
 20
605.10883538103872
 30
0.0
 11
738.87839087483769
 21
605.10883538103872
 31
0.0
  0
ARC
  5
317D
  8
AM_0
 10
730.87839087483769
 20
633.17747038103835
 30
0.0
 40
2.0000000500000001
 50
0.0
 51
88.0
  0
ARC
  5
317E
  8
AM_0
 10
729.87839087483781
 20
637.21482038103852
 30
0.0
 40
2.0000000500000001
 50
179.99998999999991
 51
268.00000999999992
  0
LINE
  5
317F
  8
AM_0
 10
729.80864087483747
 20
635.21602038103845
 30
0.0
 11
730.94824087483778
 21
635.17627038103853
 31
0.0
  0
LINE
  5
3180
  8
AM_0
 10
758.87839087483781
 20
606.6088353810386
 30
0.0
 11
758.87839087483781
 21
602.60883538103849
 31
0.0
  0
ARC
  5
3181
  8
AM_0
 10
722.87839087483746
 20
655.52712038103834
 30
0.0
 40
5.0
 50
0.0
 51
84.999996999999979
  0
LINE
  5
3182
  8
AM_0
 10
1070.873925361115
 20
417.10880038103852
 30
0.0
 11
1070.873925361115
 21
560.10883538103872
 31
0.0
  0
LINE
  5
3183
  8
ﾁｭｳｼﾝｾﾝ
 10
1170.8739253611141
 20
369.10883038103862
 30
0.0
 11
1170.8739253611141
 21
750.2167703810386
 31
0.0
  0
LINE
  5
3184
  8
AM_0
 10
1053.873895361115
 20
482.07273038103853
 30
0.0
 11
1053.873895361115
 21
626.04262038103855
 31
0.0
  0
LINE
  5
3185
  8
AM_0
 10
1005.873905361114
 20
405.10883038103862
 30
0.0
 11
1044.0712503611151
 21
601.6171653810386
 31
0.0
  0
LINE
  5
3186
  8
AM_0
 10
1270.873895361115
 20
417.10880038103852
 30
0.0
 11
1270.873895361115
 21
560.10883538103872
 31
0.0
  0
LINE
  5
3187
  8
AM_0
 10
1287.873895361115
 20
482.07273038103853
 30
0.0
 11
1287.873895361115
 21
626.04262038103855
 31
0.0
  0
LINE
  5
3188
  8
AM_0
 10
1335.873900361114
 20
405.10886038103848
 30
0.0
 11
1297.6765553611151
 21
601.6171653810386
 31
0.0
  0
ARC
  5
3189
  8
AM_0
 10
1170.8739253611141
 20
575.10883538103872
 30
0.0
 40
27.500000499999999
 50
106.91239
 51
73.087597000000002
  0
ARC
  5
318A
  8
AM_0
 10
1170.8739253611141
 20
575.10883538103872
 30
0.0
 40
60.0
 50
90.000003000000007
 51
270.0
  0
ARC
  5
318B
  8
AM_0
 10
1170.8739253611141
 20
575.10883538103872
 30
0.0
 40
60.0
 50
270.0
 51
90.000003000000007
  0
LINE
  5
318C
  8
AM_0
 10
1170.8739253611141
 20
382.10883038103862
 30
0.0
 11
1080.873925361115
 21
382.10883038103862
 31
0.0
  0
LINE
  5
318D
  8
ﾁｭｳｼﾝｾﾝ
 10
1036.992049513909
 20
530.10883538103872
 30
0.0
 11
1304.4379841791661
 21
530.10883538103872
 31
0.0
  0
LINE
  5
318E
  8
AM_0
 10
1170.8739253611141
 20
391.10883038103862
 30
0.0
 11
1111.864585361114
 21
391.10883038103862
 31
0.0
  0
LINE
  5
318F
  8
AM_0
 10
1075.873925361115
 20
400.1088303810385
 30
0.0
 11
1075.873925361115
 21
375.10883038103862
 31
0.0
  0
ARC
  5
3190
  8
AM_0
 10
1080.873925361115
 20
377.10883038103862
 30
0.0
 40
5.0
 50
90.000003000000007
 51
180.00001
  0
ARC
  5
3191
  8
AM_0
 10
1085.8739253611141
 20
380.96668038103871
 30
0.0
 40
10.0
 50
135.0
 51
180.00001
  0
LINE
  5
3192
  8
ｶｸﾚｾﾝ2
 10
1028.873895361115
 20
405.10883038103862
 30
0.0
 11
1028.873895361115
 21
375.10883038103862
 31
0.0
  0
LINE
  5
3193
  8
ｶｸﾚｾﾝ2
 10
1047.873895361115
 20
405.10883038103862
 30
0.0
 11
1047.873895361115
 21
375.10883038103862
 31
0.0
  0
LINE
  5
3194
  8
AM_0
 10
1005.873905361114
 20
405.10883038103862
 30
0.0
 11
1005.873905361114
 21
375.10883038103862
 31
0.0
  0
LINE
  5
3195
  8
ﾁｭｳｼﾝｾﾝ1
 10
1038.373925361115
 20
409.77008538103871
 30
0.0
 11
1038.373925361115
 21
372.10883038103862
 31
0.0
  0
LINE
  5
3196
  8
AM_0
 10
1075.873925361115
 20
375.10883038103862
 30
0.0
 11
1005.873905361114
 21
375.10883038103862
 31
0.0
  0
ARC
  5
3197
  8
AM_0
 10
1170.8739253611141
 20
482.10880038103858
 30
0.0
 40
117.0
 50
179.99998999999991
 51
211.27329999999989
  0
LINE
  5
3198
  8
AM_0
 10
1070.873925361115
 20
405.10883038103862
 30
0.0
 11
1010.873905361114
 21
405.10883038103862
 31
0.0
  0
ARC
  5
3199
  8
AM_0
 10
1010.873905361114
 20
400.1088303810385
 30
0.0
 40
5.0
 50
90.000003000000007
 51
180.00001
  0
ARC
  5
319A
  8
AM_0
 10
1094.0643853611141
 20
389.15717038103861
 30
0.0
 40
10.0
 50
54.999999000000003
 51
135.0
  0
LINE
  5
319B
  8
AM_0
 10
1078.8028503611149
 20
388.03775538103861
 30
0.0
 11
1086.993310361114
 21
396.22824538103851
 31
0.0
  0
ARC
  5
319C
  8
AM_0
 10
1058.8738953611139
 20
417.10880038103852
 30
0.0
 40
12.0
 50
270.0
 51
0.0
  0
ARC
  5
319D
  8
AM_0
 10
1070.873925361115
 20
400.1088303810385
 30
0.0
 40
5.0
 50
0.0
 51
90.000003000000007
  0
LINE
  5
319E
  8
AM_0
 10
1106.128810361115
 20
392.91730038103861
 30
0.0
 11
1099.8001353611151
 21
397.34870038103861
 31
0.0
  0
ARC
  5
319F
  8
AM_0
 10
1111.864585361114
 20
401.10883038103862
 30
0.0
 40
10.0
 50
235.0
 51
270.0
  0
LINE
  5
31A0
  8
AM_0
 10
1335.873900361114
 20
405.10883038103862
 30
0.0
 11
1335.873900361114
 21
375.10883038103862
 31
0.0
  0
LINE
  5
31A1
  8
ｶｸﾚｾﾝ2
 10
1312.8739003611149
 20
405.10883038103862
 30
0.0
 11
1312.8739003611149
 21
375.10883038103862
 31
0.0
  0
LINE
  5
31A2
  8
ｶｸﾚｾﾝ2
 10
1293.873915361115
 20
405.10883038103862
 30
0.0
 11
1293.873915361115
 21
375.10883038103862
 31
0.0
  0
LINE
  5
31A3
  8
ﾁｭｳｼﾝｾﾝ1
 10
1303.3739003611149
 20
409.77008538103871
 30
0.0
 11
1303.3739003611149
 21
372.10883038103862
 31
0.0
  0
LINE
  5
31A4
  8
AM_0
 10
1265.873895361115
 20
400.1088303810385
 30
0.0
 11
1265.873895361115
 21
375.10883038103862
 31
0.0
  0
ARC
  5
31A5
  8
AM_0
 10
1260.873895361115
 20
377.10883038103862
 30
0.0
 40
5.0
 50
0.0
 51
90.000003000000007
  0
ARC
  5
31A6
  8
AM_0
 10
1255.873895361115
 20
380.96668038103871
 30
0.0
 40
10.0
 50
0.0
 51
45.00000099999999
  0
LINE
  5
31A7
  8
AM_0
 10
1265.873895361115
 20
375.10883038103862
 30
0.0
 11
1335.873900361114
 21
375.10883038103862
 31
0.0
  0
LINE
  5
31A8
  8
AM_0
 10
1170.8739253611141
 20
382.10883038103862
 30
0.0
 11
1260.873895361115
 21
382.10883038103862
 31
0.0
  0
ARC
  5
31A9
  8
AM_0
 10
1247.6834053611151
 20
389.15717038103861
 30
0.0
 40
10.0
 50
45.00000099999999
 51
125.0
  0
LINE
  5
31AA
  8
AM_0
 10
1170.8739253611141
 20
391.10883038103862
 30
0.0
 11
1229.8832353611151
 21
391.10883038103862
 31
0.0
  0
LINE
  5
31AB
  8
AM_0
 10
1235.618985361114
 20
392.91730038103861
 30
0.0
 11
1241.9476603611149
 21
397.34867038103852
 31
0.0
  0
ARC
  5
31AC
  8
AM_0
 10
1229.8832353611151
 20
401.10883038103862
 30
0.0
 40
10.0
 50
270.0
 51
305.0
  0
ARC
  5
31AD
  8
AM_0
 10
1170.8739253611141
 20
482.10880038103858
 30
0.0
 40
117.0
 50
328.72669999999988
 51
0.0
  0
LINE
  5
31AE
  8
AM_0
 10
1270.873895361115
 20
405.10883038103862
 30
0.0
 11
1330.873900361114
 21
405.10883038103862
 31
0.0
  0
ARC
  5
31AF
  8
AM_0
 10
1282.873895361115
 20
417.10880038103852
 30
0.0
 40
12.0
 50
180.00001
 51
270.0
  0
ARC
  5
31B0
  8
AM_0
 10
1270.873895361115
 20
400.1088303810385
 30
0.0
 40
5.0
 50
90.000003000000007
 51
180.00001
  0
LINE
  5
31B1
  8
AM_0
 10
1262.9449903611151
 20
388.03775538103861
 30
0.0
 11
1254.7545103611151
 21
396.22821538103852
 31
0.0
  0
ARC
  5
31B2
  8
AM_0
 10
1330.873900361114
 20
400.1088303810385
 30
0.0
 40
5.0
 50
0.0
 51
90.000003000000007
  0
ARC
  5
31B3
  8
AM_0
 10
1170.8739253611141
 20
550.10883538103872
 30
0.0
 40
147.0
 50
90.000003000000007
 51
134.5979599999998
  0
ARC
  5
31B4
  8
AM_0
 10
1170.8739253611141
 20
550.10883538103872
 30
0.0
 40
142.0
 50
90.000003000000007
 51
136.44563999999991
  0
LINE
  5
31B5
  8
ﾁｭｳｼﾝｾﾝ
 10
1262.673501879972
 20
575.10883538103872
 30
0.0
 11
1078.3733697141699
 21
575.10883538103872
 31
0.0
  0
ARC
  5
31B6
  8
AM_0
 10
1170.8739253611141
 20
560.10883538103872
 30
0.0
 40
100.0
 50
90.000003000000007
 51
180.00001
  0
ARC
  5
31B7
  8
AM_0
 10
1135.362605361114
 20
583.87192538103852
 30
0.0
 40
93.0
 50
136.44563999999991
 51
169.0
  0
ARC
  5
31B8
  8
AM_0
 10
1137.873895361115
 20
583.57523538103874
 30
0.0
 40
100.0
 50
134.5979599999998
 51
180.00001
  0
ARC
  5
31B9
  8
AM_0
 10
1063.873895361115
 20
626.04262038103855
 30
0.0
 40
10.0
 50
149.4639199999998
 51
180.00001
  0
LINE
  5
31BA
  8
AM_0
 10
1037.873895361115
 20
583.57523538103874
 30
0.0
 11
1037.873895361115
 21
569.73453538103854
 31
0.0
  0
LINE
  5
31BB
  8
AM_0
 10
1175.873925361115
 20
743.10882038103853
 30
0.0
 11
1175.873925361115
 21
701.10882038103853
 31
0.0
  0
LINE
  5
31BC
  8
AM_0
 10
1165.873925361115
 20
743.10882038103853
 30
0.0
 11
1165.873925361115
 21
701.10882038103853
 31
0.0
  0
ARC
  5
31BD
  8
AM_0
 10
1170.8739253611141
 20
560.10883538103872
 30
0.0
 40
100.0
 50
0.0
 51
90.000003000000007
  0
ARC
  5
31BE
  8
AM_0
 10
1170.8739253611141
 20
550.10883538103872
 30
0.0
 40
147.0
 50
45.402042999999992
 51
90.000003000000007
  0
ARC
  5
31BF
  8
AM_0
 10
1170.8739253611141
 20
550.10883538103872
 30
0.0
 40
142.0
 50
43.554364
 51
90.000003000000007
  0
LINE
  5
31C0
  8
AM_0
 10
1162.873895361115
 20
596.60883538103872
 30
0.0
 11
1162.873895361115
 21
606.6088353810386
 31
0.0
  0
LINE
  5
31C1
  8
AM_0
 10
1178.873895361115
 20
596.60883538103872
 30
0.0
 11
1178.873895361115
 21
606.6088353810386
 31
0.0
  0
CIRCLE
  5
31C2
  8
AM_5
 10
1170.8739253611141
 20
575.10883538103872
 30
0.0
 40
6.0
  0
CIRCLE
  5
31C3
  8
AM_0
 10
1170.8739253611141
 20
575.10883538103872
 30
0.0
 40
4.500000049999997
  0
LINE
  5
31C4
  8
AM_0
 10
1162.873895361115
 20
596.60883538103872
 30
0.0
 11
1178.873895361115
 21
596.60883538103872
 31
0.0
  0
LINE
  5
31C5
  8
AM_0
 10
1162.873895361115
 20
606.6088353810386
 30
0.0
 11
1178.873895361115
 21
606.6088353810386
 31
0.0
  0
LINE
  5
31C6
  8
AM_0
 10
1175.8738953611139
 20
707.11767038103881
 30
0.0
 11
1180.351955361115
 21
706.22992038103882
 31
0.0
  0
LINE
  5
31C7
  8
AM_0
 10
1161.395870361114
 20
706.22982038103885
 30
0.0
 11
1165.873895361115
 21
707.11757038103883
 31
0.0
  0
LINE
  5
31C8
  8
AM_0
 10
1158.227870361115
 20
696.56387038103867
 30
0.0
 11
1160.624385361114
 21
705.50772038103855
 31
0.0
  0
ARC
  5
31C9
  8
AM_0
 10
1163.873895361115
 20
701.10882038103853
 30
0.0
 40
2.0000000500000001
 50
270.0
 51
0.0
  0
ARC
  5
31CA
  8
AM_0
 10
1161.590325361115
 20
705.24892038103883
 30
0.0
 40
1.0
 50
101.21329
 51
164.99999
  0
ARC
  5
31CB
  8
AM_0
 10
1177.873895361115
 20
701.10882038103853
 30
0.0
 40
2.0000000500000001
 50
179.99998999999991
 51
270.0
  0
LINE
  5
31CC
  8
AM_0
 10
1183.519925361114
 20
696.56387038103867
 30
0.0
 11
1181.123440361114
 21
705.50767038103845
 31
0.0
  0
ARC
  5
31CD
  8
AM_0
 10
1180.1574653611151
 20
705.24892038103883
 30
0.0
 40
1.0
 50
15.0
 51
78.786709999999999
  0
ARC
  5
31CE
  8
AM_0
 10
1206.385220361115
 20
583.87192538103852
 30
0.0
 40
93.0
 50
11.0
 51
43.554364
  0
ARC
  5
31CF
  8
AM_0
 10
1203.873895361115
 20
583.57523538103874
 30
0.0
 40
100.0
 50
0.0
 51
45.402042999999992
  0
LINE
  5
31D0
  8
AM_0
 10
1303.873915361115
 20
583.57523538103874
 30
0.0
 11
1303.873915361115
 21
569.73453538103854
 31
0.0
  0
ARC
  5
31D1
  8
AM_0
 10
1277.873895361115
 20
626.04262038103855
 30
0.0
 40
10.0
 50
0.0
 51
30.536084999999989
  0
ARC
  5
31D2
  8
AM_0
 10
1170.8739253611141
 20
743.10882038103853
 30
0.0
 40
5.0
 50
359.99998999999991
 51
179.99998999999991
  0
LINE
  5
31D3
  8
AM_0
 10
758.87845087483754
 20
1051.764738600077
 30
0.0
 11
820.87839087483724
 21
1051.764738600077
 31
0.0
  0
LINE
  5
31D4
  8
AM_0
 10
758.87845087483754
 20
1035.764678600076
 30
0.0
 11
820.87839087483724
 21
1035.764678600076
 31
0.0
  0
LINE
  5
31D5
  8
AM_0
 10
738.87839087483724
 20
1071.264738600077
 30
0.0
 11
820.87839087483724
 21
1071.264738600077
 31
0.0
  0
LINE
  5
31D6
  8
AM_0
 10
738.87839087483724
 20
1016.264738600077
 30
0.0
 11
820.87839087483724
 21
1016.264738600077
 31
0.0
  0
LINE
  5
31D7
  8
ﾁｭｳｼﾝｾﾝ
 10
316.30328944466402
 20
1043.764738600077
 30
0.0
 11
831.49564087483702
 21
1043.764738600077
 31
0.0
  0
LINE
  5
31D8
  8
AM_0
 10
566.37845087483765
 20
943.33577860007711
 30
0.0
 11
566.37845087483765
 21
1024.8504286000771
 31
0.0
  0
LINE
  5
31D9
  8
AM_0
 10
575.87839087483769
 20
914.01100860007671
 30
0.0
 11
575.87839087483769
 21
1020.764738600077
 31
0.0
  0
LINE
  5
31DA
  8
AM_0
 10
506.87845087483743
 20
1163.764738600077
 30
0.0
 11
506.87845087483743
 21
923.76473860007707
 31
0.0
  0
LINE
  5
31DB
  8
AM_0
 10
519.87839087483735
 20
1161.764738600076
 30
0.0
 11
519.87839087483735
 21
925.76473860007707
 31
0.0
  0
LINE
  5
31DC
  8
AM_0
 10
585.87845087483765
 20
1038.764738600077
 30
0.0
 11
585.87845087483765
 21
910.76473860007673
 31
0.0
  0
LINE
  5
31DD
  8
AM_0
 10
610.87839087483746
 20
911.63771860007705
 30
0.0
 11
610.87839087483746
 21
1175.891688600077
 31
0.0
  0
LINE
  5
31DE
  8
AM_0
 10
700.87845087483765
 20
935.6426086000771
 30
0.0
 11
700.87845087483765
 21
1151.8868086000771
 31
0.0
  0
LINE
  5
31DF
  8
AM_0
 10
727.87845087483754
 20
1141.135708600076
 30
0.0
 11
727.87845087483754
 21
946.39376860007701
 31
0.0
  0
LINE
  5
31E0
  8
AM_0
 10
732.87845087483754
 20
1101.833338600075
 30
0.0
 11
732.87845087483754
 21
985.6961286000768
 31
0.0
  0
LINE
  5
31E1
  8
AM_0
 10
738.87839087483724
 20
1073.764738600077
 30
0.0
 11
738.87839087483724
 21
1013.764738600076
 31
0.0
  0
LINE
  5
31E2
  8
AM_0
 10
585.87839087483746
 20
910.76473860007673
 30
0.0
 11
610.87845087483765
 21
911.63771860007705
 31
0.0
  0
LINE
  5
31E3
  8
AM_0
 10
590.87845087483765
 20
878.76467860007699
 30
0.0
 11
728.05295087483762
 21
883.55495860007704
 31
0.0
  0
ARC
  5
31E4
  8
AM_0
 10
571.37845087483731
 20
943.33577860007711
 30
0.0
 40
5.0
 50
180.00001000000091
 51
224.9999999999952
  0
LINE
  5
31E5
  8
AM_0
 10
521.87845087483743
 20
931.76473860007695
 30
0.0
 11
573.87839087483735
 21
931.76473860007695
 31
0.0
  0
LINE
  5
31E6
  8
AM_0
 10
590.87839087483735
 20
878.76473860007695
 30
0.0
 11
507.7038908748375
 21
881.6692186000771
 31
0.0
  0
CIRCLE
  5
31E7
  8
AM_0
 10
532.87845087483743
 20
911.26473860007707
 30
0.0
 40
9.5
  0
LINE
  5
31E8
  8
AM_0
 10
502.87845087483743
 20
886.66622860007715
 30
0.0
 11
502.87845087483743
 21
923.76473860007707
 31
0.0
  0
ARC
  5
31E9
  8
AM_0
 10
507.87845087483743
 20
886.66622860007715
 30
0.0
 40
5.0
 50
180.00001000000091
 51
268.0000000000029
  0
LINE
  5
31EA
  8
AM_0
 10
506.87845087483743
 20
923.76473860007707
 30
0.0
 11
517.87845087483731
 21
923.76473860007707
 31
0.0
  0
ARC
  5
31EB
  8
AM_0
 10
521.87845087483743
 20
929.76473860007661
 30
0.0
 40
2.0
 50
90.00000299999769
 51
180.00001000000091
  0
ARC
  5
31EC
  8
AM_0
 10
517.87845087483731
 20
925.76473860007707
 30
0.0
 40
2.0
 50
269.999989999999
 51
0.0000006832429909
  0
ARC
  5
31ED
  8
AM_0
 10
587.87845087483765
 20
904.31282860007673
 30
0.0
 40
3.0
 50
289.47202000000402
 51
0.0
  0
LINE
  5
31EE
  8
AM_0
 10
590.87845087483765
 20
893.706138600077
 30
0.0
 11
590.87845087483765
 21
910.939298600077
 31
0.0
  0
LINE
  5
31EF
  8
AM_0
 10
561.87845087483765
 20
891.93801860007704
 30
0.0
 11
588.87845087483765
 21
901.48439860007682
 31
0.0
  0
LINE
  5
31F0
  8
AM_0
 10
558.41470087483742
 20
880.1067186000771
 30
0.0
 11
588.87845087483765
 21
890.87770860007709
 31
0.0
  0
ARC
  5
31F1
  8
AM_0
 10
560.87845087483765
 20
894.76644860007707
 30
0.0
 40
3.0
 50
180.00001000000091
 51
289.47202999999939
  0
ARC
  5
31F2
  8
AM_0
 10
587.87845087483765
 20
893.706138600077
 30
0.0
 40
3.0
 50
289.47202000000402
 51
0.0
  0
LINE
  5
31F3
  8
AM_0
 10
574.41397087483745
 20
933.22914860007711
 30
0.0
 11
567.84293087483729
 21
939.80019860007667
 31
0.0
  0
LINE
  5
31F4
  8
AM_0
 10
585.87845087483765
 20
910.76473860007673
 30
0.0
 11
578.77371087483755
 21
911.01283860007663
 31
0.0
  0
ARC
  5
31F5
  8
AM_0
 10
578.87839087483735
 20
914.01100860007671
 30
0.0
 40
3.0
 50
180.00001000000091
 51
268.0000000000029
  0
ARC
  5
31F6
  8
AM_0
 10
573.87839087483735
 20
929.76473860007661
 30
0.0
 40
2.0
 50
0.0
 51
90.00000299999769
  0
ARC
  5
31F7
  8
AM_0
 10
570.87839087483735
 20
929.69368860007705
 30
0.0
 40
5.0
 50
0.0
 51
44.999998000001611
  0
LINE
  5
31F8
  8
AM_0
 10
519.87839087483735
 20
957.08980860007671
 30
0.0
 11
566.37845087483765
 21
957.08980860007671
 31
0.0
  0
LINE
  5
31F9
  8
AM_0
 10
519.87839087483735
 20
972.83187860007683
 30
0.0
 11
566.37845087483765
 21
972.83187860007683
 31
0.0
  0
ARC
  5
31FA
  8
AM_0
 10
517.87845087483731
 20
961.59383860007699
 30
0.0
 40
2.0
 50
269.999989999999
 51
0.0000006832429909
  0
LINE
  5
31FB
  8
AM_0
 10
506.87845087483743
 20
944.03749860007713
 30
0.0
 11
517.87845087483731
 21
944.03749860007713
 31
0.0
  0
LINE
  5
31FC
  8
AM_0
 10
506.87845087483743
 20
959.59383860007654
 30
0.0
 11
517.87845087483731
 21
959.59383860007654
 31
0.0
  0
ARC
  5
31FD
  8
AM_0
 10
517.87845087483731
 20
946.03743860007705
 30
0.0
 40
2.0
 50
269.999989999999
 51
0.0000006832429909
  0
LINE
  5
31FE
  8
AM_0
 10
507.85733087483732
 20
969.32778860007681
 30
0.0
 11
518.88620087483764
 21
969.32778860007681
 31
0.0
  0
LINE
  5
31FF
  8
AM_0
 10
679.45962087483724
 20
927.1691586000768
 30
0.0
 11
693.15768087483764
 21
927.64748860007683
 31
0.0
  0
LINE
  5
3200
  8
ﾁｭｳｼﾝｾﾝ1
 10
683.37845087483765
 20
911.26473860007707
 30
0.0
 11
722.37845087483754
 21
911.26473860007707
 31
0.0
  0
LINE
  5
3201
  8
AM_0
 10
615.02316087483746
 20
915.78249860007702
 30
0.0
 11
664.71841087483745
 21
917.51784860007672
 31
0.0
  0
LINE
  5
3202
  8
AM_0
 10
610.87845087483765
 20
911.63771860007705
 30
0.0
 11
615.02322087483753
 21
915.78243860007672
 31
0.0
  0
LINE
  5
3203
  8
AM_0
 10
667.87845087483765
 20
886.63124860007701
 30
0.0
 11
667.87845087483765
 21
915.17647860007662
 31
0.0
  0
ARC
  5
3204
  8
AM_0
 10
672.87845087483765
 20
886.63124860007701
 30
0.0
 40
5.0
 50
180.00001000000091
 51
271.99999000000111
  0
ARC
  5
3205
  8
AM_0
 10
664.54385087483763
 20
922.51485860007699
 30
0.0
 40
5.0
 50
271.99999999999682
 51
334.42648000000293
  0
ARC
  5
3206
  8
AM_0
 10
679.87845087483765
 20
915.17647860007662
 30
0.0
 40
12.0
 50
91.999998000000787
 51
180.00001000000091
  0
ARC
  5
3207
  8
AM_0
 10
708.87845087483765
 20
936.03920860007702
 30
0.0
 40
8.0
 50
91.999998000000787
 51
180.00001000000091
  0
ARC
  5
3208
  8
AM_0
 10
727.87845087483754
 20
938.9775086000767
 30
0.0
 40
5.0
 50
0.0
 51
67.975688999998823
  0
CIRCLE
  5
3209
  8
AM_0
 10
702.87845087483765
 20
911.26473860007707
 30
0.0
 40
9.5
  0
LINE
  5
320A
  8
AM_0
 10
732.87845087483754
 20
888.5519086000769
 30
0.0
 11
732.87845087483754
 21
938.9775086000767
 31
0.0
  0
LINE
  5
320B
  8
ﾁｭｳｼﾝｾﾝ1
 10
702.87845087483765
 20
891.76473860007707
 30
0.0
 11
702.87845087483765
 21
930.76473860007695
 31
0.0
  0
ARC
  5
320C
  8
AM_0
 10
727.87845087483754
 20
888.5519086000769
 30
0.0
 40
5.0
 50
271.99999999999682
 51
0.0
  0
ARC
  5
320D
  8
AM_0
 10
692.87845087483765
 20
935.6426086000771
 30
0.0
 40
8.0
 50
271.99999999999682
 51
0.0
  0
LINE
  5
320E
  8
AM_0
 10
732.87845087483754
 20
1013.764738600076
 30
0.0
 11
738.87839087483724
 21
1013.764738600076
 31
0.0
  0
LINE
  5
320F
  8
AM_0
 10
708.59927087483754
 20
944.03432860007661
 30
0.0
 11
720.15762087483745
 21
944.43794860007711
 31
0.0
  0
ARC
  5
3210
  8
AM_0
 10
719.87845087483765
 20
952.43306860007681
 30
0.0
 40
8.0
 50
271.99999999999682
 51
0.0
  0
ARC
  5
3211
  8
AM_0
 10
730.87845087483754
 20
946.39376860007701
 30
0.0
 40
3.0
 50
180.00001000000091
 51
247.97569000000061
  0
ARC
  5
3212
  8
AM_0
 10
730.87845087483754
 20
985.6961286000768
 30
0.0
 40
2.0
 50
271.99999999999682
 51
0.0
  0
ARC
  5
3213
  8
AM_0
 10
729.87845087483754
 20
981.65877860007663
 30
0.0
 40
2.0
 50
91.999998000000787
 51
180.00001000000091
  0
LINE
  5
3214
  8
AM_0
 10
729.80862087483706
 20
983.65755860007675
 30
0.0
 11
730.94827087483714
 21
983.69734860007702
 31
0.0
  0
LINE
  5
3215
  8
AM_0
 10
590.87839087483735
 20
1208.7646986000771
 30
0.0
 11
728.05289087483754
 21
1203.974498600076
 31
0.0
  0
LINE
  5
3216
  8
AM_0
 10
585.87845087483765
 20
1176.764738600077
 30
0.0
 11
610.87839087483746
 21
1175.891688600077
 31
0.0
  0
CIRCLE
  5
3217
  8
AM_0
 10
532.87845087483743
 20
1176.264738600077
 30
0.0
 40
9.5
  0
LINE
  5
3218
  8
AM_0
 10
502.87845087483743
 20
1200.863248600077
 30
0.0
 11
502.87845087483743
 21
1163.764738600077
 31
0.0
  0
LINE
  5
3219
  8
AM_0
 10
590.87845087483765
 20
1193.8232686000761
 30
0.0
 11
590.87845087483765
 21
1176.590118600076
 31
0.0
  0
LINE
  5
321A
  8
AM_0
 10
566.37845087483765
 20
1062.678978600077
 30
0.0
 11
566.37845087483765
 21
1144.193688600076
 31
0.0
  0
LINE
  5
321B
  8
AM_0
 10
575.87839087483769
 20
1066.764738600076
 30
0.0
 11
575.87839087483769
 21
1173.5184586000771
 31
0.0
  0
LINE
  5
321C
  8
AM_0
 10
585.87845087483765
 20
1176.764738600077
 30
0.0
 11
585.87845087483765
 21
1048.764738600077
 31
0.0
  0
LINE
  5
321D
  8
AM_0
 10
547.87845087483743
 20
1048.764738600077
 30
0.0
 11
587.87845087483765
 21
1048.764738600077
 31
0.0
  0
LINE
  5
321E
  8
AM_0
 10
547.87845087483743
 20
1038.764738600077
 30
0.0
 11
587.87845087483765
 21
1038.764738600077
 31
0.0
  0
ARC
  5
321F
  8
AM_0
 10
547.87845087483743
 20
1043.764738600077
 30
0.0
 40
5.0
 50
90.00000299999769
 51
270.0
  0
ARC
  5
3220
  8
AM_0
 10
561.37845087483731
 20
1062.678978600077
 30
0.0
 40
5.0
 50
288.96566000000257
 51
0.0
  0
ARC
  5
3221
  8
AM_0
 10
567.87839087483769
 20
1066.764738600076
 30
0.0
 40
8.0
 50
270.0001500000019
 51
0.0
  0
ARC
  5
3222
  8
AM_0
 10
567.87845087483765
 20
1043.764738600077
 30
0.0
 40
15.0
 50
90.000146000002943
 51
160.52876999999901
  0
ARC
  5
3223
  8
AM_0
 10
567.87839087483769
 20
1020.764738600077
 30
0.0
 40
8.0
 50
0.0
 51
89.999858999997556
  0
ARC
  5
3224
  8
AM_0
 10
567.87845087483765
 20
1043.764738600077
 30
0.0
 40
12.5
 50
203.5781799999973
 51
336.42182999999471
  0
ARC
  5
3225
  8
AM_0
 10
567.87845087483765
 20
1043.764738600077
 30
0.0
 40
12.5
 50
23.578179999997531
 51
156.42182000000241
  0
ARC
  5
3226
  8
AM_0
 10
567.87845087483765
 20
1043.764738600077
 30
0.0
 40
15.0
 50
199.4712300000005
 51
269.99984999999782
  0
ARC
  5
3227
  8
AM_0
 10
561.37845087483731
 20
1024.8504286000771
 30
0.0
 40
5.0
 50
0.0
 51
71.034342999998159
  0
ARC
  5
3228
  8
AM_0
 10
587.87845087483765
 20
1043.764738600077
 30
0.0
 40
5.0
 50
270.0
 51
90.00000299999769
  0
LINE
  5
3229
  8
AM_0
 10
519.87839087483735
 20
1114.697538600077
 30
0.0
 11
566.37845087483765
 21
1114.697538600077
 31
0.0
  0
LINE
  5
322A
  8
AM_0
 10
519.87839087483735
 20
1130.439598600077
 30
0.0
 11
566.37845087483765
 21
1130.439598600077
 31
0.0
  0
LINE
  5
322B
  8
AM_0
 10
521.87845087483743
 20
1155.7646786000771
 30
0.0
 11
573.87839087483735
 21
1155.7646786000771
 31
0.0
  0
LINE
  5
322C
  8
AM_0
 10
507.85733087483732
 20
1118.201688600077
 30
0.0
 11
518.88620087483764
 21
1118.201688600077
 31
0.0
  0
LINE
  5
322D
  8
AM_0
 10
506.87845087483743
 20
1127.9355686000761
 30
0.0
 11
517.87845087483731
 21
1127.9355686000761
 31
0.0
  0
ARC
  5
322E
  8
AM_0
 10
517.87845087483731
 20
1125.9355086000751
 30
0.0
 40
2.0
 50
0.0
 51
90.00000299999769
  0
ARC
  5
322F
  8
AM_0
 10
521.87845087483743
 20
1157.7646786000771
 30
0.0
 40
2.0
 50
179.9999899999988
 51
270.0
  0
LINE
  5
3230
  8
AM_0
 10
506.87845087483743
 20
1143.4919086000771
 30
0.0
 11
517.87845087483731
 21
1143.4919086000771
 31
0.0
  0
ARC
  5
3231
  8
AM_0
 10
517.87845087483731
 20
1141.4919086000759
 30
0.0
 40
2.0
 50
0.0
 51
90.00000299999769
  0
LINE
  5
3232
  8
AM_0
 10
506.87845087483743
 20
1163.764738600077
 30
0.0
 11
517.87845087483731
 21
1163.764738600077
 31
0.0
  0
ARC
  5
3233
  8
AM_0
 10
517.87845087483731
 20
1161.764738600076
 30
0.0
 40
2.0
 50
0.0
 51
90.00000299999769
  0
LINE
  5
3234
  8
AM_0
 10
567.84286087483736
 20
1147.7292086000771
 30
0.0
 11
574.41391087483726
 21
1154.3002586000771
 31
0.0
  0
ARC
  5
3235
  8
AM_0
 10
571.37845087483731
 20
1144.193688600076
 30
0.0
 40
5.0
 50
135.0000000000046
 51
180.00001000000091
  0
ARC
  5
3236
  8
AM_0
 10
573.87839087483735
 20
1157.7646786000771
 30
0.0
 40
2.0
 50
270.0
 51
0.0
  0
ARC
  5
3237
  8
AM_0
 10
570.87839087483735
 20
1157.835778600077
 30
0.0
 40
5.0
 50
315.0000000000046
 51
0.0
  0
LINE
  5
3238
  8
AM_0
 10
585.87839087483746
 20
1176.764738600077
 30
0.0
 11
578.77371087483755
 21
1176.516628600076
 31
0.0
  0
ARC
  5
3239
  8
AM_0
 10
578.87839087483735
 20
1173.5184586000771
 30
0.0
 40
3.0
 50
91.999998000000787
 51
180.00001000000091
  0
LINE
  5
323A
  8
AM_0
 10
590.87845087483765
 20
1208.7646986000771
 30
0.0
 11
507.7038908748375
 21
1205.860198600077
 31
0.0
  0
ARC
  5
323B
  8
AM_0
 10
507.87845087483743
 20
1200.863248600077
 30
0.0
 40
5.0
 50
91.999998000000787
 51
180.00001000000091
  0
LINE
  5
323C
  8
AM_0
 10
558.41464087483735
 20
1207.422698600077
 30
0.0
 11
588.87845087483765
 21
1196.651638600076
 31
0.0
  0
LINE
  5
323D
  8
AM_0
 10
561.87839087483735
 20
1195.591398600076
 30
0.0
 11
588.87851087483739
 21
1186.045008600076
 31
0.0
  0
ARC
  5
323E
  8
AM_0
 10
560.87845087483765
 20
1192.7629686000771
 30
0.0
 40
3.0
 50
70.527973000001808
 51
180.00001000000091
  0
ARC
  5
323F
  8
AM_0
 10
587.87845087483765
 20
1193.8232686000761
 30
0.0
 40
3.0
 50
0.0
 51
70.527973000001808
  0
ARC
  5
3240
  8
AM_0
 10
587.87845087483765
 20
1183.216578600076
 30
0.0
 40
3.0
 50
0.0
 51
70.527973000001808
  0
CIRCLE
  5
3241
  8
AM_0
 10
702.87845087483765
 20
1176.264738600077
 30
0.0
 40
9.5
  0
LINE
  5
3242
  8
AM_0
 10
732.87845087483754
 20
1198.977508600077
 30
0.0
 11
732.87845087483754
 21
1148.551908600077
 31
0.0
  0
LINE
  5
3243
  8
AM_0
 10
667.87845087483765
 20
1200.8981586000771
 30
0.0
 11
667.87845087483765
 21
1172.352988600077
 31
0.0
  0
LINE
  5
3244
  8
AM_0
 10
679.45962087483724
 20
1160.3603186000751
 30
0.0
 11
693.15762087483745
 21
1159.881988600077
 31
0.0
  0
LINE
  5
3245
  8
AM_0
 10
615.02316087483746
 20
1171.7469786000761
 30
0.0
 11
664.71835087483748
 21
1170.011558600075
 31
0.0
  0
LINE
  5
3246
  8
AM_0
 10
610.87839087483746
 20
1175.891688600077
 30
0.0
 11
615.02316087483746
 21
1171.7469786000761
 31
0.0
  0
ARC
  5
3247
  8
AM_0
 10
664.54385087483763
 20
1165.0146086000759
 30
0.0
 40
5.0
 50
25.5735169999985
 51
88.000000000002998
  0
ARC
  5
3248
  8
AM_0
 10
679.87845087483765
 20
1172.352988600077
 30
0.0
 40
12.0
 50
180.00001000000091
 51
268.0000000000029
  0
LINE
  5
3249
  8
AM_0
 10
732.87845087483754
 20
1073.764738600077
 30
0.0
 11
738.87839087483724
 21
1073.764738600077
 31
0.0
  0
ARC
  5
324A
  8
AM_0
 10
758.87845087483754
 20
1043.7646786000771
 30
0.0
 40
8.0000113999999982
 50
90.00000299999769
 51
270.0
  0
LINE
  5
324B
  8
AM_0
 10
758.87839087483724
 20
1051.764738600077
 30
0.0
 11
758.87839087483724
 21
1035.764678600076
 31
0.0
  0
ARC
  5
324C
  8
AM_0
 10
719.87845087483765
 20
1135.096338600076
 30
0.0
 40
8.0
 50
0.0
 51
88.000000000002998
  0
ARC
  5
324D
  8
AM_0
 10
729.87845087483754
 20
1105.8706886000771
 30
0.0
 40
2.0
 50
180.00001000000091
 51
268.0000000000029
  0
ARC
  5
324E
  8
AM_0
 10
730.87845087483754
 20
1101.833338600075
 30
0.0
 40
2.0
 50
0.0
 51
88.000000000002998
  0
LINE
  5
324F
  8
AM_0
 10
729.80862087483706
 20
1103.871908600076
 30
0.0
 11
730.94821087483717
 21
1103.8321186000751
 31
0.0
  0
LINE
  5
3250
  8
AM_0
 10
708.59921087483735
 20
1143.495078600077
 30
0.0
 11
720.15762087483745
 21
1143.0914586000761
 31
0.0
  0
ARC
  5
3251
  8
AM_0
 10
692.87845087483765
 20
1151.8868086000771
 30
0.0
 40
8.0
 50
0.0
 51
88.000000000002998
  0
ARC
  5
3252
  8
AM_0
 10
708.87845087483765
 20
1151.4901986000771
 30
0.0
 40
8.0
 50
180.00001000000091
 51
268.0000000000029
  0
ARC
  5
3253
  8
AM_0
 10
730.87845087483754
 20
1141.135708600076
 30
0.0
 40
3.0
 50
112.0243099999992
 51
180.00001000000091
  0
ARC
  5
3254
  8
AM_0
 10
727.87845087483754
 20
1148.551908600077
 30
0.0
 40
5.0
 50
292.02430999999922
 51
0.0
  0
ARC
  5
3255
  8
AM_0
 10
672.87845087483765
 20
1200.8981586000771
 30
0.0
 40
5.0
 50
88.000000000002998
 51
180.00001000000091
  0
ARC
  5
3256
  8
AM_0
 10
727.87845087483754
 20
1198.977508600077
 30
0.0
 40
5.0
 50
0.0
 51
88.000000000002998
  0
LINE
  5
3257
  8
AM_0
 10
820.87839087483724
 20
1071.264738600077
 30
0.0
 11
820.87839087483724
 21
1016.264738600077
 31
0.0
  0
LINE
  5
3258
  8
AM_0
 10
423.24914187483751
 20
1099.391980600077
 30
0.0
 11
423.24914187483751
 21
987.81079160007675
 31
0.0
  0
LINE
  5
3259
  8
AM_0
 10
486.87845087483743
 20
1115.726939600077
 30
0.0
 11
486.87845087483743
 21
971.80253760007702
 31
0.0
  0
LINE
  5
325A
  8
AM_0
 10
386.37845087483743
 20
1078.764738600076
 30
0.0
 11
386.37845087483743
 21
1008.764738600077
 31
0.0
  0
LINE
  5
325B
  8
AM_0
 10
388.37845087483743
 20
1098.8166476000761
 30
0.0
 11
388.37845087483743
 21
988.71283060007704
 31
0.0
  0
LINE
  5
325C
  8
AM_0
 10
485.09238887483741
 20
933.26342260007675
 30
0.0
 11
425.96184687483742
 21
982.87983860007682
 31
0.0
  0
LINE
  5
325D
  8
AM_0
 10
386.37845087483743
 20
1008.764738600077
 30
0.0
 11
388.37845087483743
 21
1006.764738600077
 31
0.0
  0
LINE
  5
325E
  8
AM_0
 10
382.37845087483743
 20
1063.764738600077
 30
0.0
 11
382.37845087483743
 21
1023.764738600077
 31
0.0
  0
LINE
  5
325F
  8
AM_0
 10
382.37845087483743
 20
1023.764738600077
 30
0.0
 11
386.37845087483743
 21
1023.764738600077
 31
0.0
  0
LINE
  5
3260
  8
AM_0
 10
324.37845087483748
 20
1026.264738600077
 30
0.0
 11
382.37845087483743
 21
1026.264738600077
 31
0.0
  0
LINE
  5
3261
  8
AM_0
 10
382.37845087483743
 20
1061.264738600077
 30
0.0
 11
324.37845087483748
 21
1061.264738600077
 31
0.0
  0
LINE
  5
3262
  8
AM_0
 10
324.37845087483748
 20
1061.264738600077
 30
0.0
 11
324.37845087483748
 21
1026.264738600077
 31
0.0
  0
LINE
  5
3263
  8
AM_0
 10
386.37845087483743
 20
1063.764738600077
 30
0.0
 11
382.37845087483743
 21
1063.764738600077
 31
0.0
  0
ARC
  5
3264
  8
AM_0
 10
419.53397087483722
 20
975.21939360007661
 30
0.0
 40
10.0
 50
49.999999999999922
 51
89.000000000001506
  0
LINE
  5
3265
  8
AM_0
 10
391.32609387483751
 20
985.71328760007702
 30
0.0
 11
419.70849487483741
 21
985.21787060007705
 31
0.0
  0
ARC
  5
3266
  8
AM_0
 10
391.37845087483743
 20
988.71283060007704
 30
0.0
 40
3.0
 50
180.0
 51
268.99999999999812
  0
LINE
  5
3267
  8
AM_0
 10
486.87845087483743
 20
927.76473860007673
 30
0.0
 11
486.87845087483743
 21
943.68271860007667
 31
0.0
  0
ARC
  5
3268
  8
AM_0
 10
481.87845087483743
 20
929.43320060007704
 30
0.0
 40
5.0
 50
0.0
 51
49.999999999999922
  0
ARC
  5
3269
  8
AM_0
 10
490.87845087483743
 20
927.76473860007673
 30
0.0
 40
4.0
 50
180.0
 51
270.0
  0
LINE
  5
326A
  8
AM_0
 10
490.87845087483743
 20
923.76473860007707
 30
0.0
 11
504.87845087483743
 21
923.76473860007707
 31
0.0
  0
LINE
  5
326B
  8
AM_0
 10
504.87845087483743
 20
923.76473860007707
 30
0.0
 11
506.87845087483743
 21
925.76473860007707
 31
0.0
  0
LINE
  5
326C
  8
AM_0
 10
386.37845087483743
 20
1078.764738600076
 30
0.0
 11
388.37845087483743
 21
1080.764738600077
 31
0.0
  0
LINE
  5
326D
  8
AM_0
 10
485.09238887483741
 20
1154.266054600077
 30
0.0
 11
425.96184687483742
 21
1104.6496396000771
 31
0.0
  0
ARC
  5
326E
  8
AM_0
 10
419.53397087483722
 20
1112.310083600076
 30
0.0
 40
10.0
 50
270.99999999999841
 51
310.0
  0
LINE
  5
326F
  8
AM_0
 10
391.32609387483751
 20
1101.8161906000771
 30
0.0
 11
419.70849487483741
 21
1102.3116066000771
 31
0.0
  0
ARC
  5
3270
  8
AM_0
 10
391.37845087483743
 20
1098.8166476000761
 30
0.0
 40
3.0
 50
90.999999999998465
 51
180.0
  0
LINE
  5
3271
  8
AM_0
 10
478.48006187483742
 20
1124.735945600077
 30
0.0
 11
476.74943487483722
 21
1109.2951166000771
 31
0.0
  0
LINE
  5
3272
  8
AM_0
 10
476.45064287483717
 20
1125.670902600076
 30
0.0
 11
476.45064287483717
 21
1110.881233600076
 31
0.0
  0
LINE
  5
3273
  8
AM_0
 10
476.45064287483717
 20
1106.6292686000761
 30
0.0
 11
486.33481487483721
 21
1106.6292686000761
 31
0.0
  0
ARC
  5
3274
  8
AM_0
 10
473.76810187483721
 20
1109.629268600077
 30
0.0
 40
3.0
 50
288.461589
 51
353.6049069999994
  0
ARC
  5
3275
  8
AM_0
 10
490.87845087483743
 20
1115.726939600077
 30
0.0
 40
4.0
 50
90.0
 51
180.0
  0
LINE
  5
3276
  8
AM_0
 10
504.87845087483743
 20
1128.290410600076
 30
0.0
 11
482.45517187483728
 21
1128.290410600076
 31
0.0
  0
LINE
  5
3277
  8
AM_0
 10
504.87845087483743
 20
1143.846759600076
 30
0.0
 11
482.3796838748375
 21
1143.846759600076
 31
0.0
  0
LINE
  5
3278
  8
AM_0
 10
478.87845087483743
 20
1128.290410600076
 30
0.0
 11
478.87845087483743
 21
1139.036459600077
 31
0.0
  0
LINE
  5
3279
  8
AM_0
 10
478.41489687483732
 20
1140.3763486000771
 30
0.0
 11
476.79830887483729
 21
1128.273710600077
 31
0.0
  0
ARC
  5
327A
  8
AM_0
 10
482.45517187483728
 20
1124.290410600076
 30
0.0
 40
4.0
 50
90.0
 51
173.60490699999951
  0
ARC
  5
327B
  8
AM_0
 10
473.82471887483717
 20
1128.670902600076
 30
0.0
 40
3.0
 50
291.6423089999987
 51
352.3918520000023
  0
ARC
  5
327C
  8
AM_0
 10
482.3796838748375
 20
1139.846759600076
 30
0.0
 40
4.0
 50
90.0
 51
172.39185199999591
  0
LINE
  5
327D
  8
AM_0
 10
504.87845087483743
 20
1143.846759600076
 30
0.0
 11
504.87845087483743
 21
1128.290410600076
 31
0.0
  0
LINE
  5
327E
  8
AM_0
 10
490.87845087483743
 20
1119.726939600077
 30
0.0
 11
504.87845087483743
 21
1119.726939600077
 31
0.0
  0
LINE
  5
327F
  8
AM_0
 10
504.87845087483743
 20
1128.290410600076
 30
0.0
 11
506.87845087483743
 21
1126.290410600076
 31
0.0
  0
LINE
  5
3280
  8
AM_0
 10
504.87845087483743
 20
1143.846759600076
 30
0.0
 11
506.87845087483743
 21
1141.846759600076
 31
0.0
  0
LINE
  5
3281
  8
AM_0
 10
504.87845087483743
 20
943.68271760007701
 30
0.0
 11
504.87845087483743
 21
959.23906660007674
 31
0.0
  0
LINE
  5
3282
  8
AM_0
 10
504.87845087483743
 20
959.23906660007674
 30
0.0
 11
482.45517187483728
 21
959.23906660007674
 31
0.0
  0
ARC
  5
3283
  8
AM_0
 10
490.87845087483743
 20
971.80253760007702
 30
0.0
 40
4.0
 50
180.0
 51
270.0
  0
LINE
  5
3284
  8
AM_0
 10
490.87845087483743
 20
967.80253760007679
 30
0.0
 11
504.87845087483743
 21
967.80253760007679
 31
0.0
  0
LINE
  5
3285
  8
AM_0
 10
504.87845087483743
 20
959.23906660007674
 30
0.0
 11
506.87845087483743
 21
961.23906660007663
 31
0.0
  0
LINE
  5
3286
  8
AM_0
 10
504.87845087483743
 20
943.68271760007701
 30
0.0
 11
482.3796838748375
 21
943.68271760007701
 31
0.0
  0
LINE
  5
3287
  8
AM_0
 10
504.87845087483743
 20
943.68271760007701
 30
0.0
 11
506.87845087483743
 21
945.68271760007701
 31
0.0
  0
ARC
  5
3288
  8
AM_0
 10
482.3796838748375
 20
947.68271760007656
 30
0.0
 40
4.0
 50
187.60814800000401
 51
270.0
  0
LINE
  5
3289
  8
AM_0
 10
476.45064287483717
 20
961.85857460007708
 30
0.0
 11
476.45064287483717
 21
976.64824360007708
 31
0.0
  0
LINE
  5
328A
  8
AM_0
 10
478.48006187483742
 20
962.79353160007713
 30
0.0
 11
476.74943487483722
 21
978.23436060007703
 31
0.0
  0
ARC
  5
328B
  8
AM_0
 10
473.76810187483721
 20
977.90020860007712
 30
0.0
 40
3.0
 50
6.3950930000004931
 51
71.538410999999911
  0
LINE
  5
328C
  8
AM_0
 10
476.45064287483717
 20
980.90020860007701
 30
0.0
 11
486.33481487483721
 21
980.90020860007701
 31
0.0
  0
ARC
  5
328D
  8
AM_0
 10
473.82471887483717
 20
958.85857460007719
 30
0.0
 40
3.0
 50
7.608147999997561
 51
68.357691000001282
  0
ARC
  5
328E
  8
AM_0
 10
482.45517187483728
 20
963.23906660007685
 30
0.0
 40
4.0
 50
186.39509300000049
 51
270.0
  0
LINE
  5
328F
  8
AM_0
 10
478.41489687483732
 20
947.15312860007703
 30
0.0
 11
476.79830887483729
 21
959.25576660007675
 31
0.0
  0
LINE
  5
3290
  8
AM_0
 10
478.87845087483743
 20
959.23906660007674
 30
0.0
 11
478.87845087483743
 21
948.49301760007711
 31
0.0
  0
LINE
  5
3291
  8
AM_0
 10
504.87845087483743
 20
1163.764738600077
 30
0.0
 11
506.87845087483743
 21
1161.764738600076
 31
0.0
  0
LINE
  5
3292
  8
AM_0
 10
490.87845087483743
 20
1163.764738600077
 30
0.0
 11
504.87845087483743
 21
1163.764738600077
 31
0.0
  0
ARC
  5
3293
  8
AM_0
 10
490.87845087483743
 20
1159.764738600076
 30
0.0
 40
4.0
 50
90.000000000000057
 51
180.0
  0
LINE
  5
3294
  8
AM_0
 10
486.87845087483743
 20
1159.764738600076
 30
0.0
 11
486.87845087483743
 21
1143.846758600077
 31
0.0
  0
ARC
  5
3295
  8
AM_0
 10
481.87845087483743
 20
1158.0962766000771
 30
0.0
 40
5.0
 50
310.0
 51
0.0
  0
LINE
  5
3297
  8
ﾁｭｳｼﾝｾﾝ1
 10
532.87845087483743
 20
891.76473860007707
 30
0.0
 11
532.87845087483743
 21
930.76473860007695
 31
0.0
  0
LINE
  5
3298
  8
ﾁｭｳｼﾝｾﾝ1
 10
513.37845087483743
 20
911.26473860007707
 30
0.0
 11
552.37845087483743
 21
911.26473860007707
 31
0.0
  0
LINE
  5
3299
  8
ﾁｭｳｼﾝｾﾝ1
 10
532.87845087483743
 20
1156.764738600077
 30
0.0
 11
532.87845087483743
 21
1195.764738600077
 31
0.0
  0
LINE
  5
329A
  8
ﾁｭｳｼﾝｾﾝ1
 10
513.37845087483743
 20
1176.264738600077
 30
0.0
 11
552.37845087483743
 21
1176.264738600077
 31
0.0
  0
LINE
  5
329B
  8
ﾁｭｳｼﾝｾﾝ1
 10
702.87845087483765
 20
1156.764738600077
 30
0.0
 11
702.87845087483765
 21
1195.764738600077
 31
0.0
  0
LINE
  5
329C
  8
ﾁｭｳｼﾝｾﾝ1
 10
683.37845087483765
 20
1176.264738600077
 30
0.0
 11
722.37845087483754
 21
1176.264738600077
 31
0.0
  0
LINE
  5
329D
  8
AM_0
 10
504.87845087483743
 20
1060.5145118705941
 30
0.0
 11
486.87845087483743
 21
1060.5145118705941
 31
0.0
  0
LINE
  5
329E
  8
AM_0
 10
486.87845087483743
 20
1058.764738600076
 30
0.0
 11
504.87845087483743
 21
1058.764738600076
 31
0.0
  0
LINE
  5
329F
  8
AM_0
 10
504.87845087483743
 20
1060.5145118705941
 30
0.0
 11
504.87845087483743
 21
1027.0149653295571
 31
0.0
  0
LINE
  5
32A0
  8
AM_0
 10
486.87845087483743
 20
1028.764738600076
 30
0.0
 11
504.87845087483743
 21
1028.764738600076
 31
0.0
  0
LINE
  5
32A1
  8
AM_0
 10
504.87845087483743
 20
1027.0149653295571
 30
0.0
 11
486.87845087483743
 21
1027.0149653295571
 31
0.0
  0
LINE
  5
32A2
  8
AM_0
 10
324.37845087483748
 20
1038.764738600077
 30
0.0
 11
369.37845087483743
 21
1038.764738600077
 31
0.0
  0
ARC
  5
32A3
  8
AM_0
 10
369.37845087483743
 20
1043.764738600077
 30
0.0
 40
5.0
 50
270.0
 51
90.0
  0
LINE
  5
32A4
  8
AM_0
 10
369.37845087483743
 20
1048.764738600077
 30
0.0
 11
369.37845087483743
 21
1038.764738600077
 31
0.0
  0
LINE
  5
32A5
  8
AM_0
 10
324.37845087483748
 20
1048.764738600077
 30
0.0
 11
369.37845087483743
 21
1048.764738600077
 31
0.0
  0
TEXT
  5
3488
  8
AM_0
 10
1015.0972282618239
 20
1015.426037709825
 30
0.0
 40
20.0
  1
VX75-003G~VX75-020G
  0
ENDSEC
  0
EOF
