  0
SECTION
  2
HEADER
  9
$ACADVER
  1
AC1009
  9
$INSBASE
 10
0.0
 20
0.0
 30
0.0
  9
$EXTMIN
 10
279.03886843500499
 20
351.96785142143932
 30
-0.0000000000112498
  9
$EXTMAX
 10
1372.2210881794119
 20
1221.1726518275129
 30
0.0000000000002956
  9
$LIMMIN
 10
0.0
 20
0.0
  9
$LIMMAX
 10
1707.0
 20
1110.0
  9
$ORTHOMODE
 70
     0
  9
$REGENMODE
 70
     1
  9
$FILLMODE
 70
     1
  9
$QTEXTMODE
 70
     0
  9
$MIRRTEXT
 70
     1
  9
$DRAGMODE
 70
     2
  9
$LTSCALE
 40
6.0
  9
$OSMODE
 70
   551
  9
$ATTMODE
 70
     1
  9
$TEXTSIZE
 40
2.5
  9
$TRACEWID
 40
1.0
  9
$TEXTSTYLE
  7
STANDARD
  9
$CLAYER
  8
AM_0
  9
$CELTYPE
  6
BYLAYER
  9
$CECOLOR
 62
   256
  9
$DIMSCALE
 40
6.0
  9
$DIMASZ
 40
2.5
  9
$DIMEXO
 40
1.0
  9
$DIMDLI
 40
8.0
  9
$DIMRND
 40
0.0
  9
$DIMDLE
 40
0.0
  9
$DIMEXE
 40
0.6
  9
$DIMTP
 40
0.1
  9
$DIMTM
 40
0.1
  9
$DIMTXT
 40
2.5
  9
$DIMCEN
 40
0.0
  9
$DIMTSZ
 40
0.0
  9
$DIMTOL
 70
     0
  9
$DIMLIM
 70
     0
  9
$DIMTIH
 70
     0
  9
$DIMTOH
 70
     0
  9
$DIMSE1
 70
     0
  9
$DIMSE2
 70
     0
  9
$DIMTAD
 70
     1
  9
$DIMZIN
 70
     8
  9
$DIMBLK
  1

  9
$DIMASO
 70
     1
  9
$DIMSHO
 70
     1
  9
$DIMPOST
  1

  9
$DIMAPOST
  1
"
  9
$DIMALT
 70
     0
  9
$DIMALTD
 70
     2
  9
$DIMALTF
 40
0.0393701
  9
$DIMLFAC
 40
1.0
  9
$DIMTOFL
 70
     1
  9
$DIMTVP
 40
0.0
  9
$DIMTIX
 70
     0
  9
$DIMSOXD
 70
     0
  9
$DIMSAH
 70
     0
  9
$DIMBLK1
  1

  9
$DIMBLK2
  1

  9
$DIMSTYLE
  2
AM_ISO
  9
$DIMCLRD
 70
   256
  9
$DIMCLRE
 70
   256
  9
$DIMCLRT
 70
     4
  9
$DIMTFAC
 40
0.71
  9
$DIMGAP
 40
0.8
  9
$LUNITS
 70
     2
  9
$LUPREC
 70
     2
  9
$SKETCHINC
 40
1.0
  9
$FILLETRAD
 40
30.0
  9
$AUNITS
 70
     0
  9
$AUPREC
 70
     0
  9
$MENU
  1
.
  9
$ELEVATION
 40
0.0
  9
$PELEVATION
 40
0.0
  9
$THICKNESS
 40
0.0
  9
$LIMCHECK
 70
     0
  9
$BLIPMODE
 70
     0
  9
$CHAMFERA
 40
12.0
  9
$CHAMFERB
 40
6.0
  9
$SKPOLY
 70
     0
  9
$TDCREATE
 40
2452067.3979059951
  9
$TDUPDATE
 40
2458541.425664803
  9
$TDINDWG
 40
0.1163482176
  9
$TDUSRTIMER
 40
0.1163478356
  9
$USRTIMER
 70
     1
  9
$ANGBASE
 50
0.0
  9
$ANGDIR
 70
     0
  9
$PDMODE
 70
     0
  9
$PDSIZE
 40
0.0
  9
$PLINEWID
 40
0.0
  9
$COORDS
 70
     1
  9
$SPLFRAME
 70
     0
  9
$SPLINETYPE
 70
     6
  9
$SPLINESEGS
 70
     8
  9
$ATTDIA
 70
     1
  9
$ATTREQ
 70
     1
  9
$HANDLING
 70
     1
  9
$HANDSEED
  5
35A5
  9
$SURFTAB1
 70
     6
  9
$SURFTAB2
 70
     6
  9
$SURFTYPE
 70
     6
  9
$SURFU
 70
     6
  9
$SURFV
 70
     6
  9
$UCSNAME
  2

  9
$UCSORG
 10
0.0
 20
0.0
 30
0.0
  9
$UCSXDIR
 10
1.0
 20
0.0
 30
0.0
  9
$UCSYDIR
 10
0.0
 20
1.0
 30
0.0
  9
$PUCSNAME
  2

  9
$PUCSORG
 10
0.0
 20
0.0
 30
0.0
  9
$PUCSXDIR
 10
1.0
 20
0.0
 30
0.0
  9
$PUCSYDIR
 10
0.0
 20
1.0
 30
0.0
  9
$USERI1
 70
     0
  9
$USERI2
 70
     0
  9
$USERI3
 70
     0
  9
$USERI4
 70
     0
  9
$USERI5
 70
     0
  9
$USERR1
 40
0.0
  9
$USERR2
 40
0.0
  9
$USERR3
 40
0.0
  9
$USERR4
 40
0.0
  9
$USERR5
 40
0.0
  9
$WORLDVIEW
 70
     1
  9
$SHADEDGE
 70
     3
  9
$SHADEDIF
 70
    70
  9
$TILEMODE
 70
     1
  9
$MAXACTVP
 70
    64
  9
$PLIMCHECK
 70
     0
  9
$PEXTMIN
 10
1.0000000000000000E+020
 20
1.0000000000000000E+020
 30
1.0000000000000000E+020
  9
$PEXTMAX
 10
-1.0000000000000000E+020
 20
-1.0000000000000000E+020
 30
-1.0000000000000000E+020
  9
$PLIMMIN
 10
0.0
 20
0.0
  9
$PLIMMAX
 10
420.0
 20
297.0
  9
$UNITMODE
 70
     0
  9
$VISRETAIN
 70
     1
  9
$PLINEGEN
 70
     0
  9
$PSLTSCALE
 70
     1
  0
ENDSEC
  0
SECTION
  2
TABLES
  0
TABLE
  2
VPORT
 70
     1
  0
VPORT
  2
*ACTIVE
 70
     0
 10
0.0
 20
0.0
 11
1.0
 21
1.0
 12
825.62997830720826
 22
786.57025162447599
 13
0.0
 23
0.0
 14
15.0
 24
15.0
 15
60.0
 25
60.0
 16
0.0
 26
0.0
 36
1.0
 17
0.0
 27
0.0
 37
0.0
 40
875.17188141572615
 41
1.7571592210767459
 42
50.0
 43
0.0
 44
0.0
 50
0.0
 51
0.0
 71
     0
 72
   100
 73
     1
 74
     3
 75
     0
 76
     0
 77
     0
 78
     0
  0
ENDTAB
  0
TABLE
  2
LTYPE
 70
    27
  0
LTYPE
  2
CONTINUOUS
 70
     0
  3
Solid line
 72
    65
 73
     0
 40
0.0
  0
LTYPE
  2
AM_ISO02W050
 70
     0
  3
__ __ __ __ __ __ __ __ __ __ __ __ __ __ __
 72
    65
 73
     2
 40
7.5
 49
6.0
 49
-1.5
  0
LTYPE
  2
AM_ISO08W050
 70
     0
  3
____ . ____ . ____ . ____ . ____ . ____ . ____
 72
    65
 73
     4
 40
18.0
 49
12.0
 49
-1.5
 49
3.0
 49
-1.5
  0
LTYPE
  2
AM_ISO09W050
 70
     0
  3
_____ . . _____ . . _____ . . ____ .. ____
 72
    65
 73
     6
 40
22.5
 49
12.0
 49
-1.5
 49
3.0
 49
-1.5
 49
3.0
 49
-1.5
  0
LTYPE
  2
AMCONSTR
 70
     0
  3
_______________________
 72
    65
 73
     2
 40
9999.0
 49
9999.0
 49
0.0
  0
LTYPE
  2
AM_ISO08W050X2
 70
     0
  3
__ . __ . __ . __ . __ . __
 72
    65
 73
     4
 40
9.0
 49
6.0
 49
-0.75
 49
1.5
 49
-0.75
  0
LTYPE
  2
AM_ISO02W050X2
 70
     0
  3
 _ _ _ _ _ _ _ _ _ _ _ _
 72
    65
 73
     2
 40
3.75
 49
3.0
 49
-0.75
  0
LTYPE
  2
AMZIGZAG
 70
     0
  3
/\/-/\/-/\/-/\/-/\/-/\/
 72
    65
 73
     2
 40
11.000099999999991
 49
0.0001
 49
-11.0
  0
LTYPE
  2
ACISOWELD
 70
     0
  3
_ _ _ _ _
 72
    65
 73
     2
 40
2.0
 49
2.0
 49
-1.0
  0
LTYPE
  2
ACISOTGB
 70
     0
  3
__ . . __ . .
 72
    65
 73
     6
 40
9.0
 49
4.0
 49
-1.0
 49
1.0
 49
-1.0
 49
1.0
 49
-1.0
  0
LTYPE
  2
ACISOTGL
 70
     0
  3
_ _ _ _ _
 72
    65
 73
     2
 40
3.0
 49
2.0
 49
-1.0
  0
LTYPE
  2
CENTER
 70
     0
  3
__ . __
 72
    65
 73
     4
 40
7.0
 49
4.0
 49
-1.0
 49
1.0
 49
-1.0
  0
LTYPE
  2
PHANTOM2
 70
     0
  3
Phantom (.5x) ___ _ _ ___ _ _ ___ _ _ ___ _ _
 72
    65
 73
     6
 40
31.75
 49
15.875
 49
-3.174999999999998
 49
3.174999999999998
 49
-3.174999999999998
 49
3.174999999999998
 49
-3.174999999999998
  0
LTYPE
  2
ACANSTGBM
 70
     0
  3
__ . . __ . .
 72
    65
 73
     6
 40
9.0
 49
4.0
 49
-1.0
 49
1.0
 49
-1.0
 49
1.0
 49
-1.0
  0
LTYPE
  2
ACANSTGLM
 70
     0
  3
_ _ _ _ _
 72
    65
 73
     2
 40
3.0
 49
2.0
 49
-1.0
  0
LTYPE
  2
GEN7
 70
     0
  3
____ . ____ . ____ . ____ . ____ . ____ . ____
 72
    65
 73
     4
 40
14.25
 49
9.75
 49
-1.5
 49
1.5
 49
-1.5
  0
LTYPE
  2
GEN3B
 70
     0
  3
 - - - - -
 72
    65
 73
     2
 40
1.0
 49
0.5
 49
-0.5
  0
LTYPE
  2
GEN7A
 70
     0
  3
__ . __ . __
 72
    65
 73
     4
 40
7.375
 49
4.75
 49
-0.875
 49
0.875
 49
-0.875
  0
LTYPE
  2
ACJISTGB
 70
     0
  3
__ . . __ . .
 72
    65
 73
     6
 40
9.0
 49
4.0
 49
-1.0
 49
1.0
 49
-1.0
 49
1.0
 49
-1.0
  0
LTYPE
  2
ACJISTGL
 70
     0
  3
_ _ _ _ _
 72
    65
 73
     2
 40
3.0
 49
2.0
 49
-1.0
  0
LTYPE
  2
HIDDEN
 70
     0
  3
Hidden __ __ __ __ __ __ __ __ __ __ __ __ __ _
 72
    65
 73
     2
 40
0.375
 49
0.25
 49
-0.125
  0
LTYPE
  2
CENTER2
 70
     0
  3
Center (.5x) ___ _ ___ _ ___ _ ___ _ ___ _ ___
 72
    65
 73
     4
 40
1.125
 49
0.75
 49
-0.125
 49
0.125
 49
-0.125
  0
LTYPE
  2
HIDDEN2
 70
     0
  3
Hidden (.5x) _ _ _ _ _ _ _ _ _ _ _ _ _ _ _ _ _
 72
    65
 73
     2
 40
0.1875
 49
0.125
 49
-0.0625
  0
LTYPE
  2
AMZIGZAG2
 70
     0
  3
/\/-/\/-/\/-/\/-/\/-/\/
 72
    65
 73
     2
 40
0.4401
 49
0.0001
 49
-0.4400000000000002
  0
LTYPE
  2
ACANSTGB
 70
     0
  3
__ . . __ . .
 72
    65
 73
     6
 40
0.35433070866
 49
0.15748031496
 49
-0.03937007874
 49
0.03937007874
 49
-0.03937007874
 49
0.03937007874
 49
-0.03937007874
  0
LTYPE
  2
ACANSTGL
 70
     0
  3
_ _ _ _ _
 72
    65
 73
     2
 40
0.11811023622
 49
0.07874015748
 49
-0.03937007874
  0
ENDTAB
  0
TABLE
  2
LAYER
 70
     7
  0
LAYER
  2
0
 70
     0
 62
     7
  6
CONTINUOUS
  0
LAYER
  2
AM_0
 70
     0
 62
     7
  6
CONTINUOUS
  0
LAYER
  2
AM_5
 70
     0
 62
     2
  6
CONTINUOUS
  0
LAYER
  2
DEFPOINTS
 70
     0
 62
     7
  6
CONTINUOUS
  0
LAYER
  2
ｶｸﾚｾﾝ2
 70
     0
 62
     3
  6
GEN3B
  0
LAYER
  2
ﾁｭｳｼﾝｾﾝ
 70
     0
 62
     1
  6
GEN7
  0
LAYER
  2
ﾁｭｳｼﾝｾﾝ1
 70
     0
 62
     1
  6
GEN7A
  0
ENDTAB
  0
TABLE
  2
STYLE
 70
     9
  0
STYLE
  2
STANDARD
 70
     0
 40
0.0
 41
0.8299999999999999
 50
0.0
 71
     0
 42
2.5
  3
txt.shx
  4
bigfont.shx
  0
STYLE
  2
ANNOTATIVE
 70
     0
 40
0.0
 41
1.0
 50
0.0
 71
     0
 42
0.2
  3
txt
  4

  0
STYLE
  2

 70
     1
 40
0.0
 41
1.0
 50
0.0
 71
     0
 42
2.5
  3
ltypeshp.shx
  4

  0
STYLE
  2
ACISOTS
 70
     0
 40
1.0
 41
1.0
 50
0.0
 71
     0
 42
2.5
  3
isocp.shx
  4
extfont.shx
  0
STYLE
  2
ACISOGDT
 70
     0
 40
0.0
 41
1.0
 50
0.0
 71
     0
 42
2.5
  3
amgdt.shx
  4

  0
STYLE
  2
ACANSTS
 70
     0
 40
1.0
 41
1.0
 50
0.0
 71
     0
 42
2.5
  3
romans.shx
  4
bigfont.shx
  0
STYLE
  2
ACANSGDT
 70
     0
 40
0.0
 41
1.0
 50
0.0
 71
     0
 42
2.5
  3
amgdt.shx
  4

  0
STYLE
  2
ACJISTS
 70
     0
 40
1.0
 41
1.0
 50
0.0
 71
     0
 42
2.5
  3
isocp.shx
  4
bigfont.shx
  0
STYLE
  2
ACJISGDT
 70
     0
 40
0.0
 41
1.0
 50
0.0
 71
     0
 42
2.5
  3
amgdt.shx
  4

  0
ENDTAB
  0
TABLE
  2
VIEW
 70
     6
  0
VIEW
  2
AM_VIEW1
 70
     0
 40
555.00000000000011
 10
499.2955801104971
 20
832.50000000000011
 41
998.59116022099431
 11
0.0
 21
0.0
 31
1.0
 12
0.0
 22
0.0
 32
0.0
 42
50.0
 43
0.0
 44
0.0
 50
0.0
 71
     0
  0
VIEW
  2
AM_VIEW2
 70
     0
 40
555.00000000000011
 10
1207.704419889501
 20
832.50000000000011
 41
998.59116022099431
 11
0.0
 21
0.0
 31
1.0
 12
0.0
 22
0.0
 32
0.0
 42
50.0
 43
0.0
 44
0.0
 50
0.0
 71
     0
  0
VIEW
  2
AM_VIEW3
 70
     0
 40
555.00000000000011
 10
499.2955801104971
 20
277.49999999999989
 41
998.59116022099431
 11
0.0
 21
0.0
 31
1.0
 12
0.0
 22
0.0
 32
0.0
 42
50.0
 43
0.0
 44
0.0
 50
0.0
 71
     0
  0
VIEW
  2
AM_VIEW4
 70
     0
 40
555.00000000000011
 10
1207.704419889501
 20
277.49999999999989
 41
998.59116022099431
 11
0.0
 21
0.0
 31
1.0
 12
0.0
 22
0.0
 32
0.0
 42
50.0
 43
0.0
 44
0.0
 50
0.0
 71
     0
  0
VIEW
  2
AM_VIEW5
 70
     0
 40
555.00000000000011
 10
853.5
 20
555.00000000000011
 41
998.59116022099431
 11
0.0
 21
0.0
 31
1.0
 12
0.0
 22
0.0
 32
0.0
 42
50.0
 43
0.0
 44
0.0
 50
0.0
 71
     0
  0
VIEW
  2
AM_VIEW6
 70
     0
 40
1109.9889000000001
 10
853.5
 20
555.0
 41
1997.162348618785
 11
0.0
 21
0.0
 31
1.0
 12
0.0
 22
0.0
 32
0.0
 42
50.0
 43
0.0
 44
0.0
 50
0.0
 71
     0
  0
ENDTAB
  0
TABLE
  2
UCS
 70
     0
  0
ENDTAB
  0
TABLE
  2
APPID
 70
    95
  0
APPID
  2
ACAD
 70
     0
  0
APPID
  2
ACADANNOTATIVE
 70
     0
  0
APPID
  2
MCAD_NO_VIS
 70
     0
  0
APPID
  2
ACAD_TEMP_GRAPHIC
 70
     0
  0
APPID
  2
ACATTRIBSERVICES
 70
     0
  0
APPID
  2
GENIUS_GENREC_14
 70
     0
  0
APPID
  2
GENIUS_GENOBJ-N-REC_13
 70
     0
  0
APPID
  2
GENIUS_GENODEF_13
 70
     0
  0
APPID
  2
GENIUS_GENOLIS_13
 70
     0
  0
APPID
  2
GENIUS_GENOBJ-N-TIT_13
 70
     0
  0
APPID
  2
GENIUS_GENOENT_13
 70
     0
  0
APPID
  2
GENIUS_GENTITLE_13
 70
     0
  0
APPID
  2
GENIUS_GENOREF_13
 70
     0
  0
APPID
  2
GENIUS_GENSCREG_15
 70
     0
  0
APPID
  2
GENIUS_GENOBJ-N-SDF_13
 70
     0
  0
APPID
  2
GENIUS_GENFIL_13
 70
     0
  0
APPID
  2
GENIUS_GENOBJ-N-CHA_13
 70
     0
  0
APPID
  2
GENIUS_GENDTOL_13
 70
     0
  0
APPID
  2
GENIUS_GENOBJ-N-FIL_13
 70
     0
  0
APPID
  2
AD_DRAW
 70
     0
  0
APPID
  2
DESIGNERASSEMBLIES
 70
     0
  0
APPID
  2
ASURF_PCURVE_APPNAME
 70
     0
  0
APPID
  2
GENIUS_GE3SECT_13
 70
     0
  0
APPID
  2
GENIUS_GENCFG_13
 70
     0
  0
APPID
  2
GENIUS_GE3CFG0_13
 70
     0
  0
APPID
  2
GENIUS_GENCFG0_13
 70
     0
  0
APPID
  2
GENIUS_GENCFG1_13
 70
     0
  0
APPID
  2
GENIUS_GENCFG2_13
 70
     0
  0
APPID
  2
GENIUS_GENCFG3_13
 70
     0
  0
APPID
  2
GENIUS_GENCFG4_13
 70
     0
  0
APPID
  2
GENIUS_GEVCFG0_13
 70
     0
  0
APPID
  2
GENIUS_GENHINW_13
 70
     0
  0
APPID
  2
GENIUS_FIRSTVISTXT_14
 70
     0
  0
APPID
  2
GENIUS_GENOBJ-N-LEADER_13
 70
     0
  0
APPID
  2
GEV_VCCNULL_SWITCH_OFF
 70
     0
  0
APPID
  2
GENIUS_GEFCFG0_13
 70
     0
  0
APPID
  2
GENIUS_GENZVEED_13
 70
     0
  0
APPID
  2
GENIUS_GENSCREG_13
 70
     0
  0
APPID
  2
GENIUS_DUMCFG0_13
 70
     0
  0
APPID
  2
GEVID936201362
 70
     0
  0
APPID
  2
GEVDC
 70
     0
  0
APPID
  2
GEVCON
 70
     0
  0
APPID
  2
VCC
 70
     0
  0
APPID
  2
GEVPT
 70
     0
  0
APPID
  2
GEVIT
 70
     0
  0
APPID
  2
GENBH
 70
     0
  0
APPID
  2
GEVMK
 70
     0
  0
APPID
  2
GENIUS_GENBH_13
 70
     0
  0
APPID
  2
GENIUS_GENOBJ-NBEHI-BHF_13
 70
     0
  0
APPID
  2
GENIUS_GENOBJ-NBEHI-BHB_13
 70
     0
  0
APPID
  2
GENIUS_GENOBJ-F-DESC_13
 70
     0
  0
APPID
  2
GENIUS_GEFDESC_14
 70
     0
  0
APPID
  2
GENIUS_GENOBJ-F-PART_13
 70
     0
  0
APPID
  2
GENIUS_GEFSTDP_13
 70
     0
  0
APPID
  2
GENIUS_GEFPARTINS_13
 70
     0
  0
APPID
  2
GENIUS_GENTRA_14
 70
     0
  0
APPID
  2
GENIUS_GENINF13_13
 70
     0
  0
APPID
  2
GENIUS_GENOBJ-N-INFOPT_13
 70
     0
  0
APPID
  2
GENIUS_GENOBJ-N-RSSYM_13
 70
     0
  0
APPID
  2
GENIUS_GENSYMENT_13
 70
     0
  0
APPID
  2
GENIUS_GENSCSYM_13
 70
     0
  0
APPID
  2
GENIUS_GEFINFNAM_13
 70
     0
  0
APPID
  2
GENIUS_GENOBJ-N-CEN_13
 70
     0
  0
APPID
  2
GENIUS_GENOBJ-N-CRS_13
 70
     0
  0
APPID
  2
GENIUS_GENOBJ-N-CRC_13
 70
     0
  0
APPID
  2
GENIUS_GENCRC_14
 70
     0
  0
APPID
  2
GEVID942827039
 70
     0
  0
APPID
  2
GEVID942827040
 70
     0
  0
APPID
  2
GEVID942827041
 70
     0
  0
APPID
  2
GENIUS_GENOBJ-F-SCPASSM_13
 70
     0
  0
APPID
  2
GENIUS_GENDIMSH_14
 70
     0
  0
APPID
  2
GEVID942827042
 70
     0
  0
APPID
  2
GEVID946020473
 70
     0
  0
APPID
  2
GEVID946020474
 70
     0
  0
APPID
  2
GEVID946020475
 70
     0
  0
APPID
  2
GENIUS_GENOBJ-N-HTC_13
 70
     0
  0
APPID
  2
GENIUS_GENHATCH_13
 70
     0
  0
APPID
  2
GEVID948854295
 70
     0
  0
APPID
  2
GEVID939402019
 70
     0
  0
APPID
  2
GEVID952919491
 70
     0
  0
APPID
  2
GEVID952919492
 70
     0
  0
APPID
  2
GENIUS_GEFWELD_13
 70
     0
  0
APPID
  2
GENIUS_GENOBJ-F-WELS_13
 70
     0
  0
APPID
  2
GEVID952919493
 70
     0
  0
APPID
  2
GENIUS_GENOBJ-N-RSBK_13
 70
     0
  0
APPID
  2
GENIUS_GENOBJ-N-LIB_13
 70
     0
  0
APPID
  2
GENIUS_GENSCALE_13
 70
     0
  0
APPID
  2
GEVID986376691
 70
     0
  0
APPID
  2
DCO15
 70
     0
  0
APPID
  2
ACAD_DSTYLE_DIMBREAK
 70
     0
  0
APPID
  2
ACAD_DSTYLE_DIMJAG
 70
     0
  0
APPID
  2
ACAD_NAV_VCDISPLAY
 70
     0
  0
APPID
  2
ACADANNOPO
 70
     0
  0
APPID
  2
ACAD_EXEMPT_FROM_CAD_STANDARDS
 70
     0
  0
APPID
  2
ACAD_MLEADERVER
 70
     0
  0
ENDTAB
  0
TABLE
  2
DIMSTYLE
 70
    22
  0
DIMSTYLE
  2
STANDARD
 70
     0
  3

  4

  5

  6

  7

 40
1.0
 41
0.18
 42
0.0625
 43
0.38
 44
0.18
 45
0.0
 46
0.0
 47
0.0
 48
0.0
140
0.18
141
0.09
142
0.0
143
25.399999999999999
144
1.0
145
0.0
146
1.0
147
0.09
 71
     0
 72
     0
 73
     1
 74
     1
 75
     0
 76
     0
 77
     0
 78
     0
170
     0
171
     2
172
     0
173
     0
174
     0
175
     0
176
     0
177
     0
178
     0
  0
DIMSTYLE
  2
ANNOTATIVE
 70
     0
  3

  4

  5

  6

  7

 40
1.0
 41
0.18
 42
0.0625
 43
0.38
 44
0.18
 45
0.0
 46
0.0
 47
0.0
 48
0.0
140
0.18
141
0.09
142
0.0
143
25.399999999999999
144
1.0
145
0.0
146
1.0
147
0.09
 71
     0
 72
     0
 73
     1
 74
     1
 75
     0
 76
     0
 77
     0
 78
     0
170
     0
171
     2
172
     0
173
     0
174
     0
175
     0
176
     0
177
     0
178
     0
  0
DIMSTYLE
  2
AM_ISO
 70
     0
  3

  4
"
  5

  6

  7

 40
1.0
 41
2.5
 42
1.0
 43
8.0
 44
0.6
 45
0.0
 46
0.0
 47
0.1
 48
0.1
140
2.5
141
0.0
142
0.0
143
0.0393701
144
1.0
145
0.0
146
0.71
147
0.8
 71
     0
 72
     0
 73
     0
 74
     0
 75
     0
 76
     0
 77
     1
 78
     8
170
     0
171
     2
172
     1
173
     0
174
     0
175
     0
176
   256
177
   256
178
     4
  0
DIMSTYLE
  2
AM_ISO$3
 70
     0
  3

  4
"
  5

  6

  7

 40
1.0
 41
2.5
 42
1.0
 43
8.0
 44
0.6
 45
0.0
 46
0.0
 47
0.1
 48
0.1
140
2.5
141
0.0
142
0.0
143
0.0393701
144
1.0
145
0.0
146
0.71
147
0.8
 71
     0
 72
     0
 73
     0
 74
     1
 75
     0
 76
     0
 77
     1
 78
     8
170
     0
171
     2
172
     0
173
     0
174
     0
175
     0
176
   256
177
   256
178
     4
  0
DIMSTYLE
  2
AM_ISO$4
 70
     0
  3

  4
"
  5

  6

  7

 40
1.0
 41
2.5
 42
1.0
 43
8.0
 44
0.6
 45
0.0
 46
0.0
 47
0.1
 48
0.1
140
2.5
141
0.0
142
0.0
143
0.0393701
144
1.0
145
0.0
146
0.71
147
0.8
 71
     0
 72
     0
 73
     0
 74
     1
 75
     0
 76
     0
 77
     1
 78
     8
170
     0
171
     2
172
     0
173
     0
174
     0
175
     0
176
   256
177
   256
178
     4
  0
DIMSTYLE
  2
AM_ISO$6
 70
     0
  3

  4
"
  5

  6

  7

 40
1.0
 41
2.5
 42
1.0
 43
8.0
 44
0.6
 45
0.0
 46
0.0
 47
0.1
 48
0.1
140
2.5
141
0.0
142
0.0
143
0.0393701
144
1.0
145
0.0
146
0.71
147
0.8
 71
     0
 72
     0
 73
     0
 74
     0
 75
     0
 76
     0
 77
     0
 78
     8
170
     0
171
     2
172
     1
173
     0
174
     0
175
     0
176
   256
177
   256
178
     4
  0
DIMSTYLE
  2
AM_ISO$7
 70
     0
  3

  4
"
  5

  6

  7

 40
1.0
 41
2.5
 42
1.0
 43
8.0
 44
0.6
 45
0.0
 46
0.0
 47
0.1
 48
0.1
140
2.5
141
0.0
142
0.0
143
0.0393701
144
1.0
145
0.0
146
0.71
147
0.8
 71
     0
 72
     0
 73
     0
 74
     0
 75
     0
 76
     0
 77
     1
 78
     8
170
     0
171
     2
172
     1
173
     0
174
     0
175
     0
176
   256
177
   256
178
     4
  0
DIMSTYLE
  2
AM_ISO$SF
 70
     0
  3

  4
"
  5

  6

  7

 40
1.0
 41
2.5
 42
1.0
 43
10.0
 44
1.0
 45
0.0
 46
0.0
 47
0.1
 48
0.1
140
3.5
141
0.0
142
0.0
143
0.0393701
144
1.0
145
0.0
146
0.71
147
1.5
 71
     0
 72
     0
 73
     0
 74
     0
 75
     1
 76
     1
 77
     1
 78
     8
170
     0
171
     2
172
     1
173
     0
174
     0
175
     0
176
   256
177
   256
178
     2
  0
DIMSTYLE
  2
AM_ISO$SH
 70
     0
  3

  4
"
  5

  6

  7

 40
1.0
 41
2.5
 42
1.0
 43
10.0
 44
1.0
 45
0.0
 46
0.0
 47
0.1
 48
0.1
140
3.5
141
0.0
142
0.0
143
0.0393701
144
2.0
145
0.0
146
0.71
147
1.5
 71
     0
 72
     0
 73
     0
 74
     0
 75
     1
 76
     1
 77
     1
 78
     8
170
     0
171
     2
172
     1
173
     1
174
     0
175
     0
176
   256
177
   256
178
     2
  0
DIMSTYLE
  2
AM_JIS
 70
     0
  3

  4
"
  5

  6

  7

 40
1.0
 41
2.5
 42
1.0
 43
7.0
 44
1.0
 45
0.0
 46
0.0
 47
0.1
 48
0.1000000001
140
2.5
141
0.0
142
0.0
143
0.0393701
144
1.0
145
0.0
146
0.71
147
1.0
 71
     0
 72
     0
 73
     0
 74
     0
 75
     0
 76
     0
 77
     3
 78
     8
170
     0
171
     2
172
     1
173
     0
174
     0
175
     0
176
   256
177
   256
178
     4
  0
DIMSTYLE
  2
AM_JIS$3
 70
     0
  3

  4
"
  5

  6

  7

 40
1.0
 41
2.5
 42
1.0
 43
7.0
 44
1.0
 45
0.0
 46
0.0
 47
0.1
 48
0.1000000001
140
2.5
141
0.0
142
0.0
143
0.0393701
144
1.0
145
0.0
146
0.71
147
1.0
 71
     0
 72
     0
 73
     0
 74
     1
 75
     0
 76
     0
 77
     3
 78
     8
170
     0
171
     2
172
     0
173
     0
174
     0
175
     0
176
   256
177
   256
178
     4
  0
DIMSTYLE
  2
AM_JIS$4
 70
     0
  3

  4
"
  5

  6

  7

 40
1.0
 41
2.5
 42
1.0
 43
7.0
 44
1.0
 45
0.0
 46
0.0
 47
0.1
 48
0.1000000001
140
2.5
141
0.0
142
0.0
143
0.0393701
144
1.0
145
0.0
146
0.71
147
1.0
 71
     0
 72
     0
 73
     0
 74
     0
 75
     0
 76
     0
 77
     3
 78
     8
170
     0
171
     2
172
     0
173
     0
174
     0
175
     0
176
   256
177
   256
178
     4
  0
DIMSTYLE
  2
AM_JIS$6
 70
     0
  3

  4
"
  5

  6

  7

 40
1.0
 41
2.5
 42
1.0
 43
7.0
 44
1.0
 45
0.0
 46
0.0
 47
0.1
 48
0.1000000001
140
2.5
141
0.0
142
0.0
143
0.0393701
144
1.0
145
0.0
146
0.71
147
1.0
 71
     0
 72
     0
 73
     0
 74
     0
 75
     0
 76
     0
 77
     0
 78
     8
170
     0
171
     2
172
     1
173
     0
174
     0
175
     0
176
   256
177
   256
178
     4
  0
DIMSTYLE
  2
AM_JIS$7
 70
     0
  3

  4
"
  5

  6

  7

 40
1.0
 41
2.5
 42
1.0
 43
7.0
 44
1.0
 45
0.0
 46
0.0
 47
0.1
 48
0.1000000001
140
2.5
141
0.0
142
0.0
143
0.0393701
144
1.0
145
0.0
146
0.71
147
1.0
 71
     0
 72
     0
 73
     0
 74
     0
 75
     0
 76
     0
 77
     3
 78
     8
170
     0
171
     2
172
     1
173
     0
174
     0
175
     0
176
   256
177
   256
178
     4
  0
DIMSTYLE
  2
AM_JIS$SF
 70
     0
  3

  4
"
  5

  6

  7

 40
1.0
 41
2.5
 42
1.0
 43
10.0
 44
1.0
 45
0.0
 46
0.0
 47
0.1
 48
0.1
140
3.5
141
0.0
142
0.0
143
0.0393701
144
1.0
145
0.0
146
0.71
147
1.5
 71
     0
 72
     0
 73
     0
 74
     0
 75
     1
 76
     1
 77
     3
 78
     8
170
     0
171
     2
172
     1
173
     0
174
     0
175
     0
176
   256
177
   256
178
     4
  0
DIMSTYLE
  2
AM_JIS$SH
 70
     0
  3

  4
"
  5

  6

  7

 40
1.0
 41
2.5
 42
1.0
 43
10.0
 44
1.0
 45
0.0
 46
0.0
 47
0.1
 48
0.1
140
3.5
141
0.0
142
0.0
143
0.0393701
144
1.0
145
0.0
146
0.71
147
1.5
 71
     0
 72
     0
 73
     0
 74
     0
 75
     1
 76
     0
 77
     3
 78
     8
170
     0
171
     2
172
     1
173
     1
174
     0
175
     0
176
   256
177
   256
178
     4
  0
DIMSTYLE
  2
AM_ANSI
 70
     0
  3

  4
mm
  5

  6

  7

 40
1.0
 41
0.1
 42
0.05
 43
0.5
 44
0.1
 45
0.0
 46
0.0
 47
0.1
 48
0.1
140
0.12
141
0.0
142
0.0
143
25.399999999999999
144
1.0
145
0.0
146
0.71
147
0.06
 71
     0
 72
     0
 73
     1
 74
     1
 75
     0
 76
     0
 77
     0
 78
     7
170
     0
171
     2
172
     0
173
     0
174
     0
175
     0
176
   256
177
   256
178
     2
  0
DIMSTYLE
  2
AM_ANSI$3
 70
     0
  3

  4
mm
  5

  6

  7

 40
1.0
 41
0.1
 42
0.05
 43
0.5
 44
0.1
 45
0.0
 46
0.0
 47
0.1
 48
0.1
140
0.12
141
0.0
142
0.0
143
25.399999999999999
144
1.0
145
0.0
146
0.71
147
0.06
 71
     0
 72
     0
 73
     1
 74
     1
 75
     0
 76
     0
 77
     0
 78
     7
170
     0
171
     2
172
     0
173
     0
174
     0
175
     0
176
   256
177
   256
178
     2
  0
DIMSTYLE
  2
AM_ANSI$4
 70
     0
  3

  4
mm
  5

  6

  7

 40
1.0
 41
0.1
 42
0.05
 43
0.5
 44
0.1
 45
0.0
 46
0.0
 47
0.1
 48
0.1
140
0.12
141
0.0
142
0.0
143
25.399999999999999
144
1.0
145
0.0
146
0.71
147
0.06
 71
     0
 72
     0
 73
     1
 74
     1
 75
     0
 76
     0
 77
     0
 78
     7
170
     0
171
     2
172
     0
173
     0
174
     0
175
     0
176
   256
177
   256
178
     2
  0
DIMSTYLE
  2
AM_ANSI$7
 70
     0
  3

  4
mm
  5

  6

  7

 40
1.0
 41
0.1
 42
0.05
 43
0.5
 44
0.1
 45
0.0
 46
0.0
 47
0.1
 48
0.1
140
0.24
141
0.0
142
0.0
143
25.399999999999999
144
1.0
145
0.0
146
0.71
147
0.06
 71
     0
 72
     0
 73
     1
 74
     1
 75
     0
 76
     0
 77
     0
 78
     7
170
     0
171
     2
172
     0
173
     0
174
     0
175
     0
176
   256
177
   256
178
     2
  0
DIMSTYLE
  2
AM_ANSI$SF
 70
     0
  3

  4
mm
  5

  6

  7

 40
1.0
 41
0.1
 42
0.05
 43
0.5
 44
0.1
 45
0.0
 46
0.0
 47
0.1
 48
0.1
140
0.12
141
0.0
142
0.0
143
25.399999999999999
144
1.0
145
0.0
146
0.71
147
0.06
 71
     0
 72
     0
 73
     1
 74
     1
 75
     1
 76
     1
 77
     0
 78
     7
170
     0
171
     2
172
     0
173
     0
174
     0
175
     0
176
   256
177
   256
178
     2
  0
DIMSTYLE
  2
AM_ANSI$SH
 70
     0
  3

  4
mm
  5

  6

  7

 40
1.0
 41
0.1
 42
0.05
 43
0.5
 44
0.1
 45
0.0
 46
0.0
 47
0.1
 48
0.1
140
0.12
141
0.0
142
0.0
143
25.399999999999999
144
1.0
145
0.0
146
0.71
147
0.06
 71
     0
 72
     0
 73
     1
 74
     1
 75
     1
 76
     1
 77
     0
 78
     7
170
     0
171
     2
172
     0
173
     1
174
     0
175
     0
176
   256
177
   256
178
     2
  0
ENDTAB
  0
ENDSEC
  0
SECTION
  2
BLOCKS
  0
BLOCK
  8
0
  2
$MODEL_SPACE
 70
     0
 10
0.0
 20
0.0
 30
0.0
  3
$MODEL_SPACE
  1

  0
ENDBLK
  5
3411
  8
0
  0
BLOCK
 67
     1
  8
0
  2
$PAPER_SPACE
 70
     0
 10
0.0
 20
0.0
 30
0.0
  3
$PAPER_SPACE
  1

  0
ENDBLK
  5
340D
 67
     1
  8
0
  0
BLOCK
  8
0
  2
GENAXEH
 70
     0
 10
0.0
 20
0.0
 30
0.0
  3
GENAXEH
  1

  0
LINE
  5
3175
  8
0
 10
-1.0
 20
0.0
 30
0.0
 11
1.0
 21
0.0
 31
0.0
  0
ENDBLK
  5
3176
  8
0
  0
BLOCK
  8
0
  2
_OPEN30
 70
     0
 10
0.0
 20
0.0
 30
0.0
  3
_OPEN30
  1

  0
LINE
  5
3179
  8
0
 62
     0
 10
-1.0
 20
0.26794919
 30
0.0
 11
0.0
 21
0.0
 31
0.0
  0
LINE
  5
317A
  8
0
 62
     0
 10
0.0
 20
0.0
 30
0.0
 11
-1.0
 21
-0.26794919
 31
0.0
  0
LINE
  5
317B
  8
0
 62
     0
 10
0.0
 20
0.0
 30
0.0
 11
-1.0
 21
0.0
 31
0.0
  0
ENDBLK
  5
317C
  8
0
  0
BLOCK
  8
0
  2
_NONE
 70
     0
 10
0.0
 20
0.0
 30
0.0
  3
_NONE
  1

  0
ENDBLK
  5
317F
  8
0
  0
BLOCK
  8
0
  2
*U5
 70
     1
 10
0.0
 20
0.0
 30
0.0
  3
*U5
  1

  0
TEXT
  5
3182
  8
AM_0
 62
     4
 10
1451.207717838688
 20
439.58095400420291
 30
0.0
 40
15.0
  1
225
 50
90.0
 41
0.8299999999999999
  0
TEXT
  5
3183
  8
AM_0
 62
     3
 10
1437.00771783869
 20
476.93095400420282
 30
0.0
 40
10.64999999999999
  1
 0
 50
90.0
 41
0.8299999999999999
  0
TEXT
  5
3184
  8
AM_0
 62
     3
 10
1451.207717838688
 20
476.93095400420282
 30
0.0
 40
10.64999999999999
  1
-0.5
 50
90.0
 41
0.8299999999999999
  0
ENDBLK
  5
3185
  8
0
  0
BLOCK
  8
0
  2
*U6
 70
     1
 10
0.0
 20
0.0
 30
0.0
  3
*U6
  1

  0
TEXT
  5
3188
  8
AM_0
 62
     4
 10
873.83018598083265
 20
563.42158688816721
 30
0.0
 40
15.0
  1
\U+2205
 50
90.0
 41
0.8299999999999999
  0
TEXT
  5
3189
  8
AM_0
 62
     4
 10
873.83018598083265
 20
575.87158688816714
 30
0.0
 40
15.0
  1
60
 50
90.0
 41
0.8299999999999999
  0
TEXT
  5
318A
  8
AM_0
 62
     4
 10
873.83018598083265
 20
598.69658688816719
 30
0.0
 40
12.0
  1
h6
 50
90.0
 41
0.8299999999999999
  0
ENDBLK
  5
318B
  8
0
  0
BLOCK
  8
0
  2
_ACMFILLEDHALF
 70
     0
 10
0.0
 20
0.0
 30
0.0
  3
_ACMFILLEDHALF
  1

  0
TRACE
  5
350D
  8
AM_0
 62
     0
 10
-0.8
 20
0.0
 30
0.0
 11
-1.0
 21
0.166666666
 31
0.0
 12
0.0
 22
0.0
 32
0.0
 13
0.0
 23
0.0
 33
0.0
  0
LINE
  5
350E
  8
AM_0
 62
     0
 10
-1.0
 20
0.0
 30
0.0
 11
-0.8
 21
0.0
 31
0.0
  0
ENDBLK
  5
350C
  8
0
  0
ENDSEC
  0
SECTION
  2
ENTITIES
  0
LINE
  5
318C
  8
AM_0
 10
473.302472664378
 20
655.2786015042027
 30
0.0
 11
473.302472664378
 21
415.27857650420248
 31
0.0
  0
LINE
  5
318D
  8
AM_0
 10
486.3024226643779
 20
653.27860150420247
 30
0.0
 11
486.3024226643779
 21
417.27860650420251
 31
0.0
  0
LINE
  5
318E
  8
AM_0
 10
530.3024226643779
 20
663.47230150420273
 30
0.0
 11
530.3024226643779
 21
403.17918150420252
 31
0.0
  0
LINE
  5
318F
  8
AM_0
 10
550.3024226643779
 20
712.65925150420253
 30
0.0
 11
550.3024226643779
 21
416.7547765042026
 31
0.0
  0
LINE
  5
3190
  8
AM_0
 10
600.3024226643779
 20
713.59320150420285
 30
0.0
 11
600.3024226643779
 21
512.58079650420245
 31
0.0
  0
LINE
  5
3191
  8
AM_0
 10
646.8024226643779
 20
619.20555150420273
 30
0.0
 11
646.8024226643779
 21
405.27857650420282
 31
0.0
  0
LINE
  5
3192
  8
AM_0
 10
676.80242266437779
 20
696.89955150420246
 30
0.0
 11
676.80242266437779
 21
438.9305565042028
 31
0.0
  0
LINE
  5
3193
  8
AM_0
 10
706.80242266437756
 20
667.9479015042026
 30
0.0
 11
706.80242266437756
 21
390.27857650420259
 31
0.0
  0
LINE
  5
3194
  8
AM_0
 10
712.8024226643779
 20
645.38150150420245
 30
0.0
 11
712.8024226643779
 21
521.17564650420275
 31
0.0
  0
LINE
  5
3195
  8
AM_0
 10
570.3024226643779
 20
715.2786015042027
 30
0.0
 11
570.3024226643779
 21
435.51667650420251
 31
0.0
  0
LINE
  5
3196
  8
AM_0
 10
718.80242266437756
 20
615.77860150420247
 30
0.0
 11
718.80242266437756
 21
550.77858150420275
 31
0.0
  0
LINE
  5
3197
  8
AM_0
 10
823.802472664378
 20
617.2786015042027
 30
0.0
 11
823.802472664378
 21
553.27858150420275
 31
0.0
  0
LINE
  5
3198
  8
AM_0
 10
389.67316366437802
 20
590.90582350420254
 30
0.0
 11
389.67316366437802
 21
479.32463450420272
 31
0.0
  0
LINE
  5
3199
  8
AM_0
 10
453.30247266437777
 20
607.24078250420246
 30
0.0
 11
453.30247266437777
 21
450.75291050420248
 31
0.0
  0
LINE
  5
319A
  8
AM_0
 10
352.802472664378
 20
570.27858150420275
 30
0.0
 11
352.802472664378
 21
500.27858150420258
 31
0.0
  0
LINE
  5
319B
  8
AM_0
 10
354.802472664378
 20
590.33049050420254
 30
0.0
 11
354.802472664378
 21
480.22667350420272
 31
0.0
  0
LINE
  5
319C
  8
AM_0
 10
348.802472664378
 20
555.27858150420275
 30
0.0
 11
348.802472664378
 21
515.27858150420275
 31
0.0
  0
LINE
  5
319D
  8
AM_0
 10
290.80247266437789
 20
555.77858150420275
 30
0.0
 11
290.80247266437789
 21
552.77858150420275
 31
0.0
  0
LINE
  5
319E
  8
AM_0
 10
335.802472664378
 20
555.77858150420275
 30
0.0
 11
335.802472664378
 21
552.77858150420275
 31
0.0
  0
LINE
  5
319F
  8
AM_0
 10
290.80247266437789
 20
517.77858150420275
 30
0.0
 11
348.802472664378
 21
517.77858150420275
 31
0.0
  0
LINE
  5
31A0
  8
AM_0
 10
348.802472664378
 20
552.77858150420275
 30
0.0
 11
290.80247266437789
 21
552.77858150420275
 31
0.0
  0
LINE
  5
31A1
  8
ﾁｭｳｼﾝｾﾝ
 10
279.06216960157042
 20
535.27858150420275
 30
0.0
 11
576.52217266437765
 21
535.27858150420275
 31
0.0
  0
LINE
  5
31A2
  8
AM_0
 10
290.80247266437789
 20
552.77858150420275
 30
0.0
 11
290.80247266437789
 21
517.77858150420275
 31
0.0
  0
LINE
  5
31A3
  8
AM_0
 10
570.3024226643779
 20
512.58079650420245
 30
0.0
 11
600.3024226643779
 21
512.58079650420245
 31
0.0
  0
LINE
  5
31A4
  8
AM_0
 10
452.80242266437762
 20
358.27857650420259
 30
0.0
 11
712.8024226643779
 21
358.27857650420259
 31
0.0
  0
LINE
  5
31A5
  8
ｶｸﾚｾﾝ2
 10
494.802472664378
 20
390.27857650420259
 30
0.0
 11
494.802472664378
 21
358.27857650420259
 31
0.0
  0
LINE
  5
31A6
  8
ｶｸﾚｾﾝ2
 10
470.80247266437777
 20
390.27857650420259
 30
0.0
 11
470.80247266437777
 21
358.27857650420259
 31
0.0
  0
LINE
  5
31A7
  8
ﾁｭｳｼﾝｾﾝ1
 10
482.8024226643779
 20
394.57838150420258
 30
0.0
 11
482.8024226643779
 21
352.96542150420271
 31
0.0
  0
LINE
  5
31A8
  8
AM_0
 10
452.80242266437762
 20
385.27857650420259
 30
0.0
 11
452.80242266437762
 21
358.27857650420259
 31
0.0
  0
ARC
  5
31A9
  8
AM_0
 10
457.302472664378
 20
487.19976850420272
 30
0.0
 40
4.0
 50
180.0
 51
270.0
  0
LINE
  5
31AA
  8
AM_0
 10
471.30247266437772
 20
435.19656150420258
 30
0.0
 11
448.80370566437767
 21
435.19656150420258
 31
0.0
  0
ARC
  5
31AB
  8
AM_0
 10
457.302472664378
 20
419.2785815042028
 30
0.0
 40
4.0
 50
180.0
 51
270.0
  0
ARC
  5
31AC
  8
AM_0
 10
457.8024226643779
 20
385.27857650420259
 30
0.0
 40
5.0
 50
90.000003000000007
 51
180.00001
  0
ARC
  5
31AD
  8
AM_0
 10
448.302472664378
 20
420.94704350420261
 30
0.0
 40
5.0
 50
0.0
 51
49.999999999999922
  0
LINE
  5
31AE
  8
AM_0
 10
451.51641066437759
 20
424.77726550420277
 30
0.0
 11
392.38586866437799
 21
474.39368150420279
 31
0.0
  0
LINE
  5
31AF
  8
AM_0
 10
444.90408366437811
 20
454.30737550420281
 30
0.0
 11
443.17345666437808
 21
469.74820450420282
 31
0.0
  0
LINE
  5
31B0
  8
AM_0
 10
453.30247266437777
 20
419.2785815042028
 30
0.0
 11
453.30247266437777
 21
435.19656150420258
 31
0.0
  0
LINE
  5
31B1
  8
AM_0
 10
444.83891866437813
 20
438.66697150420282
 30
0.0
 11
443.22233066437798
 21
450.76960950420272
 31
0.0
  0
LINE
  5
31B2
  8
AM_0
 10
445.30247266437777
 20
450.75291050420248
 30
0.0
 11
445.30247266437777
 21
440.00686150420279
 31
0.0
  0
ARC
  5
31B3
  8
AM_0
 10
448.80370566437767
 20
439.19656150420258
 30
0.0
 40
4.0
 50
187.60814799999741
 51
270.0
  0
LINE
  5
31B4
  8
AM_0
 10
453.30247266437777
 20
450.75291050420248
 30
0.0
 11
448.87919366437791
 21
450.75291050420248
 31
0.0
  0
ARC
  5
31B5
  8
AM_0
 10
448.87919366437791
 20
454.75291050420248
 30
0.0
 40
4.0
 50
186.39509300000049
 51
270.0
  0
LINE
  5
31B6
  8
AM_0
 10
442.87466466437792
 20
453.37241750420282
 30
0.0
 11
442.87466466437792
 21
468.1620865042027
 31
0.0
  0
ARC
  5
31B7
  8
AM_0
 10
440.24874066437792
 20
450.37241750420282
 30
0.0
 40
3.0
 50
7.6081479999975583
 51
68.357691000001253
  0
ARC
  5
31B8
  8
AM_0
 10
385.9579926643782
 20
466.73323650420252
 30
0.0
 40
10.0
 50
49.999999999999922
 51
89.000000000001506
  0
LINE
  5
31B9
  8
AM_0
 10
352.802472664378
 20
500.27858150420258
 30
0.0
 11
354.802472664378
 21
498.27858150420252
 31
0.0
  0
LINE
  5
31BA
  8
AM_0
 10
357.75011566437797
 20
477.22713050420282
 30
0.0
 11
386.13251666437827
 21
476.7317135042025
 31
0.0
  0
ARC
  5
31BB
  8
AM_0
 10
357.80247266437789
 20
480.22667350420272
 30
0.0
 40
3.0
 50
180.0
 51
268.99999999999812
  0
LINE
  5
31BC
  8
AM_0
 10
348.802472664378
 20
515.27858150420275
 30
0.0
 11
352.802472664378
 21
515.27858150420275
 31
0.0
  0
LINE
  5
31BD
  8
AM_0
 10
442.87466466437792
 20
472.41405250420257
 30
0.0
 11
452.7588366643779
 21
472.41405250420257
 31
0.0
  0
ARC
  5
31BE
  8
AM_0
 10
440.19212366437768
 20
469.41405250420252
 30
0.0
 40
3.0
 50
6.3950930000004771
 51
71.538410999999911
  0
LINE
  5
31BF
  8
AM_0
 10
575.3024226643779
 20
512.58079650420245
 30
0.0
 11
575.3024226643779
 21
444.56428650420253
 31
0.0
  0
LINE
  5
31C0
  8
AM_0
 10
471.30247266437772
 20
435.19656150420258
 30
0.0
 11
471.30247266437772
 21
483.1997685042025
 31
0.0
  0
ARC
  5
31C1
  8
AM_0
 10
518.80242266437767
 20
400.27857650420248
 30
0.0
 40
10.0
 50
270.0
 51
313.60282000000001
  0
LINE
  5
31C2
  8
AM_0
 10
488.302472664378
 20
423.27857650420248
 30
0.0
 11
525.3024226643779
 21
423.27857650420248
 31
0.0
  0
LINE
  5
31C3
  8
AM_0
 10
486.3024226643779
 20
448.60371150420258
 30
0.0
 11
530.3024226643779
 21
448.60371150420258
 31
0.0
  0
LINE
  5
31C4
  8
AM_0
 10
486.3024226643779
 20
464.34577650420277
 30
0.0
 11
530.3024226643779
 21
464.34577650420277
 31
0.0
  0
ARC
  5
31C5
  8
AM_0
 10
488.302472664378
 20
421.27857650420259
 30
0.0
 40
2.0000000500000001
 50
90.000003000000007
 51
180.00001
  0
LINE
  5
31C6
  8
AM_0
 10
457.8024226643779
 20
390.27857650420259
 30
0.0
 11
518.80242266437767
 21
390.27857650420259
 31
0.0
  0
LINE
  5
31C7
  8
AM_0
 10
457.302472664378
 20
415.2785815042028
 30
0.0
 11
471.30247266437772
 21
415.2785815042028
 31
0.0
  0
ARC
  5
31C8
  8
AM_0
 10
484.3024226643779
 20
417.27860650420251
 30
0.0
 40
2.0000000500000001
 50
270.0
 51
0.0
  0
LINE
  5
31C9
  8
AM_0
 10
471.30247266437772
 20
415.2785815042028
 30
0.0
 11
473.302472664378
 21
417.27858150420258
 31
0.0
  0
LINE
  5
31CA
  8
AM_0
 10
473.302472664378
 20
415.27857650420248
 30
0.0
 11
484.3024226643779
 21
415.27857650420248
 31
0.0
  0
LINE
  5
31CB
  8
AM_0
 10
471.30247266437772
 20
435.19656150420258
 30
0.0
 11
473.302472664378
 21
437.1965615042028
 31
0.0
  0
LINE
  5
31CC
  8
AM_0
 10
473.302472664378
 20
435.55137650420278
 30
0.0
 11
486.3024226643779
 21
435.55137650420278
 31
0.0
  0
LINE
  5
31CD
  8
AM_0
 10
473.302472664378
 20
451.1077115042026
 30
0.0
 11
486.3024226643779
 21
451.1077115042026
 31
0.0
  0
LINE
  5
31CE
  8
AM_0
 10
473.302472664378
 20
459.26188650420278
 30
0.0
 11
486.3024226643779
 21
459.26188650420278
 31
0.0
  0
LINE
  5
31CF
  8
AM_0
 10
525.69902266437794
 20
393.03715150420271
 30
0.0
 11
572.19902266437794
 21
437.32286150420282
 31
0.0
  0
ARC
  5
31D0
  8
AM_0
 10
540.30242266437756
 20
403.17918150420252
 30
0.0
 40
10.0
 50
179.99998999999991
 51
206.54091999999989
  0
ARC
  5
31D1
  8
AM_0
 10
525.3024226643779
 20
418.27857650420259
 30
0.0
 40
5.0
 50
0.0
 51
90.000003000000007
  0
ARC
  5
31D2
  8
AM_0
 10
565.30242266437756
 20
444.56428650420253
 30
0.0
 40
10.0
 50
313.60282000000001
 51
0.0
  0
LINE
  5
31D3
  8
AM_0
 10
458.5553046643779
 20
483.1997685042025
 30
0.0
 11
471.30247266437772
 21
483.1997685042025
 31
0.0
  0
LINE
  5
31D4
  8
AM_0
 10
454.83746866437792
 20
489.65251850420248
 30
0.0
 11
469.66174866437802
 21
489.65251850420248
 31
0.0
  0
LINE
  5
31D5
  8
AM_0
 10
471.30247266437772
 20
483.1997685042025
 30
0.0
 11
473.302472664378
 21
485.19976850420278
 31
0.0
  0
LINE
  5
31D6
  8
ｶｸﾚｾﾝ2
 10
694.802472664378
 20
390.27857650420259
 30
0.0
 11
694.802472664378
 21
358.27857650420259
 31
0.0
  0
LINE
  5
31D7
  8
ｶｸﾚｾﾝ2
 10
670.80247266437777
 20
390.27857650420259
 30
0.0
 11
670.80247266437777
 21
358.27857650420259
 31
0.0
  0
LINE
  5
31D8
  8
ﾁｭｳｼﾝｾﾝ1
 10
682.8024226643779
 20
394.57838150420258
 30
0.0
 11
682.8024226643779
 21
352.96542150420271
 31
0.0
  0
LINE
  5
31D9
  8
AM_0
 10
712.8024226643779
 20
385.27857650420259
 30
0.0
 11
712.8024226643779
 21
358.27857650420259
 31
0.0
  0
LINE
  5
31DA
  8
AM_0
 10
718.80242266437756
 20
553.27858150420275
 30
0.0
 11
823.802472664378
 21
553.27858150420275
 31
0.0
  0
LINE
  5
31DB
  8
AM_0
 10
646.8024226643779
 20
428.93055650420263
 30
0.0
 11
666.8024226643779
 21
428.93055650420263
 31
0.0
  0
ARC
  5
31DC
  8
AM_0
 10
661.8024226643779
 20
405.27857650420282
 30
0.0
 40
15.0
 50
179.99998999999991
 51
270.0
  0
LINE
  5
31DD
  8
AM_0
 10
661.8024226643779
 20
390.27857650420259
 30
0.0
 11
707.8024226643779
 21
390.27857650420259
 31
0.0
  0
ARC
  5
31DE
  8
AM_0
 10
707.8024226643779
 20
385.27857650420259
 30
0.0
 40
5.0
 50
0.0
 51
90.000003000000007
  0
ARC
  5
31DF
  8
AM_0
 10
666.8024226643779
 20
438.9305565042028
 30
0.0
 40
10.0
 50
270.0
 51
0.0
  0
ARC
  5
31E0
  8
AM_0
 10
709.802472664378
 20
521.17564650420275
 30
0.0
 40
3.0000000500000001
 50
272.0
 51
0.0
  0
LINE
  5
31E1
  8
AM_0
 10
709.69777266437802
 20
518.17018150420267
 30
0.0
 11
709.90717266437775
 21
518.17747650420256
 31
0.0
  0
ARC
  5
31E2
  8
AM_0
 10
709.802472664378
 20
515.17201150420283
 30
0.0
 40
3.0000000500000001
 50
91.999997999999948
 51
180.00001
  0
LINE
  5
31E3
  8
AM_0
 10
712.8024226643779
 20
550.77858150420275
 30
0.0
 11
718.80242266437756
 21
550.77858150420275
 31
0.0
  0
LINE
  5
31E4
  8
AM_0
 10
290.80247266437789
 20
555.77858150420275
 30
0.0
 11
335.802472664378
 21
555.77858150420275
 31
0.0
  0
LINE
  5
31E5
  8
AM_0
 10
570.30247266437789
 20
715.2786015042027
 30
0.0
 11
595.31892266437808
 21
714.40500150420257
 31
0.0
  0
LINE
  5
31E6
  8
ﾁｭｳｼﾝｾﾝ
 10
826.74147266437762
 20
583.27858150420275
 30
0.0
 11
511.95042266437753
 21
583.27858150420275
 31
0.0
  0
ARC
  5
31E7
  8
AM_0
 10
552.302472664378
 20
741.27860150420247
 30
0.0
 40
25.000000499999999
 50
306.46672000000001
 51
233.53328999999999
  0
CIRCLE
  5
31E8
  8
AM_0
 10
552.302472664378
 20
741.27860150420247
 30
0.0
 40
15.0
  0
ARC
  5
31E9
  8
AM_0
 10
448.302472664378
 20
649.61012050420277
 30
0.0
 40
5.0
 50
310.0
 51
0.0
  0
ARC
  5
31EA
  8
AM_0
 10
457.302472664378
 20
662.27858150420275
 30
0.0
 40
4.0
 50
90.0
 51
180.0
  0
ARC
  5
31EB
  8
AM_0
 10
457.302472664378
 20
607.24078250420246
 30
0.0
 40
4.0
 50
90.0
 51
180.0
  0
LINE
  5
31EC
  8
AM_0
 10
471.30247266437772
 20
619.80425350420285
 30
0.0
 11
448.87919366437791
 21
619.80425350420285
 31
0.0
  0
LINE
  5
31ED
  8
AM_0
 10
471.30247266437772
 20
635.36060250420269
 30
0.0
 11
448.80370566437767
 21
635.36060250420269
 31
0.0
  0
LINE
  5
31EE
  8
AM_0
 10
451.51641066437759
 20
645.77989750420272
 30
0.0
 11
392.38586866437799
 21
596.16348250420265
 31
0.0
  0
LINE
  5
31EF
  8
AM_0
 10
453.30247266437777
 20
635.36060250420269
 30
0.0
 11
453.30247266437777
 21
662.27858150420275
 31
0.0
  0
ARC
  5
31F0
  8
AM_0
 10
385.9579926643782
 20
603.82392650420275
 30
0.0
 40
10.0
 50
270.99999999999841
 51
310.0
  0
LINE
  5
31F1
  8
AM_0
 10
352.802472664378
 20
570.27858150420275
 30
0.0
 11
354.802472664378
 21
572.27858150420275
 31
0.0
  0
LINE
  5
31F2
  8
AM_0
 10
352.802472664378
 20
555.27858150420275
 30
0.0
 11
348.802472664378
 21
555.27858150420275
 31
0.0
  0
LINE
  5
31F3
  8
AM_0
 10
357.75011566437797
 20
593.33003350420267
 30
0.0
 11
386.13251666437827
 21
593.82544950420288
 31
0.0
  0
ARC
  5
31F4
  8
AM_0
 10
357.80247266437789
 20
590.33049050420254
 30
0.0
 40
3.0
 50
90.999999999998465
 51
180.0
  0
ARC
  5
31F5
  8
AM_0
 10
440.19212366437768
 20
601.14311150420269
 30
0.0
 40
3.0
 50
288.461589
 51
353.6049069999994
  0
LINE
  5
31F6
  8
AM_0
 10
442.87466466437792
 20
598.14311150420269
 30
0.0
 11
452.7588366643779
 21
598.14311150420269
 31
0.0
  0
LINE
  5
31F7
  8
AM_0
 10
445.30247266437777
 20
619.80425350420285
 30
0.0
 11
445.30247266437777
 21
630.55030250420248
 31
0.0
  0
LINE
  5
31F8
  8
AM_0
 10
444.83891866437813
 20
631.89019150420245
 30
0.0
 11
443.22233066437798
 21
619.78755350420272
 31
0.0
  0
ARC
  5
31F9
  8
AM_0
 10
448.87919366437791
 20
615.80425350420285
 30
0.0
 40
4.0
 50
90.0
 51
173.60490699999951
  0
LINE
  5
31FA
  8
AM_0
 10
444.90408366437811
 20
616.24978850420268
 30
0.0
 11
443.17345666437808
 21
600.80895950420268
 31
0.0
  0
LINE
  5
31FB
  8
AM_0
 10
442.87466466437792
 20
617.18474550420285
 30
0.0
 11
442.87466466437792
 21
602.39507650420273
 31
0.0
  0
ARC
  5
31FC
  8
AM_0
 10
440.24874066437792
 20
620.18474550420285
 30
0.0
 40
3.0
 50
291.6423089999987
 51
352.3918520000023
  0
ARC
  5
31FD
  8
AM_0
 10
448.80370566437767
 20
631.36060250420269
 30
0.0
 40
4.0
 50
90.0
 51
172.39185199999591
  0
LINE
  5
31FE
  8
AM_0
 10
486.3024226643779
 20
606.21141150420272
 30
0.0
 11
530.3024226643779
 21
606.21141150420272
 31
0.0
  0
LINE
  5
31FF
  8
AM_0
 10
486.3024226643779
 20
621.95345150420269
 30
0.0
 11
530.3024226643779
 21
621.95345150420269
 31
0.0
  0
LINE
  5
3200
  8
AM_0
 10
471.30247266437772
 20
635.36060250420269
 30
0.0
 11
471.30247266437772
 21
619.80425350420285
 31
0.0
  0
LINE
  5
3201
  8
AM_0
 10
457.302472664378
 20
611.24078250420246
 30
0.0
 11
471.30247266437772
 21
611.24078250420246
 31
0.0
  0
LINE
  5
3202
  8
AM_0
 10
471.30247266437772
 20
619.80425350420285
 30
0.0
 11
473.302472664378
 21
617.80425350420285
 31
0.0
  0
LINE
  5
3203
  8
AM_0
 10
473.302472664378
 20
611.29525150420272
 30
0.0
 11
486.3024226643779
 21
611.29525150420272
 31
0.0
  0
LINE
  5
3204
  8
AM_0
 10
473.302472664378
 20
619.44940150420246
 30
0.0
 11
486.3024226643779
 21
619.44940150420246
 31
0.0
  0
LINE
  5
3205
  8
AM_0
 10
471.30247266437772
 20
635.36060250420269
 30
0.0
 11
473.302472664378
 21
633.36060250420235
 31
0.0
  0
LINE
  5
3206
  8
AM_0
 10
473.302472664378
 20
635.00580150420274
 30
0.0
 11
486.3024226643779
 21
635.00580150420274
 31
0.0
  0
LINE
  5
3207
  8
AM_0
 10
488.302472664378
 20
647.2786015042027
 30
0.0
 11
525.3024226643779
 21
647.2786015042027
 31
0.0
  0
ARC
  5
3208
  8
AM_0
 10
488.302472664378
 20
649.27860150420247
 30
0.0
 40
2.0000000500000001
 50
179.99998999999991
 51
270.0
  0
LINE
  5
3209
  8
AM_0
 10
471.30247266437772
 20
664.27858150420275
 30
0.0
 11
471.30247266437772
 21
655.27858150420275
 31
0.0
  0
LINE
  5
320A
  8
AM_0
 10
454.04115266437782
 20
654.20975250420247
 30
0.0
 11
470.3034606643775
 21
654.20975250420247
 31
0.0
  0
ARC
  5
320B
  8
AM_0
 10
484.3024226643779
 20
653.27860150420247
 30
0.0
 40
2.0000000500000001
 50
0.0
 51
90.000003000000007
  0
LINE
  5
320C
  8
AM_0
 10
471.30247266437772
 20
655.27858150420275
 30
0.0
 11
473.302472664378
 21
653.27858150420275
 31
0.0
  0
LINE
  5
320D
  8
AM_0
 10
473.302472664378
 20
655.2786015042027
 30
0.0
 11
484.3024226643779
 21
655.2786015042027
 31
0.0
  0
LINE
  5
320E
  8
AM_0
 10
469.302472664378
 20
666.27858150420275
 30
0.0
 11
471.30247266437772
 21
664.27858150420275
 31
0.0
  0
LINE
  5
320F
  8
AM_0
 10
457.302472664378
 20
666.27858150420275
 30
0.0
 11
469.302472664378
 21
666.27858150420275
 31
0.0
  0
ARC
  5
3210
  8
AM_0
 10
547.302472664378
 20
685.72040150420275
 30
0.0
 40
3.0000000500000001
 50
308.65980999999982
 51
0.0
  0
LINE
  5
3211
  8
AM_0
 10
537.30247266437777
 20
713.2786015042027
 30
0.0
 11
537.30247266437777
 21
676.28170150420272
 31
0.0
  0
ARC
  5
3212
  8
AM_0
 10
525.3024226643779
 20
652.2786015042027
 30
0.0
 40
5.0
 50
270.0
 51
0.0
  0
ARC
  5
3213
  8
AM_0
 10
532.302472664378
 20
676.28170150420272
 30
0.0
 40
5.0
 50
308.65980999999982
 51
0.0
  0
LINE
  5
3214
  8
AM_0
 10
549.17657266437777
 20
683.37780150420247
 30
0.0
 11
535.4259726643777
 21
672.37740150420245
 31
0.0
  0
ARC
  5
3215
  8
AM_0
 10
540.30242266437756
 20
663.47230150420273
 30
0.0
 40
10.0
 50
128.65980999999991
 51
180.00001
  0
LINE
  5
3216
  8
AM_0
 10
535.72587266437768
 20
672.37740150420245
 30
0.0
 11
534.35552266437765
 21
671.28110150420275
 31
0.0
  0
LINE
  5
3217
  8
AM_0
 10
539.30242266437779
 20
715.2786015042027
 30
0.0
 11
570.00242266437738
 21
715.2786015042027
 31
0.0
  0
LINE
  5
3218
  8
AM_0
 10
552.23267266437745
 20
714.6581015042027
 30
0.0
 11
570.00242266437738
 21
715.27865150420246
 31
0.0
  0
LINE
  5
3219
  8
AM_0
 10
542.50842266437735
 20
724.27860150420258
 30
0.0
 11
562.09652266437797
 21
724.27860150420258
 31
0.0
  0
LINE
  5
321A
  8
AM_0
 10
552.302472664378
 20
726.2786015042027
 30
0.0
 11
561.78052266437771
 21
724.39960150420291
 31
0.0
  0
ARC
  5
321B
  8
AM_0
 10
552.302472664378
 20
712.65925150420253
 30
0.0
 40
2.0000000500000001
 50
91.999997999999948
 51
180.00001
  0
ARC
  5
321C
  8
AM_0
 10
533.87742266437772
 20
716.34830150420271
 30
0.0
 40
6.0
 50
349.72994999999997
 51
53.533291000000013
  0
ARC
  5
321D
  8
AM_0
 10
543.0188726643778
 20
723.41870150420255
 30
0.0
 40
1.0
 50
101.21329
 51
164.99999
  0
ARC
  5
321E
  8
AM_0
 10
539.30242266437779
 20
713.2786015042027
 30
0.0
 40
2.0000000500000001
 50
90.000003000000007
 51
180.00001
  0
LINE
  5
321F
  8
AM_0
 10
539.802472664378
 20
715.2786015042027
 30
0.0
 11
542.05297266437788
 21
723.67750150420284
 31
0.0
  0
LINE
  5
3220
  8
AM_0
 10
542.82442266437761
 20
724.39955150420235
 30
0.0
 11
552.302472664378
 21
726.27850150420272
 31
0.0
  0
LINE
  5
3221
  8
AM_0
 10
570.00242266437738
 20
715.2786015042027
 30
0.0
 11
570.3024226643779
 21
715.2786015042027
 31
0.0
  0
ARC
  5
3222
  8
AM_0
 10
570.72747266437761
 20
716.34830150420271
 30
0.0
 40
6.0
 50
126.4666999999999
 51
190.27006
  0
ARC
  5
3223
  8
AM_0
 10
561.58602266437811
 20
723.41870150420255
 30
0.0
 40
1.0
 50
15.0
 51
78.786709999999999
  0
LINE
  5
3224
  8
AM_0
 10
564.80242266437756
 20
715.2786015042027
 30
0.0
 11
562.5519226643778
 21
723.67750150420284
 31
0.0
  0
LINE
  5
3225
  8
AM_0
 10
718.80242266437756
 20
613.2786015042027
 30
0.0
 11
823.802472664378
 21
613.2786015042027
 31
0.0
  0
ARC
  5
3226
  8
AM_0
 10
661.8024226643779
 20
619.20555150420273
 30
0.0
 40
15.0
 50
90.000003000000007
 51
180.00001
  0
LINE
  5
3227
  8
AM_0
 10
661.8024226643779
 20
634.20550150420252
 30
0.0
 11
676.80242266437779
 21
634.20550150420252
 31
0.0
  0
LINE
  5
3228
  8
AM_0
 10
712.8024226643779
 20
615.77860150420247
 30
0.0
 11
718.80242266437756
 21
615.77860150420247
 31
0.0
  0
LINE
  5
3229
  8
AM_0
 10
612.01757266437789
 20
708.81880150420284
 30
0.0
 11
667.15142266437749
 21
706.89345150420286
 31
0.0
  0
ARC
  5
322A
  8
AM_0
 10
594.62092266437776
 20
694.41715150420271
 30
0.0
 40
20.000000499999999
 50
60.000002000000002
 51
88.0
  0
LINE
  5
322B
  8
AM_0
 10
604.62092266437764
 20
711.73770150420273
 30
0.0
 11
607.36662266437816
 21
710.15250150420275
 31
0.0
  0
ARC
  5
322C
  8
AM_0
 10
612.36662266437816
 20
718.81270150420255
 30
0.0
 40
10.0
 50
239.99999999999989
 51
268.0
  0
ARC
  5
322D
  8
AM_0
 10
686.8024226643779
 20
687.06655150420272
 30
0.0
 40
10.0
 50
179.99998999999991
 51
265.0
  0
LINE
  5
322E
  8
AM_0
 10
685.93092266437804
 20
677.10465150420248
 30
0.0
 11
699.49962266437785
 21
675.91750150420251
 31
0.0
  0
ARC
  5
322F
  8
AM_0
 10
709.802472664378
 20
645.38150150420245
 30
0.0
 40
3.0000000500000001
 50
0.0
 51
88.0
  0
LINE
  5
3230
  8
AM_0
 10
709.69777266437802
 20
648.38700150420254
 30
0.0
 11
709.90712266437822
 21
648.37965150420246
 31
0.0
  0
ARC
  5
3231
  8
AM_0
 10
709.802472664378
 20
651.38515150420255
 30
0.0
 40
3.0000000500000001
 50
179.99998999999991
 51
268.00000999999992
  0
ARC
  5
3232
  8
AM_0
 10
698.8024226643779
 20
667.9479015042026
 30
0.0
 40
8.0
 50
0.0
 51
84.999996999999979
  0
ARC
  5
3233
  8
AM_0
 10
666.8024226643779
 20
696.89955150420246
 30
0.0
 40
10.0
 50
0.0
 51
88.0
  0
LINE
  5
3234
  8
AM_0
 10
742.8024226643779
 20
617.2786015042027
 30
0.0
 11
823.802472664378
 21
617.2786015042027
 31
0.0
  0
LINE
  5
3235
  8
AM_0
 10
742.8024226643779
 20
617.2786015042027
 30
0.0
 11
742.8024226643779
 21
613.2786015042027
 31
0.0
  0
CIRCLE
  5
3236
  8
AM_0
 10
1138.584732367199
 20
583.27858150420275
 30
0.0
 40
65.0
  0
ARC
  5
3237
  8
AM_0
 10
1138.584732367199
 20
583.27858150420275
 30
0.0
 40
30.000000499999999
 50
107.4575999999999
 51
72.542383999999998
  0
LINE
  5
3238
  8
AM_0
 10
1275.403107367199
 20
615.08015150420272
 30
0.0
 11
1318.584717367198
 21
392.93006650420273
 31
0.0
  0
LINE
  5
3239
  8
AM_0
 10
1268.5847173671989
 20
632.58060150420272
 30
0.0
 11
1268.5847173671989
 21
495.27858150420258
 31
0.0
  0
LINE
  5
323A
  8
AM_0
 10
1245.584702367199
 20
568.27858150420275
 30
0.0
 11
1245.584702367199
 21
405.27857650420282
 31
0.0
  0
LINE
  5
323B
  8
AM_0
 10
1031.584702367199
 20
568.27858150420275
 30
0.0
 11
1031.584702367199
 21
405.27857650420282
 31
0.0
  0
LINE
  5
323C
  8
AM_0
 10
1008.584732367199
 20
632.58060150420272
 30
0.0
 11
1008.584732367199
 21
495.27858150420258
 31
0.0
  0
LINE
  5
323D
  8
AM_0
 10
1001.766307367198
 20
615.08015150420272
 30
0.0
 11
958.58471736719912
 21
392.93009650420271
 31
0.0
  0
LINE
  5
323E
  8
ﾁｭｳｼﾝｾﾝ
 10
1138.584732367199
 20
772.4850308793657
 30
0.0
 11
1138.584732367199
 21
354.18350150420258
 31
0.0
  0
ARC
  5
323F
  8
AM_0
 10
1078.639572367199
 20
381.04829150420272
 30
0.0
 40
10.0
 50
234.0
 51
270.0
  0
LINE
  5
3240
  8
AM_0
 10
1041.584702367199
 20
361.27857650420259
 30
0.0
 11
1138.584732367199
 21
361.27857650420259
 31
0.0
  0
LINE
  5
3241
  8
ﾁｭｳｼﾝｾﾝ
 10
990.67902196784553
 20
535.27858150420275
 30
0.0
 11
1286.187322093371
 21
535.27858150420275
 31
0.0
  0
LINE
  5
3242
  8
ｶｸﾚｾﾝ2
 10
981.58471736719923
 20
390.27857650420259
 30
0.0
 11
981.58471736719923
 21
358.27857650420259
 31
0.0
  0
LINE
  5
3243
  8
ｶｸﾚｾﾝ2
 10
1005.584732367199
 20
390.27857650420259
 30
0.0
 11
1005.584732367199
 21
358.27857650420259
 31
0.0
  0
LINE
  5
3244
  8
ﾁｭｳｼﾝｾﾝ1
 10
993.58473236719942
 20
395.11698650420271
 30
0.0
 11
993.58473236719942
 21
352.03901650420272
 31
0.0
  0
ARC
  5
3245
  8
AM_0
 10
1056.7088173671989
 20
372.26054150420282
 30
0.0
 40
10.0
 50
54.000002000000002
 51
135.0
  0
LINE
  5
3246
  8
AM_0
 10
1038.584732367199
 20
385.27857650420259
 30
0.0
 11
1038.584732367199
 21
358.27857650420259
 31
0.0
  0
LINE
  5
3247
  8
AM_0
 10
958.58471736719912
 20
392.93009650420271
 30
0.0
 11
958.58471736719912
 21
358.27857650420259
 31
0.0
  0
LINE
  5
3248
  8
AM_0
 10
958.58471736719912
 20
358.27857650420259
 30
0.0
 11
1038.584732367199
 21
358.27857650420259
 31
0.0
  0
LINE
  5
3249
  8
AM_0
 10
1041.5136223671991
 20
371.20753150420262
 30
0.0
 11
1049.637737367199
 21
379.33164650420281
 31
0.0
  0
ARC
  5
324A
  8
AM_0
 10
1041.584702367199
 20
358.27857650420259
 30
0.0
 40
3.0000000500000001
 50
90.000003000000007
 51
180.00001
  0
ARC
  5
324B
  8
AM_0
 10
1048.584732367199
 20
364.13645650420278
 30
0.0
 40
10.0
 50
135.0
 51
180.00001
  0
LINE
  5
324C
  8
AM_0
 10
1072.7617323671991
 20
372.95811150420269
 30
0.0
 11
1062.586652367198
 21
380.35072150420262
 31
0.0
  0
ARC
  5
324D
  8
AM_0
 10
1138.584732367199
 20
495.27858150420258
 30
0.0
 40
130.0
 50
179.99998999999991
 51
214.60598999999999
  0
LINE
  5
324E
  8
AM_0
 10
963.58471736719878
 20
390.27857650420259
 30
0.0
 11
1033.5847323671981
 21
390.27857650420259
 31
0.0
  0
ARC
  5
324F
  8
AM_0
 10
963.58471736719878
 20
385.27857650420259
 30
0.0
 40
5.0
 50
90.000003000000007
 51
180.00001
  0
ARC
  5
3250
  8
AM_0
 10
1016.5846973671991
 20
405.27857650420282
 30
0.0
 40
15.0
 50
270.0
 51
0.0
  0
ARC
  5
3251
  8
AM_0
 10
1033.5847323671981
 20
385.27857650420259
 30
0.0
 40
5.0
 50
0.0
 51
90.000003000000007
  0
LINE
  5
3252
  8
ﾁｭｳｼﾝｾﾝ1
 10
1283.5847173671989
 20
395.11698650420271
 30
0.0
 11
1283.5847173671989
 21
352.03901650420272
 31
0.0
  0
LINE
  5
3253
  8
ｶｸﾚｾﾝ2
 10
1271.5847173671989
 20
390.27857650420259
 30
0.0
 11
1271.5847173671989
 21
358.27857650420259
 31
0.0
  0
LINE
  5
3254
  8
AM_0
 10
1318.584717367198
 20
392.93009650420271
 30
0.0
 11
1318.584717367198
 21
358.27857650420259
 31
0.0
  0
LINE
  5
3255
  8
ｶｸﾚｾﾝ2
 10
1295.584702367199
 20
390.27857650420259
 30
0.0
 11
1295.584702367199
 21
358.27857650420259
 31
0.0
  0
ARC
  5
3256
  8
AM_0
 10
1220.4605873672001
 20
372.26054150420282
 30
0.0
 40
10.0
 50
45.00000099999999
 51
126.0
  0
LINE
  5
3257
  8
AM_0
 10
1238.584717367198
 20
385.27857650420259
 30
0.0
 11
1238.584717367198
 21
358.27857650420259
 31
0.0
  0
LINE
  5
3258
  8
AM_0
 10
1204.407702367198
 20
372.95811150420269
 30
0.0
 11
1214.5827823671989
 21
380.35072150420262
 31
0.0
  0
LINE
  5
3259
  8
AM_0
 10
1235.584702367199
 20
361.27857650420259
 30
0.0
 11
1138.584732367199
 21
361.27857650420259
 31
0.0
  0
LINE
  5
325A
  8
AM_0
 10
1198.529862367199
 20
371.04829150420272
 30
0.0
 11
1138.584732367199
 21
371.04829150420272
 31
0.0
  0
LINE
  5
325B
  8
AM_0
 10
1078.639572367199
 20
371.04829150420272
 30
0.0
 11
1138.584732367199
 21
371.04829150420272
 31
0.0
  0
ARC
  5
325C
  8
AM_0
 10
1198.529862367199
 20
381.04829150420272
 30
0.0
 40
10.0
 50
270.0
 51
306.0
  0
LINE
  5
325D
  8
AM_0
 10
1318.584717367198
 20
358.27857650420259
 30
0.0
 11
1238.584717367198
 21
358.27857650420259
 31
0.0
  0
ARC
  5
325E
  8
AM_0
 10
1235.584702367199
 20
358.27857650420259
 30
0.0
 40
3.0000000500000001
 50
0.0
 51
90.000003000000007
  0
ARC
  5
325F
  8
AM_0
 10
1228.584732367199
 20
364.13645650420278
 30
0.0
 40
10.0
 50
0.0
 51
45.00000099999999
  0
LINE
  5
3260
  8
AM_0
 10
1235.6557773671991
 20
371.20750150420281
 30
0.0
 11
1227.531662367199
 21
379.33161650420271
 31
0.0
  0
ARC
  5
3261
  8
AM_0
 10
1138.584732367199
 20
495.27858150420258
 30
0.0
 40
130.0
 50
325.39400000000001
 51
0.0
  0
LINE
  5
3262
  8
AM_0
 10
1313.5847173671989
 20
390.27857650420259
 30
0.0
 11
1243.584717367198
 21
390.27857650420259
 31
0.0
  0
ARC
  5
3263
  8
AM_0
 10
1243.584717367198
 20
385.27857650420259
 30
0.0
 40
5.0
 50
90.000003000000007
 51
180.00001
  0
ARC
  5
3264
  8
AM_0
 10
1260.584702367199
 20
405.27857650420282
 30
0.0
 40
15.0
 50
179.99998999999991
 51
270.0
  0
ARC
  5
3265
  8
AM_0
 10
1313.5847173671989
 20
385.27857650420259
 30
0.0
 40
5.0
 50
0.0
 51
90.000003000000007
  0
ARC
  5
3266
  8
AM_0
 10
1119.5615973671991
 20
592.18309150420248
 30
0.0
 40
120.0
 50
108.48475999999999
 51
169.0
  0
ARC
  5
3267
  8
AM_0
 10
1138.584732367199
 20
568.27858150420275
 30
0.0
 40
107.0
 50
90.000003000000007
 51
180.00001
  0
LINE
  5
3268
  8
ﾁｭｳｼﾝｾﾝ
 10
1039.6304549472191
 20
583.27858150420275
 30
0.0
 11
1236.8759468025071
 21
583.27858150420275
 31
0.0
  0
ARC
  5
3269
  8
AM_0
 10
1138.584732367199
 20
535.27858150420275
 30
0.0
 40
175.0000049999999
 50
90.000003000000007
 51
111.47534999999991
  0
ARC
  5
326A
  8
AM_0
 10
1118.4491423671991
 20
586.46022150420265
 30
0.0
 40
120.0
 50
111.47534999999991
 51
169.0
  0
ARC
  5
326B
  8
AM_0
 10
1018.584732367199
 20
632.58060150420272
 30
0.0
 40
10.0
 50
155.21109000000001
 51
180.00001
  0
LINE
  5
326C
  8
AM_0
 10
1143.584732367199
 20
761.2786015042027
 30
0.0
 11
1143.584732367199
 21
719.2786015042027
 31
0.0
  0
LINE
  5
326D
  8
AM_0
 10
1133.584732367199
 20
761.2786015042027
 30
0.0
 11
1133.584732367199
 21
719.2786015042027
 31
0.0
  0
ARC
  5
326E
  8
AM_0
 10
1157.607862367199
 20
592.18309150420248
 30
0.0
 40
120.0
 50
11.0
 51
71.515242999999998
  0
ARC
  5
326F
  8
AM_0
 10
1158.720262367199
 20
586.46022150420265
 30
0.0
 40
120.0
 50
11.0
 51
68.524651000000006
  0
ARC
  5
3270
  8
AM_0
 10
1138.584732367199
 20
568.27858150420275
 30
0.0
 40
107.0
 50
0.0000000000000761
 51
90.000003000000007
  0
LINE
  5
3271
  8
AM_0
 10
1129.584702367199
 20
617.2786015042027
 30
0.0
 11
1147.584702367199
 21
617.2786015042027
 31
0.0
  0
LINE
  5
3272
  8
AM_0
 10
1129.584702367199
 20
606.27858150420275
 30
0.0
 11
1147.584702367199
 21
606.27858150420275
 31
0.0
  0
CIRCLE
  5
3273
  8
AM_0
 10
1138.584732367199
 20
583.27858150420275
 30
0.0
 40
4.500000049999997
  0
CIRCLE
  5
3274
  8
AM_5
 10
1138.584732367199
 20
583.27858150420275
 30
0.0
 40
6.0
  0
LINE
  5
3275
  8
AM_0
 10
1129.584702367199
 20
617.2786015042027
 30
0.0
 11
1129.584702367199
 21
606.27858150420275
 31
0.0
  0
LINE
  5
3276
  8
AM_0
 10
1147.584702367199
 20
617.2786015042027
 30
0.0
 11
1147.584702367199
 21
606.27858150420275
 31
0.0
  0
ARC
  5
3277
  8
AM_0
 10
1138.584732367199
 20
535.27858150420275
 30
0.0
 40
180.0000049999999
 50
71.515242999999998
 51
90.000003000000007
  0
ARC
  5
3278
  8
AM_0
 10
1138.584732367199
 20
535.27858150420275
 30
0.0
 40
175.0000049999999
 50
68.524644999999992
 51
90.000003000000007
  0
ARC
  5
3279
  8
AM_0
 10
1138.584732367199
 20
535.27858150420275
 30
0.0
 40
180.0000049999999
 50
90.000003000000007
 51
108.48475999999999
  0
ARC
  5
327A
  8
AM_0
 10
1131.5847023671979
 20
719.2786015042027
 30
0.0
 40
2.0000000500000001
 50
270.0
 51
0.0
  0
ARC
  5
327B
  8
AM_0
 10
1129.301132367199
 20
723.41870150420255
 30
0.0
 40
1.0
 50
101.21329
 51
164.99999
  0
LINE
  5
327C
  8
AM_0
 10
1125.9660473671991
 20
714.83570150420292
 30
0.0
 11
1128.3352223671991
 21
723.67750150420284
 31
0.0
  0
LINE
  5
327D
  8
AM_0
 10
1129.1066723671991
 20
724.39955150420235
 30
0.0
 11
1133.584732367199
 21
725.2873015042029
 31
0.0
  0
LINE
  5
327E
  8
AM_0
 10
1151.203352367198
 20
714.83570150420292
 30
0.0
 11
1148.834212367198
 21
723.67750150420284
 31
0.0
  0
ARC
  5
327F
  8
AM_0
 10
1145.584732367199
 20
719.2786015042027
 30
0.0
 40
2.0000000500000001
 50
179.99998999999991
 51
270.0
  0
LINE
  5
3280
  8
AM_0
 10
1143.584702367199
 20
725.28735150420255
 30
0.0
 11
1148.0627573671991
 21
724.39955150420235
 31
0.0
  0
ARC
  5
3281
  8
AM_0
 10
1147.868332367198
 20
723.41870150420255
 30
0.0
 40
1.0
 50
15.0
 51
78.786709999999999
  0
ARC
  5
3282
  8
AM_0
 10
1258.5847173671989
 20
632.58060150420272
 30
0.0
 40
10.0
 50
0.0
 51
24.788910999999999
  0
ARC
  5
3283
  8
AM_0
 10
1138.584732367199
 20
761.2786015042027
 30
0.0
 40
5.0
 50
0.0
 51
179.99998999999991
  0
LINE
  5
3284
  8
AM_0
 10
389.67316366437819
 20
1096.7812691099859
 30
0.0
 11
389.67316366437819
 21
985.2000801099864
 31
0.0
  0
LINE
  5
3285
  8
AM_0
 10
352.802472664378
 20
1076.154027109985
 30
0.0
 11
352.802472664378
 21
1006.154027109986
 31
0.0
  0
LINE
  5
3286
  8
AM_0
 10
354.802472664378
 20
1096.2059361099859
 30
0.0
 11
354.802472664378
 21
986.10211910998669
 31
0.0
  0
LINE
  5
3287
  8
AM_0
 10
453.30247266437777
 20
1113.116228109986
 30
0.0
 11
453.30247266437777
 21
969.19182610998644
 31
0.0
  0
LINE
  5
3288
  8
AM_0
 10
451.5164106643781
 20
930.65271110998663
 30
0.0
 11
392.38586866437799
 21
980.26912710998647
 31
0.0
  0
ARC
  5
3289
  8
AM_0
 10
357.802472664378
 20
986.10211910998669
 30
0.0
 40
3.0
 50
180.0
 51
268.99999999999812
  0
ARC
  5
328A
  8
AM_0
 10
385.95799266437803
 20
972.60868210998649
 30
0.0
 40
10.0
 50
49.999999999999922
 51
89.000000000001506
  0
LINE
  5
328B
  8
AM_0
 10
357.7501156643782
 20
983.10257610998644
 30
0.0
 11
386.13251666437799
 21
982.60715910998658
 31
0.0
  0
LINE
  5
328C
  8
AM_0
 10
352.802472664378
 20
1006.154027109986
 30
0.0
 11
354.802472664378
 21
1004.154027109986
 31
0.0
  0
LINE
  5
328D
  8
AM_0
 10
348.802472664378
 20
1061.154027109985
 30
0.0
 11
348.802472664378
 21
1021.154027109986
 31
0.0
  0
LINE
  5
328E
  8
AM_0
 10
290.802472664378
 20
1058.6540271099859
 30
0.0
 11
290.802472664378
 21
1023.654027109985
 31
0.0
  0
LINE
  5
328F
  8
AM_0
 10
290.802472664378
 20
1023.654027109985
 30
0.0
 11
348.802472664378
 21
1023.654027109985
 31
0.0
  0
LINE
  5
3290
  8
AM_0
 10
348.802472664378
 20
1021.154027109986
 30
0.0
 11
352.802472664378
 21
1021.154027109986
 31
0.0
  0
LINE
  5
3291
  8
AM_0
 10
348.802472664378
 20
1058.6540271099859
 30
0.0
 11
290.802472664378
 21
1058.6540271099859
 31
0.0
  0
LINE
  5
3292
  8
AM_0
 10
335.802472664378
 20
1046.1540121099861
 30
0.0
 11
335.802472664378
 21
1036.1540121099861
 31
0.0
  0
LINE
  5
3293
  8
AM_0
 10
352.802472664378
 20
1061.154027109985
 30
0.0
 11
348.802472664378
 21
1061.154027109985
 31
0.0
  0
LINE
  5
3294
  8
AM_0
 10
471.30247266437789
 20
941.07200610998643
 30
0.0
 11
473.30247266437812
 21
943.07200610998632
 31
0.0
  0
LINE
  5
3295
  8
AM_0
 10
471.30247266437789
 20
941.07200610998643
 30
0.0
 11
471.30247266437789
 21
956.62835510998661
 31
0.0
  0
ARC
  5
3296
  8
AM_0
 10
448.80370566437819
 20
945.07200610998655
 30
0.0
 40
4.0
 50
187.60814800001029
 51
270.0
  0
ARC
  5
3297
  8
AM_0
 10
448.30247266437812
 20
926.82248910998669
 30
0.0
 40
5.0
 50
0.0
 51
49.999999999999922
  0
LINE
  5
3298
  8
AM_0
 10
471.30247266437789
 20
941.07200610998643
 30
0.0
 11
448.80370566437819
 21
941.07200610998643
 31
0.0
  0
ARC
  5
3299
  8
AM_0
 10
457.302472664378
 20
925.1540271099866
 30
0.0
 40
4.0
 50
180.0
 51
270.0
  0
LINE
  5
329A
  8
AM_0
 10
457.302472664378
 20
921.15402710998649
 30
0.0
 11
471.30247266437789
 21
921.15402710998649
 31
0.0
  0
LINE
  5
329B
  8
AM_0
 10
453.30247266437777
 20
925.1540271099866
 30
0.0
 11
453.30247266437777
 21
941.07200710998654
 31
0.0
  0
LINE
  5
329C
  8
AM_0
 10
471.30247266437789
 20
921.15402710998649
 30
0.0
 11
473.30247266437812
 21
923.1540271099866
 31
0.0
  0
LINE
  5
329D
  8
AM_0
 10
471.30247266437789
 20
956.62835510998661
 30
0.0
 11
448.87919366437808
 21
956.62835510998661
 31
0.0
  0
ARC
  5
329E
  8
AM_0
 10
457.302472664378
 20
969.19182610998644
 30
0.0
 40
4.0
 50
180.0
 51
270.0
  0
LINE
  5
329F
  8
AM_0
 10
442.87466466437792
 20
959.24786310998627
 30
0.0
 11
442.87466466437792
 21
974.03753210998661
 31
0.0
  0
LINE
  5
32A0
  8
AM_0
 10
444.90408366437811
 20
960.18282010998655
 30
0.0
 11
443.17345666437808
 21
975.62364910998645
 31
0.0
  0
ARC
  5
32A1
  8
AM_0
 10
440.24874066437792
 20
956.24786310998661
 30
0.0
 40
3.0
 50
7.6081479999971267
 51
68.357691000000656
  0
ARC
  5
32A2
  8
AM_0
 10
448.87919366437808
 20
960.62835510998582
 30
0.0
 40
4.0
 50
186.39509300000049
 51
270.0
  0
LINE
  5
32A3
  8
AM_0
 10
444.83891866437813
 20
944.54241710998645
 30
0.0
 11
443.22233066437798
 21
956.6450551099864
 31
0.0
  0
LINE
  5
32A4
  8
AM_0
 10
445.30247266437789
 20
956.62835510998661
 30
0.0
 11
445.30247266437789
 21
945.8823061099863
 31
0.0
  0
ARC
  5
32A5
  8
AM_0
 10
440.1921236643779
 20
975.28949710998677
 30
0.0
 40
3.0
 50
6.3950930000004771
 51
71.53841099999886
  0
LINE
  5
32A6
  8
AM_0
 10
442.87466466437792
 20
978.28949710998666
 30
0.0
 11
452.7588366643779
 21
978.28949710998666
 31
0.0
  0
LINE
  5
32A7
  8
AM_0
 10
471.30247266437789
 20
956.62835510998661
 30
0.0
 11
473.30247266437812
 21
958.62835510998661
 31
0.0
  0
LINE
  5
32A8
  8
AM_0
 10
457.302472664378
 20
965.19182610998632
 30
0.0
 11
471.30247266437789
 21
965.19182610998632
 31
0.0
  0
LINE
  5
32A9
  8
AM_0
 10
471.30247266437789
 20
1057.903800380504
 30
0.0
 11
471.30247266437789
 21
1024.4042538394669
 31
0.0
  0
LINE
  5
32AA
  8
AM_0
 10
471.30247266437789
 20
1024.4042538394669
 30
0.0
 11
453.30247266437777
 21
1024.4042538394669
 31
0.0
  0
LINE
  5
32AB
  8
AM_0
 10
453.30247266437777
 20
1026.1540271099859
 30
0.0
 11
471.30247266437789
 21
1026.1540271099859
 31
0.0
  0
LINE
  5
32AC
  8
AM_0
 10
453.30247266437777
 20
1056.1540271099859
 30
0.0
 11
471.30247266437789
 21
1056.1540271099859
 31
0.0
  0
LINE
  5
32AD
  8
AM_0
 10
471.30247266437789
 20
1057.903800380504
 30
0.0
 11
453.30247266437777
 21
1057.903800380504
 31
0.0
  0
LINE
  5
32AE
  8
AM_0
 10
451.5164106643781
 20
1151.655343109986
 30
0.0
 11
392.38586866437799
 21
1102.038928109986
 31
0.0
  0
LINE
  5
32AF
  8
AM_0
 10
352.802472664378
 20
1076.154027109985
 30
0.0
 11
354.802472664378
 21
1078.154027109985
 31
0.0
  0
ARC
  5
32B0
  8
AM_0
 10
385.95799266437803
 20
1109.6993721099859
 30
0.0
 40
10.0
 50
270.99999999999841
 51
310.0
  0
LINE
  5
32B1
  8
AM_0
 10
357.7501156643782
 20
1099.2054791099861
 30
0.0
 11
386.13251666437799
 21
1099.700895109986
 31
0.0
  0
ARC
  5
32B2
  8
AM_0
 10
357.802472664378
 20
1096.2059361099859
 30
0.0
 40
3.0
 50
90.999999999998494
 51
180.0
  0
LINE
  5
32B3
  8
AM_0
 10
471.30247266437789
 20
1161.154027109985
 30
0.0
 11
473.30247266437812
 21
1159.1540271099859
 31
0.0
  0
ARC
  5
32B4
  8
AM_0
 10
457.302472664378
 20
1157.1540271099859
 30
0.0
 40
4.0
 50
90.0
 51
180.0
  0
LINE
  5
32B5
  8
AM_0
 10
444.90408366437811
 20
1122.1252341099851
 30
0.0
 11
443.17345666437808
 21
1106.6844051099861
 31
0.0
  0
LINE
  5
32B6
  8
AM_0
 10
442.87466466437792
 20
1123.0601911099859
 30
0.0
 11
442.87466466437792
 21
1108.2705221099859
 31
0.0
  0
ARC
  5
32B7
  8
AM_0
 10
457.302472664378
 20
1113.116228109986
 30
0.0
 40
4.0
 50
90.0
 51
180.0
  0
LINE
  5
32B8
  8
AM_0
 10
442.87466466437792
 20
1104.018557109986
 30
0.0
 11
452.7588366643779
 21
1104.018557109986
 31
0.0
  0
ARC
  5
32B9
  8
AM_0
 10
440.1921236643779
 20
1107.0185571099851
 30
0.0
 40
3.0
 50
288.46158900000052
 51
353.6049069999994
  0
LINE
  5
32BA
  8
AM_0
 10
471.30247266437789
 20
1141.2360481099849
 30
0.0
 11
448.80370566437819
 21
1141.2360481099849
 31
0.0
  0
ARC
  5
32BB
  8
AM_0
 10
448.30247266437812
 20
1155.4855651099861
 30
0.0
 40
5.0
 50
310.0
 51
0.0
  0
LINE
  5
32BC
  8
AM_0
 10
471.30247266437789
 20
1125.679699109985
 30
0.0
 11
448.87919366437808
 21
1125.679699109985
 31
0.0
  0
ARC
  5
32BD
  8
AM_0
 10
448.80370566437819
 20
1137.2360481099849
 30
0.0
 40
4.0
 50
90.0
 51
172.39185199998951
  0
LINE
  5
32BE
  8
AM_0
 10
445.30247266437789
 20
1125.679699109985
 30
0.0
 11
445.30247266437789
 21
1136.425748109986
 31
0.0
  0
LINE
  5
32BF
  8
AM_0
 10
444.83891866437813
 20
1137.7656371099861
 30
0.0
 11
443.22233066437798
 21
1125.662999109986
 31
0.0
  0
ARC
  5
32C0
  8
AM_0
 10
448.87919366437808
 20
1121.679699109985
 30
0.0
 40
4.0
 50
90.0
 51
173.60490699999951
  0
ARC
  5
32C1
  8
AM_0
 10
440.24874066437792
 20
1126.0601911099859
 30
0.0
 40
3.0
 50
291.64230899999939
 51
352.39185200000281
  0
LINE
  5
32C2
  8
AM_0
 10
471.30247266437789
 20
1141.2360481099849
 30
0.0
 11
471.30247266437789
 21
1125.679699109985
 31
0.0
  0
LINE
  5
32C3
  8
AM_0
 10
457.302472664378
 20
1117.116228109986
 30
0.0
 11
471.30247266437789
 21
1117.116228109986
 31
0.0
  0
LINE
  5
32C4
  8
AM_0
 10
471.30247266437789
 20
1125.679699109985
 30
0.0
 11
473.30247266437812
 21
1123.679699109985
 31
0.0
  0
LINE
  5
32C5
  8
AM_0
 10
453.30247266437777
 20
1157.1540271099859
 30
0.0
 11
453.30247266437777
 21
1141.236047109986
 31
0.0
  0
LINE
  5
32C6
  8
AM_0
 10
471.30247266437789
 20
1141.2360481099849
 30
0.0
 11
473.30247266437812
 21
1139.2360481099849
 31
0.0
  0
LINE
  5
32C7
  8
AM_0
 10
457.302472664378
 20
1161.154027109985
 30
0.0
 11
471.30247266437789
 21
1161.154027109985
 31
0.0
  0
LINE
  5
32C9
  8
ﾁｭｳｼﾝｾﾝ
 10
279.06216960157042
 20
1041.1540121099861
 30
0.0
 11
839.62541266437779
 21
1041.1540121099861
 31
0.0
  0
LINE
  5
32CA
  8
AM_0
 10
570.30247266437789
 20
1036.1540121099861
 30
0.0
 11
570.30247266437789
 21
882.20699210998646
 31
0.0
  0
LINE
  5
32CB
  8
AM_0
 10
530.30241266437804
 20
916.22262210998645
 30
0.0
 11
530.30241266437804
 21
1036.5714321099861
 31
0.0
  0
LINE
  5
32CC
  8
AM_0
 10
550.30241266437815
 20
887.73385210998629
 30
0.0
 11
550.30241266437815
 21
1022.419032109985
 31
0.0
  0
LINE
  5
32CD
  8
AM_0
 10
473.30247266437812
 20
1161.154042109986
 30
0.0
 11
473.30247266437812
 21
921.15401210998687
 31
0.0
  0
LINE
  5
32CE
  8
AM_0
 10
486.30241266437798
 20
1159.154042109986
 30
0.0
 11
486.30241266437798
 21
923.15401210998652
 31
0.0
  0
LINE
  5
32CF
  8
AM_0
 10
488.302472664378
 20
929.1540121099863
 30
0.0
 11
525.30241266437804
 21
929.1540121099863
 31
0.0
  0
LINE
  5
32D0
  8
AM_0
 10
486.30241266437798
 20
970.22121210998648
 30
0.0
 11
530.30241266437804
 21
970.22121210998648
 31
0.0
  0
LINE
  5
32D1
  8
AM_0
 10
486.30241266437798
 20
954.47915210998644
 30
0.0
 11
530.30241266437804
 21
954.47915210998644
 31
0.0
  0
ARC
  5
32D2
  8
AM_0
 10
484.302472664378
 20
923.15401210998652
 30
0.0
 40
2.0
 50
270.0
 51
0.0
  0
LINE
  5
32D3
  8
AM_0
 10
473.30247266437812
 20
921.15401210998687
 30
0.0
 11
484.302472664378
 21
921.15401210998687
 31
0.0
  0
LINE
  5
32D4
  8
AM_0
 10
473.30247266437812
 20
941.42678210998645
 30
0.0
 11
486.30241266437798
 21
941.42678210998645
 31
0.0
  0
ARC
  5
32D5
  8
AM_0
 10
488.302472664378
 20
927.15401210998641
 30
0.0
 40
2.0
 50
90.00000299999769
 51
180.00001000000091
  0
LINE
  5
32D6
  8
AM_0
 10
473.30247266437812
 20
956.98312210998665
 30
0.0
 11
486.30241266437798
 21
956.98312210998665
 31
0.0
  0
LINE
  5
32D7
  8
AM_0
 10
473.30247266437812
 20
965.13729210998645
 30
0.0
 11
486.30241266437798
 21
965.13729210998645
 31
0.0
  0
LINE
  5
32D8
  8
AM_0
 10
534.96843266437804
 20
911.23379210998644
 30
0.0
 11
545.63645266437777
 21
910.51943210998695
 31
0.0
  0
ARC
  5
32D9
  8
AM_0
 10
535.30241266437804
 20
916.22262210998645
 30
0.0
 40
5.0
 50
180.00001000000091
 51
266.16915999999748
  0
LINE
  5
32DA
  8
AM_0
 10
570.30247266437789
 20
882.20705210998653
 30
0.0
 11
555.12791266437785
 21
882.73696210998651
 31
0.0
  0
ARC
  5
32DB
  8
AM_0
 10
555.30241266437793
 20
887.73385210998629
 30
0.0
 40
5.0
 50
180.00001000000091
 51
268.00000999999878
  0
ARC
  5
32DC
  8
AM_0
 10
545.30241266437804
 20
905.53060210998626
 30
0.0
 40
5.0
 50
0.0
 51
86.16916099999878
  0
ARC
  5
32DD
  8
AM_0
 10
525.30241266437804
 20
924.15401210998641
 30
0.0
 40
5.0
 50
0.0
 51
90.00000299999769
  0
LINE
  5
32DE
  8
AM_0
 10
550.30241266437815
 20
1059.889002109986
 30
0.0
 11
550.30241266437815
 21
1194.574142109986
 31
0.0
  0
LINE
  5
32DF
  8
AM_0
 10
570.30247266437789
 20
1200.1010421099861
 30
0.0
 11
570.30247266437789
 21
1046.1540121099861
 31
0.0
  0
LINE
  5
32E0
  8
AM_0
 10
488.302472664378
 20
1153.154042109986
 30
0.0
 11
525.30241266437804
 21
1153.154042109986
 31
0.0
  0
LINE
  5
32E1
  8
AM_0
 10
486.30241266437798
 20
1127.828842109986
 30
0.0
 11
530.30241266437804
 21
1127.828842109986
 31
0.0
  0
LINE
  5
32E2
  8
AM_0
 10
486.30241266437798
 20
1112.0867421099861
 30
0.0
 11
530.30241266437804
 21
1112.0867421099861
 31
0.0
  0
LINE
  5
32E3
  8
AM_0
 10
473.30247266437812
 20
1117.170742109985
 30
0.0
 11
486.30241266437798
 21
1117.170742109985
 31
0.0
  0
LINE
  5
32E4
  8
AM_0
 10
473.30247266437812
 20
1140.8811421099861
 30
0.0
 11
486.30241266437798
 21
1140.8811421099861
 31
0.0
  0
LINE
  5
32E5
  8
AM_0
 10
473.30247266437812
 20
1125.324842109985
 30
0.0
 11
486.30241266437798
 21
1125.324842109985
 31
0.0
  0
LINE
  5
32E6
  8
AM_0
 10
473.30247266437812
 20
1161.154042109986
 30
0.0
 11
484.302472664378
 21
1161.154042109986
 31
0.0
  0
ARC
  5
32E7
  8
AM_0
 10
488.302472664378
 20
1155.1540421099851
 30
0.0
 40
2.0
 50
179.9999899999988
 51
270.0
  0
ARC
  5
32E8
  8
AM_0
 10
484.302472664378
 20
1159.154042109986
 30
0.0
 40
2.0
 50
0.0
 51
90.00000299999769
  0
LINE
  5
32E9
  8
AM_0
 10
530.30241266437804
 20
1045.7365921099849
 30
0.0
 11
530.30241266437804
 21
1166.085442109985
 31
0.0
  0
ARC
  5
32EA
  8
AM_0
 10
552.302472664378
 20
1041.1540121099861
 30
0.0
 40
15.0
 50
199.4712300000005
 51
249.5126300000021
  0
ARC
  5
32EB
  8
AM_0
 10
552.302472664378
 20
1041.1540121099861
 30
0.0
 40
15.0
 50
110.4873699999977
 51
160.52876999999901
  0
ARC
  5
32EC
  8
AM_0
 10
552.302472664378
 20
1041.1540121099861
 30
0.0
 40
12.5
 50
203.5781799999973
 51
336.42182999999471
  0
ARC
  5
32ED
  8
AM_0
 10
552.302472664378
 20
1041.1540121099861
 30
0.0
 40
12.5
 50
23.578179999997531
 51
156.42182000000241
  0
LINE
  5
32EE
  8
AM_0
 10
532.302472664378
 20
1046.1540121099861
 30
0.0
 11
572.30247266437755
 21
1046.1540121099861
 31
0.0
  0
LINE
  5
32EF
  8
AM_0
 10
532.302472664378
 20
1036.1540121099861
 30
0.0
 11
572.30247266437755
 21
1036.1540121099861
 31
0.0
  0
ARC
  5
32F0
  8
AM_0
 10
532.302472664378
 20
1041.1540121099861
 30
0.0
 40
5.0
 50
90.00000299999769
 51
270.0
  0
ARC
  5
32F1
  8
AM_0
 10
545.30241266437804
 20
1059.889002109986
 30
0.0
 40
5.0
 50
290.4873799999977
 51
0.0
  0
ARC
  5
32F2
  8
AM_0
 10
572.30247266437755
 20
1041.1540121099861
 30
0.0
 40
5.0
 50
270.0
 51
90.00000299999769
  0
ARC
  5
32F3
  8
AM_0
 10
545.30241266437804
 20
1022.419032109985
 30
0.0
 40
5.0
 50
0.0
 51
69.512624999999204
  0
LINE
  5
32F4
  8
AM_0
 10
534.96836266437811
 20
1171.074142109984
 30
0.0
 11
545.63645266437777
 21
1171.7885421099861
 31
0.0
  0
ARC
  5
32F5
  8
AM_0
 10
535.30241266437804
 20
1166.085442109985
 30
0.0
 40
5.0
 50
93.830836999998056
 51
180.00001000000091
  0
ARC
  5
32F6
  8
AM_0
 10
525.30241266437804
 20
1158.154042109986
 30
0.0
 40
5.0
 50
270.0
 51
0.0
  0
ARC
  5
32F7
  8
AM_0
 10
545.30241266437804
 20
1176.7774421099859
 30
0.0
 40
5.0
 50
273.83084000000241
 51
0.0
  0
LINE
  5
32F8
  8
AM_0
 10
570.30247266437789
 20
1200.1010421099861
 30
0.0
 11
555.12791266437785
 21
1199.571142109985
 31
0.0
  0
ARC
  5
32F9
  8
AM_0
 10
555.30241266437793
 20
1194.574142109986
 30
0.0
 40
5.0
 50
91.999998000000787
 51
180.00001000000091
  0
LINE
  5
32FA
  8
AM_0
 10
742.802472664378
 20
1050.154012240886
 30
0.0
 11
823.802472664378
 21
1050.154012240886
 31
0.0
  0
LINE
  5
32FB
  8
AM_0
 10
742.802472664378
 20
1032.1540522408859
 30
0.0
 11
823.802472664378
 21
1032.1540522408859
 31
0.0
  0
LINE
  5
32FC
  8
AM_0
 10
718.802472664378
 20
1011.154052240885
 30
0.0
 11
823.802472664378
 21
1011.154052240885
 31
0.0
  0
LINE
  5
32FD
  8
AM_0
 10
718.802472664378
 20
1071.154012240886
 30
0.0
 11
823.802472664378
 21
1071.154012240886
 31
0.0
  0
LINE
  5
32FE
  8
AM_0
 10
600.30241266437815
 20
1199.053512240886
 30
0.0
 11
600.30241266437815
 21
883.25470224088599
 31
0.0
  0
LINE
  5
32FF
  8
AM_0
 10
676.802472664378
 20
920.81091224088595
 30
0.0
 11
676.802472664378
 21
1161.497212240884
 31
0.0
  0
LINE
  5
3300
  8
AM_0
 10
712.80247266437766
 20
1103.256912240885
 30
0.0
 11
712.80247266437766
 21
979.05114224088595
 31
0.0
  0
LINE
  5
3301
  8
AM_0
 10
706.802472664378
 20
1141.618912240885
 30
0.0
 11
706.802472664378
 21
940.68914224088576
 31
0.0
  0
LINE
  5
3302
  8
AM_0
 10
639.08165266437811
 20
884.60888224088592
 30
0.0
 11
570.30247266437789
 21
882.20709224088603
 31
0.0
  0
LINE
  5
3303
  8
AM_0
 10
575.30247266437766
 20
861.15405224088602
 30
0.0
 11
707.97697266437808
 21
865.78717224088575
 31
0.0
  0
CIRCLE
  5
3304
  8
AM_0
 10
682.80247266437789
 20
896.15405224088624
 30
0.0
 40
12.0
  0
LINE
  5
3305
  8
AM_0
 10
699.08165266437777
 20
933.8843922408862
 30
0.0
 11
686.45347266437795
 21
933.44342224088575
 31
0.0
  0
LINE
  5
3306
  8
ﾁｭｳｼﾝｾﾝ1
 10
663.52867266437795
 20
896.15405224088624
 30
0.0
 11
702.96916266437802
 21
896.15405224088624
 31
0.0
  0
ARC
  5
3307
  8
AM_0
 10
661.80247266437789
 20
895.62109224088601
 30
0.0
 40
15.0
 50
91.999998000000787
 51
180.00001000000091
  0
LINE
  5
3308
  8
ﾁｭｳｼﾝｾﾝ1
 10
682.80247266437789
 20
875.03326224088596
 30
0.0
 11
682.80247266437789
 21
915.47644224088594
 31
0.0
  0
LINE
  5
3309
  8
AM_0
 10
646.802472664378
 20
874.00616224088606
 30
0.0
 11
646.802472664378
 21
895.62109224088601
 31
0.0
  0
ARC
  5
330A
  8
AM_0
 10
656.802472664378
 20
874.00616224088606
 30
0.0
 40
10.0
 50
180.00001000000091
 51
271.99999000000111
  0
ARC
  5
330B
  8
AM_0
 10
638.802472664378
 20
892.60400224088573
 30
0.0
 40
8.0
 50
271.99999999999682
 51
0.0
  0
ARC
  5
330C
  8
AM_0
 10
686.80247266437789
 20
923.44952224088604
 30
0.0
 40
10.0
 50
91.999998000000787
 51
180.00001000000091
  0
ARC
  5
330D
  8
AM_0
 10
666.80247266437766
 20
920.81091224088595
 30
0.0
 40
10.0
 50
271.99999999999682
 51
0.0
  0
LINE
  5
330E
  8
AM_0
 10
667.15141266437797
 20
910.81707224088552
 30
0.0
 11
661.27897266437799
 21
910.61200224088589
 31
0.0
  0
LINE
  5
330F
  8
AM_0
 10
712.80247266437766
 20
870.78411224088597
 30
0.0
 11
712.80247266437766
 21
931.52398224088552
 31
0.0
  0
ARC
  5
3310
  8
AM_0
 10
707.80247266437789
 20
870.78411224088597
 30
0.0
 40
5.0
 50
271.99999999999682
 51
0.0
  0
ARC
  5
3311
  8
AM_0
 10
698.802472664378
 20
941.87957224088575
 30
0.0
 40
8.0
 50
271.99999999999682
 51
0.0
  0
ARC
  5
3312
  8
AM_0
 10
707.80247266437789
 20
931.52398224088552
 30
0.0
 40
5.0
 50
0.0
 51
66.421821000003519
  0
ARC
  5
3313
  8
AM_0
 10
711.80247266437789
 20
940.68914224088576
 30
0.0
 40
5.0
 50
180.00001000000091
 51
246.421820000005
  0
ARC
  5
3314
  8
AM_0
 10
709.802472664378
 20
979.05114224088595
 30
0.0
 40
3.0
 50
271.99999999999682
 51
0.0
  0
ARC
  5
3315
  8
AM_0
 10
709.802472664378
 20
973.04748224088576
 30
0.0
 40
3.0
 50
91.999998000000787
 51
180.00001000000091
  0
LINE
  5
3316
  8
AM_0
 10
709.69780266437795
 20
976.04559224088598
 30
0.0
 11
709.90721266437811
 21
976.05291224088592
 31
0.0
  0
LINE
  5
3317
  8
AM_0
 10
639.08165266437811
 20
1197.699312240886
 30
0.0
 11
570.30247266437789
 21
1200.1011122408861
 31
0.0
  0
LINE
  5
3318
  8
AM_0
 10
575.30241266437815
 20
1221.154012240886
 30
0.0
 11
707.97691266437801
 21
1216.520912240886
 31
0.0
  0
ARC
  5
3319
  8
AM_0
 10
661.80247266437789
 20
1186.687012240885
 30
0.0
 40
15.0
 50
180.00001000000091
 51
268.0000000000029
  0
CIRCLE
  5
331A
  8
AM_0
 10
682.80247266437789
 20
1186.154012240886
 30
0.0
 40
12.0
  0
LINE
  5
331B
  8
AM_0
 10
712.80247266437766
 20
1211.5240122408859
 30
0.0
 11
712.80247266437766
 21
1150.7840122408861
 31
0.0
  0
LINE
  5
331C
  8
ﾁｭｳｼﾝｾﾝ1
 10
682.80247266437789
 20
1204.289712240884
 30
0.0
 11
682.80247266437789
 21
1165.012212240885
 31
0.0
  0
LINE
  5
331D
  8
AM_0
 10
699.08165266437777
 20
1148.4237122408849
 30
0.0
 11
686.45347266437795
 21
1148.8646122408841
 31
0.0
  0
ARC
  5
331E
  8
AM_0
 10
686.80247266437789
 20
1158.858512240884
 30
0.0
 40
10.0
 50
180.00001000000091
 51
268.0000000000029
  0
ARC
  5
331F
  8
AM_0
 10
666.80247266437766
 20
1161.497212240884
 30
0.0
 40
10.0
 50
0.0
 51
88.000000000002998
  0
LINE
  5
3320
  8
AM_0
 10
667.15141266437797
 20
1171.491112240886
 30
0.0
 11
661.27897266437799
 21
1171.696212240885
 31
0.0
  0
ARC
  5
3321
  8
AM_0
 10
742.802472664378
 20
1041.1540122408851
 30
0.0
 40
8.9999962
 50
90.00000299999769
 51
270.0
  0
LINE
  5
3322
  8
AM_0
 10
718.802472664378
 20
1073.6540122408851
 30
0.0
 11
718.802472664378
 21
1008.654052240886
 31
0.0
  0
LINE
  5
3323
  8
AM_0
 10
712.80247266437766
 20
1008.654052240886
 30
0.0
 11
718.802472664378
 21
1008.654052240886
 31
0.0
  0
LINE
  5
3324
  8
AM_0
 10
712.80247266437766
 20
1073.6540122408851
 30
0.0
 11
718.802472664378
 21
1073.6540122408851
 31
0.0
  0
LINE
  5
3325
  8
AM_0
 10
742.802472664378
 20
1050.154012240886
 30
0.0
 11
742.802472664378
 21
1032.1540522408859
 31
0.0
  0
ARC
  5
3326
  8
AM_0
 10
709.802472664378
 20
1109.2606122408849
 30
0.0
 40
3.0
 50
180.00001000000091
 51
268.0000000000029
  0
ARC
  5
3327
  8
AM_0
 10
709.802472664378
 20
1103.256912240885
 30
0.0
 40
3.0
 50
0.0
 51
88.000000000002998
  0
LINE
  5
3328
  8
AM_0
 10
709.69780266437795
 20
1106.2624122408849
 30
0.0
 11
709.90715266437803
 21
1106.255112240885
 31
0.0
  0
ARC
  5
3329
  8
AM_0
 10
698.802472664378
 20
1140.428612240886
 30
0.0
 40
8.0
 50
0.0
 51
88.000000000002998
  0
ARC
  5
332A
  8
AM_0
 10
711.80247266437789
 20
1141.618912240885
 30
0.0
 40
5.0
 50
113.5781799999949
 51
180.00001000000091
  0
ARC
  5
332B
  8
AM_0
 10
707.80247266437789
 20
1150.7840122408861
 30
0.0
 40
5.0
 50
293.57817999999492
 51
0.0
  0
LINE
  5
332C
  8
ﾁｭｳｼﾝｾﾝ1
 10
663.43492266437795
 20
1186.154012240886
 30
0.0
 11
702.71238266437797
 21
1186.154012240886
 31
0.0
  0
LINE
  5
332D
  8
AM_0
 10
646.802472664378
 20
1208.3019122408859
 30
0.0
 11
646.802472664378
 21
1186.687012240885
 31
0.0
  0
ARC
  5
332E
  8
AM_0
 10
638.802472664378
 20
1189.7041122408859
 30
0.0
 40
8.0
 50
0.0
 51
88.000000000002998
  0
ARC
  5
332F
  8
AM_0
 10
656.802472664378
 20
1208.3019122408859
 30
0.0
 40
10.0
 50
88.000000000002998
 51
180.00001000000091
  0
ARC
  5
3330
  8
AM_0
 10
707.80247266437789
 20
1211.5240122408859
 30
0.0
 40
5.0
 50
0.0
 51
88.000000000002998
  0
LINE
  5
3331
  8
AM_0
 10
823.802472664378
 20
1071.154012240886
 30
0.0
 11
823.802472664378
 21
1011.154052240885
 31
0.0
  0
LINE
  5
3332
  8
AM_0
 10
457.62791266437807
 20
1217.044812240885
 30
0.0
 11
575.30247266437766
 21
1221.154012240886
 31
0.0
  0
LINE
  5
3333
  8
AM_0
 10
523.58787266437798
 20
1219.2236122408849
 30
0.0
 11
566.52964266437812
 21
1213.9136122408861
 31
0.0
  0
LINE
  5
3334
  8
AM_0
 10
571.11564266437813
 20
1203.518912240886
 30
0.0
 11
528.6156426643779
 21
1210.5242122408849
 31
0.0
  0
ARC
  5
3335
  8
AM_0
 10
565.302472664378
 20
1203.989112240886
 30
0.0
 40
10.0
 50
0.0
 51
82.950795999998775
  0
LINE
  5
3336
  8
AM_0
 10
575.30247266437766
 20
1203.989112240886
 30
0.0
 11
575.30247266437766
 21
1199.9264122408849
 31
0.0
  0
ARC
  5
3337
  8
AM_0
 10
527.802472664378
 20
1205.5907122408851
 30
0.0
 40
5.0
 50
80.640142999995817
 51
180.00001000000091
  0
CIRCLE
  5
3338
  8
AM_0
 10
482.80247266437777
 20
1186.154012240886
 30
0.0
 40
12.0
  0
LINE
  5
3339
  8
ﾁｭｳｼﾝｾﾝ1
 10
482.80247266437777
 20
1204.685012240886
 30
0.0
 11
482.80247266437777
 21
1167.082912240885
 31
0.0
  0
LINE
  5
333A
  8
AM_0
 10
452.80251266437813
 20
1212.0478122408849
 30
0.0
 11
452.80251266437813
 21
1156.453112240886
 31
0.0
  0
LINE
  5
333B
  8
ﾁｭｳｼﾝｾﾝ1
 10
463.48511266437799
 20
1186.154012240886
 30
0.0
 11
502.00437266437802
 21
1186.154012240886
 31
0.0
  0
ARC
  5
333C
  8
AM_0
 10
457.80251266437813
 20
1212.0478122408849
 30
0.0
 40
5.0
 50
91.999998000000787
 51
180.00001000000091
  0
ARC
  5
333D
  8
AM_0
 10
457.80251266437921
 20
1156.453112240886
 30
0.0
 40
5.0000000000012701
 50
180.00001000000341
 51
203.08494746999409
  0
LINE
  5
333E
  8
AM_0
 10
457.6278126643781
 20
865.26336224088595
 30
0.0
 11
575.30247266437766
 21
861.15411224088598
 31
0.0
  0
ARC
  5
333F
  8
AM_0
 10
527.802472664378
 20
876.71740224088614
 30
0.0
 40
5.0
 50
180.00001000000091
 51
279.35984999999653
  0
LINE
  5
3340
  8
AM_0
 10
523.58781266437802
 20
863.08453224088589
 30
0.0
 11
566.52964266437812
 21
868.39453224088595
 31
0.0
  0
LINE
  5
3341
  8
AM_0
 10
571.11564266437813
 20
878.7892422408861
 30
0.0
 11
528.6156426643779
 21
871.78399224088605
 31
0.0
  0
ARC
  5
3342
  8
AM_0
 10
565.302472664378
 20
878.31897224088596
 30
0.0
 40
10.0
 50
277.0491999999964
 51
0.0
  0
ARC
  5
3343
  8
AM_0
 10
570.30247266437789
 20
883.72265224088596
 30
0.0
 40
5.0
 50
279.35985999999889
 51
344.36583000000519
  0
LINE
  5
3344
  8
AM_0
 10
575.30247266437766
 20
878.31897224088596
 30
0.0
 11
575.30247266437766
 21
882.38165224088596
 31
0.0
  0
CIRCLE
  5
3345
  8
AM_0
 10
482.80247266437777
 20
896.15405224088624
 30
0.0
 40
12.0
  0
LINE
  5
3346
  8
ﾁｭｳｼﾝｾﾝ1
 10
462.78911266437791
 20
896.15405224088624
 30
0.0
 11
501.55595266437791
 21
896.15405224088624
 31
0.0
  0
LINE
  5
3347
  8
AM_0
 10
452.80251266437813
 20
870.26031224088592
 30
0.0
 11
452.80251266437813
 21
925.85504224088606
 31
0.0
  0
ARC
  5
3348
  8
AM_0
 10
457.80251266437813
 20
870.26031224088592
 30
0.0
 40
5.0
 50
180.00001000000091
 51
268.0000000000029
  0
LINE
  5
3349
  8
ﾁｭｳｼﾝｾﾝ1
 10
482.80247266437777
 20
876.04931224088602
 30
0.0
 11
482.80247266437777
 21
915.71777224088601
 31
0.0
  0
ARC
  5
334A
  8
AM_0
 10
457.80251266438142
 20
925.85504224088504
 30
0.0
 40
5.0000000000034861
 50
156.9154549588514
 51
180.00000999998909
  0
LINE
  5
334B
  8
AM_0
 10
290.802472664378
 20
1046.1540121099861
 30
0.0
 11
335.802472664378
 21
1046.1540121099861
 31
0.0
  0
LINE
  5
334C
  8
AM_0
 10
290.802472664378
 20
1036.1540121099861
 30
0.0
 11
335.802472664378
 21
1036.1540121099861
 31
0.0
  0
ARC
  5
334D
  8
AM_0
 10
335.802472664378
 20
1041.1540121099861
 30
0.0
 40
5.0
 50
270.0
 51
90.0
  0
TEXT
  5
3534
  8
AM_0
 10
995.53359991115951
 20
1044.555984181967
 30
0.0
 40
20.0
  1
VX75-025G~VX75-030G
  0
ENDSEC
  0
EOF
