  0
SECTION
  2
HEADER
  9
$ACADVER
  1
AC1009
  9
$INSBASE
 10
0.0
 20
0.0
 30
0.0
  9
$EXTMIN
 10
242.89031711440751
 20
308.23579422908142
 30
-0.0000000000112498
  9
$EXTMAX
 10
1470.7125437033969
 20
1399.1826932114791
 30
0.0000000000002956
  9
$LIMMIN
 10
0.0
 20
0.0
  9
$LIMMAX
 10
1991.5
 20
1295.0
  9
$ORTHOMODE
 70
     0
  9
$REGENMODE
 70
     1
  9
$FILLMODE
 70
     1
  9
$QTEXTMODE
 70
     0
  9
$MIRRTEXT
 70
     1
  9
$DRAGMODE
 70
     2
  9
$LTSCALE
 40
7.0
  9
$OSMODE
 70
   551
  9
$ATTMODE
 70
     1
  9
$TEXTSIZE
 40
2.5
  9
$TRACEWID
 40
1.0
  9
$TEXTSTYLE
  7
STANDARD
  9
$CLAYER
  8
AM_0
  9
$CELTYPE
  6
BYLAYER
  9
$CECOLOR
 62
   256
  9
$DIMSCALE
 40
7.0
  9
$DIMASZ
 40
2.5
  9
$DIMEXO
 40
1.0
  9
$DIMDLI
 40
8.0
  9
$DIMRND
 40
0.0
  9
$DIMDLE
 40
0.0
  9
$DIMEXE
 40
0.6
  9
$DIMTP
 40
0.1
  9
$DIMTM
 40
0.1
  9
$DIMTXT
 40
2.5
  9
$DIMCEN
 40
0.0
  9
$DIMTSZ
 40
0.0
  9
$DIMTOL
 70
     0
  9
$DIMLIM
 70
     0
  9
$DIMTIH
 70
     0
  9
$DIMTOH
 70
     0
  9
$DIMSE1
 70
     0
  9
$DIMSE2
 70
     0
  9
$DIMTAD
 70
     1
  9
$DIMZIN
 70
     8
  9
$DIMBLK
  1

  9
$DIMASO
 70
     1
  9
$DIMSHO
 70
     1
  9
$DIMPOST
  1

  9
$DIMAPOST
  1
"
  9
$DIMALT
 70
     0
  9
$DIMALTD
 70
     2
  9
$DIMALTF
 40
0.0393701
  9
$DIMLFAC
 40
1.0
  9
$DIMTOFL
 70
     1
  9
$DIMTVP
 40
0.0
  9
$DIMTIX
 70
     0
  9
$DIMSOXD
 70
     0
  9
$DIMSAH
 70
     0
  9
$DIMBLK1
  1

  9
$DIMBLK2
  1

  9
$DIMSTYLE
  2
AM_ISO
  9
$DIMCLRD
 70
   256
  9
$DIMCLRE
 70
   256
  9
$DIMCLRT
 70
     4
  9
$DIMTFAC
 40
0.71
  9
$DIMGAP
 40
0.8
  9
$LUNITS
 70
     2
  9
$LUPREC
 70
     2
  9
$SKETCHINC
 40
1.0
  9
$FILLETRAD
 40
35.0
  9
$AUNITS
 70
     0
  9
$AUPREC
 70
     0
  9
$MENU
  1
.
  9
$ELEVATION
 40
0.0
  9
$PELEVATION
 40
0.0
  9
$THICKNESS
 40
0.0
  9
$LIMCHECK
 70
     0
  9
$BLIPMODE
 70
     0
  9
$CHAMFERA
 40
14.0
  9
$CHAMFERB
 40
7.0
  9
$SKPOLY
 70
     0
  9
$TDCREATE
 40
2452067.4122366901
  9
$TDUPDATE
 40
2458541.4260988431
  9
$TDINDWG
 40
0.1123215509
  9
$TDUSRTIMER
 40
0.112321331
  9
$USRTIMER
 70
     1
  9
$ANGBASE
 50
0.0
  9
$ANGDIR
 70
     0
  9
$PDMODE
 70
     0
  9
$PDSIZE
 40
0.0
  9
$PLINEWID
 40
0.0
  9
$COORDS
 70
     1
  9
$SPLFRAME
 70
     0
  9
$SPLINETYPE
 70
     6
  9
$SPLINESEGS
 70
     8
  9
$ATTDIA
 70
     1
  9
$ATTREQ
 70
     1
  9
$HANDLING
 70
     1
  9
$HANDSEED
  5
39A6
  9
$SURFTAB1
 70
     6
  9
$SURFTAB2
 70
     6
  9
$SURFTYPE
 70
     6
  9
$SURFU
 70
     6
  9
$SURFV
 70
     6
  9
$UCSNAME
  2

  9
$UCSORG
 10
0.0
 20
0.0
 30
0.0
  9
$UCSXDIR
 10
1.0
 20
0.0
 30
0.0
  9
$UCSYDIR
 10
0.0
 20
1.0
 30
0.0
  9
$PUCSNAME
  2

  9
$PUCSORG
 10
0.0
 20
0.0
 30
0.0
  9
$PUCSXDIR
 10
1.0
 20
0.0
 30
0.0
  9
$PUCSYDIR
 10
0.0
 20
1.0
 30
0.0
  9
$USERI1
 70
     0
  9
$USERI2
 70
     0
  9
$USERI3
 70
     0
  9
$USERI4
 70
     0
  9
$USERI5
 70
     0
  9
$USERR1
 40
0.0
  9
$USERR2
 40
0.0
  9
$USERR3
 40
0.0
  9
$USERR4
 40
0.0
  9
$USERR5
 40
0.0
  9
$WORLDVIEW
 70
     1
  9
$SHADEDGE
 70
     3
  9
$SHADEDIF
 70
    70
  9
$TILEMODE
 70
     1
  9
$MAXACTVP
 70
    64
  9
$PLIMCHECK
 70
     0
  9
$PEXTMIN
 10
1.0000000000000000E+020
 20
1.0000000000000000E+020
 30
1.0000000000000000E+020
  9
$PEXTMAX
 10
-1.0000000000000000E+020
 20
-1.0000000000000000E+020
 30
-1.0000000000000000E+020
  9
$PLIMMIN
 10
0.0
 20
0.0
  9
$PLIMMAX
 10
420.0
 20
297.0
  9
$UNITMODE
 70
     0
  9
$VISRETAIN
 70
     1
  9
$PLINEGEN
 70
     0
  9
$PSLTSCALE
 70
     1
  0
ENDSEC
  0
SECTION
  2
TABLES
  0
TABLE
  2
VPORT
 70
     1
  0
VPORT
  2
*ACTIVE
 70
     0
 10
0.0
 20
0.0
 11
1.0
 21
1.0
 12
856.80143040890255
 22
853.70924372028026
 13
0.0
 23
0.0
 14
17.5
 24
17.5
 15
70.0
 25
70.0
 16
0.0
 26
0.0
 36
1.0
 17
0.0
 27
0.0
 37
0.0
 40
1098.436236961682
 41
1.7571592210767459
 42
50.0
 43
0.0
 44
0.0
 50
0.0
 51
0.0
 71
     0
 72
   100
 73
     1
 74
     3
 75
     0
 76
     0
 77
     0
 78
     0
  0
ENDTAB
  0
TABLE
  2
LTYPE
 70
    27
  0
LTYPE
  2
CONTINUOUS
 70
     0
  3
Solid line
 72
    65
 73
     0
 40
0.0
  0
LTYPE
  2
AM_ISO02W050
 70
     0
  3
__ __ __ __ __ __ __ __ __ __ __ __ __ __ __
 72
    65
 73
     2
 40
7.5
 49
6.0
 49
-1.5
  0
LTYPE
  2
AM_ISO08W050
 70
     0
  3
____ . ____ . ____ . ____ . ____ . ____ . ____
 72
    65
 73
     4
 40
18.0
 49
12.0
 49
-1.5
 49
3.0
 49
-1.5
  0
LTYPE
  2
AM_ISO09W050
 70
     0
  3
_____ . . _____ . . _____ . . ____ .. ____
 72
    65
 73
     6
 40
22.5
 49
12.0
 49
-1.5
 49
3.0
 49
-1.5
 49
3.0
 49
-1.5
  0
LTYPE
  2
AMCONSTR
 70
     0
  3
_______________________
 72
    65
 73
     2
 40
9999.0
 49
9999.0
 49
0.0
  0
LTYPE
  2
AM_ISO08W050X2
 70
     0
  3
__ . __ . __ . __ . __ . __
 72
    65
 73
     4
 40
9.0
 49
6.0
 49
-0.75
 49
1.5
 49
-0.75
  0
LTYPE
  2
AM_ISO02W050X2
 70
     0
  3
 _ _ _ _ _ _ _ _ _ _ _ _
 72
    65
 73
     2
 40
3.75
 49
3.0
 49
-0.75
  0
LTYPE
  2
AMZIGZAG
 70
     0
  3
/\/-/\/-/\/-/\/-/\/-/\/
 72
    65
 73
     2
 40
11.000099999999991
 49
0.0001
 49
-11.0
  0
LTYPE
  2
ACISOWELD
 70
     0
  3
_ _ _ _ _
 72
    65
 73
     2
 40
2.0
 49
2.0
 49
-1.0
  0
LTYPE
  2
ACISOTGB
 70
     0
  3
__ . . __ . .
 72
    65
 73
     6
 40
9.0
 49
4.0
 49
-1.0
 49
1.0
 49
-1.0
 49
1.0
 49
-1.0
  0
LTYPE
  2
ACISOTGL
 70
     0
  3
_ _ _ _ _
 72
    65
 73
     2
 40
3.0
 49
2.0
 49
-1.0
  0
LTYPE
  2
CENTER
 70
     0
  3
__ . __
 72
    65
 73
     4
 40
7.0
 49
4.0
 49
-1.0
 49
1.0
 49
-1.0
  0
LTYPE
  2
PHANTOM2
 70
     0
  3
Phantom (.5x) ___ _ _ ___ _ _ ___ _ _ ___ _ _
 72
    65
 73
     6
 40
31.75
 49
15.875
 49
-3.174999999999998
 49
3.174999999999998
 49
-3.174999999999998
 49
3.174999999999998
 49
-3.174999999999998
  0
LTYPE
  2
ACANSTGBM
 70
     0
  3
__ . . __ . .
 72
    65
 73
     6
 40
9.0
 49
4.0
 49
-1.0
 49
1.0
 49
-1.0
 49
1.0
 49
-1.0
  0
LTYPE
  2
ACANSTGLM
 70
     0
  3
_ _ _ _ _
 72
    65
 73
     2
 40
3.0
 49
2.0
 49
-1.0
  0
LTYPE
  2
GEN7
 70
     0
  3
____ . ____ . ____ . ____ . ____ . ____ . ____
 72
    65
 73
     4
 40
14.25
 49
9.75
 49
-1.5
 49
1.5
 49
-1.5
  0
LTYPE
  2
GEN3B
 70
     0
  3
 - - - - -
 72
    65
 73
     2
 40
1.0
 49
0.5
 49
-0.5
  0
LTYPE
  2
GEN7A
 70
     0
  3
__ . __ . __
 72
    65
 73
     4
 40
7.375
 49
4.75
 49
-0.875
 49
0.875
 49
-0.875
  0
LTYPE
  2
ACJISTGB
 70
     0
  3
__ . . __ . .
 72
    65
 73
     6
 40
9.0
 49
4.0
 49
-1.0
 49
1.0
 49
-1.0
 49
1.0
 49
-1.0
  0
LTYPE
  2
ACJISTGL
 70
     0
  3
_ _ _ _ _
 72
    65
 73
     2
 40
3.0
 49
2.0
 49
-1.0
  0
LTYPE
  2
HIDDEN
 70
     0
  3
Hidden __ __ __ __ __ __ __ __ __ __ __ __ __ _
 72
    65
 73
     2
 40
0.375
 49
0.25
 49
-0.125
  0
LTYPE
  2
CENTER2
 70
     0
  3
Center (.5x) ___ _ ___ _ ___ _ ___ _ ___ _ ___
 72
    65
 73
     4
 40
1.125
 49
0.75
 49
-0.125
 49
0.125
 49
-0.125
  0
LTYPE
  2
HIDDEN2
 70
     0
  3
Hidden (.5x) _ _ _ _ _ _ _ _ _ _ _ _ _ _ _ _ _
 72
    65
 73
     2
 40
0.1875
 49
0.125
 49
-0.0625
  0
LTYPE
  2
AMZIGZAG2
 70
     0
  3
/\/-/\/-/\/-/\/-/\/-/\/
 72
    65
 73
     2
 40
0.4401
 49
0.0001
 49
-0.4400000000000002
  0
LTYPE
  2
ACANSTGB
 70
     0
  3
__ . . __ . .
 72
    65
 73
     6
 40
0.35433070866
 49
0.15748031496
 49
-0.03937007874
 49
0.03937007874
 49
-0.03937007874
 49
0.03937007874
 49
-0.03937007874
  0
LTYPE
  2
ACANSTGL
 70
     0
  3
_ _ _ _ _
 72
    65
 73
     2
 40
0.11811023622
 49
0.07874015748
 49
-0.03937007874
  0
ENDTAB
  0
TABLE
  2
LAYER
 70
     7
  0
LAYER
  2
0
 70
     0
 62
     7
  6
CONTINUOUS
  0
LAYER
  2
AM_0
 70
     0
 62
     7
  6
CONTINUOUS
  0
LAYER
  2
AM_5
 70
     0
 62
     2
  6
CONTINUOUS
  0
LAYER
  2
DEFPOINTS
 70
     0
 62
     7
  6
CONTINUOUS
  0
LAYER
  2
ｶｸﾚｾﾝ2
 70
     0
 62
     3
  6
GEN3B
  0
LAYER
  2
ﾁｭｳｼﾝｾﾝ
 70
     0
 62
     1
  6
GEN7
  0
LAYER
  2
ﾁｭｳｼﾝｾﾝ1
 70
     0
 62
     1
  6
GEN7A
  0
ENDTAB
  0
TABLE
  2
STYLE
 70
     9
  0
STYLE
  2
STANDARD
 70
     0
 40
0.0
 41
0.8299999999999999
 50
0.0
 71
     0
 42
2.5
  3
txt.shx
  4
bigfont.shx
  0
STYLE
  2
ANNOTATIVE
 70
     0
 40
0.0
 41
1.0
 50
0.0
 71
     0
 42
0.2
  3
txt
  4

  0
STYLE
  2

 70
     1
 40
0.0
 41
1.0
 50
0.0
 71
     0
 42
2.5
  3
ltypeshp.shx
  4

  0
STYLE
  2
ACISOTS
 70
     0
 40
1.0
 41
1.0
 50
0.0
 71
     0
 42
2.5
  3
isocp.shx
  4
extfont.shx
  0
STYLE
  2
ACISOGDT
 70
     0
 40
0.0
 41
1.0
 50
0.0
 71
     0
 42
2.5
  3
amgdt.shx
  4

  0
STYLE
  2
ACANSTS
 70
     0
 40
1.0
 41
1.0
 50
0.0
 71
     0
 42
2.5
  3
romans.shx
  4
bigfont.shx
  0
STYLE
  2
ACANSGDT
 70
     0
 40
0.0
 41
1.0
 50
0.0
 71
     0
 42
2.5
  3
amgdt.shx
  4

  0
STYLE
  2
ACJISTS
 70
     0
 40
1.0
 41
1.0
 50
0.0
 71
     0
 42
2.5
  3
isocp.shx
  4
bigfont.shx
  0
STYLE
  2
ACJISGDT
 70
     0
 40
0.0
 41
1.0
 50
0.0
 71
     0
 42
2.5
  3
amgdt.shx
  4

  0
ENDTAB
  0
TABLE
  2
VIEW
 70
     6
  0
VIEW
  2
AM_VIEW1
 70
     0
 40
647.50000000000011
 10
582.51151012891353
 20
971.25000000000023
 41
1165.0230202578271
 11
0.0
 21
0.0
 31
1.0
 12
0.0
 22
0.0
 32
0.0
 42
50.0
 43
0.0
 44
0.0
 50
0.0
 71
     0
  0
VIEW
  2
AM_VIEW2
 70
     0
 40
647.50000000000011
 10
1408.9884898710859
 20
971.25000000000023
 41
1165.0230202578271
 11
0.0
 21
0.0
 31
1.0
 12
0.0
 22
0.0
 32
0.0
 42
50.0
 43
0.0
 44
0.0
 50
0.0
 71
     0
  0
VIEW
  2
AM_VIEW3
 70
     0
 40
647.50000000000011
 10
582.51151012891353
 20
323.75
 41
1165.0230202578271
 11
0.0
 21
0.0
 31
1.0
 12
0.0
 22
0.0
 32
0.0
 42
50.0
 43
0.0
 44
0.0
 50
0.0
 71
     0
  0
VIEW
  2
AM_VIEW4
 70
     0
 40
647.50000000000011
 10
1408.9884898710859
 20
323.75
 41
1165.0230202578271
 11
0.0
 21
0.0
 31
1.0
 12
0.0
 22
0.0
 32
0.0
 42
50.0
 43
0.0
 44
0.0
 50
0.0
 71
     0
  0
VIEW
  2
AM_VIEW5
 70
     0
 40
647.50000000000011
 10
995.74999999999989
 20
647.50000000000011
 41
1165.0230202578259
 11
0.0
 21
0.0
 31
1.0
 12
0.0
 22
0.0
 32
0.0
 42
50.0
 43
0.0
 44
0.0
 50
0.0
 71
     0
  0
VIEW
  2
AM_VIEW6
 70
     0
 40
1294.98705
 10
995.74999999999989
 20
647.50000000000011
 41
2330.0227400552481
 11
0.0
 21
0.0
 31
1.0
 12
0.0
 22
0.0
 32
0.0
 42
50.0
 43
0.0
 44
0.0
 50
0.0
 71
     0
  0
ENDTAB
  0
TABLE
  2
UCS
 70
     0
  0
ENDTAB
  0
TABLE
  2
APPID
 70
    95
  0
APPID
  2
ACAD
 70
     0
  0
APPID
  2
ACADANNOTATIVE
 70
     0
  0
APPID
  2
MCAD_NO_VIS
 70
     0
  0
APPID
  2
ACAD_TEMP_GRAPHIC
 70
     0
  0
APPID
  2
ACATTRIBSERVICES
 70
     0
  0
APPID
  2
GENIUS_GENREC_14
 70
     0
  0
APPID
  2
GENIUS_GENOBJ-N-REC_13
 70
     0
  0
APPID
  2
GENIUS_GENODEF_13
 70
     0
  0
APPID
  2
GENIUS_GENOLIS_13
 70
     0
  0
APPID
  2
GENIUS_GENOBJ-N-TIT_13
 70
     0
  0
APPID
  2
GENIUS_GENOENT_13
 70
     0
  0
APPID
  2
GENIUS_GENTITLE_13
 70
     0
  0
APPID
  2
GENIUS_GENOREF_13
 70
     0
  0
APPID
  2
GENIUS_GENSCREG_15
 70
     0
  0
APPID
  2
GENIUS_GENOBJ-N-SDF_13
 70
     0
  0
APPID
  2
GENIUS_GENFIL_13
 70
     0
  0
APPID
  2
GENIUS_GENOBJ-N-CHA_13
 70
     0
  0
APPID
  2
GENIUS_GENDTOL_13
 70
     0
  0
APPID
  2
GENIUS_GENOBJ-N-FIL_13
 70
     0
  0
APPID
  2
AD_DRAW
 70
     0
  0
APPID
  2
DESIGNERASSEMBLIES
 70
     0
  0
APPID
  2
ASURF_PCURVE_APPNAME
 70
     0
  0
APPID
  2
GENIUS_GE3SECT_13
 70
     0
  0
APPID
  2
GENIUS_GENCFG_13
 70
     0
  0
APPID
  2
GENIUS_GE3CFG0_13
 70
     0
  0
APPID
  2
GENIUS_GENCFG0_13
 70
     0
  0
APPID
  2
GENIUS_GENCFG1_13
 70
     0
  0
APPID
  2
GENIUS_GENCFG2_13
 70
     0
  0
APPID
  2
GENIUS_GENCFG3_13
 70
     0
  0
APPID
  2
GENIUS_GENCFG4_13
 70
     0
  0
APPID
  2
GENIUS_GEVCFG0_13
 70
     0
  0
APPID
  2
GENIUS_GENHINW_13
 70
     0
  0
APPID
  2
GENIUS_FIRSTVISTXT_14
 70
     0
  0
APPID
  2
GENIUS_GENOBJ-N-LEADER_13
 70
     0
  0
APPID
  2
GEV_VCCNULL_SWITCH_OFF
 70
     0
  0
APPID
  2
GENIUS_GEFCFG0_13
 70
     0
  0
APPID
  2
GENIUS_GENZVEED_13
 70
     0
  0
APPID
  2
GENIUS_GENSCREG_13
 70
     0
  0
APPID
  2
GENIUS_DUMCFG0_13
 70
     0
  0
APPID
  2
GEVID936201362
 70
     0
  0
APPID
  2
GEVDC
 70
     0
  0
APPID
  2
GEVCON
 70
     0
  0
APPID
  2
VCC
 70
     0
  0
APPID
  2
GEVPT
 70
     0
  0
APPID
  2
GEVIT
 70
     0
  0
APPID
  2
GENBH
 70
     0
  0
APPID
  2
GEVMK
 70
     0
  0
APPID
  2
GENIUS_GENBH_13
 70
     0
  0
APPID
  2
GENIUS_GENOBJ-NBEHI-BHF_13
 70
     0
  0
APPID
  2
GENIUS_GENOBJ-NBEHI-BHB_13
 70
     0
  0
APPID
  2
GENIUS_GENOBJ-F-DESC_13
 70
     0
  0
APPID
  2
GENIUS_GEFDESC_14
 70
     0
  0
APPID
  2
GENIUS_GENOBJ-F-PART_13
 70
     0
  0
APPID
  2
GENIUS_GEFSTDP_13
 70
     0
  0
APPID
  2
GENIUS_GEFPARTINS_13
 70
     0
  0
APPID
  2
GENIUS_GENTRA_14
 70
     0
  0
APPID
  2
GENIUS_GENINF13_13
 70
     0
  0
APPID
  2
GENIUS_GENOBJ-N-INFOPT_13
 70
     0
  0
APPID
  2
GENIUS_GENOBJ-N-RSSYM_13
 70
     0
  0
APPID
  2
GENIUS_GENSYMENT_13
 70
     0
  0
APPID
  2
GENIUS_GENSCSYM_13
 70
     0
  0
APPID
  2
GENIUS_GEFINFNAM_13
 70
     0
  0
APPID
  2
GENIUS_GENOBJ-N-CEN_13
 70
     0
  0
APPID
  2
GENIUS_GENOBJ-N-CRS_13
 70
     0
  0
APPID
  2
GENIUS_GENOBJ-N-CRC_13
 70
     0
  0
APPID
  2
GENIUS_GENCRC_14
 70
     0
  0
APPID
  2
GEVID942827039
 70
     0
  0
APPID
  2
GEVID942827040
 70
     0
  0
APPID
  2
GEVID942827041
 70
     0
  0
APPID
  2
GENIUS_GENOBJ-F-SCPASSM_13
 70
     0
  0
APPID
  2
GENIUS_GENDIMSH_14
 70
     0
  0
APPID
  2
GEVID942827042
 70
     0
  0
APPID
  2
GEVID946020473
 70
     0
  0
APPID
  2
GEVID946020474
 70
     0
  0
APPID
  2
GEVID946020475
 70
     0
  0
APPID
  2
GENIUS_GENOBJ-N-HTC_13
 70
     0
  0
APPID
  2
GENIUS_GENHATCH_13
 70
     0
  0
APPID
  2
GEVID948854295
 70
     0
  0
APPID
  2
GEVID939402019
 70
     0
  0
APPID
  2
GEVID952919491
 70
     0
  0
APPID
  2
GEVID952919492
 70
     0
  0
APPID
  2
GENIUS_GEFWELD_13
 70
     0
  0
APPID
  2
GENIUS_GENOBJ-F-WELS_13
 70
     0
  0
APPID
  2
GEVID952919493
 70
     0
  0
APPID
  2
GENIUS_GENOBJ-N-RSBK_13
 70
     0
  0
APPID
  2
GENIUS_GENOBJ-N-LIB_13
 70
     0
  0
APPID
  2
GENIUS_GENSCALE_13
 70
     0
  0
APPID
  2
GEVID986376691
 70
     0
  0
APPID
  2
DCO15
 70
     0
  0
APPID
  2
ACAD_DSTYLE_DIMBREAK
 70
     0
  0
APPID
  2
ACAD_DSTYLE_DIMJAG
 70
     0
  0
APPID
  2
ACAD_NAV_VCDISPLAY
 70
     0
  0
APPID
  2
ACADANNOPO
 70
     0
  0
APPID
  2
ACAD_EXEMPT_FROM_CAD_STANDARDS
 70
     0
  0
APPID
  2
ACAD_MLEADERVER
 70
     0
  0
ENDTAB
  0
TABLE
  2
DIMSTYLE
 70
    22
  0
DIMSTYLE
  2
STANDARD
 70
     0
  3

  4

  5

  6

  7

 40
1.0
 41
0.18
 42
0.0625
 43
0.38
 44
0.18
 45
0.0
 46
0.0
 47
0.0
 48
0.0
140
0.18
141
0.09
142
0.0
143
25.399999999999999
144
1.0
145
0.0
146
1.0
147
0.09
 71
     0
 72
     0
 73
     1
 74
     1
 75
     0
 76
     0
 77
     0
 78
     0
170
     0
171
     2
172
     0
173
     0
174
     0
175
     0
176
     0
177
     0
178
     0
  0
DIMSTYLE
  2
ANNOTATIVE
 70
     0
  3

  4

  5

  6

  7

 40
1.0
 41
0.18
 42
0.0625
 43
0.38
 44
0.18
 45
0.0
 46
0.0
 47
0.0
 48
0.0
140
0.18
141
0.09
142
0.0
143
25.399999999999999
144
1.0
145
0.0
146
1.0
147
0.09
 71
     0
 72
     0
 73
     1
 74
     1
 75
     0
 76
     0
 77
     0
 78
     0
170
     0
171
     2
172
     0
173
     0
174
     0
175
     0
176
     0
177
     0
178
     0
  0
DIMSTYLE
  2
AM_ISO
 70
     0
  3

  4
"
  5

  6

  7

 40
1.0
 41
2.5
 42
1.0
 43
8.0
 44
0.6
 45
0.0
 46
0.0
 47
0.1
 48
0.1
140
2.5
141
0.0
142
0.0
143
0.0393701
144
1.0
145
0.0
146
0.71
147
0.8
 71
     0
 72
     0
 73
     0
 74
     0
 75
     0
 76
     0
 77
     1
 78
     8
170
     0
171
     2
172
     1
173
     0
174
     0
175
     0
176
   256
177
   256
178
     4
  0
DIMSTYLE
  2
AM_ISO$3
 70
     0
  3

  4
"
  5

  6

  7

 40
1.0
 41
2.5
 42
1.0
 43
8.0
 44
0.6
 45
0.0
 46
0.0
 47
0.1
 48
0.1
140
2.5
141
0.0
142
0.0
143
0.0393701
144
1.0
145
0.0
146
0.71
147
0.8
 71
     0
 72
     0
 73
     0
 74
     1
 75
     0
 76
     0
 77
     1
 78
     8
170
     0
171
     2
172
     0
173
     0
174
     0
175
     0
176
   256
177
   256
178
     4
  0
DIMSTYLE
  2
AM_ISO$4
 70
     0
  3

  4
"
  5

  6

  7

 40
1.0
 41
2.5
 42
1.0
 43
8.0
 44
0.6
 45
0.0
 46
0.0
 47
0.1
 48
0.1
140
2.5
141
0.0
142
0.0
143
0.0393701
144
1.0
145
0.0
146
0.71
147
0.8
 71
     0
 72
     0
 73
     0
 74
     1
 75
     0
 76
     0
 77
     1
 78
     8
170
     0
171
     2
172
     0
173
     0
174
     0
175
     0
176
   256
177
   256
178
     4
  0
DIMSTYLE
  2
AM_ISO$6
 70
     0
  3

  4
"
  5

  6

  7

 40
1.0
 41
2.5
 42
1.0
 43
8.0
 44
0.6
 45
0.0
 46
0.0
 47
0.1
 48
0.1
140
2.5
141
0.0
142
0.0
143
0.0393701
144
1.0
145
0.0
146
0.71
147
0.8
 71
     0
 72
     0
 73
     0
 74
     0
 75
     0
 76
     0
 77
     0
 78
     8
170
     0
171
     2
172
     1
173
     0
174
     0
175
     0
176
   256
177
   256
178
     4
  0
DIMSTYLE
  2
AM_ISO$7
 70
     0
  3

  4
"
  5

  6

  7

 40
1.0
 41
2.5
 42
1.0
 43
8.0
 44
0.6
 45
0.0
 46
0.0
 47
0.1
 48
0.1
140
2.5
141
0.0
142
0.0
143
0.0393701
144
1.0
145
0.0
146
0.71
147
0.8
 71
     0
 72
     0
 73
     0
 74
     0
 75
     0
 76
     0
 77
     1
 78
     8
170
     0
171
     2
172
     1
173
     0
174
     0
175
     0
176
   256
177
   256
178
     4
  0
DIMSTYLE
  2
AM_ISO$SF
 70
     0
  3

  4
"
  5

  6

  7

 40
1.0
 41
2.5
 42
1.0
 43
10.0
 44
1.0
 45
0.0
 46
0.0
 47
0.1
 48
0.1
140
3.5
141
0.0
142
0.0
143
0.0393701
144
1.0
145
0.0
146
0.71
147
1.5
 71
     0
 72
     0
 73
     0
 74
     0
 75
     1
 76
     1
 77
     1
 78
     8
170
     0
171
     2
172
     1
173
     0
174
     0
175
     0
176
   256
177
   256
178
     2
  0
DIMSTYLE
  2
AM_ISO$SH
 70
     0
  3

  4
"
  5

  6

  7

 40
1.0
 41
2.5
 42
1.0
 43
10.0
 44
1.0
 45
0.0
 46
0.0
 47
0.1
 48
0.1
140
3.5
141
0.0
142
0.0
143
0.0393701
144
2.0
145
0.0
146
0.71
147
1.5
 71
     0
 72
     0
 73
     0
 74
     0
 75
     1
 76
     1
 77
     1
 78
     8
170
     0
171
     2
172
     1
173
     1
174
     0
175
     0
176
   256
177
   256
178
     2
  0
DIMSTYLE
  2
AM_JIS
 70
     0
  3

  4
"
  5

  6

  7

 40
1.0
 41
2.5
 42
1.0
 43
7.0
 44
1.0
 45
0.0
 46
0.0
 47
0.1
 48
0.1000000001
140
2.5
141
0.0
142
0.0
143
0.0393701
144
1.0
145
0.0
146
0.71
147
1.0
 71
     0
 72
     0
 73
     0
 74
     0
 75
     0
 76
     0
 77
     3
 78
     8
170
     0
171
     2
172
     1
173
     0
174
     0
175
     0
176
   256
177
   256
178
     4
  0
DIMSTYLE
  2
AM_JIS$3
 70
     0
  3

  4
"
  5

  6

  7

 40
1.0
 41
2.5
 42
1.0
 43
7.0
 44
1.0
 45
0.0
 46
0.0
 47
0.1
 48
0.1000000001
140
2.5
141
0.0
142
0.0
143
0.0393701
144
1.0
145
0.0
146
0.71
147
1.0
 71
     0
 72
     0
 73
     0
 74
     1
 75
     0
 76
     0
 77
     3
 78
     8
170
     0
171
     2
172
     0
173
     0
174
     0
175
     0
176
   256
177
   256
178
     4
  0
DIMSTYLE
  2
AM_JIS$4
 70
     0
  3

  4
"
  5

  6

  7

 40
1.0
 41
2.5
 42
1.0
 43
7.0
 44
1.0
 45
0.0
 46
0.0
 47
0.1
 48
0.1000000001
140
2.5
141
0.0
142
0.0
143
0.0393701
144
1.0
145
0.0
146
0.71
147
1.0
 71
     0
 72
     0
 73
     0
 74
     0
 75
     0
 76
     0
 77
     3
 78
     8
170
     0
171
     2
172
     0
173
     0
174
     0
175
     0
176
   256
177
   256
178
     4
  0
DIMSTYLE
  2
AM_JIS$6
 70
     0
  3

  4
"
  5

  6

  7

 40
1.0
 41
2.5
 42
1.0
 43
7.0
 44
1.0
 45
0.0
 46
0.0
 47
0.1
 48
0.1000000001
140
2.5
141
0.0
142
0.0
143
0.0393701
144
1.0
145
0.0
146
0.71
147
1.0
 71
     0
 72
     0
 73
     0
 74
     0
 75
     0
 76
     0
 77
     0
 78
     8
170
     0
171
     2
172
     1
173
     0
174
     0
175
     0
176
   256
177
   256
178
     4
  0
DIMSTYLE
  2
AM_JIS$7
 70
     0
  3

  4
"
  5

  6

  7

 40
1.0
 41
2.5
 42
1.0
 43
7.0
 44
1.0
 45
0.0
 46
0.0
 47
0.1
 48
0.1000000001
140
2.5
141
0.0
142
0.0
143
0.0393701
144
1.0
145
0.0
146
0.71
147
1.0
 71
     0
 72
     0
 73
     0
 74
     0
 75
     0
 76
     0
 77
     3
 78
     8
170
     0
171
     2
172
     1
173
     0
174
     0
175
     0
176
   256
177
   256
178
     4
  0
DIMSTYLE
  2
AM_JIS$SF
 70
     0
  3

  4
"
  5

  6

  7

 40
1.0
 41
2.5
 42
1.0
 43
10.0
 44
1.0
 45
0.0
 46
0.0
 47
0.1
 48
0.1
140
3.5
141
0.0
142
0.0
143
0.0393701
144
1.0
145
0.0
146
0.71
147
1.5
 71
     0
 72
     0
 73
     0
 74
     0
 75
     1
 76
     1
 77
     3
 78
     8
170
     0
171
     2
172
     1
173
     0
174
     0
175
     0
176
   256
177
   256
178
     4
  0
DIMSTYLE
  2
AM_JIS$SH
 70
     0
  3

  4
"
  5

  6

  7

 40
1.0
 41
2.5
 42
1.0
 43
10.0
 44
1.0
 45
0.0
 46
0.0
 47
0.1
 48
0.1
140
3.5
141
0.0
142
0.0
143
0.0393701
144
1.0
145
0.0
146
0.71
147
1.5
 71
     0
 72
     0
 73
     0
 74
     0
 75
     1
 76
     0
 77
     3
 78
     8
170
     0
171
     2
172
     1
173
     1
174
     0
175
     0
176
   256
177
   256
178
     4
  0
DIMSTYLE
  2
AM_ANSI
 70
     0
  3

  4
mm
  5

  6

  7

 40
1.0
 41
0.1
 42
0.05
 43
0.5
 44
0.1
 45
0.0
 46
0.0
 47
0.1
 48
0.1
140
0.12
141
0.0
142
0.0
143
25.399999999999999
144
1.0
145
0.0
146
0.71
147
0.06
 71
     0
 72
     0
 73
     1
 74
     1
 75
     0
 76
     0
 77
     0
 78
     7
170
     0
171
     2
172
     0
173
     0
174
     0
175
     0
176
   256
177
   256
178
     2
  0
DIMSTYLE
  2
AM_ANSI$3
 70
     0
  3

  4
mm
  5

  6

  7

 40
1.0
 41
0.1
 42
0.05
 43
0.5
 44
0.1
 45
0.0
 46
0.0
 47
0.1
 48
0.1
140
0.12
141
0.0
142
0.0
143
25.399999999999999
144
1.0
145
0.0
146
0.71
147
0.06
 71
     0
 72
     0
 73
     1
 74
     1
 75
     0
 76
     0
 77
     0
 78
     7
170
     0
171
     2
172
     0
173
     0
174
     0
175
     0
176
   256
177
   256
178
     2
  0
DIMSTYLE
  2
AM_ANSI$4
 70
     0
  3

  4
mm
  5

  6

  7

 40
1.0
 41
0.1
 42
0.05
 43
0.5
 44
0.1
 45
0.0
 46
0.0
 47
0.1
 48
0.1
140
0.12
141
0.0
142
0.0
143
25.399999999999999
144
1.0
145
0.0
146
0.71
147
0.06
 71
     0
 72
     0
 73
     1
 74
     1
 75
     0
 76
     0
 77
     0
 78
     7
170
     0
171
     2
172
     0
173
     0
174
     0
175
     0
176
   256
177
   256
178
     2
  0
DIMSTYLE
  2
AM_ANSI$7
 70
     0
  3

  4
mm
  5

  6

  7

 40
1.0
 41
0.1
 42
0.05
 43
0.5
 44
0.1
 45
0.0
 46
0.0
 47
0.1
 48
0.1
140
0.24
141
0.0
142
0.0
143
25.399999999999999
144
1.0
145
0.0
146
0.71
147
0.06
 71
     0
 72
     0
 73
     1
 74
     1
 75
     0
 76
     0
 77
     0
 78
     7
170
     0
171
     2
172
     0
173
     0
174
     0
175
     0
176
   256
177
   256
178
     2
  0
DIMSTYLE
  2
AM_ANSI$SF
 70
     0
  3

  4
mm
  5

  6

  7

 40
1.0
 41
0.1
 42
0.05
 43
0.5
 44
0.1
 45
0.0
 46
0.0
 47
0.1
 48
0.1
140
0.12
141
0.0
142
0.0
143
25.399999999999999
144
1.0
145
0.0
146
0.71
147
0.06
 71
     0
 72
     0
 73
     1
 74
     1
 75
     1
 76
     1
 77
     0
 78
     7
170
     0
171
     2
172
     0
173
     0
174
     0
175
     0
176
   256
177
   256
178
     2
  0
DIMSTYLE
  2
AM_ANSI$SH
 70
     0
  3

  4
mm
  5

  6

  7

 40
1.0
 41
0.1
 42
0.05
 43
0.5
 44
0.1
 45
0.0
 46
0.0
 47
0.1
 48
0.1
140
0.12
141
0.0
142
0.0
143
25.399999999999999
144
1.0
145
0.0
146
0.71
147
0.06
 71
     0
 72
     0
 73
     1
 74
     1
 75
     1
 76
     1
 77
     0
 78
     7
170
     0
171
     2
172
     0
173
     1
174
     0
175
     0
176
   256
177
   256
178
     2
  0
ENDTAB
  0
ENDSEC
  0
SECTION
  2
BLOCKS
  0
BLOCK
  8
0
  2
$MODEL_SPACE
 70
     0
 10
0.0
 20
0.0
 30
0.0
  3
$MODEL_SPACE
  1

  0
ENDBLK
  5
3816
  8
0
  0
BLOCK
 67
     1
  8
0
  2
$PAPER_SPACE
 70
     0
 10
0.0
 20
0.0
 30
0.0
  3
$PAPER_SPACE
  1

  0
ENDBLK
  5
3812
 67
     1
  8
0
  0
BLOCK
  8
0
  2
GENAXEH
 70
     0
 10
0.0
 20
0.0
 30
0.0
  3
GENAXEH
  1

  0
LINE
  5
34B2
  8
0
 10
-1.0
 20
0.0
 30
0.0
 11
1.0
 21
0.0
 31
0.0
  0
ENDBLK
  5
34B3
  8
0
  0
BLOCK
  8
0
  2
_OPEN30
 70
     0
 10
0.0
 20
0.0
 30
0.0
  3
_OPEN30
  1

  0
LINE
  5
34B6
  8
0
 62
     0
 10
-1.0
 20
0.26794919
 30
0.0
 11
0.0
 21
0.0
 31
0.0
  0
LINE
  5
34B7
  8
0
 62
     0
 10
0.0
 20
0.0
 30
0.0
 11
-1.0
 21
-0.26794919
 31
0.0
  0
LINE
  5
34B8
  8
0
 62
     0
 10
0.0
 20
0.0
 30
0.0
 11
-1.0
 21
0.0
 31
0.0
  0
ENDBLK
  5
34B9
  8
0
  0
BLOCK
  8
0
  2
_NONE
 70
     0
 10
0.0
 20
0.0
 30
0.0
  3
_NONE
  1

  0
ENDBLK
  5
34BC
  8
0
  0
BLOCK
  8
0
  2
_ACMFILLEDHALF
 70
     0
 10
0.0
 20
0.0
 30
0.0
  3
_ACMFILLEDHALF
  1

  0
TRACE
  5
390E
  8
AM_0
 62
     0
 10
-0.8
 20
0.0
 30
0.0
 11
-1.0
 21
0.166666666
 31
0.0
 12
0.0
 22
0.0
 32
0.0
 13
0.0
 23
0.0
 33
0.0
  0
LINE
  5
390F
  8
AM_0
 62
     0
 10
-1.0
 20
0.0
 30
0.0
 11
-0.8
 21
0.0
 31
0.0
  0
ENDBLK
  5
390D
  8
0
  0
ENDSEC
  0
SECTION
  2
ENTITIES
  0
ARC
  5
34BD
  8
AM_0
 10
1064.515890331015
 20
371.28522306883769
 30
0.0
 40
15.0
 50
169.99998999999991
 51
270.0
  0
LINE
  5
34BE
  8
AM_0
 10
1091.0075353310151
 20
517.66718306883774
 30
0.0
 11
1055.424840331015
 21
406.10901306883761
 31
0.0
  0
LINE
  5
34BF
  8
AM_0
 10
1091.448850331014
 20
578.28522806883791
 30
0.0
 11
1020.639540331015
 21
356.28522306883798
 31
0.0
  0
LINE
  5
34C0
  8
AM_0
 10
1020.639640331014
 20
318.28522306883781
 30
0.0
 11
1110.639585331015
 21
318.28522306883781
 31
0.0
  0
LINE
  5
34C1
  8
AM_0
 10
1100.2472853310151
 20
356.28522306883798
 30
0.0
 11
1020.639640331014
 21
356.28522306883798
 31
0.0
  0
LINE
  5
34C2
  8
AM_0
 10
558.87202017687957
 20
749.28518306883745
 30
0.0
 11
558.87202017687957
 21
421.28522306883758
 31
0.0
  0
LINE
  5
34C3
  8
AM_0
 10
447.37202017687957
 20
652.68523306883765
 30
0.0
 11
447.37202017687957
 21
535.68524806883795
 31
0.0
  0
LINE
  5
34C4
  8
AM_0
 10
433.87202017687957
 20
653.68523306883765
 30
0.0
 11
433.87202017687957
 21
417.68524806883761
 31
0.0
  0
LINE
  5
34C5
  8
AM_0
 10
542.87207017687967
 20
745.28528306883743
 30
0.0
 11
542.87207017687967
 21
405.28522306883758
 31
0.0
  0
LINE
  5
34C6
  8
AM_0
 10
492.37202017687957
 20
652.43938306883786
 30
0.0
 11
492.37202017687957
 21
421.49976306883758
 31
0.0
  0
LINE
  5
34C7
  8
AM_0
 10
713.87202017687923
 20
704.9911330688376
 30
0.0
 11
713.87202017687923
 21
421.72391306883759
 31
0.0
  0
LINE
  5
34C8
  8
AM_0
 10
734.87202017687923
 20
670.28518306883791
 30
0.0
 11
734.87202017687923
 21
394.90524806883769
 31
0.0
  0
LINE
  5
34C9
  8
AM_0
 10
738.87202017687923
 20
657.45683306883791
 30
0.0
 11
738.87202017687923
 21
539.11365306883761
 31
0.0
  0
LINE
  5
34CA
  8
AM_0
 10
413.87202017687957
 20
635.767269068838
 30
0.0
 11
413.87202017687957
 21
662.68524806883795
 31
0.0
  0
ARC
  5
34CB
  8
AM_0
 10
408.87202017687957
 20
650.01678706883774
 30
0.0
 40
5.0
 50
310.0
 51
0.0
  0
LINE
  5
34CC
  8
AM_0
 10
583.87202017687957
 20
716.57113306883775
 30
0.0
 11
583.87202017687957
 21
642.97188306883766
 31
0.0
  0
LINE
  5
34CD
  8
AM_0
 10
688.87202017687923
 20
729.12033306883791
 30
0.0
 11
688.87202017687923
 21
598.28518306883791
 31
0.0
  0
LINE
  5
34CE
  8
AM_0
 10
580.87202017687969
 20
719.57113306883775
 30
0.0
 11
580.87202017687969
 21
639.97188306883766
 31
0.0
  0
LINE
  5
34CF
  8
AM_0
 10
412.08595817687961
 20
646.18656406883792
 30
0.0
 11
352.95541617687968
 21
596.57014906883785
 31
0.0
  0
LINE
  5
34D0
  8
AM_0
 10
412.08595817687961
 20
425.18393206883798
 30
0.0
 11
352.95541617687968
 21
474.80034806883799
 31
0.0
  0
LINE
  5
34D1
  8
ﾁｭｳｼﾝｾﾝ
 10
242.90241433683599
 20
535.68524806883761
 30
0.0
 11
537.48798742192776
 21
535.68524806883795
 31
0.0
  0
LINE
  5
34D2
  8
AM_0
 10
350.2427111768796
 20
591.31249006883775
 30
0.0
 11
350.2427111768796
 21
479.73130106883792
 31
0.0
  0
LINE
  5
34D3
  8
AM_0
 10
313.37202017687969
 20
570.68524806883795
 30
0.0
 11
313.37202017687969
 21
500.68524806883772
 31
0.0
  0
LINE
  5
34D4
  8
AM_0
 10
315.37202017687969
 20
590.73715706883775
 30
0.0
 11
315.37202017687969
 21
480.63334006883792
 31
0.0
  0
LINE
  5
34D5
  8
AM_0
 10
309.37202017687969
 20
555.68524806883795
 30
0.0
 11
309.37202017687969
 21
515.68524806883795
 31
0.0
  0
LINE
  5
34D6
  8
AM_0
 10
251.37202017687949
 20
553.18524806883795
 30
0.0
 11
251.37202017687949
 21
518.18524806883795
 31
0.0
  0
LINE
  5
34D7
  8
AM_0
 10
251.37202017687949
 20
518.18524806883795
 30
0.0
 11
309.37202017687969
 21
518.18524806883795
 31
0.0
  0
LINE
  5
34D8
  8
AM_0
 10
318.3196631768796
 20
477.63379706883802
 30
0.0
 11
346.7020641768799
 21
477.13838006883759
 31
0.0
  0
ARC
  5
34D9
  8
AM_0
 10
318.37202017687957
 20
480.63334006883792
 30
0.0
 40
3.0
 50
180.0
 51
268.99999999999812
  0
ARC
  5
34DA
  8
AM_0
 10
346.52754017687982
 20
467.1399030688379
 30
0.0
 40
10.0
 50
49.999999999999922
 51
89.000000000001506
  0
LINE
  5
34DB
  8
AM_0
 10
313.37202017687969
 20
500.68524806883772
 30
0.0
 11
315.37202017687969
 21
498.68524806883761
 31
0.0
  0
LINE
  5
34DC
  8
AM_0
 10
309.37202017687969
 20
515.68524806883795
 30
0.0
 11
313.37202017687969
 21
515.68524806883795
 31
0.0
  0
LINE
  5
34DD
  8
AM_0
 10
309.37202017687969
 20
553.18524806883795
 30
0.0
 11
251.37202017687949
 21
553.18524806883795
 31
0.0
  0
LINE
  5
34DE
  8
AM_0
 10
251.37202017687949
 20
556.18524806883795
 30
0.0
 11
296.37202017687969
 21
556.18524806883795
 31
0.0
  0
LINE
  5
34DF
  8
AM_0
 10
251.37202017687949
 20
556.18524806883795
 30
0.0
 11
251.37202017687949
 21
553.18524806883795
 31
0.0
  0
LINE
  5
34E0
  8
AM_0
 10
318.3196631768796
 20
593.73670006883799
 30
0.0
 11
346.7020641768799
 21
594.23211606883785
 31
0.0
  0
LINE
  5
34E1
  8
AM_0
 10
313.37202017687969
 20
570.68524806883795
 30
0.0
 11
315.37202017687969
 21
572.68524806883795
 31
0.0
  0
LINE
  5
34E2
  8
AM_0
 10
313.37202017687969
 20
555.68524806883795
 30
0.0
 11
309.37202017687969
 21
555.68524806883795
 31
0.0
  0
LINE
  5
34E3
  8
AM_0
 10
296.37202017687969
 20
556.18524806883795
 30
0.0
 11
296.37202017687969
 21
553.18524806883795
 31
0.0
  0
ARC
  5
34E4
  8
AM_0
 10
318.37202017687957
 20
590.73715706883775
 30
0.0
 40
3.0
 50
90.999999999998465
 51
180.0
  0
ARC
  5
34E5
  8
AM_0
 10
346.52754017687982
 20
604.23059306883795
 30
0.0
 40
10.0
 50
270.99999999999841
 51
310.0
  0
ARC
  5
34E6
  8
AM_0
 10
689.48587017687953
 20
376.28522306883758
 30
0.0
 40
20.000000499999999
 50
183.00001
 51
270.0
  0
LINE
  5
34E7
  8
AM_0
 10
669.2853701768795
 20
379.58698306883758
 30
0.0
 11
700.08717017687957
 21
381.8105230688376
 31
0.0
  0
LINE
  5
34E8
  8
AM_0
 10
438.87202017687957
 20
318.28522306883781
 30
0.0
 11
738.87202017687923
 21
318.28522306883781
 31
0.0
  0
LINE
  5
34E9
  8
ﾁｭｳｼﾝｾﾝ
 10
522.74577162747562
 20
598.28518306883791
 30
0.0
 11
857.85077017687945
 21
598.28518306883791
 31
0.0
  0
LINE
  5
34EA
  8
AM_0
 10
658.96812017687955
 20
576.45160806883769
 30
0.0
 11
669.51327017687993
 21
375.23849806883771
 31
0.0
  0
LINE
  5
34EB
  8
AM_0
 10
405.40846617687959
 20
439.07363806883791
 30
0.0
 11
403.79187817687989
 21
451.17627606883792
 31
0.0
  0
LINE
  5
34EC
  8
AM_0
 10
405.87202017687957
 20
451.1595770688379
 30
0.0
 11
405.87202017687957
 21
440.41352806883799
 31
0.0
  0
LINE
  5
34ED
  8
AM_0
 10
431.87202017687957
 20
435.60322806883772
 30
0.0
 11
431.87202017687957
 21
483.60643506883798
 31
0.0
  0
LINE
  5
34EE
  8
AM_0
 10
447.37202017687957
 20
418.6852180688378
 30
0.0
 11
447.37202017687957
 21
535.68524806883795
 31
0.0
  0
LINE
  5
34EF
  8
AM_0
 10
568.87202017687969
 20
534.28525806883761
 30
0.0
 11
568.87202017687969
 21
439.56952306883761
 31
0.0
  0
LINE
  5
34F0
  8
AM_0
 10
563.01417017687993
 20
425.4273730688376
 30
0.0
 11
501.1943701768796
 21
363.60757806883771
 31
0.0
  0
LINE
  5
34F1
  8
ﾁｭｳｼﾝｾﾝ1
 10
473.87202017687957
 20
366.28522306883798
 30
0.0
 11
473.87202017687957
 21
308.28522306883781
 31
0.0
  0
LINE
  5
34F2
  8
AM_0
 10
438.87202017687957
 20
352.28522306883798
 30
0.0
 11
438.87202017687957
 21
318.28522306883781
 31
0.0
  0
LINE
  5
34F3
  8
ｶｸﾚｾﾝ2
 10
485.87203517687982
 20
356.28522306883798
 30
0.0
 11
485.87203517687982
 21
318.28522306883781
 31
0.0
  0
LINE
  5
34F4
  8
ｶｸﾚｾﾝ2
 10
461.87203517687959
 20
356.28522306883798
 30
0.0
 11
461.87203517687959
 21
318.28522306883781
 31
0.0
  0
LINE
  5
34F5
  8
AM_0
 10
447.88082017687981
 20
419.67633806883771
 30
0.0
 11
488.44187017687932
 21
418.96832806883759
 31
0.0
  0
LINE
  5
34F6
  8
AM_0
 10
447.37202017687957
 20
444.60227306883797
 30
0.0
 11
492.37202017687957
 21
444.60227306883797
 31
0.0
  0
LINE
  5
34F7
  8
AM_0
 10
442.87207017687967
 20
356.28522306883798
 30
0.0
 11
483.5166701768793
 21
356.28522306883798
 31
0.0
  0
ARC
  5
34F8
  8
AM_0
 10
442.87207017687967
 20
352.28522306883798
 30
0.0
 40
4.000000049999997
 50
90.000003000000007
 51
180.00001
  0
ARC
  5
34F9
  8
AM_0
 10
408.87202017687957
 20
421.35371006883793
 30
0.0
 40
5.0
 50
0.0
 51
49.999999999999922
  0
LINE
  5
34FA
  8
AM_0
 10
431.87202017687957
 20
435.60322806883772
 30
0.0
 11
409.37325317687959
 21
435.60322806883772
 31
0.0
  0
ARC
  5
34FB
  8
AM_0
 10
409.37325317687959
 20
439.60322806883801
 30
0.0
 40
4.0
 50
187.60814799999741
 51
270.0
  0
LINE
  5
34FC
  8
AM_0
 10
413.87202017687957
 20
419.68524806883778
 30
0.0
 11
413.87202017687957
 21
435.60322806883772
 31
0.0
  0
LINE
  5
34FD
  8
AM_0
 10
417.87202017687957
 20
415.68524806883778
 30
0.0
 11
431.87202017687957
 21
415.68524806883778
 31
0.0
  0
ARC
  5
34FE
  8
AM_0
 10
417.87202017687957
 20
419.68524806883778
 30
0.0
 40
4.0
 50
180.0
 51
270.0
  0
ARC
  5
34FF
  8
AM_0
 10
446.37202017687957
 20
418.6852180688378
 30
0.0
 40
1.0
 50
270.0
 51
0.0
  0
ARC
  5
3500
  8
AM_0
 10
447.87207017687962
 20
419.17639806883761
 30
0.0
 40
0.5
 50
89.000000999999969
 51
180.00001
  0
LINE
  5
3501
  8
AM_0
 10
431.87202017687957
 20
415.68524806883778
 30
0.0
 11
433.87202017687957
 21
417.68524806883778
 31
0.0
  0
LINE
  5
3502
  8
AM_0
 10
433.87202017687957
 20
417.68524806883761
 30
0.0
 11
446.37202017687957
 21
417.68524806883761
 31
0.0
  0
ARC
  5
3503
  8
AM_0
 10
445.37207017687962
 20
437.95804306883758
 30
0.0
 40
2.0000000500000001
 50
270.0
 51
0.0
  0
LINE
  5
3504
  8
AM_0
 10
431.87202017687957
 20
435.60322806883772
 30
0.0
 11
433.87202017687957
 21
437.60322806883778
 31
0.0
  0
LINE
  5
3505
  8
AM_0
 10
433.87202017687957
 20
435.9580130688376
 30
0.0
 11
445.37207017687962
 21
435.9580130688376
 31
0.0
  0
ARC
  5
3506
  8
AM_0
 10
502.37202017687957
 20
398.9394280688378
 30
0.0
 40
10.0
 50
179.99998999999991
 51
238.96955
  0
ARC
  5
3507
  8
AM_0
 10
483.5166701768793
 20
381.28522306883758
 30
0.0
 40
25.000000499999999
 50
270.0
 51
315.0
  0
LINE
  5
3508
  8
AM_0
 10
516.41072017687975
 20
378.82394806883769
 30
0.0
 11
497.21707017687959
 21
390.37051806883773
 31
0.0
  0
ARC
  5
3509
  8
AM_0
 10
488.37202017687957
 20
414.9689380688377
 30
0.0
 40
4.000000049999997
 50
0.0
 51
89.000000999999969
  0
LINE
  5
350A
  8
AM_0
 10
492.37202017687957
 20
414.9689380688377
 30
0.0
 11
492.37202017687957
 21
398.9394280688378
 31
0.0
  0
ARC
  5
350B
  8
AM_0
 10
548.87202017687969
 20
439.56952306883761
 30
0.0
 40
20.000000499999999
 50
315.0
 51
0.0
  0
LINE
  5
350C
  8
AM_0
 10
413.87202017687957
 20
607.64744906883777
 30
0.0
 11
413.87202017687957
 21
451.1595770688379
 31
0.0
  0
LINE
  5
350D
  8
AM_0
 10
447.37202017687957
 20
463.85281806883768
 30
0.0
 11
492.37202017687957
 21
463.85281806883768
 31
0.0
  0
LINE
  5
350E
  8
AM_0
 10
403.4442121768796
 20
472.82071906883772
 30
0.0
 11
413.32838417687981
 21
472.82071906883772
 31
0.0
  0
LINE
  5
350F
  8
AM_0
 10
413.87202017687957
 20
451.1595770688379
 30
0.0
 11
409.44874117687942
 21
451.1595770688379
 31
0.0
  0
ARC
  5
3510
  8
AM_0
 10
400.76167117687959
 20
469.82071906883772
 30
0.0
 40
3.0
 50
6.3950930000004771
 51
71.538410999999911
  0
ARC
  5
3511
  8
AM_0
 10
409.44874117687942
 20
455.15957706883768
 30
0.0
 40
4.0
 50
186.39509300000049
 51
270.0
  0
LINE
  5
3512
  8
AM_0
 10
403.4442121768796
 20
453.7790840688379
 30
0.0
 11
403.4442121768796
 21
468.56875306883802
 31
0.0
  0
ARC
  5
3513
  8
AM_0
 10
400.81828817687961
 20
450.7790840688379
 30
0.0
 40
3.0
 50
7.6081479999975583
 51
68.357691000001253
  0
LINE
  5
3514
  8
AM_0
 10
405.47363117687962
 20
454.71404206883773
 30
0.0
 11
403.74300417687982
 21
470.15487106883791
 31
0.0
  0
ARC
  5
3515
  8
AM_0
 10
445.37207017687962
 20
453.5143780688378
 30
0.0
 40
2.0000000500000001
 50
270.0
 51
0.0
  0
LINE
  5
3516
  8
AM_0
 10
433.87202017687957
 20
451.51434806883782
 30
0.0
 11
445.37207017687962
 21
451.51434806883782
 31
0.0
  0
LINE
  5
3517
  8
AM_0
 10
435.35092017687958
 20
461.24829806883798
 30
0.0
 11
446.37982017687932
 21
461.24829806883798
 31
0.0
  0
LINE
  5
3518
  8
AM_0
 10
419.12485217687959
 20
483.60643506883798
 30
0.0
 11
431.87202017687957
 21
483.60643506883798
 31
0.0
  0
ARC
  5
3519
  8
AM_0
 10
417.87202017687957
 20
487.60643506883798
 30
0.0
 40
4.0
 50
180.0
 51
270.0
  0
LINE
  5
351A
  8
AM_0
 10
415.40701617687921
 20
490.05918506883762
 30
0.0
 11
430.23129617687982
 21
490.05918506883762
 31
0.0
  0
LINE
  5
351B
  8
AM_0
 10
431.87202017687957
 20
483.60643506883798
 30
0.0
 11
433.87202017687957
 21
485.60643506883792
 31
0.0
  0
LINE
  5
351C
  8
AM_0
 10
447.37202017687957
 20
607.51763306883765
 30
0.0
 11
492.37202017687957
 21
607.51763306883765
 31
0.0
  0
LINE
  5
351D
  8
AM_0
 10
447.37202017687957
 20
626.76818306883786
 30
0.0
 11
492.37202017687957
 21
626.76818306883786
 31
0.0
  0
LINE
  5
351E
  8
AM_0
 10
403.4442121768796
 20
598.5497780688379
 30
0.0
 11
413.32838417687981
 21
598.5497780688379
 31
0.0
  0
LINE
  5
351F
  8
AM_0
 10
431.87202017687957
 20
620.21092006883805
 30
0.0
 11
409.44874117687942
 21
620.21092006883805
 31
0.0
  0
LINE
  5
3520
  8
AM_0
 10
431.87202017687957
 20
635.767269068838
 30
0.0
 11
409.37325317687959
 21
635.767269068838
 31
0.0
  0
LINE
  5
3521
  8
AM_0
 10
405.87202017687957
 20
620.21092006883805
 30
0.0
 11
405.87202017687957
 21
630.95696906883791
 31
0.0
  0
LINE
  5
3522
  8
AM_0
 10
405.40846617687959
 20
632.29685806883799
 30
0.0
 11
403.79187817687989
 21
620.19422006883815
 31
0.0
  0
ARC
  5
3523
  8
AM_0
 10
409.44874117687942
 20
616.21092006883805
 30
0.0
 40
4.0
 50
90.0
 51
173.60490699999951
  0
ARC
  5
3524
  8
AM_0
 10
400.76167117687959
 20
601.54977806883755
 30
0.0
 40
3.0
 50
288.461589
 51
353.6049069999994
  0
LINE
  5
3525
  8
AM_0
 10
403.4442121768796
 20
617.59141206883805
 30
0.0
 11
403.4442121768796
 21
602.80174306883794
 31
0.0
  0
ARC
  5
3526
  8
AM_0
 10
400.81828817687961
 20
620.59141206883805
 30
0.0
 40
3.0
 50
291.6423089999987
 51
352.3918520000023
  0
LINE
  5
3527
  8
AM_0
 10
405.47363117687962
 20
616.656455068838
 30
0.0
 11
403.74300417687982
 21
601.21562606883799
 31
0.0
  0
ARC
  5
3528
  8
AM_0
 10
409.37325317687959
 20
631.767269068838
 30
0.0
 40
4.0
 50
90.0
 51
172.39185199999591
  0
LINE
  5
3529
  8
AM_0
 10
431.87202017687957
 20
635.767269068838
 30
0.0
 11
431.87202017687957
 21
620.21092006883805
 31
0.0
  0
LINE
  5
352A
  8
AM_0
 10
417.87202017687957
 20
611.64744906883789
 30
0.0
 11
431.87202017687957
 21
611.64744906883789
 31
0.0
  0
ARC
  5
352B
  8
AM_0
 10
417.87202017687957
 20
607.64744906883777
 30
0.0
 40
4.0
 50
90.0
 51
180.0
  0
ARC
  5
352C
  8
AM_0
 10
445.37207017687962
 20
617.85613306883761
 30
0.0
 40
2.0000000500000001
 50
0.0
 51
90.000003000000007
  0
LINE
  5
352D
  8
AM_0
 10
431.87202017687957
 20
620.21092006883805
 30
0.0
 11
433.87202017687957
 21
618.21092006883805
 31
0.0
  0
LINE
  5
352E
  8
AM_0
 10
435.35092017687958
 20
610.1221830688379
 30
0.0
 11
446.37982017687932
 21
610.1221830688379
 31
0.0
  0
LINE
  5
352F
  8
AM_0
 10
433.87202017687957
 20
619.85603306883775
 30
0.0
 11
445.37207017687962
 21
619.85603306883775
 31
0.0
  0
ARC
  5
3530
  8
AM_0
 10
445.37207017687962
 20
633.41243306883769
 30
0.0
 40
2.0000000500000001
 50
0.0
 51
90.000003000000007
  0
LINE
  5
3531
  8
AM_0
 10
431.87202017687957
 20
635.767269068838
 30
0.0
 11
433.87202017687957
 21
633.76726906883778
 31
0.0
  0
LINE
  5
3532
  8
AM_0
 10
433.87202017687957
 20
635.41243306883791
 30
0.0
 11
445.37207017687962
 21
635.41243306883791
 31
0.0
  0
LINE
  5
3533
  8
AM_0
 10
583.87202017687957
 20
604.37948306883754
 30
0.0
 11
583.87202017687957
 21
542.28522306883758
 31
0.0
  0
LINE
  5
3534
  8
AM_0
 10
580.87202017687969
 20
607.37948306883766
 30
0.0
 11
580.87202017687969
 21
538.41223806883761
 31
0.0
  0
LINE
  5
3535
  8
AM_0
 10
558.87202017687957
 20
482.28522306883758
 30
0.0
 11
568.87202017687969
 21
482.28522306883758
 31
0.0
  0
LINE
  5
3536
  8
AM_0
 10
558.87202017687957
 20
448.28522306883781
 30
0.0
 11
568.87202017687969
 21
448.28522306883781
 31
0.0
  0
LINE
  5
3537
  8
AM_0
 10
542.87207017687967
 20
448.28522306883781
 30
0.0
 11
558.87202017687957
 21
448.28522306883781
 31
0.0
  0
LINE
  5
3538
  8
AM_0
 10
542.87207017687967
 20
482.28522306883758
 30
0.0
 11
558.87202017687957
 21
482.28522306883758
 31
0.0
  0
ARC
  5
3539
  8
AM_0
 10
579.87202017687957
 20
542.28522306883758
 30
0.0
 40
4.000000049999997
 50
270.0
 51
0.0
  0
ARC
  5
353A
  8
AM_0
 10
572.87207017687956
 20
534.28525806883761
 30
0.0
 40
4.000000049999997
 50
90.000003000000007
 51
180.00001
  0
LINE
  5
353B
  8
AM_0
 10
572.87207017687956
 20
538.28522306883769
 30
0.0
 11
579.87202017687957
 21
538.28522306883769
 31
0.0
  0
LINE
  5
353C
  8
AM_0
 10
583.87202017687957
 20
642.97188306883766
 30
0.0
 11
612.21517017687984
 21
642.97188306883766
 31
0.0
  0
LINE
  5
353D
  8
AM_0
 10
583.87202017687957
 20
604.37948306883754
 30
0.0
 11
612.21517017687984
 21
604.37948306883754
 31
0.0
  0
LINE
  5
353E
  8
AM_0
 10
587.90077017687963
 20
578.28522806883791
 30
0.0
 11
655.42777017687956
 21
578.28522806883791
 31
0.0
  0
LINE
  5
353F
  8
AM_0
 10
580.87202017687969
 20
607.37948306883766
 30
0.0
 11
558.87202017687957
 21
607.37948306883766
 31
0.0
  0
LINE
  5
3540
  8
AM_0
 10
580.87202017687969
 20
639.97188306883766
 30
0.0
 11
558.87202017687957
 21
639.97188306883766
 31
0.0
  0
LINE
  5
3541
  8
AM_0
 10
558.87202017687957
 20
607.37948306883766
 30
0.0
 11
542.87207017687967
 21
607.37948306883766
 31
0.0
  0
LINE
  5
3542
  8
AM_0
 10
558.87202017687957
 20
639.97188306883766
 30
0.0
 11
542.87207017687967
 21
639.97188306883766
 31
0.0
  0
LINE
  5
3543
  8
AM_0
 10
583.87202017687957
 20
604.37948306883754
 30
0.0
 11
580.87202017687969
 21
607.37948306883766
 31
0.0
  0
LINE
  5
3544
  8
AM_0
 10
583.87207017687967
 20
642.97188306883766
 30
0.0
 11
580.87207017687956
 21
639.97188306883766
 31
0.0
  0
LINE
  5
3545
  8
AM_0
 10
660.19992017687935
 20
579.55343306883765
 30
0.0
 11
663.17907017687935
 21
582.39903306883787
 31
0.0
  0
ARC
  5
3546
  8
AM_0
 10
662.96262017687968
 20
576.66092806883785
 30
0.0
 40
4.000000049999997
 50
133.6857399999999
 51
183.0
  0
ARC
  5
3547
  8
AM_0
 10
627.51142017687971
 20
623.67568306883788
 30
0.0
 40
4.000000049999997
 50
315.0
 51
45.00000099999999
  0
LINE
  5
3548
  8
AM_0
 10
613.87202017687969
 20
640.4304830688377
 30
0.0
 11
613.87202017687969
 21
607.31638306883758
 31
0.0
  0
LINE
  5
3549
  8
AM_0
 10
615.04362017687993
 20
605.5510830688379
 30
0.0
 11
630.33982017687947
 21
620.84733306883766
 31
0.0
  0
ARC
  5
354A
  8
AM_0
 10
612.21517017687984
 20
608.37948306883754
 30
0.0
 40
4.000000049999997
 50
270.0
 51
315.0
  0
LINE
  5
354B
  8
AM_0
 10
615.04362017687993
 20
641.80033306883774
 30
0.0
 11
630.33982017687947
 21
626.50413306883775
 31
0.0
  0
ARC
  5
354C
  8
AM_0
 10
612.21517017687984
 20
638.97198306883774
 30
0.0
 40
4.000000049999997
 50
45.00000099999999
 51
90.000003000000007
  0
ARC
  5
354D
  8
AM_0
 10
2945.1166201768792
 20
620.35168306883793
 30
0.0
 40
2256.3525499999992
 50
180.56034
 51
186.00566000000001
  0
LINE
  5
354E
  8
AM_0
 10
738.87202017687923
 20
318.28522306883781
 30
0.0
 11
738.87202017687923
 21
352.28522306883798
 31
0.0
  0
LINE
  5
354F
  8
ﾁｭｳｼﾝｾﾝ1
 10
703.87202017687923
 20
366.28522306883798
 30
0.0
 11
703.87202017687923
 21
308.28522306883781
 31
0.0
  0
LINE
  5
3550
  8
ｶｸﾚｾﾝ2
 10
715.87203517687942
 20
356.28522306883798
 30
0.0
 11
715.87203517687942
 21
318.28522306883781
 31
0.0
  0
LINE
  5
3551
  8
ｶｸﾚｾﾝ2
 10
691.87203517687942
 20
356.28522306883798
 30
0.0
 11
691.87203517687942
 21
318.28522306883781
 31
0.0
  0
LINE
  5
3552
  8
AM_0
 10
734.87202017687923
 20
356.28522306883798
 30
0.0
 11
732.28787017687944
 21
430.28696306883762
 31
0.0
  0
LINE
  5
3553
  8
AM_0
 10
713.87202017687923
 20
414.87830306883768
 30
0.0
 11
713.87202017687923
 21
391.13449806883767
 31
0.0
  0
LINE
  5
3554
  8
AM_0
 10
689.48587017687953
 20
356.28522306883798
 30
0.0
 11
734.87202017687923
 21
356.28522306883798
 31
0.0
  0
LINE
  5
3555
  8
AM_0
 10
702.61102017687961
 20
382.4147680688377
 30
0.0
 11
710.19692017687942
 21
385.60324806883767
 31
0.0
  0
ARC
  5
3556
  8
AM_0
 10
699.5111701768792
 20
389.7897680688377
 30
0.0
 40
8.0
 50
274.1289799999999
 51
292.79777999999982
  0
ARC
  5
3557
  8
AM_0
 10
707.87207017687945
 20
391.13449806883767
 30
0.0
 40
6.0
 50
292.79777999999982
 51
0.0
  0
ARC
  5
3558
  8
AM_0
 10
734.87202017687923
 20
352.28522306883798
 30
0.0
 40
4.000000049999997
 50
0.0
 51
90.000003000000007
  0
LINE
  5
3559
  8
AM_0
 10
716.69422017687975
 20
419.9677180688376
 30
0.0
 11
730.41952017687981
 21
428.53781806883762
 31
0.0
  0
ARC
  5
355A
  8
AM_0
 10
719.87202017687923
 20
414.87830306883768
 30
0.0
 40
6.0
 50
121.98072999999999
 51
180.00001
  0
LINE
  5
355B
  8
AM_0
 10
734.87202017687923
 20
394.90524806883769
 30
0.0
 11
733.52342017687943
 21
394.90524806883769
 31
0.0
  0
LINE
  5
355C
  8
AM_0
 10
732.28787017687944
 20
430.28693306883758
 30
0.0
 11
733.33542017687944
 21
432.46542806883758
 31
0.0
  0
LINE
  5
355D
  8
ｶｸﾚｾﾝ2
 10
1053.6396553310151
 20
356.28522306883798
 30
0.0
 11
1053.6396553310151
 21
318.28522306883781
 31
0.0
  0
LINE
  5
355E
  8
AM_0
 10
1020.639640331014
 20
356.28522306883798
 30
0.0
 11
1020.639640331014
 21
318.28522306883781
 31
0.0
  0
LINE
  5
355F
  8
AM_0
 10
1049.743740331015
 20
373.88995806883798
 30
0.0
 11
1055.424840331015
 21
406.10901306883761
 31
0.0
  0
LINE
  5
3560
  8
AM_0
 10
745.87202017687946
 20
633.28518306883791
 30
0.0
 11
855.87202017687923
 21
633.28518306883791
 31
0.0
  0
LINE
  5
3561
  8
AM_0
 10
855.87202017687923
 20
563.28522806883768
 30
0.0
 11
745.87202017687946
 21
563.28522806883768
 31
0.0
  0
LINE
  5
3562
  8
AM_0
 10
770.87202017687946
 20
637.78518306883791
 30
0.0
 11
855.87202017687923
 21
637.78518306883791
 31
0.0
  0
ARC
  5
3563
  8
AM_0
 10
736.87202017687923
 20
539.11365306883761
 30
0.0
 40
2.0000000500000001
 50
315.0
 51
0.0
  0
LINE
  5
3564
  8
AM_0
 10
738.28622017687928
 20
537.69943806883771
 30
0.0
 11
734.87202017687923
 21
534.28522306883769
 31
0.0
  0
LINE
  5
3565
  8
AM_0
 10
745.87202017687946
 20
635.78518306883791
 30
0.0
 11
745.87202017687946
 21
560.78522306883769
 31
0.0
  0
LINE
  5
3566
  8
AM_0
 10
745.87202017687946
 20
560.78522306883769
 30
0.0
 11
738.87202017687923
 21
560.78522306883769
 31
0.0
  0
LINE
  5
3567
  8
AM_0
 10
738.87202017687923
 20
635.78518306883791
 30
0.0
 11
745.87202017687946
 21
635.78518306883791
 31
0.0
  0
LINE
  5
3568
  8
AM_0
 10
770.87202017687946
 20
633.28518306883791
 30
0.0
 11
770.87202017687946
 21
637.78518306883791
 31
0.0
  0
LINE
  5
3569
  8
AM_0
 10
855.87202017687923
 20
633.28518306883791
 30
0.0
 11
855.87202017687923
 21
563.28522806883768
 31
0.0
  0
LINE
  5
356A
  8
AM_0
 10
855.87202017687923
 20
637.78518306883791
 30
0.0
 11
855.87202017687923
 21
633.28518306883791
 31
0.0
  0
ARC
  5
356B
  8
AM_0
 10
682.01492017687985
 20
720.84823306883777
 30
0.0
 40
16.0
 50
45.00000099999999
 51
88.0
  0
LINE
  5
356C
  8
AM_0
 10
536.87202017687957
 20
761.78513306883769
 30
0.0
 11
526.89332017687946
 21
760.65618306883755
 31
0.0
  0
LINE
  5
356D
  8
AM_0
 10
558.87202017687957
 20
749.28518306883745
 30
0.0
 11
516.87202017687957
 21
749.28518306883745
 31
0.0
  0
CIRCLE
  5
356E
  8
AM_0
 10
536.87202017687957
 20
779.28518306883768
 30
0.0
 40
17.500000499999992
  0
LINE
  5
356F
  8
AM_0
 10
547.96102017687963
 20
760.28528306883777
 30
0.0
 11
525.78302017687929
 21
760.28528306883777
 31
0.0
  0
ARC
  5
3570
  8
AM_0
 10
536.87202017687957
 20
779.28518306883768
 30
0.0
 40
30.000000499999999
 50
304.59870999999998
 51
235.4012899999999
  0
LINE
  5
3571
  8
AM_0
 10
541.35567017687981
 20
722.08408306883791
 30
0.0
 11
496.16302017687929
 21
686.2879330688379
 31
0.0
  0
LINE
  5
3572
  8
AM_0
 10
516.87202017687957
 20
749.28518306883745
 30
0.0
 11
516.87202017687957
 21
704.62563306883749
 31
0.0
  0
LINE
  5
3573
  8
AM_0
 10
447.88077017687959
 20
651.69413306883769
 30
0.0
 11
487.45922017687963
 21
652.38493306883788
 31
0.0
  0
LINE
  5
3574
  8
AM_0
 10
429.87202017687957
 20
666.68524806883795
 30
0.0
 11
431.87202017687957
 21
664.68524806883795
 31
0.0
  0
ARC
  5
3575
  8
AM_0
 10
417.87202017687957
 20
662.68524806883795
 30
0.0
 40
4.0
 50
90.0
 51
180.0
  0
LINE
  5
3576
  8
AM_0
 10
414.61070017687962
 20
654.61641906883779
 30
0.0
 11
430.87300817687952
 21
654.61641906883779
 31
0.0
  0
LINE
  5
3577
  8
AM_0
 10
417.87202017687957
 20
666.68524806883795
 30
0.0
 11
429.87202017687957
 21
666.68524806883795
 31
0.0
  0
ARC
  5
3578
  8
AM_0
 10
447.87207017687962
 20
652.1940330688376
 30
0.0
 40
0.5
 50
179.99998999999991
 51
271.0
  0
ARC
  5
3579
  8
AM_0
 10
446.37202017687957
 20
652.68523306883765
 30
0.0
 40
1.0
 50
0.0
 51
90.000003000000007
  0
LINE
  5
357A
  8
AM_0
 10
431.87202017687957
 20
664.68524806883795
 30
0.0
 11
431.87202017687957
 21
655.68524806883795
 31
0.0
  0
LINE
  5
357B
  8
AM_0
 10
431.87202017687957
 20
655.68524806883795
 30
0.0
 11
433.87202017687957
 21
653.68524806883795
 31
0.0
  0
LINE
  5
357C
  8
AM_0
 10
433.87202017687957
 20
653.68523306883765
 30
0.0
 11
446.37202017687957
 21
653.68523306883765
 31
0.0
  0
ARC
  5
357D
  8
AM_0
 10
487.37202017687957
 20
657.38418306883761
 30
0.0
 40
5.0
 50
271.0
 51
0.0
  0
LINE
  5
357E
  8
AM_0
 10
492.37202017687957
 20
678.44908306883792
 30
0.0
 11
492.37202017687957
 21
657.38418306883761
 31
0.0
  0
ARC
  5
357F
  8
AM_0
 10
502.37202017687957
 20
678.44908306883792
 30
0.0
 40
10.0
 50
128.38201000000001
 51
180.00001
  0
ARC
  5
3580
  8
AM_0
 10
512.87207017687967
 20
704.62563306883749
 30
0.0
 40
4.000000049999997
 50
308.38200999999998
 51
0.0
  0
LINE
  5
3581
  8
AM_0
 10
523.0979701768797
 20
757.02588306883774
 30
0.0
 11
521.87202017687957
 21
749.28528306883754
 31
0.0
  0
ARC
  5
3582
  8
AM_0
 10
527.89607017687956
 20
755.80888306883742
 30
0.0
 40
4.949999899999999
 50
101.68763
 51
165.76742999999999
  0
ARC
  5
3583
  8
AM_0
 10
516.99812017687964
 20
750.47503306883743
 30
0.0
 40
5.0
 50
351.0
 51
55.401290000000017
  0
ARC
  5
3584
  8
AM_0
 10
546.87202017687957
 20
745.28528306883743
 30
0.0
 40
4.000000049999997
 50
90.000003000000007
 51
180.00001
  0
ARC
  5
3585
  8
AM_0
 10
578.70977017687983
 20
746.28528306883754
 30
0.0
 40
3.0000000500000001
 50
18.434948999999971
 51
90.000003000000007
  0
ARC
  5
3586
  8
AM_0
 10
607.33687017687953
 20
747.28528306883777
 30
0.0
 40
2.0000000500000001
 50
14.981598
 51
90.000003000000007
  0
LINE
  5
3587
  8
AM_0
 10
583.87202017687957
 20
716.57113306883775
 30
0.0
 11
612.21517017687984
 21
716.57113306883775
 31
0.0
  0
LINE
  5
3588
  8
AM_0
 10
558.87202017687957
 20
743.28518306883768
 30
0.0
 11
612.21517017687984
 21
743.28518306883768
 31
0.0
  0
LINE
  5
3589
  8
AM_0
 10
580.87202017687969
 20
719.57113306883775
 30
0.0
 11
558.87202017687957
 21
719.57113306883775
 31
0.0
  0
ARC
  5
358A
  8
AM_0
 10
538.87202017687969
 20
725.21963306883754
 30
0.0
 40
4.000000049999997
 50
308.38200999999998
 51
0.0
  0
LINE
  5
358B
  8
AM_0
 10
558.87202017687957
 20
719.57113306883775
 30
0.0
 11
542.87207017687967
 21
719.57113306883775
 31
0.0
  0
LINE
  5
358C
  8
AM_0
 10
542.87207017687967
 20
743.28518306883768
 30
0.0
 11
558.87202017687957
 21
743.28518306883768
 31
0.0
  0
LINE
  5
358D
  8
AM_0
 10
583.87202017687957
 20
716.57113306883775
 30
0.0
 11
580.87202017687969
 21
719.57113306883775
 31
0.0
  0
LINE
  5
358E
  8
AM_0
 10
581.55582017687993
 20
747.23388306883794
 30
0.0
 11
582.87202017687923
 21
743.28518306883768
 31
0.0
  0
LINE
  5
358F
  8
AM_0
 10
580.87202017687969
 20
747.33058306883754
 30
0.0
 11
580.87202017687969
 21
743.28518306883768
 31
0.0
  0
LINE
  5
3590
  8
AM_0
 10
618.06612017687985
 20
739.09118306883772
 30
0.0
 11
682.57332017687975
 21
736.83848306883772
 31
0.0
  0
LINE
  5
3591
  8
AM_0
 10
613.87202017687969
 20
740.49313306883789
 30
0.0
 11
613.87202017687969
 21
719.95293306883775
 31
0.0
  0
LINE
  5
3592
  8
AM_0
 10
615.04362017687993
 20
717.7426330688379
 30
0.0
 11
624.40067017687932
 21
727.09973306883774
 31
0.0
  0
ARC
  5
3593
  8
AM_0
 10
612.21517017687984
 20
720.57113306883775
 30
0.0
 40
4.000000049999997
 50
270.0
 51
315.0
  0
ARC
  5
3594
  8
AM_0
 10
621.57222017687945
 20
729.92818306883771
 30
0.0
 40
4.000000049999997
 50
315.0
 51
45.00000099999999
  0
LINE
  5
3595
  8
AM_0
 10
609.26887017687932
 20
747.8022830688376
 30
0.0
 11
610.47767017687966
 21
743.28528306883777
 31
0.0
  0
ARC
  5
3596
  8
AM_0
 10
612.21517017687984
 20
739.28518306883768
 30
0.0
 40
4.000000049999997
 50
45.00000099999999
 51
90.000003000000007
  0
LINE
  5
3597
  8
AM_0
 10
615.04362017687993
 20
742.11368306883753
 30
0.0
 11
624.40067017687932
 21
732.75658306883793
 31
0.0
  0
LINE
  5
3598
  8
AM_0
 10
607.33687017687953
 20
749.28518306883745
 30
0.0
 11
558.87202017687957
 21
749.28518306883745
 31
0.0
  0
ARC
  5
3599
  8
AM_0
 10
545.8479701768797
 20
755.80888306883742
 30
0.0
 40
4.949999899999999
 50
14.23256799999999
 51
78.312367000000023
  0
LINE
  5
359A
  8
AM_0
 10
546.85072017687969
 20
760.65623306883742
 30
0.0
 11
536.87202017687957
 21
761.78518306883745
 31
0.0
  0
LINE
  5
359B
  8
AM_0
 10
551.87202017687969
 20
749.28528306883754
 30
0.0
 11
550.64602017687957
 21
757.02588306883774
 31
0.0
  0
ARC
  5
359C
  8
AM_0
 10
556.74587017687963
 20
750.47503306883743
 30
0.0
 40
5.0
 50
124.59872
 51
189.0
  0
LINE
  5
359D
  8
AM_0
 10
721.87202017687923
 20
678.28518306883791
 30
0.0
 11
726.87202017687923
 21
678.28518306883791
 31
0.0
  0
ARC
  5
359E
  8
AM_0
 10
721.87202017687923
 20
686.28518306883791
 30
0.0
 40
8.0
 50
179.99998999999991
 51
270.0
  0
ARC
  5
359F
  8
AM_0
 10
726.87202017687923
 20
670.28518306883791
 30
0.0
 40
8.0
 50
0.0
 51
90.000003000000007
  0
ARC
  5
35A0
  8
AM_0
 10
736.87202017687923
 20
657.45683306883791
 30
0.0
 40
2.0000000500000001
 50
0.0
 51
45.00000099999999
  0
LINE
  5
35A1
  8
AM_0
 10
738.28627017687916
 20
658.87103306883785
 30
0.0
 11
734.87202017687923
 21
662.28518306883791
 31
0.0
  0
LINE
  5
35A2
  8
AM_0
 10
693.32862017687955
 20
732.16188306883771
 30
0.0
 11
709.18577017687937
 21
716.30483306883775
 31
0.0
  0
ARC
  5
35A3
  8
AM_0
 10
697.87207017687945
 20
704.9911330688376
 30
0.0
 40
16.0
 50
0.0
 51
45.00000099999999
  0
ARC
  5
35A4
  8
AM_0
 10
1245.639590331014
 20
588.28523306883756
 30
0.0
 40
152.0
 50
22.003158999999989
 51
54.91053100000002
  0
ARC
  5
35A5
  8
AM_0
 10
1245.639590331014
 20
588.28523306883756
 30
0.0
 40
161.0
 50
20.248804
 51
56.69875600000001
  0
ARC
  5
35A6
  8
AM_0
 10
1245.639590331014
 20
598.28518306883791
 30
0.0
 40
80.0
 50
14.393765
 51
165.60623000000001
  0
ARC
  5
35A7
  8
AM_0
 10
1245.639590331014
 20
588.28523306883756
 30
0.0
 40
161.0
 50
123.30124000000001
 51
159.75120000000001
  0
ARC
  5
35A8
  8
AM_0
 10
1245.639590331014
 20
588.28523306883756
 30
0.0
 40
152.0
 50
125.08946
 51
157.99683999999999
  0
ARC
  5
35A9
  8
AM_0
 10
1245.639590331014
 20
588.28523306883756
 30
0.0
 40
147.23598000000001
 50
351.58611999999982
 51
188.41388000000001
  0
ARC
  5
35AA
  8
AM_0
 10
1245.639590331014
 20
588.28523306883756
 30
0.0
 40
122.8288349999999
 50
356.91789
 51
183.0821099999998
  0
CIRCLE
  5
35AB
  8
AM_0
 10
1245.639590331014
 20
598.28518306883791
 30
0.0
 40
60.0
  0
LINE
  5
35AC
  8
ﾁｭｳｼﾝｾﾝ
 10
1245.639590331014
 20
814.28518306883768
 30
0.0
 11
1245.639590331014
 21
315.58221806883768
 31
0.0
  0
LINE
  5
35AD
  8
AM_0
 10
1392.475255331015
 20
363.78522306883798
 30
0.0
 11
1357.6609053310151
 21
424.0854230688376
 31
0.0
  0
ARC
  5
35AE
  8
AM_0
 10
1371.1671153310151
 20
338.6919930688378
 30
0.0
 40
8.0
 50
30.00000099999999
 51
128.39667
  0
ARC
  5
35AF
  8
AM_0
 10
1362.6395753310151
 20
323.28522306883781
 30
0.0
 40
18.000000499999992
 50
0.0
 51
90.000003000000007
  0
LINE
  5
35B0
  8
AM_0
 10
1380.6395753310151
 20
338.28522306883792
 30
0.0
 11
1346.9472403310151
 21
396.6420630688379
 31
0.0
  0
ARC
  5
35B1
  8
AM_0
 10
1296.639560331015
 20
459.90524806883758
 30
0.0
 40
78.0
 50
328.76727999999991
 51
351.58611999999982
  0
LINE
  5
35B2
  8
ﾁｭｳｼﾝｾﾝ
 10
1079.622790331015
 20
598.28518306883791
 30
0.0
 11
1411.6563603310151
 21
598.28518306883791
 31
0.0
  0
ARC
  5
35B3
  8
AM_0
 10
1296.639560331015
 20
459.90524806883758
 30
0.0
 40
65.0
 50
337.92037999999991
 51
14.393765
  0
ARC
  5
35B4
  8
AM_0
 10
1194.639555331014
 20
459.90524806883758
 30
0.0
 40
116.0
 50
173.4402199999999
 51
221.41016999999999
  0
ARC
  5
35B5
  8
AM_0
 10
1194.639555331014
 20
459.90524806883758
 30
0.0
 40
78.0
 50
188.41387
 51
211.23272999999989
  0
ARC
  5
35B6
  8
AM_0
 10
1194.639555331014
 20
459.90524806883758
 30
0.0
 40
65.0
 50
165.60623000000001
 51
202.07961999999989
  0
LINE
  5
35B7
  8
AM_0
 10
1194.639555331014
 20
381.90521806883771
 30
0.0
 11
1221.757875331014
 21
381.90521806883771
 31
0.0
  0
LINE
  5
35B8
  8
AM_0
 10
1194.639555331014
 20
394.90524806883769
 30
0.0
 11
1296.639560331015
 21
394.90524806883769
 31
0.0
  0
LINE
  5
35B9
  8
AM_0
 10
1194.639555331014
 20
333.90521806883783
 30
0.0
 11
1221.9541353310151
 21
333.90521806883783
 31
0.0
  0
LINE
  5
35BA
  8
AM_0
 10
1194.639555331014
 20
343.90521806883783
 30
0.0
 11
1296.639560331015
 21
343.90521806883783
 31
0.0
  0
ARC
  5
35BB
  8
AM_0
 10
1128.639585331015
 20
323.28522306883781
 30
0.0
 40
18.000000499999992
 50
90.000003000000007
 51
180.00001
  0
LINE
  5
35BC
  8
AM_0
 10
1110.639585331015
 20
338.28522306883792
 30
0.0
 11
1100.2472853310151
 21
356.28522306883798
 31
0.0
  0
LINE
  5
35BD
  8
ｶｸﾚｾﾝ2
 10
1077.6396553310151
 20
356.28522306883798
 30
0.0
 11
1077.6396553310151
 21
318.28522306883781
 31
0.0
  0
LINE
  5
35BE
  8
AM_0
 10
1105.639585331015
 20
346.94546806883773
 30
0.0
 11
1105.639585331015
 21
318.28522306883781
 31
0.0
  0
LINE
  5
35BF
  8
ﾁｭｳｼﾝｾﾝ1
 10
1065.639640331015
 20
366.28522306883798
 30
0.0
 11
1065.639640331015
 21
308.28522306883781
 31
0.0
  0
ARC
  5
35C0
  8
AM_0
 10
1120.1120003310141
 20
338.6919930688378
 30
0.0
 40
8.0
 50
51.603336000000013
 51
150.0
  0
ARC
  5
35C1
  8
AM_0
 10
1135.639585331015
 20
358.28522306883798
 30
0.0
 40
17.000000499999992
 50
231.60332999999989
 51
320.62101000000001
  0
LINE
  5
35C2
  8
AM_0
 10
1110.639585331015
 20
338.28522306883792
 30
0.0
 11
1144.331940331014
 21
396.6420980688377
 31
0.0
  0
ARC
  5
35C3
  8
AM_0
 10
1194.639555331014
 20
459.90524806883758
 30
0.0
 40
116.0
 50
235.6933999999998
 51
270.0
  0
ARC
  5
35C4
  8
AM_0
 10
1194.639555331014
 20
459.90524806883758
 30
0.0
 40
126.0
 50
246.79907
 51
270.0
  0
LINE
  5
35C5
  8
AM_0
 10
1110.639585331015
 20
318.28522306883781
 30
0.0
 11
1110.639585331015
 21
338.28522306883792
 31
0.0
  0
LINE
  5
35C6
  8
AM_0
 10
1135.639585331015
 20
341.28522306883792
 30
0.0
 11
1128.639585331015
 21
341.28522306883792
 31
0.0
  0
LINE
  5
35C7
  8
AM_0
 10
1098.803895331014
 20
363.78522306883798
 30
0.0
 11
1133.6182253310151
 21
424.08545306883798
 31
0.0
  0
ARC
  5
35C8
  8
AM_0
 10
1085.813490331014
 20
371.28522306883769
 30
0.0
 40
15.0
 50
270.0
 51
330.0
  0
ARC
  5
35C9
  8
AM_0
 10
1127.568635331015
 20
361.60724306883759
 30
0.0
 40
3.0000000500000001
 50
55.693403000000018
 51
150.0
  0
ARC
  5
35CA
  8
AM_0
 10
1105.390320331014
 20
381.1932730688377
 30
0.0
 40
3.0000000500000001
 50
330.0
 51
41.410173
  0
ARC
  5
35CB
  8
AM_0
 10
1072.817190331014
 20
427.72910306883767
 30
0.0
 40
10.0
 50
14.79527699999999
 51
162.30935999999991
  0
ARC
  5
35CC
  8
AM_0
 10
1122.3598953310141
 20
430.58545306883758
 30
0.0
 40
12.99999899999999
 50
330.0
 51
22.079620999999999
  0
ARC
  5
35CD
  8
AM_0
 10
1194.639555331014
 20
459.90524806883758
 30
0.0
 40
65.0
 50
242.19486000000001
 51
270.0
  0
ARC
  5
35CE
  8
AM_0
 10
1194.639555331014
 20
459.90524806883758
 30
0.0
 40
78.0
 50
233.1528099999999
 51
270.0
  0
ARC
  5
35CF
  8
AM_0
 10
1154.963745331014
 20
342.42404806883792
 30
0.0
 40
8.0
 50
71.339099000000004
 51
140.62101000000001
  0
ARC
  5
35D0
  8
AM_0
 10
1194.639555331014
 20
459.90524806883758
 30
0.0
 40
65.0
 50
207.48782
 51
229.4185699999999
  0
ARC
  5
35D1
  8
AM_0
 10
1157.3222953310151
 20
389.14209306883771
 30
0.0
 40
15.0
 50
62.194868999999997
 51
150.0
  0
ARC
  5
35D2
  8
AM_0
 10
1270.559450331014
 20
335.90521806883788
 30
0.0
 40
8.0
 50
90.000003000000007
 51
184.58856999999981
  0
ARC
  5
35D3
  8
AM_0
 10
1220.719695331014
 20
335.90521806883788
 30
0.0
 40
8.0
 50
355.41143
 51
90.000003000000007
  0
ARC
  5
35D4
  8
AM_0
 10
1296.639560331015
 20
459.90524806883758
 30
0.0
 40
126.0
 50
270.0
 51
293.20092999999991
  0
ARC
  5
35D5
  8
AM_0
 10
1296.639560331015
 20
459.90524806883758
 30
0.0
 40
116.0
 50
270.0
 51
304.3066
  0
ARC
  5
35D6
  8
AM_0
 10
1355.639560331015
 20
358.28522306883798
 30
0.0
 40
17.000000499999992
 50
219.37898999999999
 51
308.39666
  0
LINE
  5
35D7
  8
AM_0
 10
1296.639560331015
 20
333.90521806883783
 30
0.0
 11
1269.325015331015
 21
333.90521806883783
 31
0.0
  0
LINE
  5
35D8
  8
AM_0
 10
1235.9959103310141
 20
319.90523306883767
 30
0.0
 11
1255.2832053310151
 21
319.90523306883767
 31
0.0
  0
ARC
  5
35D9
  8
AM_0
 10
1245.639590331014
 20
333.90521806883783
 30
0.0
 40
17.000000499999992
 50
175.41143
 51
235.4396799999999
  0
ARC
  5
35DA
  8
AM_0
 10
1221.9541353310151
 20
325.90523306883767
 30
0.0
 40
8.0
 50
18.662925000000001
 51
90.000003000000007
  0
ARC
  5
35DB
  8
AM_0
 10
1269.325015331015
 20
325.90523306883767
 30
0.0
 40
8.0
 50
90.000003000000007
 51
161.3370699999999
  0
ARC
  5
35DC
  8
AM_0
 10
1245.639590331014
 20
333.90521806883783
 30
0.0
 40
17.000000499999992
 50
304.56031999999988
 51
4.5885658999999981
  0
LINE
  5
35DD
  8
AM_0
 10
1355.639560331015
 20
341.28522306883792
 30
0.0
 11
1362.6395753310151
 21
341.28522306883792
 31
0.0
  0
LINE
  5
35DE
  8
AM_0
 10
1296.639560331015
 20
381.90521806883771
 30
0.0
 11
1269.5212703310151
 21
381.90521806883771
 31
0.0
  0
ARC
  5
35DF
  8
AM_0
 10
1245.639590331014
 20
378.28522306883758
 30
0.0
 40
18.000000499999992
 50
185.69117999999989
 51
354.30880999999999
  0
CIRCLE
  5
35E0
  8
AM_0
 10
1245.639590331014
 20
378.28522306883758
 30
0.0
 40
9.6974994999999993
  0
CIRCLE
  5
35E1
  8
AM_0
 10
1245.639590331014
 20
378.28522306883758
 30
0.0
 40
10.4974995
  0
LINE
  5
35E2
  8
ﾁｭｳｼﾝｾﾝ1
 10
1222.639560331015
 20
378.28522306883758
 30
0.0
 11
1268.639590331014
 21
378.28522306883758
 31
0.0
  0
ARC
  5
35E3
  8
AM_0
 10
1221.757875331014
 20
375.90521806883771
 30
0.0
 40
6.0
 50
5.6911851000000002
 51
90.000003000000007
  0
POLYLINE
  5
35E4
  8
AM_0
 66
     1
 10
0.0
 20
0.0
 30
0.0
  0
VERTEX
  5
35E5
  8
AM_0
  6
CONTINUOUS
 10
1240.639590331014
 20
375.39847306883797
 30
0.0
  0
VERTEX
  5
35E6
  8
AM_0
  6
CONTINUOUS
 10
1245.639590331014
 20
372.5117230688378
 30
0.0
  0
VERTEX
  5
35E7
  8
AM_0
  6
CONTINUOUS
 10
1250.639590331014
 20
375.39847306883797
 30
0.0
  0
VERTEX
  5
35E8
  8
AM_0
  6
CONTINUOUS
 10
1250.639590331014
 20
381.1719730688377
 30
0.0
  0
VERTEX
  5
35E9
  8
AM_0
  6
CONTINUOUS
 10
1245.639590331014
 20
384.05872306883771
 30
0.0
  0
VERTEX
  5
35EA
  8
AM_0
  6
CONTINUOUS
 10
1240.639590331014
 20
381.1719730688377
 30
0.0
  0
VERTEX
  5
35EB
  8
AM_0
  6
CONTINUOUS
 10
1240.639590331014
 20
375.39847306883797
 30
0.0
  0
SEQEND
  5
35EC
  8
AM_0
  0
ARC
  5
35ED
  8
AM_0
 10
1269.5212703310151
 20
375.90521806883771
 30
0.0
 40
6.0
 50
90.000003000000007
 51
174.30882
  0
ARC
  5
35EE
  8
AM_0
 10
1296.639560331015
 20
459.90524806883758
 30
0.0
 40
65.0
 50
270.0
 51
297.80512999999991
  0
ARC
  5
35EF
  8
AM_0
 10
1296.639560331015
 20
459.90524806883758
 30
0.0
 40
78.0
 50
270.0
 51
306.84719000000001
  0
ARC
  5
35F0
  8
AM_0
 10
1336.315415331014
 20
342.42404806883792
 30
0.0
 40
8.0
 50
39.378995000000003
 51
108.6608999999999
  0
ARC
  5
35F1
  8
AM_0
 10
1363.7105003310151
 20
361.60724306883759
 30
0.0
 40
3.0000000500000001
 50
30.00000099999999
 51
124.3066
  0
ARC
  5
35F2
  8
AM_0
 10
1333.956850331014
 20
389.14209306883771
 30
0.0
 40
15.0
 50
30.00000099999999
 51
117.8051399999998
  0
ARC
  5
35F3
  8
AM_0
 10
1296.639560331015
 20
459.90524806883758
 30
0.0
 40
65.0
 50
310.5814299999999
 51
332.51218999999992
  0
ARC
  5
35F4
  8
AM_0
 10
1368.9192403310151
 20
430.58545306883758
 30
0.0
 40
12.99999899999999
 50
157.92037999999991
 51
210.0
  0
ARC
  5
35F5
  8
AM_0
 10
1245.639590331014
 20
598.28518306883791
 30
0.0
 40
35.000000499999992
 50
106.60155
 51
73.398452000000006
  0
LINE
  5
35F6
  8
ﾁｭｳｼﾝｾﾝ
 10
1136.6572253310151
 20
535.68524806883795
 30
0.0
 11
1354.621875331015
 21
535.68524806883795
 31
0.0
  0
LINE
  5
35F7
  8
AM_0
 10
1117.479065331014
 20
448.49207306883773
 30
0.0
 11
1099.988280331014
 21
566.74127806883791
 31
0.0
  0
LINE
  5
35F8
  8
AM_0
 10
1091.448820331015
 20
568.32990306883767
 30
0.0
 11
1091.448820331015
 21
523.17703806883765
 31
0.0
  0
LINE
  5
35F9
  8
AM_0
 10
1076.439890331015
 20
531.22946806883772
 30
0.0
 11
1085.490240331015
 21
605.05618306883775
 31
0.0
  0
LINE
  5
35FA
  8
AM_0
 10
1122.988435331014
 20
581.68113306883765
 30
0.0
 11
1128.551210331015
 21
478.37003306883759
 31
0.0
  0
LINE
  5
35FB
  8
AM_0
 10
1131.6799003310141
 20
476.06323806883768
 30
0.0
 11
1168.1507253310151
 21
618.17198306883756
 31
0.0
  0
LINE
  5
35FC
  8
AM_0
 10
1092.675110331015
 20
519.82898806883793
 30
0.0
 11
1097.868835331014
 21
523.12494806883785
 31
0.0
  0
ARC
  5
35FD
  8
AM_0
 10
1094.818360331014
 20
516.4516980688378
 30
0.0
 40
4.000000049999997
 50
122.39941
 51
162.30935999999991
  0
LINE
  5
35FE
  8
AM_0
 10
1094.060485331014
 20
599.58908306883757
 30
0.0
 11
1091.4488803310151
 21
578.28522806883791
 31
0.0
  0
ARC
  5
35FF
  8
AM_0
 10
1097.293455331014
 20
648.23043306883778
 30
0.0
 40
8.0
 50
266.20679999999999
 51
337.99683999999991
  0
ARC
  5
3600
  8
AM_0
 10
1245.639590331014
 20
588.28523306883756
 30
0.0
 40
152.0
 50
160.54256000000001
 51
173.18940000000001
  0
ARC
  5
3601
  8
AM_0
 10
1095.639585331015
 20
623.28518306883791
 30
0.0
 40
17.000000499999992
 50
86.206794999999985
 51
247.52514999999991
  0
ARC
  5
3602
  8
AM_0
 10
1077.549690331015
 20
606.0295830688375
 30
0.0
 40
8.0
 50
353.01103000000001
 51
43.647920999999982
  0
ARC
  5
3603
  8
AM_0
 10
1086.082590331014
 20
600.18398306883785
 30
0.0
 40
8.0
 50
355.73511000000002
 51
67.525156000000024
  0
ARC
  5
3604
  8
AM_0
 10
1087.083990331015
 20
646.77568306883791
 30
0.0
 40
8.0
 50
290.01231999999987
 51
339.75119999999993
  0
LINE
  5
3605
  8
AM_0
 10
1368.290745331014
 20
581.68108306883767
 30
0.0
 11
1362.7279703310151
 21
478.37006306883791
 31
0.0
  0
LINE
  5
3606
  8
AM_0
 10
1359.599230331014
 20
476.06317806883771
 30
0.0
 11
1323.128390331015
 21
618.17198306883756
 31
0.0
  0
CIRCLE
  5
3607
  8
AM_0
 10
1245.639590331014
 20
598.28518306883791
 30
0.0
 40
5.0
  0
CIRCLE
  5
3608
  8
AM_5
 10
1245.639590331014
 20
598.28518306883791
 30
0.0
 40
6.0
  0
LINE
  5
3609
  8
AM_0
 10
1255.639590331014
 20
637.78518306883791
 30
0.0
 11
1235.639590331014
 21
637.78518306883791
 31
0.0
  0
LINE
  5
360A
  8
AM_0
 10
1235.639590331014
 20
625.78518306883791
 30
0.0
 11
1255.639590331014
 21
625.78518306883791
 31
0.0
  0
LINE
  5
360B
  8
AM_0
 10
1235.639590331014
 20
637.78518306883791
 30
0.0
 11
1235.639590331014
 21
625.78518306883791
 31
0.0
  0
LINE
  5
360C
  8
AM_0
 10
1255.639590331014
 20
625.78518306883791
 30
0.0
 11
1255.639590331014
 21
637.78518306883791
 31
0.0
  0
ARC
  5
360D
  8
AM_0
 10
1296.639560331015
 20
459.90524806883758
 30
0.0
 40
116.0
 50
318.58983000000001
 51
6.5597827999999971
  0
LINE
  5
360E
  8
AM_0
 10
1400.271625331015
 20
517.66718306883774
 30
0.0
 11
1435.854315331015
 21
406.1089830688378
 31
0.0
  0
LINE
  5
360F
  8
AM_0
 10
1399.830280331015
 20
578.28522806883791
 30
0.0
 11
1470.639570331015
 21
356.28522306883798
 31
0.0
  0
LINE
  5
3610
  8
AM_0
 10
1380.639560331015
 20
338.28522306883792
 30
0.0
 11
1391.0318653310151
 21
356.28522306883798
 31
0.0
  0
LINE
  5
3611
  8
AM_0
 10
1385.6395603310141
 20
346.94546806883773
 30
0.0
 11
1385.6395603310141
 21
318.28522306883781
 31
0.0
  0
LINE
  5
3612
  8
ｶｸﾚｾﾝ2
 10
1413.6395753310151
 20
356.28522306883798
 30
0.0
 11
1413.6395753310151
 21
318.28522306883781
 31
0.0
  0
LINE
  5
3613
  8
ﾁｭｳｼﾝｾﾝ1
 10
1425.6395603310141
 20
366.28522306883798
 30
0.0
 11
1425.6395603310141
 21
308.28522306883781
 31
0.0
  0
LINE
  5
3614
  8
ｶｸﾚｾﾝ2
 10
1437.6395753310151
 20
356.28522306883798
 30
0.0
 11
1437.6395753310151
 21
318.28522306883781
 31
0.0
  0
LINE
  5
3615
  8
AM_0
 10
1470.639570331015
 20
356.28522306883798
 30
0.0
 11
1470.639570331015
 21
318.28522306883781
 31
0.0
  0
LINE
  5
3616
  8
AM_0
 10
1470.639570331015
 20
318.28522306883781
 30
0.0
 11
1380.639560331015
 21
318.28522306883781
 31
0.0
  0
LINE
  5
3617
  8
AM_0
 10
1380.639560331015
 20
318.28522306883781
 30
0.0
 11
1380.639560331015
 21
338.28522306883792
 31
0.0
  0
LINE
  5
3618
  8
AM_0
 10
1391.0318653310151
 20
356.28522306883798
 30
0.0
 11
1470.639570331015
 21
356.28522306883798
 31
0.0
  0
LINE
  5
3619
  8
AM_0
 10
1441.5353753310151
 20
373.88995806883798
 30
0.0
 11
1435.854280331014
 21
406.1089830688378
 31
0.0
  0
ARC
  5
361A
  8
AM_0
 10
1405.465640331015
 20
371.28522306883769
 30
0.0
 40
15.0
 50
210.0
 51
270.0
  0
ARC
  5
361B
  8
AM_0
 10
1385.8888103310151
 20
381.1932730688377
 30
0.0
 40
3.0000000500000001
 50
138.5898199999998
 51
210.0
  0
ARC
  5
361C
  8
AM_0
 10
1426.763265331015
 20
371.28522306883769
 30
0.0
 40
15.0
 50
270.0
 51
9.9999996999999983
  0
ARC
  5
361D
  8
AM_0
 10
1418.4619653310151
 20
427.72910306883767
 30
0.0
 40
10.0
 50
17.690640999999999
 51
165.20472000000001
  0
LINE
  5
361E
  8
AM_0
 10
1373.800065331015
 20
448.49207306883773
 30
0.0
 11
1391.290850331015
 21
566.74127806883791
 31
0.0
  0
LINE
  5
361F
  8
AM_0
 10
1414.839250331014
 20
531.22943806883779
 30
0.0
 11
1405.788900331014
 21
605.05618306883775
 31
0.0
  0
LINE
  5
3620
  8
AM_0
 10
1399.830295331014
 20
568.32990306883767
 30
0.0
 11
1399.830295331014
 21
523.17703806883765
 31
0.0
  0
LINE
  5
3621
  8
AM_0
 10
1398.604055331014
 20
519.82898806883793
 30
0.0
 11
1393.410325331015
 21
523.12494806883785
 31
0.0
  0
ARC
  5
3622
  8
AM_0
 10
1396.460775331014
 20
516.4516980688378
 30
0.0
 40
4.000000049999997
 50
17.690640999999999
 51
57.600597
  0
LINE
  5
3623
  8
AM_0
 10
1397.218675331015
 20
599.58908306883757
 30
0.0
 11
1399.830295331014
 21
578.28522806883791
 31
0.0
  0
ARC
  5
3624
  8
AM_0
 10
1395.639560331015
 20
623.28518306883791
 30
0.0
 40
17.000000499999992
 50
292.47483999999997
 51
93.793203000000005
  0
ARC
  5
3625
  8
AM_0
 10
1245.639590331014
 20
588.28523306883756
 30
0.0
 40
152.0
 50
6.8105959
 51
19.457447999999989
  0
ARC
  5
3626
  8
AM_0
 10
1413.7294353310151
 20
606.0295830688375
 30
0.0
 40
8.0
 50
136.35208
 51
186.98896999999991
  0
ARC
  5
3627
  8
AM_0
 10
1405.196505331015
 20
600.18398306883785
 30
0.0
 40
8.0
 50
112.4748399999998
 51
184.26488000000001
  0
ARC
  5
3628
  8
AM_0
 10
1393.985690331014
 20
648.23043306883778
 30
0.0
 40
8.0
 50
202.00315999999981
 51
273.79320000000001
  0
ARC
  5
3629
  8
AM_0
 10
1404.1951353310151
 20
646.77568306883791
 30
0.0
 40
8.0
 50
200.24879999999999
 51
249.98768000000001
  0
ARC
  5
362A
  8
AM_0
 10
1245.639590331014
 20
588.28523306883756
 30
0.0
 40
152.0
 50
72.625585999999998
 51
107.37441
  0
ARC
  5
362B
  8
AM_0
 10
1245.639590331014
 20
588.28523306883756
 30
0.0
 40
161.0
 50
97.240494999999996
 51
109.1626399999999
  0
ARC
  5
362C
  8
AM_0
 10
1177.639555331014
 20
726.28528306883777
 30
0.0
 40
17.000000499999992
 50
36.014659000000002
 51
196.44922
  0
ARC
  5
362D
  8
AM_0
 10
1245.639590331014
 20
588.28523306883756
 30
0.0
 40
152.0
 50
109.89673999999999
 51
122.5671399999999
  0
ARC
  5
362E
  8
AM_0
 10
1152.8516553310151
 20
729.53473306883745
 30
0.0
 40
8.0
 50
303.30124000000001
 51
352.53172999999992
  0
ARC
  5
362F
  8
AM_0
 10
1153.662810331015
 20
719.20608306883787
 30
0.0
 40
8.0
 50
305.08947000000001
 51
16.44922
  0
ARC
  5
3630
  8
AM_0
 10
1197.861235331015
 20
740.98503306883742
 30
0.0
 40
8.0
 50
216.0146499999999
 51
287.37441000000001
  0
ARC
  5
3631
  8
AM_0
 10
1190.1651903310151
 20
747.9210830688379
 30
0.0
 40
8.0
 50
239.93214999999981
 51
289.16262999999998
  0
LINE
  5
3632
  8
AM_0
 10
1225.639560331015
 20
749.28518306883745
 30
0.0
 11
1223.669280331015
 21
740.6084830688377
 31
0.0
  0
ARC
  5
3633
  8
AM_0
 10
1245.639590331014
 20
588.28523306883756
 30
0.0
 40
161.0
 50
70.837367
 51
82.759509999999963
  0
ARC
  5
3634
  8
AM_0
 10
1313.639590331014
 20
726.28528306883777
 30
0.0
 40
17.000000499999992
 50
343.55077999999992
 51
143.98535000000001
  0
LINE
  5
3635
  8
AM_0
 10
1265.639590331014
 20
749.28518306883745
 30
0.0
 11
1267.609895331015
 21
740.6084830688377
 31
0.0
  0
ARC
  5
3636
  8
AM_0
 10
1293.417910331015
 20
740.98503306883742
 30
0.0
 40
8.0
 50
252.6255899999999
 51
323.98534000000001
  0
ARC
  5
3637
  8
AM_0
 10
1220.7437753310151
 20
741.27278306883773
 30
0.0
 40
3.0000000500000001
 50
279.24277999999998
 51
347.20632999999992
  0
ARC
  5
3638
  8
AM_0
 10
1270.535400331014
 20
741.27278306883773
 30
0.0
 40
3.0000000500000001
 50
192.7936599999999
 51
260.75722000000002
  0
ARC
  5
3639
  8
AM_0
 10
1337.6163353310151
 20
719.20608306883787
 30
0.0
 40
8.0
 50
163.55078
 51
234.91052999999999
  0
ARC
  5
363A
  8
AM_0
 10
1338.4274953310151
 20
729.53473306883745
 30
0.0
 40
8.0
 50
187.4682699999999
 51
236.69875999999999
  0
ARC
  5
363B
  8
AM_0
 10
1245.639590331014
 20
588.28523306883756
 30
0.0
 40
152.0
 50
57.432860999999988
 51
70.103257999999997
  0
ARC
  5
363C
  8
AM_0
 10
1301.113955331014
 20
747.9210830688379
 30
0.0
 40
8.0
 50
250.83735999999999
 51
300.06785000000002
  0
ARC
  5
363D
  8
AM_0
 10
1245.639590331014
 20
803.03518306883745
 30
0.0
 40
6.25
 50
0.0
 51
180.00001
  0
LINE
  5
363E
  8
AM_0
 10
1239.389590331014
 20
803.03518306883745
 30
0.0
 11
1239.389590331014
 21
755.28528306883777
 31
0.0
  0
LINE
  5
363F
  8
AM_0
 10
1251.889590331014
 20
803.03518306883745
 30
0.0
 11
1251.889590331014
 21
755.28528306883777
 31
0.0
  0
ARC
  5
3640
  8
AM_0
 10
1256.889590331014
 20
755.28528306883777
 30
0.0
 40
5.0
 50
179.99998999999991
 51
237.02744999999999
  0
LINE
  5
3641
  8
AM_0
 10
1255.618285331014
 20
760.65618306883755
 30
0.0
 11
1251.889560331015
 21
761.07803306883773
 31
0.0
  0
LINE
  5
3642
  8
AM_0
 10
1265.639590331014
 20
749.28518306883745
 30
0.0
 11
1225.639590331014
 21
749.28518306883745
 31
0.0
  0
ARC
  5
3643
  8
AM_0
 10
1236.663635331015
 20
755.80888306883742
 30
0.0
 40
4.949999899999999
 50
101.68763
 51
165.76742999999999
  0
LINE
  5
3644
  8
AM_0
 10
1231.8655703310151
 20
757.02588306883774
 30
0.0
 11
1230.639560331015
 21
749.28528306883754
 31
0.0
  0
ARC
  5
3645
  8
AM_0
 10
1234.389590331014
 20
755.28528306883777
 30
0.0
 40
5.0
 50
302.97255999999987
 51
0.0
  0
LINE
  5
3646
  8
AM_0
 10
1239.389590331014
 20
761.07808306883794
 30
0.0
 11
1235.660890331015
 21
760.65623306883742
 31
0.0
  0
LINE
  5
3647
  8
AM_0
 10
1260.639590331014
 20
749.28518306883745
 30
0.0
 11
1259.413575331015
 21
757.02588306883774
 31
0.0
  0
ARC
  5
3648
  8
AM_0
 10
1254.615540331014
 20
755.80888306883742
 30
0.0
 40
4.949999899999999
 50
14.23256799999999
 51
78.312367000000023
  0
LINE
  5
3649
  8
AM_0
 10
350.74270117688002
 20
1229.772982610682
 30
0.0
 11
350.74270117688002
 21
1118.191793610682
 31
0.0
  0
LINE
  5
364A
  8
AM_0
 10
313.87201017688
 20
1209.145740610682
 30
0.0
 11
313.87201017688
 21
1139.1457406106811
 31
0.0
  0
LINE
  5
364B
  8
AM_0
 10
315.87201017688
 20
1229.197649610682
 30
0.0
 11
315.87201017688
 21
1119.0938326106821
 31
0.0
  0
LINE
  5
364C
  8
AM_0
 10
414.37201017687988
 20
1246.107941610682
 30
0.0
 11
414.37201017687988
 21
1102.1835396106819
 31
0.0
  0
LINE
  5
364D
  8
AM_0
 10
412.58594817687998
 20
1063.644424610683
 30
0.0
 11
353.4554061768801
 21
1113.260840610682
 31
0.0
  0
ARC
  5
364E
  8
AM_0
 10
318.87201017688
 20
1119.0938326106821
 30
0.0
 40
3.0
 50
180.0
 51
268.99999999999812
  0
ARC
  5
364F
  8
AM_0
 10
347.02753017688002
 20
1105.6003956106831
 30
0.0
 40
10.0
 50
49.999999999999922
 51
89.000000000001506
  0
LINE
  5
3650
  8
AM_0
 10
318.81965317688008
 20
1116.0942896106819
 30
0.0
 11
347.20205417688021
 21
1115.598872610683
 31
0.0
  0
LINE
  5
3651
  8
AM_0
 10
313.87201017688
 20
1139.1457406106811
 30
0.0
 11
315.87201017688
 21
1137.1457406106831
 31
0.0
  0
LINE
  5
3652
  8
AM_0
 10
309.87201017688
 20
1194.1457406106831
 30
0.0
 11
309.87201017688
 21
1154.145740610682
 31
0.0
  0
LINE
  5
3653
  8
AM_0
 10
251.87201017688011
 20
1191.6457406106831
 30
0.0
 11
251.87201017688011
 21
1156.645740610682
 31
0.0
  0
LINE
  5
3654
  8
AM_0
 10
251.87201017688011
 20
1156.645740610682
 30
0.0
 11
309.87201017688
 21
1156.645740610682
 31
0.0
  0
LINE
  5
3655
  8
AM_0
 10
309.87201017688
 20
1154.145740610682
 30
0.0
 11
313.87201017688
 21
1154.145740610682
 31
0.0
  0
LINE
  5
3656
  8
AM_0
 10
309.87201017688
 20
1191.6457406106831
 30
0.0
 11
251.87201017688011
 21
1191.6457406106831
 31
0.0
  0
LINE
  5
3657
  8
AM_0
 10
313.87201017688
 20
1194.1457406106831
 30
0.0
 11
309.87201017688
 21
1194.1457406106831
 31
0.0
  0
LINE
  5
3658
  8
AM_0
 10
432.37201017688022
 20
1074.063719610682
 30
0.0
 11
434.37201017687988
 21
1076.063719610682
 31
0.0
  0
LINE
  5
3659
  8
AM_0
 10
432.37201017688022
 20
1074.063719610682
 30
0.0
 11
432.37201017688022
 21
1089.620068610682
 31
0.0
  0
ARC
  5
365A
  8
AM_0
 10
409.87324317688018
 20
1078.063719610682
 30
0.0
 40
4.0
 50
187.60814800001029
 51
270.0
  0
ARC
  5
365B
  8
AM_0
 10
409.37201017687988
 20
1059.8142026106821
 30
0.0
 40
5.0
 50
0.0
 51
49.999999999999922
  0
LINE
  5
365C
  8
AM_0
 10
432.37201017688022
 20
1074.063719610682
 30
0.0
 11
409.87324317688018
 21
1074.063719610682
 31
0.0
  0
ARC
  5
365D
  8
AM_0
 10
418.37201017687988
 20
1058.145740610682
 30
0.0
 40
4.0
 50
180.0
 51
270.0
  0
LINE
  5
365E
  8
AM_0
 10
418.37201017687988
 20
1054.145740610682
 30
0.0
 11
432.37201017688022
 21
1054.145740610682
 31
0.0
  0
LINE
  5
365F
  8
AM_0
 10
414.37201017687988
 20
1058.145740610682
 30
0.0
 11
414.37201017687988
 21
1074.063720610683
 31
0.0
  0
LINE
  5
3660
  8
AM_0
 10
432.37201017688022
 20
1054.145740610682
 30
0.0
 11
434.37201017687988
 21
1056.145740610682
 31
0.0
  0
LINE
  5
3661
  8
AM_0
 10
432.37201017688022
 20
1089.620068610682
 30
0.0
 11
409.9487311768799
 21
1089.620068610682
 31
0.0
  0
ARC
  5
3662
  8
AM_0
 10
418.37201017687988
 20
1102.1835396106819
 30
0.0
 40
4.0
 50
180.0
 51
270.0
  0
LINE
  5
3663
  8
AM_0
 10
403.94420217688003
 20
1092.239576610682
 30
0.0
 11
403.94420217688003
 21
1107.029245610682
 31
0.0
  0
LINE
  5
3664
  8
AM_0
 10
405.97362117688021
 20
1093.1745336106819
 30
0.0
 11
404.24299417688002
 21
1108.615362610682
 31
0.0
  0
ARC
  5
3665
  8
AM_0
 10
401.3182781768802
 20
1089.2395766106811
 30
0.0
 40
3.0
 50
7.6081479999971267
 51
68.357691000000074
  0
ARC
  5
3666
  8
AM_0
 10
409.9487311768799
 20
1093.620068610682
 30
0.0
 40
4.0
 50
186.39509300000049
 51
270.0
  0
LINE
  5
3667
  8
AM_0
 10
405.90845617687989
 20
1077.534130610682
 30
0.0
 11
404.29186817687997
 21
1089.6367686106821
 31
0.0
  0
LINE
  5
3668
  8
AM_0
 10
406.37201017687988
 20
1089.620068610682
 30
0.0
 11
406.37201017687988
 21
1078.8740196106819
 31
0.0
  0
ARC
  5
3669
  8
AM_0
 10
401.26166117688018
 20
1108.281210610683
 30
0.0
 40
3.0
 50
6.3950930000004771
 51
71.53841099999886
  0
LINE
  5
366A
  8
AM_0
 10
403.94420217688003
 20
1111.281210610683
 30
0.0
 11
413.82837417687989
 21
1111.281210610683
 31
0.0
  0
LINE
  5
366B
  8
AM_0
 10
432.37201017688022
 20
1089.620068610682
 30
0.0
 11
434.37201017687988
 21
1091.620068610682
 31
0.0
  0
LINE
  5
366C
  8
AM_0
 10
418.37201017687988
 20
1098.1835396106819
 30
0.0
 11
432.37201017688022
 21
1098.1835396106819
 31
0.0
  0
LINE
  5
366D
  8
AM_0
 10
432.37201017688022
 20
1190.8955138812
 30
0.0
 11
432.37201017688022
 21
1157.3959673401639
 31
0.0
  0
LINE
  5
366E
  8
AM_0
 10
432.37201017688022
 20
1157.3959673401639
 30
0.0
 11
414.37201017687988
 21
1157.3959673401639
 31
0.0
  0
LINE
  5
366F
  8
AM_0
 10
414.37201017687988
 20
1159.1457406106811
 30
0.0
 11
432.37201017688022
 21
1159.1457406106811
 31
0.0
  0
LINE
  5
3670
  8
AM_0
 10
414.37201017687988
 20
1189.145740610682
 30
0.0
 11
432.37201017688022
 21
1189.145740610682
 31
0.0
  0
LINE
  5
3671
  8
AM_0
 10
432.37201017688022
 20
1190.8955138812
 30
0.0
 11
414.37201017687988
 21
1190.8955138812
 31
0.0
  0
LINE
  5
3672
  8
AM_0
 10
412.58594817687998
 20
1284.6470566106821
 30
0.0
 11
353.4554061768801
 21
1235.030641610683
 31
0.0
  0
LINE
  5
3673
  8
AM_0
 10
313.87201017688
 20
1209.145740610682
 30
0.0
 11
315.87201017688
 21
1211.1457406106831
 31
0.0
  0
ARC
  5
3674
  8
AM_0
 10
347.02753017688002
 20
1242.691085610682
 30
0.0
 40
10.0
 50
270.99999999999841
 51
310.0
  0
LINE
  5
3675
  8
AM_0
 10
318.81965317688008
 20
1232.197192610683
 30
0.0
 11
347.20205417688021
 21
1232.692608610683
 31
0.0
  0
ARC
  5
3676
  8
AM_0
 10
318.87201017688
 20
1229.197649610682
 30
0.0
 40
3.0
 50
90.999999999998494
 51
180.0
  0
LINE
  5
3677
  8
AM_0
 10
432.37201017688022
 20
1294.1457406106831
 30
0.0
 11
434.37201017687988
 21
1292.1457406106811
 31
0.0
  0
ARC
  5
3678
  8
AM_0
 10
418.37201017687988
 20
1290.1457406106811
 30
0.0
 40
4.0
 50
90.0
 51
180.0
  0
LINE
  5
3679
  8
AM_0
 10
405.97362117688021
 20
1255.116947610682
 30
0.0
 11
404.24299417688002
 21
1239.676118610683
 31
0.0
  0
LINE
  5
367A
  8
AM_0
 10
403.94420217688003
 20
1256.0519046106831
 30
0.0
 11
403.94420217688003
 21
1241.262235610681
 31
0.0
  0
ARC
  5
367B
  8
AM_0
 10
418.37201017687988
 20
1246.107941610682
 30
0.0
 40
4.0
 50
90.0
 51
180.0
  0
LINE
  5
367C
  8
AM_0
 10
403.94420217688003
 20
1237.010270610682
 30
0.0
 11
413.82837417687989
 21
1237.010270610682
 31
0.0
  0
ARC
  5
367D
  8
AM_0
 10
401.26166117688018
 20
1240.010270610682
 30
0.0
 40
3.0
 50
288.46158900000108
 51
353.6049069999994
  0
LINE
  5
367E
  8
AM_0
 10
432.37201017688022
 20
1274.227761610683
 30
0.0
 11
409.87324317688018
 21
1274.227761610683
 31
0.0
  0
ARC
  5
367F
  8
AM_0
 10
409.37201017687988
 20
1288.4772786106821
 30
0.0
 40
5.0
 50
310.0
 51
0.0
  0
LINE
  5
3680
  8
AM_0
 10
432.37201017688022
 20
1258.6714126106831
 30
0.0
 11
409.9487311768799
 21
1258.6714126106831
 31
0.0
  0
ARC
  5
3681
  8
AM_0
 10
409.87324317688018
 20
1270.227761610683
 30
0.0
 40
4.0
 50
90.0
 51
172.39185199998951
  0
LINE
  5
3682
  8
AM_0
 10
406.37201017687988
 20
1258.6714126106831
 30
0.0
 11
406.37201017687988
 21
1269.417461610682
 31
0.0
  0
LINE
  5
3683
  8
AM_0
 10
405.90845617687989
 20
1270.7573506106819
 30
0.0
 11
404.29186817687997
 21
1258.654712610683
 31
0.0
  0
ARC
  5
3684
  8
AM_0
 10
409.9487311768799
 20
1254.6714126106831
 30
0.0
 40
4.0
 50
90.0
 51
173.60490699999951
  0
ARC
  5
3685
  8
AM_0
 10
401.3182781768802
 20
1259.051904610682
 30
0.0
 40
3.0
 50
291.64230899999973
 51
352.39185200000281
  0
LINE
  5
3686
  8
AM_0
 10
432.37201017688022
 20
1274.227761610683
 30
0.0
 11
432.37201017688022
 21
1258.6714126106831
 31
0.0
  0
LINE
  5
3687
  8
AM_0
 10
418.37201017687988
 20
1250.107941610682
 30
0.0
 11
432.37201017688022
 21
1250.107941610682
 31
0.0
  0
LINE
  5
3688
  8
AM_0
 10
432.37201017688022
 20
1258.6714126106831
 30
0.0
 11
434.37201017687988
 21
1256.6714126106831
 31
0.0
  0
LINE
  5
3689
  8
AM_0
 10
414.37201017687988
 20
1290.1457406106811
 30
0.0
 11
414.37201017687988
 21
1274.227760610682
 31
0.0
  0
LINE
  5
368A
  8
AM_0
 10
432.37201017688022
 20
1274.227761610683
 30
0.0
 11
434.37201017687988
 21
1272.227761610683
 31
0.0
  0
LINE
  5
368B
  8
AM_0
 10
418.37201017687988
 20
1294.1457406106831
 30
0.0
 11
432.37201017688022
 21
1294.1457406106831
 31
0.0
  0
LINE
  5
368D
  8
AM_0
 10
251.87201017688011
 20
1169.1457406106831
 30
0.0
 11
296.87201017688
 21
1169.1457406106831
 31
0.0
  0
ARC
  5
368E
  8
AM_0
 10
296.87201017688
 20
1174.145740610682
 30
0.0
 40
5.0
 50
270.0
 51
90.0
  0
LINE
  5
368F
  8
AM_0
 10
296.87201017688
 20
1179.1457406106831
 30
0.0
 11
296.87201017688
 21
1169.1457406106831
 31
0.0
  0
LINE
  5
3690
  8
AM_0
 10
251.87201017688011
 20
1179.1457406106831
 30
0.0
 11
296.87201017688
 21
1179.1457406106831
 31
0.0
  0
LINE
  5
3691
  8
AM_0
 10
745.872020176879
 20
1209.145740610682
 30
0.0
 11
855.87202017687923
 21
1209.145740610682
 31
0.0
  0
LINE
  5
3692
  8
AM_0
 10
855.87202017687923
 20
1139.1457406106831
 30
0.0
 11
745.872020176879
 21
1139.1457406106831
 31
0.0
  0
LINE
  5
3693
  8
AM_0
 10
855.87202017687923
 20
1184.1457406106811
 30
0.0
 11
770.872020176879
 21
1184.1457406106811
 31
0.0
  0
LINE
  5
3694
  8
AM_0
 10
770.872020176879
 20
1164.145740610682
 30
0.0
 11
855.87202017687923
 21
1164.145740610682
 31
0.0
  0
LINE
  5
3695
  8
ﾁｭｳｼﾝｾﾝ
 10
860.57930017687954
 20
1174.145740610682
 30
0.0
 11
242.90241433683599
 21
1174.145740610682
 31
0.0
  0
ARC
  5
3696
  8
AM_0
 10
536.87201017687926
 20
1174.145740610682
 30
0.0
 40
20.0
 50
198.2099599999984
 51
341.79004000000128
  0
ARC
  5
3697
  8
AM_0
 10
588.87202017687935
 20
1174.145740610682
 30
0.0
 40
20.0
 50
270.0
 51
90.00000299999769
  0
ARC
  5
3698
  8
AM_0
 10
536.87201017687926
 20
1174.145740610682
 30
0.0
 40
15.0
 50
204.6243199999974
 51
335.37568000000249
  0
LINE
  5
3699
  8
AM_0
 10
434.37201017688
 20
1057.1457406106831
 30
0.0
 11
434.37201017688
 21
1174.145740610682
 31
0.0
  0
LINE
  5
369A
  8
AM_0
 10
447.37201017688028
 20
1057.1457406106831
 30
0.0
 11
447.37201017688028
 21
1174.145740610682
 31
0.0
  0
LINE
  5
369B
  8
AM_0
 10
738.872020176879
 20
1174.145740610682
 30
0.0
 11
738.872020176879
 21
1114.1457406106831
 31
0.0
  0
LINE
  5
369C
  8
AM_0
 10
713.87202017687912
 20
1174.145740610682
 30
0.0
 11
713.87202017687912
 21
1058.451770610684
 31
0.0
  0
LINE
  5
369D
  8
AM_0
 10
734.87202017687923
 20
1174.145740610682
 30
0.0
 11
734.87202017687923
 21
1034.2996106106821
 31
0.0
  0
LINE
  5
369E
  8
AM_0
 10
688.87202017687912
 20
1038.079390610683
 30
0.0
 11
688.87202017687912
 21
1174.145740610682
 31
0.0
  0
LINE
  5
369F
  8
AM_0
 10
558.87202017687923
 20
1007.145740610683
 30
0.0
 11
558.87202017687923
 21
1167.8957406106831
 31
0.0
  0
LINE
  5
36A0
  8
AM_0
 10
745.872020176879
 20
1211.6457406106831
 30
0.0
 11
745.872020176879
 21
1136.6457406106831
 31
0.0
  0
LINE
  5
36A1
  8
AM_0
 10
492.37201017687909
 20
1299.1457406106831
 30
0.0
 11
492.37201017687909
 21
1049.1457406106831
 31
0.0
  0
LINE
  5
36A2
  8
AM_0
 10
545.87201017687914
 20
1007.145740610683
 30
0.0
 11
613.87202017687935
 21
1007.145740610683
 31
0.0
  0
LINE
  5
36A3
  8
AM_0
 10
585.59242017687916
 20
1027.5629806106831
 30
0.0
 11
629.01521017687935
 21
1029.6737506106831
 31
0.0
  0
LINE
  5
36A4
  8
AM_0
 10
542.87201017687914
 20
1089.1457406106831
 30
0.0
 11
612.88038017687927
 21
1089.1457406106831
 31
0.0
  0
LINE
  5
36A5
  8
AM_0
 10
612.84755017687962
 20
1123.854740610682
 30
0.0
 11
583.87202017687923
 21
1123.854740610682
 31
0.0
  0
LINE
  5
36A6
  8
AM_0
 10
442.87201017687909
 20
949.14574061068333
 30
0.0
 11
734.87202017687923
 21
949.14574061068333
 31
0.0
  0
ARC
  5
36A7
  8
AM_0
 10
558.87208017687885
 20
970.76122061068406
 30
0.0
 40
10.0
 50
279.99999999999739
 51
0.0
  0
LINE
  5
36A8
  8
AM_0
 10
494.7337101768793
 20
949.29766061068392
 30
0.0
 11
560.6085301768793
 21
960.91313061068331
 31
0.0
  0
LINE
  5
36A9
  8
AM_0
 10
438.87201017688028
 20
1030.2860606106831
 30
0.0
 11
438.87201017688028
 21
953.14574061068345
 31
0.0
  0
ARC
  5
36AA
  8
AM_0
 10
492.99731017688032
 20
959.14574061068345
 30
0.0
 40
10.0
 50
270.0
 51
279.99999999999739
  0
ARC
  5
36AB
  8
AM_0
 10
442.87201017687909
 20
953.14574061068345
 30
0.0
 40
4.0
 50
179.9999899999988
 51
270.0
  0
ARC
  5
36AC
  8
AM_0
 10
503.8721101768802
 20
976.29467061068385
 30
0.0
 40
10.0
 50
179.9999899999988
 51
279.99999999999739
  0
ARC
  5
36AD
  8
AM_0
 10
502.37201017687943
 20
1049.1457406106831
 30
0.0
 40
10.0
 50
179.9999899999988
 51
270.0
  0
LINE
  5
36AE
  8
AM_0
 10
541.84361017687934
 20
1037.823290610683
 30
0.0
 11
442.72921017687918
 21
1034.283500610682
 31
0.0
  0
LINE
  5
36AF
  8
AM_0
 10
435.37201017688028
 20
1056.1457406106831
 30
0.0
 11
446.37201017687909
 21
1056.1457406106831
 31
0.0
  0
LINE
  5
36B0
  8
AM_0
 10
434.37201017688
 20
1057.145800610683
 30
0.0
 11
435.37201017688028
 21
1056.145800610683
 31
0.0
  0
CIRCLE
  5
36B1
  8
AM_0
 10
473.87201017688022
 20
994.14574061068345
 30
0.0
 40
12.0
  0
LINE
  5
36B2
  8
AM_0
 10
447.88081017687921
 20
1058.136890610682
 30
0.0
 11
488.4418101768793
 21
1057.4288806106831
 31
0.0
  0
ARC
  5
36B3
  8
AM_0
 10
442.87201017687909
 20
1030.2860606106831
 30
0.0
 40
4.0
 50
92.045405000001679
 51
180.00001000000091
  0
ARC
  5
36B4
  8
AM_0
 10
447.87201017688028
 20
1057.636950610683
 30
0.0
 40
0.5
 50
89.000001000002214
 51
180.00001000000091
  0
ARC
  5
36B5
  8
AM_0
 10
446.37201017687909
 20
1057.1457406106831
 30
0.0
 40
1.0
 50
270.0
 51
0.0
  0
ARC
  5
36B6
  8
AM_0
 10
488.37201017687909
 20
1053.429490610682
 30
0.0
 40
4.0
 50
0.0
 51
89.000001000002214
  0
LINE
  5
36B7
  8
AM_0
 10
435.35091017687921
 20
1099.7087906106831
 30
0.0
 11
446.37981017687918
 21
1099.7087906106831
 31
0.0
  0
LINE
  5
36B8
  8
AM_0
 10
434.37201017688
 20
1089.9749006106831
 30
0.0
 11
445.37201017688011
 21
1089.9749006106831
 31
0.0
  0
LINE
  5
36B9
  8
AM_0
 10
434.37201017688
 20
1074.418570610683
 30
0.0
 11
445.37201017688011
 21
1074.418570610683
 31
0.0
  0
LINE
  5
36BA
  8
AM_0
 10
447.37201017688028
 20
1102.3133406106831
 30
0.0
 11
492.37201017687909
 21
1102.3133406106831
 31
0.0
  0
LINE
  5
36BB
  8
AM_0
 10
447.37201017688028
 20
1083.062790610684
 30
0.0
 11
492.37201017687909
 21
1083.062790610684
 31
0.0
  0
ARC
  5
36BC
  8
AM_0
 10
445.37201017688011
 20
1076.418570610683
 30
0.0
 40
2.0
 50
270.0
 51
0.0
  0
ARC
  5
36BD
  8
AM_0
 10
445.37201017688011
 20
1091.974900610684
 30
0.0
 40
2.0
 50
270.0
 51
0.0
  0
LINE
  5
36BE
  8
AM_0
 10
583.87202017687923
 20
1027.4793606106821
 30
0.0
 11
583.87202017687923
 21
1089.1457406106831
 31
0.0
  0
LINE
  5
36BF
  8
AM_0
 10
542.87201017687914
 20
1146.217240610682
 30
0.0
 11
542.87201017687914
 21
1010.145740610683
 31
0.0
  0
LINE
  5
36C0
  8
AM_0
 10
505.60861017687932
 20
966.44658061068344
 30
0.0
 11
560.6085301768793
 21
976.1445206106838
 31
0.0
  0
LINE
  5
36C1
  8
AM_0
 10
545.87201017687914
 20
1021.715010610683
 30
0.0
 11
579.05141017687924
 21
1021.715010610683
 31
0.0
  0
ARC
  5
36C2
  8
AM_0
 10
545.87201017687914
 20
1010.145740610683
 30
0.0
 40
3.0
 50
179.9999899999988
 51
270.0
  0
LINE
  5
36C3
  8
AM_0
 10
502.37201017687943
 20
1039.1457406106831
 30
0.0
 11
538.87201017687914
 21
1039.1457406106831
 31
0.0
  0
ARC
  5
36C4
  8
AM_0
 10
545.87201017687914
 20
1024.7150106106831
 30
0.0
 40
3.0
 50
179.9999899999988
 51
270.0
  0
ARC
  5
36C5
  8
AM_0
 10
538.87201017687914
 20
1035.1457406106831
 30
0.0
 40
4.0
 50
0.0
 51
90.00000299999769
  0
ARC
  5
36C6
  8
AM_0
 10
558.87208017687885
 20
985.99266061068329
 30
0.0
 40
10.0
 50
279.99999999999739
 51
0.0
  0
LINE
  5
36C7
  8
AM_0
 10
568.87208017687897
 20
970.76122061068406
 30
0.0
 11
568.87208017687897
 21
1007.145740610683
 31
0.0
  0
ARC
  5
36C8
  8
AM_0
 10
579.05141017687924
 20
1024.7150106106831
 30
0.0
 40
3.0
 50
270.0
 51
332.50571000000349
  0
ARC
  5
36C9
  8
AM_0
 10
585.73805017687926
 20
1024.566520610683
 30
0.0
 40
3.0
 50
92.782929000000266
 51
152.5057100000034
  0
LINE
  5
36CA
  8
AM_0
 10
581.71254017687932
 20
1023.330070610682
 30
0.0
 11
583.07686017687934
 21
1025.951530610683
 31
0.0
  0
LINE
  5
36CB
  8
AM_0
 10
580.87202017687935
 20
1117.457870610682
 30
0.0
 11
542.87201017687914
 21
1117.457870610682
 31
0.0
  0
ARC
  5
36CC
  8
AM_0
 10
534.87201017687914
 20
1146.217240610682
 30
0.0
 40
8.0
 50
0.0
 51
85.903958999999659
  0
LINE
  5
36CD
  8
AM_0
 10
558.87202017687923
 20
1154.145740610682
 30
0.0
 11
588.87202017687935
 21
1154.145740610682
 31
0.0
  0
LINE
  5
36CE
  8
AM_0
 10
583.87202017687923
 20
1123.854740610682
 30
0.0
 11
583.87202017687923
 21
1154.145740610682
 31
0.0
  0
LINE
  5
36CF
  8
AM_0
 10
583.87202017687923
 20
1123.854740610682
 30
0.0
 11
580.87202017687935
 21
1117.457870610682
 31
0.0
  0
LINE
  5
36D0
  8
AM_0
 10
659.70326017687933
 20
1020.315840610683
 30
0.0
 11
669.2165101768793
 21
957.64495061068385
 31
0.0
  0
LINE
  5
36D1
  8
AM_0
 10
738.872020176879
 20
953.14574061068345
 30
0.0
 11
738.872020176879
 21
1030.2966806106831
 31
0.0
  0
ARC
  5
36D2
  8
AM_0
 10
679.10322017687929
 20
959.14574061068345
 30
0.0
 40
10.0
 50
188.63138999999711
 51
270.0
  0
ARC
  5
36D3
  8
AM_0
 10
734.87202017687923
 20
953.14574061068345
 30
0.0
 40
4.0
 50
270.0
 51
0.0
  0
LINE
  5
36D4
  8
AM_0
 10
720.38893017687906
 20
1058.1457406106831
 30
0.0
 11
726.87202017687923
 21
1058.1457406106831
 31
0.0
  0
LINE
  5
36D5
  8
AM_0
 10
726.87202017687923
 20
1096.656970610682
 30
0.0
 11
715.82716017687926
 21
1096.656970610682
 31
0.0
  0
LINE
  5
36D6
  8
AM_0
 10
696.07313017687932
 20
1034.2996106106821
 30
0.0
 11
731.65608017687941
 21
1034.294180610683
 31
0.0
  0
LINE
  5
36D7
  8
AM_0
 10
632.71358017687908
 20
1024.5198806106821
 30
0.0
 11
682.79994017687966
 21
1026.954580610683
 31
0.0
  0
LINE
  5
36D8
  8
AM_0
 10
613.87202017687935
 20
1007.145800610683
 30
0.0
 11
630.07936017687916
 21
1023.353080610683
 31
0.0
  0
ARC
  5
36D9
  8
AM_0
 10
632.90779017687919
 20
1020.524650610683
 30
0.0
 40
4.0
 50
92.782929000000266
 51
135.0000000000046
  0
ARC
  5
36DA
  8
AM_0
 10
664.6466201768792
 20
1021.066210610683
 30
0.0
 40
5.0
 50
92.782929000000266
 51
188.63138000000109
  0
LINE
  5
36DB
  8
ﾁｭｳｼﾝｾﾝ1
 10
703.87202017687923
 20
969.14574061068345
 30
0.0
 11
703.87202017687923
 21
1019.145740610682
 31
0.0
  0
CIRCLE
  5
36DC
  8
AM_0
 10
703.87202017687923
 20
994.14574061068345
 30
0.0
 40
12.0
  0
LINE
  5
36DD
  8
ﾁｭｳｼﾝｾﾝ1
 10
678.87202017687923
 20
994.14574061068345
 30
0.0
 11
728.87202017687923
 21
994.14574061068345
 31
0.0
  0
ARC
  5
36DE
  8
AM_0
 10
682.02308017687926
 20
1042.935720610682
 30
0.0
 40
16.0
 50
272.78293000000212
 51
314.39193000000108
  0
LINE
  5
36DF
  8
AM_0
 10
693.21614017687943
 20
1031.5025506106831
 30
0.0
 11
709.06508017687906
 21
1047.0186006106831
 31
0.0
  0
ARC
  5
36E0
  8
AM_0
 10
697.87202017687912
 20
1058.451770610684
 30
0.0
 40
16.0
 50
314.39193000000108
 51
0.0
  0
ARC
  5
36E1
  8
AM_0
 10
720.38893017687906
 20
1050.1457406106831
 30
0.0
 40
8.0
 50
90.00000299999769
 51
159.75202000000809
  0
LINE
  5
36E2
  8
AM_0
 10
633.64436017687922
 20
1108.5680406106831
 30
0.0
 11
614.6825101768793
 21
1123.2282406106831
 31
0.0
  0
LINE
  5
36E3
  8
AM_0
 10
614.66835017687924
 20
1089.736740610683
 30
0.0
 11
633.59736017687931
 21
1103.7855706106841
 31
0.0
  0
ARC
  5
36E4
  8
AM_0
 10
612.88038017687927
 20
1092.1457406106831
 30
0.0
 40
3.0
 50
270.0
 51
306.58231000000382
  0
ARC
  5
36E5
  8
AM_0
 10
631.80940017687931
 20
1106.194630610682
 30
0.0
 40
3.0
 50
306.58231000000382
 51
52.290951999999571
  0
ARC
  5
36E6
  8
AM_0
 10
612.84755017687962
 20
1120.854740610682
 30
0.0
 40
3.0
 50
52.290951999999571
 51
90.00000299999769
  0
ARC
  5
36E7
  8
AM_0
 10
726.87202017687923
 20
1066.1457406106831
 30
0.0
 40
8.0
 50
270.0
 51
0.0
  0
ARC
  5
36E8
  8
AM_0
 10
734.87202017687923
 20
1030.2966806106831
 30
0.0
 40
4.0
 50
0.0
 51
87.797402999997558
  0
LINE
  5
36E9
  8
AM_0
 10
735.0257701768794
 20
1034.293690610682
 30
0.0
 11
734.87208017687919
 21
1034.2996106106821
 31
0.0
  0
ARC
  5
36EA
  8
AM_0
 10
726.87202017687923
 20
1104.656970610682
 30
0.0
 40
8.0
 50
270.0
 51
313.981210000001
  0
LINE
  5
36EB
  8
AM_0
 10
738.872020176879
 20
1114.145800610683
 30
0.0
 11
734.87202017687923
 21
1110.145800610683
 31
0.0
  0
LINE
  5
36EC
  8
AM_0
 10
738.872020176879
 20
1136.6457406106831
 30
0.0
 11
745.872020176879
 21
1136.6457406106831
 31
0.0
  0
LINE
  5
36ED
  8
AM_0
 10
442.87201017687909
 20
1399.1457406106831
 30
0.0
 11
734.87202017687923
 21
1399.1457406106831
 31
0.0
  0
LINE
  5
36EE
  8
AM_0
 10
585.59242017687916
 20
1320.7285406106839
 30
0.0
 11
629.01521017687935
 21
1318.6177406106831
 31
0.0
  0
LINE
  5
36EF
  8
AM_0
 10
545.87201017687914
 20
1341.1457406106831
 30
0.0
 11
613.87202017687935
 21
1341.1457406106831
 31
0.0
  0
LINE
  5
36F0
  8
AM_0
 10
612.84755017687962
 20
1224.436740610683
 30
0.0
 11
583.87202017687923
 21
1224.436740610683
 31
0.0
  0
LINE
  5
36F1
  8
AM_0
 10
542.87201017687914
 20
1259.145740610682
 30
0.0
 11
612.88038017687927
 21
1259.145740610682
 31
0.0
  0
CIRCLE
  5
36F2
  8
AM_0
 10
473.87201017688022
 20
1354.145740610682
 30
0.0
 40
12.0
  0
LINE
  5
36F3
  8
AM_0
 10
568.87208017687897
 20
1377.530240610683
 30
0.0
 11
568.87208017687897
 21
1341.1457406106831
 31
0.0
  0
LINE
  5
36F4
  8
AM_0
 10
438.87201017688028
 20
1318.0054406106819
 30
0.0
 11
438.87201017688028
 21
1395.1457406106831
 31
0.0
  0
ARC
  5
36F5
  8
AM_0
 10
502.37201017687943
 20
1299.1457406106831
 30
0.0
 40
10.0
 50
90.00000299999769
 51
180.00001000000091
  0
LINE
  5
36F6
  8
AM_0
 10
541.84361017687934
 20
1310.468140610682
 30
0.0
 11
442.72921017687918
 21
1314.007940610682
 31
0.0
  0
LINE
  5
36F7
  8
AM_0
 10
434.37201017688
 20
1291.145740610682
 30
0.0
 11
434.37201017688
 21
1174.145740610682
 31
0.0
  0
LINE
  5
36F8
  8
AM_0
 10
447.37201017688028
 20
1291.145740610682
 30
0.0
 11
447.37201017688028
 21
1174.145740610682
 31
0.0
  0
LINE
  5
36F9
  8
AM_0
 10
434.37201017688
 20
1258.316640610682
 30
0.0
 11
445.37201017688011
 21
1258.316640610682
 31
0.0
  0
LINE
  5
36FA
  8
AM_0
 10
435.35091017687921
 20
1248.582740610683
 30
0.0
 11
446.37981017687918
 21
1248.582740610683
 31
0.0
  0
LINE
  5
36FB
  8
AM_0
 10
447.37201017688028
 20
1245.978140610682
 30
0.0
 11
492.37201017687909
 21
1245.978140610682
 31
0.0
  0
ARC
  5
36FC
  8
AM_0
 10
445.37201017688011
 20
1256.3166406106841
 30
0.0
 40
2.0
 50
0.0
 51
90.00000299999769
  0
LINE
  5
36FD
  8
AM_0
 10
435.37201017688028
 20
1292.1457406106831
 30
0.0
 11
446.37201017687909
 21
1292.1457406106831
 31
0.0
  0
LINE
  5
36FE
  8
AM_0
 10
434.37201017688
 20
1273.873040610682
 30
0.0
 11
445.37201017688011
 21
1273.873040610682
 31
0.0
  0
LINE
  5
36FF
  8
AM_0
 10
434.37201017688
 20
1291.145740610682
 30
0.0
 11
435.37201017688028
 21
1292.1457406106831
 31
0.0
  0
LINE
  5
3700
  8
AM_0
 10
447.88081017687921
 20
1290.154640610682
 30
0.0
 11
487.45931017687928
 21
1290.845440610683
 31
0.0
  0
LINE
  5
3701
  8
AM_0
 10
447.37201017688028
 20
1265.2287406106821
 30
0.0
 11
492.37201017687909
 21
1265.2287406106821
 31
0.0
  0
ARC
  5
3702
  8
AM_0
 10
445.37201017688011
 20
1271.873040610682
 30
0.0
 40
2.0
 50
0.0
 51
90.00000299999769
  0
ARC
  5
3703
  8
AM_0
 10
446.37201017687909
 20
1291.145740610682
 30
0.0
 40
1.0
 50
0.0
 51
90.00000299999769
  0
ARC
  5
3704
  8
AM_0
 10
447.87201017688028
 20
1290.654540610682
 30
0.0
 40
0.5
 50
179.9999899999988
 51
271.00000000000171
  0
ARC
  5
3705
  8
AM_0
 10
487.37201017688
 20
1295.844740610682
 30
0.0
 40
5.0
 50
271.00000000000171
 51
0.0
  0
ARC
  5
3706
  8
AM_0
 10
442.87201017687909
 20
1318.0054406106819
 30
0.0
 40
4.0
 50
179.9999899999988
 51
267.95459999999889
  0
LINE
  5
3707
  8
AM_0
 10
542.87201017687914
 20
1338.1457406106831
 30
0.0
 11
542.87201017687914
 21
1202.0742406106831
 31
0.0
  0
LINE
  5
3708
  8
AM_0
 10
558.87202017687923
 20
1341.1457406106831
 30
0.0
 11
558.87202017687923
 21
1180.3957406106831
 31
0.0
  0
LINE
  5
3709
  8
AM_0
 10
583.87202017687923
 20
1320.812140610682
 30
0.0
 11
583.87202017687923
 21
1259.145740610682
 31
0.0
  0
ARC
  5
370A
  8
AM_0
 10
536.87201017687926
 20
1174.145740610682
 30
0.0
 40
20.0
 50
18.209957000000301
 51
161.7900400000014
  0
LINE
  5
370B
  8
AM_0
 10
580.87202017687935
 20
1230.833740610683
 30
0.0
 11
542.87201017687914
 21
1230.833740610683
 31
0.0
  0
LINE
  5
370C
  8
AM_0
 10
513.12201017688028
 20
1180.3957406106831
 30
0.0
 11
560.62202017687923
 21
1180.3957406106831
 31
0.0
  0
LINE
  5
370D
  8
AM_0
 10
513.12201017688028
 20
1167.8957406106831
 30
0.0
 11
560.62202017687923
 21
1167.8957406106831
 31
0.0
  0
ARC
  5
370E
  8
AM_0
 10
513.12201017688028
 20
1174.145740610682
 30
0.0
 40
6.25
 50
90.00000299999769
 51
270.0
  0
ARC
  5
370F
  8
AM_0
 10
536.87201017687926
 20
1174.145740610682
 30
0.0
 40
15.0
 50
24.624318000003381
 51
155.3756800000024
  0
ARC
  5
3710
  8
AM_0
 10
534.87201017687914
 20
1202.0742406106831
 30
0.0
 40
8.0
 50
274.09603999999791
 51
0.0
  0
LINE
  5
3711
  8
AM_0
 10
583.87202017687923
 20
1224.436740610683
 30
0.0
 11
583.87202017687923
 21
1194.1457406106831
 31
0.0
  0
CIRCLE
  5
3712
  8
AM_0
 10
588.87202017687935
 20
1174.145740610682
 30
0.0
 40
10.0
  0
LINE
  5
3713
  8
AM_0
 10
558.87202017687923
 20
1194.1457406106831
 30
0.0
 11
588.87202017687935
 21
1194.1457406106831
 31
0.0
  0
ARC
  5
3714
  8
AM_0
 10
560.62202017687923
 20
1174.145740610682
 30
0.0
 40
6.25
 50
270.0
 51
90.00000299999769
  0
LINE
  5
3715
  8
AM_0
 10
591.75874017687931
 20
1169.1457406106831
 30
0.0
 11
594.64552017687924
 21
1174.145740610682
 31
0.0
  0
LINE
  5
3716
  8
AM_0
 10
594.64552017687924
 20
1174.1458406106831
 30
0.0
 11
591.75880017687916
 21
1179.145740610682
 31
0.0
  0
LINE
  5
3717
  8
AM_0
 10
585.98530017687938
 20
1179.145740610682
 30
0.0
 11
583.09852017687911
 21
1174.145740610682
 31
0.0
  0
LINE
  5
3718
  8
AM_0
 10
583.09859017687927
 20
1174.145740610682
 30
0.0
 11
585.98530017687938
 21
1169.1458406106831
 31
0.0
  0
LINE
  5
3719
  8
AM_0
 10
585.98530017687938
 20
1169.1457406106831
 30
0.0
 11
591.75880017687916
 21
1169.1457406106831
 31
0.0
  0
LINE
  5
371A
  8
AM_0
 10
591.75880017687916
 20
1179.145740610682
 30
0.0
 11
585.98530017687938
 21
1179.145740610682
 31
0.0
  0
LINE
  5
371B
  8
AM_0
 10
583.87208017687885
 20
1224.436740610683
 30
0.0
 11
580.87208017687919
 21
1230.833640610683
 31
0.0
  0
LINE
  5
371C
  8
AM_0
 10
545.87201017687914
 20
1326.576540610683
 30
0.0
 11
579.05141017687924
 21
1326.576540610683
 31
0.0
  0
ARC
  5
371D
  8
AM_0
 10
538.87201017687914
 20
1313.1457406106831
 30
0.0
 40
4.0
 50
270.0
 51
0.0
  0
LINE
  5
371E
  8
AM_0
 10
538.87201017687914
 20
1309.1457406106831
 30
0.0
 11
502.37201017687943
 21
1309.1457406106831
 31
0.0
  0
ARC
  5
371F
  8
AM_0
 10
545.87201017687914
 20
1323.5765406106841
 30
0.0
 40
3.0
 50
90.00000299999769
 51
180.00001000000091
  0
ARC
  5
3720
  8
AM_0
 10
545.87201017687914
 20
1338.1457406106831
 30
0.0
 40
3.0
 50
90.00000299999769
 51
180.00001000000091
  0
ARC
  5
3721
  8
AM_0
 10
579.05141017687924
 20
1323.5765406106841
 30
0.0
 40
3.0
 50
27.494289999996429
 51
90.00000299999769
  0
ARC
  5
3722
  8
AM_0
 10
585.73805017687926
 20
1323.724940610683
 30
0.0
 40
3.0
 50
207.4942899999964
 51
267.21706999999782
  0
LINE
  5
3723
  8
AM_0
 10
581.71254017687932
 20
1324.961440610683
 30
0.0
 11
583.07686017687934
 21
1322.340040610683
 31
0.0
  0
ARC
  5
3724
  8
AM_0
 10
492.99731017688032
 20
1389.1457406106831
 30
0.0
 40
10.0
 50
79.999998000001099
 51
90.00000299999769
  0
ARC
  5
3725
  8
AM_0
 10
503.8721101768802
 20
1371.996840610683
 30
0.0
 40
10.0
 50
79.999998000001099
 51
180.00001000000091
  0
ARC
  5
3726
  8
AM_0
 10
442.87201017687909
 20
1395.1457406106831
 30
0.0
 40
4.0
 50
90.00000299999769
 51
180.00001000000091
  0
LINE
  5
3727
  8
AM_0
 10
505.60861017687932
 20
1381.844940610682
 30
0.0
 11
560.6085301768793
 21
1372.1469406106839
 31
0.0
  0
LINE
  5
3728
  8
AM_0
 10
494.7338101768803
 20
1398.9938406106839
 30
0.0
 11
560.6085301768793
 21
1387.378440610682
 31
0.0
  0
ARC
  5
3729
  8
AM_0
 10
558.87208017687885
 20
1377.530240610683
 30
0.0
 40
10.0
 50
0.0
 51
79.999998000001099
  0
ARC
  5
372A
  8
AM_0
 10
558.87208017687885
 20
1362.2988406106831
 30
0.0
 40
10.0
 50
0.0
 51
79.999998000001099
  0
CIRCLE
  5
372B
  8
AM_0
 10
703.87202017687923
 20
1354.145740610682
 30
0.0
 40
12.0
  0
LINE
  5
372C
  8
AM_0
 10
659.70326017687933
 20
1327.9755406106831
 30
0.0
 11
669.21644017687925
 21
1390.646440610682
 31
0.0
  0
LINE
  5
372D
  8
AM_0
 10
738.872020176879
 20
1395.1457406106831
 30
0.0
 11
738.872020176879
 21
1317.994840610683
 31
0.0
  0
LINE
  5
372E
  8
AM_0
 10
720.38893017687906
 20
1290.1457406106831
 30
0.0
 11
726.87202017687923
 21
1290.1457406106831
 31
0.0
  0
LINE
  5
372F
  8
AM_0
 10
726.87202017687923
 20
1251.634640610682
 30
0.0
 11
715.82716017687926
 21
1251.634640610682
 31
0.0
  0
LINE
  5
3730
  8
AM_0
 10
696.07313017687932
 20
1313.9919406106831
 30
0.0
 11
731.656020176879
 21
1313.997440610684
 31
0.0
  0
LINE
  5
3731
  8
AM_0
 10
688.87202017687912
 20
1310.212140610683
 30
0.0
 11
688.87202017687912
 21
1174.145740610682
 31
0.0
  0
LINE
  5
3732
  8
AM_0
 10
713.87202017687912
 20
1174.145740610682
 30
0.0
 11
713.87202017687912
 21
1289.8397406106831
 31
0.0
  0
LINE
  5
3733
  8
AM_0
 10
633.64436017687922
 20
1239.723540610682
 30
0.0
 11
614.6825101768793
 21
1225.063340610682
 31
0.0
  0
ARC
  5
3734
  8
AM_0
 10
612.84755017687962
 20
1227.436740610684
 30
0.0
 40
3.0
 50
270.0
 51
307.70904999999362
  0
LINE
  5
3735
  8
AM_0
 10
614.66835017687924
 20
1258.554840610682
 30
0.0
 11
633.59730017687934
 21
1244.505940610683
 31
0.0
  0
ARC
  5
3736
  8
AM_0
 10
612.88038017687927
 20
1256.1457406106831
 30
0.0
 40
3.0
 50
53.417689999996149
 51
90.00000299999769
  0
ARC
  5
3737
  8
AM_0
 10
631.80940017687931
 20
1242.0969406106831
 30
0.0
 40
3.0
 50
307.70904999999362
 51
53.417689999996149
  0
LINE
  5
3738
  8
AM_0
 10
632.71358017687908
 20
1323.7716406106831
 30
0.0
 11
682.79994017687966
 21
1321.3369406106819
 31
0.0
  0
LINE
  5
3739
  8
AM_0
 10
613.87202017687935
 20
1341.1457406106831
 30
0.0
 11
630.07936017687916
 21
1324.9384406106831
 31
0.0
  0
ARC
  5
373A
  8
AM_0
 10
632.90779017687919
 20
1327.766840610682
 30
0.0
 40
4.0
 50
224.9999999999952
 51
267.21706999999782
  0
ARC
  5
373B
  8
AM_0
 10
664.6466201768792
 20
1327.225240610682
 30
0.0
 40
5.0
 50
171.3686100000028
 51
267.2170800000024
  0
LINE
  5
373C
  8
AM_0
 10
693.21608017687913
 20
1316.7889406106819
 30
0.0
 11
709.06502017687922
 21
1301.2728406106819
 31
0.0
  0
ARC
  5
373D
  8
AM_0
 10
720.38893017687906
 20
1298.1457406106831
 30
0.0
 40
8.0
 50
200.24797999999171
 51
270.0
  0
ARC
  5
373E
  8
AM_0
 10
697.87202017687912
 20
1289.8397406106831
 30
0.0
 40
16.0
 50
0.0
 51
45.608072999994867
  0
ARC
  5
373F
  8
AM_0
 10
682.02308017687926
 20
1305.355840610682
 30
0.0
 40
16.0
 50
45.608072999994867
 51
87.217069000002539
  0
LINE
  5
3740
  8
AM_0
 10
734.87202017687923
 20
1174.145740610682
 30
0.0
 11
734.87202017687923
 21
1313.9919406106831
 31
0.0
  0
LINE
  5
3741
  8
AM_0
 10
738.872020176879
 20
1174.145740610682
 30
0.0
 11
738.872020176879
 21
1234.1457406106831
 31
0.0
  0
ARC
  5
3742
  8
AM_0
 10
770.872020176879
 20
1174.145740610682
 30
0.0
 40
10.0
 50
90.00000299999769
 51
270.0
  0
LINE
  5
3743
  8
AM_0
 10
770.872020176879
 20
1184.1457406106811
 30
0.0
 11
770.872020176879
 21
1164.145740610682
 31
0.0
  0
LINE
  5
3744
  8
AM_0
 10
738.872020176879
 20
1234.1457406106831
 30
0.0
 11
734.87202017687923
 21
1238.1457406106831
 31
0.0
  0
LINE
  5
3745
  8
AM_0
 10
738.872020176879
 20
1211.6457406106831
 30
0.0
 11
745.872020176879
 21
1211.6457406106831
 31
0.0
  0
ARC
  5
3746
  8
AM_0
 10
726.87202017687923
 20
1243.634640610682
 30
0.0
 40
8.0
 50
46.018789000002847
 51
90.00000299999769
  0
ARC
  5
3747
  8
AM_0
 10
726.87202017687923
 20
1282.1457406106831
 30
0.0
 40
8.0
 50
0.0
 51
90.00000299999769
  0
ARC
  5
3748
  8
AM_0
 10
734.87202017687923
 20
1317.994840610683
 30
0.0
 40
4.0
 50
272.20260000000161
 51
0.0
  0
LINE
  5
3749
  8
AM_0
 10
735.0257701768794
 20
1313.997940610682
 30
0.0
 11
734.87202017687923
 21
1313.9919406106831
 31
0.0
  0
ARC
  5
374A
  8
AM_0
 10
679.10322017687929
 20
1389.1457406106831
 30
0.0
 40
10.0
 50
90.00000299999769
 51
171.3686100000028
  0
ARC
  5
374B
  8
AM_0
 10
734.87202017687923
 20
1395.1457406106831
 30
0.0
 40
4.0
 50
0.0
 51
90.00000299999769
  0
LINE
  5
374C
  8
AM_0
 10
855.87202017687923
 20
1209.145740610682
 30
0.0
 11
855.87202017687923
 21
1139.1457406106831
 31
0.0
  0
LINE
  5
374D
  8
ﾁｭｳｼﾝｾﾝ1
 10
448.87201017688022
 20
994.14574061068345
 30
0.0
 11
498.87201017688022
 21
994.14574061068345
 31
0.0
  0
LINE
  5
374E
  8
ﾁｭｳｼﾝｾﾝ1
 10
473.87201017688022
 20
969.14574061068345
 30
0.0
 11
473.87201017688022
 21
1019.145740610682
 31
0.0
  0
LINE
  5
374F
  8
ﾁｭｳｼﾝｾﾝ1
 10
448.87201017688022
 20
1354.145740610682
 30
0.0
 11
498.87201017688022
 21
1354.145740610682
 31
0.0
  0
LINE
  5
3750
  8
ﾁｭｳｼﾝｾﾝ1
 10
473.87201017688022
 20
1329.1457406106831
 30
0.0
 11
473.87201017688022
 21
1379.1457406106831
 31
0.0
  0
LINE
  5
3751
  8
ﾁｭｳｼﾝｾﾝ1
 10
678.87202017687923
 20
1354.145740610682
 30
0.0
 11
728.87202017687923
 21
1354.145740610682
 31
0.0
  0
LINE
  5
3752
  8
ﾁｭｳｼﾝｾﾝ1
 10
703.87202017687923
 20
1329.1457406106831
 30
0.0
 11
703.87202017687923
 21
1379.1457406106831
 31
0.0
  0
TEXT
  5
3935
  8
AM_0
 10
1076.755770715951
 20
1145.0351727461921
 30
0.0
 40
20.0
  1
VX75-040G~VX75-080G
  0
ENDSEC
  0
EOF
