  0
SECTION
  2
HEADER
  9
$ACADVER
  1
AC1009
  9
$INSBASE
 10
0.0
 20
0.0
 30
0.0
  9
$EXTMIN
 10
-610.54276977477434
 20
38.096799432481824
 30
-0.0000000000000058
  9
$EXTMAX
 10
-67.24981310655312
 20
438.18672819420169
 30
0.0000000000000104
  9
$LIMMIN
 10
0.0
 20
0.0
  9
$LIMMAX
 10
12.0
 20
9.0
  9
$ORTHOMODE
 70
     0
  9
$REGENMODE
 70
     1
  9
$FILLMODE
 70
     1
  9
$QTEXTMODE
 70
     0
  9
$MIRRTEXT
 70
     1
  9
$DRAGMODE
 70
     2
  9
$LTSCALE
 40
1.0
  9
$OSMODE
 70
   551
  9
$ATTMODE
 70
     1
  9
$TEXTSIZE
 40
0.2
  9
$TRACEWID
 40
0.05
  9
$TEXTSTYLE
  7
STANDARD
  9
$CLAYER
  8
0
  9
$CELTYPE
  6
CONTINUOUS
  9
$CECOLOR
 62
   256
  9
$DIMSCALE
 40
1.0
  9
$DIMASZ
 40
0.18
  9
$DIMEXO
 40
0.0625
  9
$DIMDLI
 40
0.38
  9
$DIMRND
 40
0.0
  9
$DIMDLE
 40
0.0
  9
$DIMEXE
 40
0.18
  9
$DIMTP
 40
0.0
  9
$DIMTM
 40
0.0
  9
$DIMTXT
 40
0.18
  9
$DIMCEN
 40
0.09
  9
$DIMTSZ
 40
0.0
  9
$DIMTOL
 70
     0
  9
$DIMLIM
 70
     0
  9
$DIMTIH
 70
     1
  9
$DIMTOH
 70
     1
  9
$DIMSE1
 70
     0
  9
$DIMSE2
 70
     0
  9
$DIMTAD
 70
     0
  9
$DIMZIN
 70
     0
  9
$DIMBLK
  1

  9
$DIMASO
 70
     1
  9
$DIMSHO
 70
     1
  9
$DIMPOST
  1

  9
$DIMAPOST
  1

  9
$DIMALT
 70
     0
  9
$DIMALTD
 70
     2
  9
$DIMALTF
 40
25.399999999999999
  9
$DIMLFAC
 40
1.0
  9
$DIMTOFL
 70
     0
  9
$DIMTVP
 40
0.0
  9
$DIMTIX
 70
     0
  9
$DIMSOXD
 70
     0
  9
$DIMSAH
 70
     0
  9
$DIMBLK1
  1

  9
$DIMBLK2
  1

  9
$DIMSTYLE
  2
STANDARD
  9
$DIMCLRD
 70
     0
  9
$DIMCLRE
 70
     0
  9
$DIMCLRT
 70
     0
  9
$DIMTFAC
 40
1.0
  9
$DIMGAP
 40
0.09
  9
$LUNITS
 70
     2
  9
$LUPREC
 70
     4
  9
$SKETCHINC
 40
0.1
  9
$FILLETRAD
 40
0.0
  9
$AUNITS
 70
     0
  9
$AUPREC
 70
     0
  9
$MENU
  1
.
  9
$ELEVATION
 40
0.0
  9
$PELEVATION
 40
0.0
  9
$THICKNESS
 40
0.0
  9
$LIMCHECK
 70
     0
  9
$BLIPMODE
 70
     0
  9
$CHAMFERA
 40
0.0
  9
$CHAMFERB
 40
0.0
  9
$SKPOLY
 70
     0
  9
$TDCREATE
 40
2452300.4219189351
  9
$TDUPDATE
 40
2458540.6746741212
  9
$TDINDWG
 40
0.0206353356
  9
$TDUSRTIMER
 40
0.0206352431
  9
$USRTIMER
 70
     1
  9
$ANGBASE
 50
0.0
  9
$ANGDIR
 70
     0
  9
$PDMODE
 70
     0
  9
$PDSIZE
 40
0.0
  9
$PLINEWID
 40
0.0
  9
$COORDS
 70
     1
  9
$SPLFRAME
 70
     0
  9
$SPLINETYPE
 70
     6
  9
$SPLINESEGS
 70
     8
  9
$ATTDIA
 70
     1
  9
$ATTREQ
 70
     1
  9
$HANDLING
 70
     1
  9
$HANDSEED
  5
D19
  9
$SURFTAB1
 70
     6
  9
$SURFTAB2
 70
     6
  9
$SURFTYPE
 70
     6
  9
$SURFU
 70
     6
  9
$SURFV
 70
     6
  9
$UCSNAME
  2

  9
$UCSORG
 10
0.0
 20
0.0
 30
0.0
  9
$UCSXDIR
 10
1.0
 20
0.0
 30
0.0
  9
$UCSYDIR
 10
0.0
 20
1.0
 30
0.0
  9
$PUCSNAME
  2

  9
$PUCSORG
 10
0.0
 20
0.0
 30
0.0
  9
$PUCSXDIR
 10
1.0
 20
0.0
 30
0.0
  9
$PUCSYDIR
 10
0.0
 20
1.0
 30
0.0
  9
$USERI1
 70
     0
  9
$USERI2
 70
     0
  9
$USERI3
 70
     0
  9
$USERI4
 70
     0
  9
$USERI5
 70
     0
  9
$USERR1
 40
0.0
  9
$USERR2
 40
0.0
  9
$USERR3
 40
0.0
  9
$USERR4
 40
0.0
  9
$USERR5
 40
0.0
  9
$WORLDVIEW
 70
     1
  9
$SHADEDGE
 70
     3
  9
$SHADEDIF
 70
    70
  9
$TILEMODE
 70
     1
  9
$MAXACTVP
 70
    64
  9
$PLIMCHECK
 70
     0
  9
$PEXTMIN
 10
1.0000000000000000E+020
 20
1.0000000000000000E+020
 30
1.0000000000000000E+020
  9
$PEXTMAX
 10
-1.0000000000000000E+020
 20
-1.0000000000000000E+020
 30
-1.0000000000000000E+020
  9
$PLIMMIN
 10
0.0
 20
0.0
  9
$PLIMMAX
 10
12.0
 20
9.0
  9
$UNITMODE
 70
     0
  9
$VISRETAIN
 70
     1
  9
$PLINEGEN
 70
     0
  9
$PSLTSCALE
 70
     1
  0
ENDSEC
  0
SECTION
  2
TABLES
  0
TABLE
  2
VPORT
 70
     1
  0
VPORT
  2
*ACTIVE
 70
     0
 10
0.0
 20
0.0
 11
1.0
 21
1.0
 12
-338.89629144066367
 22
238.1417638133417
 13
0.0
 23
0.0
 14
1.0
 24
1.0
 15
0.0
 25
0.0
 16
0.0
 26
0.0
 36
1.0
 17
0.0
 27
0.0
 37
0.0
 40
402.836541544981
 41
1.7571592210767459
 42
50.0
 43
0.0
 44
0.0
 50
0.0
 51
0.0
 71
     0
 72
   100
 73
     1
 74
     1
 75
     0
 76
     0
 77
     0
 78
     0
  0
ENDTAB
  0
TABLE
  2
LTYPE
 70
    20
  0
LTYPE
  2
CONTINUOUS
 70
     0
  3
Solid line
 72
    65
 73
     0
 40
0.0
  0
LTYPE
  2
DASHED
 70
     0
  3
__ __ __ __ __ __ __ __ __ __ __ __ __ __ __
 72
    65
 73
     2
 40
3.5
 49
2.0
 49
-1.5
  0
LTYPE
  2
CENTER
 70
     0
  3
____ _ ____ _ ____ _ ____ _ ____ _ ____ _ ____
 72
    65
 73
     4
 40
17.5
 49
13.0
 49
-1.5
 49
1.5
 49
-1.5
  0
LTYPE
  2
PHANTOM
 70
     0
  3
_____ _ _ _____ _ _ _____ _ _ _____ _ _ ____  
 72
    65
 73
     6
 40
15.5
 49
8.0
 49
-1.5
 49
1.5
 49
-1.5
 49
1.5
 49
-1.5
  0
LTYPE
  2
DOT
 70
     0
  3
. . . . . . . . . . . . . . . . . . . . . . . .
 72
    65
 73
     2
 40
0.25
 49
0.0
 49
-0.25
  0
LTYPE
  2
AM_ISO02W050
 70
     0
  3
__ __ __ __ __ __ __ __ __ __ __ __ __ __ __
 72
    65
 73
     2
 40
7.5
 49
6.0
 49
-1.5
  0
LTYPE
  2
AM_ISO08W050
 70
     0
  3
____ . ____ . ____ . ____ . ____ . ____ . ____
 72
    65
 73
     4
 40
18.0
 49
12.0
 49
-1.5
 49
3.0
 49
-1.5
  0
LTYPE
  2
AM_ISO09W050
 70
     0
  3
_____ . . _____ . . _____ . . ____ .. ____
 72
    65
 73
     6
 40
22.5
 49
12.0
 49
-1.5
 49
3.0
 49
-1.5
 49
3.0
 49
-1.5
  0
LTYPE
  2
AMCONSTR
 70
     0
  3
_______________________
 72
    65
 73
     2
 40
9999.0
 49
9999.0
 49
0.0
  0
LTYPE
  2
AM_ISO08W050X2
 70
     0
  3
__ . __ . __ . __ . __ . __
 72
    65
 73
     4
 40
9.0
 49
6.0
 49
-0.75
 49
1.5
 49
-0.75
  0
LTYPE
  2
AM_ISO02W050X2
 70
     0
  3
 _ _ _ _ _ _ _ _ _ _ _ _
 72
    65
 73
     2
 40
3.75
 49
3.0
 49
-0.75
  0
LTYPE
  2
AMZIGZAG
 70
     0
  3
/\/-/\/-/\/-/\/-/\/-/\/
 72
    65
 73
     2
 40
11.000099999999991
 49
0.0001
 49
-11.0
  0
LTYPE
  2
HIDDEN
 70
     0
  3
Hidden __ __ __ __ __ __ __ __ __ __ __ __ __ _
 72
    65
 73
     2
 40
0.375
 49
0.25
 49
-0.125
  0
LTYPE
  2
PHANTOM2
 70
     0
  3
Phantom (.5x) ___ _ _ ___ _ _ ___ _ _ ___ _ _
 72
    65
 73
     6
 40
1.25
 49
0.625
 49
-0.125
 49
0.125
 49
-0.125
 49
0.125
 49
-0.125
  0
LTYPE
  2
CENTER2
 70
     0
  3
Center (.5x) ___ _ ___ _ ___ _ ___ _ ___ _ ___
 72
    65
 73
     4
 40
1.125
 49
0.75
 49
-0.125
 49
0.125
 49
-0.125
  0
LTYPE
  2
HIDDEN2
 70
     0
  3
Hidden (.5x) _ _ _ _ _ _ _ _ _ _ _ _ _ _ _ _ _
 72
    65
 73
     2
 40
0.1875
 49
0.125
 49
-0.0625
  0
LTYPE
  2
AMZIGZAG2
 70
     0
  3
/\/-/\/-/\/-/\/-/\/-/\/
 72
    65
 73
     2
 40
0.4401
 49
0.0001
 49
-0.4400000000000003
  0
LTYPE
  2
ACANSTGB
 70
     0
  3
__ . . __ . .
 72
    65
 73
     6
 40
0.35433070866
 49
0.15748031496
 49
-0.03937007874
 49
0.03937007874
 49
-0.03937007874
 49
0.03937007874
 49
-0.03937007874
  0
LTYPE
  2
ACANSTGL
 70
     0
  3
_ _ _ _ _
 72
    65
 73
     2
 40
0.11811023622
 49
0.07874015748
 49
-0.03937007874
  0
ENDTAB
  0
TABLE
  2
LAYER
 70
     1
  0
LAYER
  2
0
 70
     0
 62
     7
  6
CONTINUOUS
  0
ENDTAB
  0
TABLE
  2
STYLE
 70
     5
  0
STYLE
  2
STANDARD
 70
     0
 40
0.0
 41
1.0
 50
0.0
 71
     0
 42
0.2
  3
txt
  4

  0
STYLE
  2
ANNOTATIVE
 70
     0
 40
0.0
 41
1.0
 50
0.0
 71
     0
 42
0.2
  3
txt
  4

  0
STYLE
  2

 70
     1
 40
0.0
 41
1.0
 50
0.0
 71
     0
 42
0.2
  3
ltypeshp.shx
  4

  0
STYLE
  2
ACANSTS
 70
     0
 40
1.0
 41
1.0
 50
0.0
 71
     0
 42
0.2
  3
romans.shx
  4
extfont.shx
  0
STYLE
  2
ACANSGDT
 70
     0
 40
0.0
 41
1.0
 50
0.0
 71
     0
 42
0.2
  3
amgdt.shx
  4

  0
ENDTAB
  0
TABLE
  2
VIEW
 70
     0
  0
ENDTAB
  0
TABLE
  2
UCS
 70
     0
  0
ENDTAB
  0
TABLE
  2
APPID
 70
    11
  0
APPID
  2
ACAD
 70
     0
  0
APPID
  2
ACADANNOTATIVE
 70
     0
  0
APPID
  2
MCAD_NO_VIS
 70
     0
  0
APPID
  2
ACAD_TEMP_GRAPHIC
 70
     0
  0
APPID
  2
ACATTRIBSERVICES
 70
     0
  0
APPID
  2
DESIGNERASSEMBLIES
 70
     0
  0
APPID
  2
ACAD_DSTYLE_DIMBREAK
 70
     0
  0
APPID
  2
ACAD_DSTYLE_DIMJAG
 70
     0
  0
APPID
  2
ACAD_NAV_VCDISPLAY
 70
     0
  0
APPID
  2
ACAD_EXEMPT_FROM_CAD_STANDARDS
 70
     0
  0
APPID
  2
ACAD_MLEADERVER
 70
     0
  0
ENDTAB
  0
TABLE
  2
DIMSTYLE
 70
     8
  0
DIMSTYLE
  2
STANDARD
 70
     0
  3

  4

  5

  6

  7

 40
1.0
 41
0.18
 42
0.0625
 43
0.38
 44
0.18
 45
0.0
 46
0.0
 47
0.0
 48
0.0
140
0.18
141
0.09
142
0.0
143
25.399999999999999
144
1.0
145
0.0
146
1.0
147
0.09
 71
     0
 72
     0
 73
     1
 74
     1
 75
     0
 76
     0
 77
     0
 78
     0
170
     0
171
     2
172
     0
173
     0
174
     0
175
     0
176
     0
177
     0
178
     0
  0
DIMSTYLE
  2
ANNOTATIVE
 70
     0
  3

  4

  5

  6

  7

 40
1.0
 41
0.18
 42
0.0625
 43
0.38
 44
0.18
 45
0.0
 46
0.0
 47
0.0
 48
0.0
140
0.18
141
0.09
142
0.0
143
25.399999999999999
144
1.0
145
0.0
146
1.0
147
0.09
 71
     0
 72
     0
 73
     1
 74
     1
 75
     0
 76
     0
 77
     0
 78
     0
170
     0
171
     2
172
     0
173
     0
174
     0
175
     0
176
     0
177
     0
178
     0
  0
DIMSTYLE
  2
AM_ANSI
 70
     0
  3

  4
mm
  5

  6

  7

 40
1.0
 41
0.1
 42
0.05
 43
0.5
 44
0.1
 45
0.0
 46
0.0
 47
0.1
 48
0.1
140
0.12
141
0.0
142
0.0
143
25.399999999999999
144
1.0
145
0.0
146
0.71
147
0.06
 71
     0
 72
     0
 73
     1
 74
     1
 75
     0
 76
     0
 77
     0
 78
     7
170
     0
171
     2
172
     0
173
     0
174
     0
175
     0
176
   256
177
   256
178
     2
  0
DIMSTYLE
  2
AM_ANSI$3
 70
     0
  3

  4
mm
  5

  6

  7

 40
1.0
 41
0.1
 42
0.05
 43
0.5
 44
0.1
 45
0.0
 46
0.0
 47
0.1
 48
0.1
140
0.12
141
0.0
142
0.0
143
25.399999999999999
144
1.0
145
0.0
146
0.71
147
0.06
 71
     0
 72
     0
 73
     1
 74
     1
 75
     0
 76
     0
 77
     0
 78
     7
170
     0
171
     2
172
     0
173
     0
174
     0
175
     0
176
   256
177
   256
178
     2
  0
DIMSTYLE
  2
AM_ANSI$4
 70
     0
  3

  4
mm
  5

  6

  7

 40
1.0
 41
0.1
 42
0.05
 43
0.5
 44
0.1
 45
0.0
 46
0.0
 47
0.1
 48
0.1
140
0.12
141
0.0
142
0.0
143
25.399999999999999
144
1.0
145
0.0
146
0.71
147
0.06
 71
     0
 72
     0
 73
     1
 74
     1
 75
     0
 76
     0
 77
     0
 78
     7
170
     0
171
     2
172
     0
173
     0
174
     0
175
     0
176
   256
177
   256
178
     2
  0
DIMSTYLE
  2
AM_ANSI$7
 70
     0
  3

  4
mm
  5

  6

  7

 40
1.0
 41
0.1
 42
0.05
 43
0.5
 44
0.1
 45
0.0
 46
0.0
 47
0.1
 48
0.1
140
0.24
141
0.0
142
0.0
143
25.399999999999999
144
1.0
145
0.0
146
0.71
147
0.06
 71
     0
 72
     0
 73
     1
 74
     1
 75
     0
 76
     0
 77
     0
 78
     7
170
     0
171
     2
172
     0
173
     0
174
     0
175
     0
176
   256
177
   256
178
     2
  0
DIMSTYLE
  2
AM_ANSI$SF
 70
     0
  3

  4
mm
  5

  6

  7

 40
1.0
 41
0.1
 42
0.05
 43
0.5
 44
0.1
 45
0.0
 46
0.0
 47
0.1
 48
0.1
140
0.12
141
0.0
142
0.0
143
25.399999999999999
144
1.0
145
0.0
146
0.71
147
0.06
 71
     0
 72
     0
 73
     1
 74
     1
 75
     1
 76
     1
 77
     0
 78
     7
170
     0
171
     2
172
     0
173
     0
174
     0
175
     0
176
   256
177
   256
178
     2
  0
DIMSTYLE
  2
AM_ANSI$SH
 70
     0
  3

  4
mm
  5

  6

  7

 40
1.0
 41
0.1
 42
0.05
 43
0.5
 44
0.1
 45
0.0
 46
0.0
 47
0.1
 48
0.1
140
0.12
141
0.0
142
0.0
143
25.399999999999999
144
1.0
145
0.0
146
0.71
147
0.06
 71
     0
 72
     0
 73
     1
 74
     1
 75
     1
 76
     1
 77
     0
 78
     7
170
     0
171
     2
172
     0
173
     1
174
     0
175
     0
176
   256
177
   256
178
     2
  0
ENDTAB
  0
ENDSEC
  0
SECTION
  2
BLOCKS
  0
BLOCK
  8
0
  2
$MODEL_SPACE
 70
     0
 10
0.0
 20
0.0
 30
0.0
  3
$MODEL_SPACE
  1

  0
ENDBLK
  5
C20
  8
0
  0
BLOCK
 67
     1
  8
0
  2
$PAPER_SPACE
 70
     0
 10
0.0
 20
0.0
 30
0.0
  3
$PAPER_SPACE
  1

  0
ENDBLK
  5
C1C
 67
     1
  8
0
  0
BLOCK
  8
0
  2
GENAXEH
 70
     0
 10
0.0
 20
0.0
 30
0.0
  3
GENAXEH
  1

  0
LINE
  5
56F
  8
0
 10
-1.0
 20
0.0
 30
0.0
 11
1.0
 21
0.0
 31
0.0
  0
ENDBLK
  5
570
  8
0
  0
BLOCK
  8
0
  2
_ACMFILLEDHALF
 70
     0
 10
0.0
 20
0.0
 30
0.0
  3
_ACMFILLEDHALF
  1

  0
TRACE
  5
B22
  8
0
  6
CONTINUOUS
 62
     0
 10
-0.8
 20
0.0
 30
0.0
 11
-1.0
 21
0.166666666
 31
0.0
 12
0.0
 22
0.0
 32
0.0
 13
0.0
 23
0.0
 33
0.0
  0
LINE
  5
B23
  8
0
  6
CONTINUOUS
 62
     0
 10
-1.0
 20
0.0
 30
0.0
 11
-0.8
 21
0.0
 31
0.0
  0
ENDBLK
  5
B21
  8
0
  0
BLOCK
  8
0
  2
*U4
 70
     1
 10
0.0
 20
0.0
 30
0.0
  3
*U4
  1

  0
TEXT
  5
BA9
  8
0
  6
CONTINUOUS
 62
     0
 10
-0.1136362120691853
 20
-0.7803027296123357
 30
0.0
 40
10.0
  1
ＶＸ０１－００３Ｍ～ＶＸ０１－０５０ＥＭ
  0
ENDBLK
  5
BAB
  8
0
  0
BLOCK
  8
0
  2
*U5
 70
     1
 10
0.0
 20
0.0
 30
0.0
  3
*U5
  1

  0
TEXT
  5
BAD
  8
0
  6
CONTINUOUS
 62
     0
 10
-276.82514842416413
 20
235.5609222468911
 30
0.0
 40
10.0
  1
ＶＸ０１－０６０Ｍ～ＶＸ０１－２００Ｍ
  0
ENDBLK
  5
BAF
  8
0
  0
BLOCK
  8
0
  2
A$C4BF8743D
 70
     0
 10
0.0
 20
0.0
 30
0.0
  3
A$C4BF8743D
  1

  0
TEXT
  5
CB6
  8
0
  6
CONTINUOUS
 62
     0
 10
0.0000006692197303
 20
-0.0000004412511316
 30
0.0
 40
10.0
  1
VX01-003MF~VX01-050MF
  0
ENDBLK
  5
CB8
  8
0
  0
ENDSEC
  0
SECTION
  2
ENTITIES
  0
LINE
  5
571
  8
0
  6
CENTER
 62
     7
 10
-608.54247999999995
 20
360.16665999999992
 30
0.0
 11
-326.00188999999989
 21
360.16665999999992
 31
0.0
  0
LINE
  5
572
  8
0
  6
CONTINUOUS
 62
     7
 10
-208.1728099999998
 20
158.5772399999999
 30
0.0
 11
-202.8387899999999
 21
156.36780999999991
 31
0.0
  0
LINE
  5
573
  8
0
  6
CONTINUOUS
 62
     7
 10
-208.92641
 20
164.3013599999999
 30
0.0
 11
-208.17282
 21
158.57726
 31
0.0
  0
LINE
  5
574
  8
0
  6
CONTINUOUS
 62
     7
 10
-204.34597999999991
 20
167.81605999999999
 30
0.0
 11
-208.92641
 21
164.3013599999999
 31
0.0
  0
LINE
  5
575
  8
0
  6
CONTINUOUS
 62
     7
 10
-199.0119599999999
 20
165.6065999999999
 30
0.0
 11
-204.34597999999991
 21
167.81602000000001
 31
0.0
  0
LINE
  5
576
  8
0
  6
CONTINUOUS
 62
     7
 10
-198.25837999999999
 20
159.88252
 30
0.0
 11
-199.0119599999999
 21
165.60662999999991
 31
0.0
  0
LINE
  5
577
  8
0
  6
CONTINUOUS
 62
     7
 10
-91.549910999999994
 20
165.60651999999999
 30
0.0
 11
-92.303505000000001
 21
159.88241999999991
 31
0.0
  0
LINE
  5
578
  8
0
  6
CONTINUOUS
 62
     7
 10
-92.303466999999998
 20
159.88241999999991
 30
0.0
 11
-87.723044999999999
 21
156.36773999999991
 31
0.0
  0
LINE
  5
579
  8
0
  6
CONTINUOUS
 62
     7
 10
-86.215857999999983
 20
167.81598999999991
 30
0.0
 11
-91.549881000000013
 21
165.60657
 31
0.0
  0
LINE
  5
57A
  8
0
  6
CONTINUOUS
 62
     7
 10
-202.8387899999999
 20
156.36783
 30
0.0
 11
-198.25836000000001
 21
159.88252
 31
0.0
  0
LINE
  5
57B
  8
0
  6
CONTINUOUS
 62
     7
 10
-81.635429000000016
 20
164.30126999999979
 30
0.0
 11
-86.215851000000001
 21
167.8159499999999
 31
0.0
  0
LINE
  5
57C
  8
0
  6
CONTINUOUS
 62
     7
 10
-87.723044999999999
 20
156.36777000000001
 30
0.0
 11
-82.389022999999966
 21
158.57719
 31
0.0
  0
LINE
  5
57D
  8
0
  6
CONTINUOUS
 62
     7
 10
-360.19301999999982
 20
152.34792999999991
 30
0.0
 11
-360.19301999999982
 21
149.34792999999991
 31
0.0
  0
LINE
  5
57E
  8
0
  6
CENTER
 62
     1
 10
-145.2809399999999
 20
191.04806999999991
 30
0.0
 11
-145.2809399999999
 21
38.113655000000001
 31
0.0
  0
LINE
  5
57F
  8
0
  6
CENTER
 62
     1
 10
-324.48052999999987
 20
137.34792999999991
 30
0.0
 11
-417.48205999999999
 21
137.34792999999991
 31
0.0
  0
LINE
  5
580
  8
0
  6
CONTINUOUS
 62
     7
 10
-368.19301999999999
 20
125.34793000000001
 30
0.0
 11
-328.19299000000001
 21
125.34793000000001
 31
0.0
  0
LINE
  5
581
  8
0
  6
CONTINUOUS
 62
     7
 10
-368.19301999999999
 20
149.34792999999991
 30
0.0
 11
-328.19299000000001
 21
149.34792999999991
 31
0.0
  0
LINE
  5
582
  8
0
  6
CONTINUOUS
 62
     7
 10
-368.19301999999999
 20
149.84792999999991
 30
0.0
 11
-368.19301999999999
 21
124.8479499999999
 31
0.0
  0
LINE
  5
583
  8
0
  6
CONTINUOUS
 62
     7
 10
-328.19299000000001
 20
152.34792999999991
 30
0.0
 11
-328.19299000000001
 21
125.34793000000001
 31
0.0
  0
LINE
  5
584
  8
0
  6
CONTINUOUS
 62
     7
 10
-370.19299000000001
 20
149.84792999999991
 30
0.0
 11
-368.19301999999999
 21
149.84792999999991
 31
0.0
  0
LINE
  5
585
  8
0
  6
CONTINUOUS
 62
     7
 10
-370.19299000000001
 20
124.8479499999999
 30
0.0
 11
-368.19301999999999
 21
124.8479499999999
 31
0.0
  0
LINE
  5
586
  8
0
  6
CENTER
 62
     1
 10
-182.44952000000001
 20
137.34792999999991
 30
0.0
 11
-109.5836199999999
 21
137.34792999999991
 31
0.0
  0
LINE
  5
587
  8
0
  6
CONTINUOUS
 62
     7
 10
-360.19301999999982
 20
152.34792999999991
 30
0.0
 11
-328.19299000000001
 21
152.34792999999991
 31
0.0
  0
LINE
  5
588
  8
0
  6
CONTINUOUS
 62
     7
 10
-149.28093999999979
 20
152.34792999999991
 30
0.0
 11
-141.28095999999991
 21
152.34792999999991
 31
0.0
  0
LINE
  5
589
  8
0
  6
CONTINUOUS
 62
     7
 10
-149.28093999999979
 20
145.34792999999979
 30
0.0
 11
-141.28095999999991
 21
145.34792999999979
 31
0.0
  0
LINE
  5
58A
  8
0
  6
CONTINUOUS
 62
     1
 10
-149.28093999999979
 20
152.34792999999991
 30
0.0
 11
-149.28093999999979
 21
145.34792999999979
 31
0.0
  0
LINE
  5
58B
  8
0
  6
CONTINUOUS
 62
     7
 10
-178.74225999999999
 20
51.652233000000003
 30
0.0
 11
-177.9886799999999
 21
45.928127000000003
 31
0.0
  0
LINE
  5
58C
  8
0
  6
CONTINUOUS
 62
     7
 10
-177.98863
 20
45.928103999999998
 30
0.0
 11
-172.65461999999999
 21
43.718680999999989
 31
0.0
  0
LINE
  5
58D
  8
0
  6
CONTINUOUS
 62
     7
 10
-174.1618
 20
55.166916000000001
 30
0.0
 11
-178.74223000000001
 21
51.652228999999991
 31
0.0
  0
LINE
  5
58E
  8
0
  6
CONTINUOUS
 62
     7
 10
-168.8277699999999
 20
52.957478000000002
 30
0.0
 11
-174.16179
 21
55.166901000000003
 31
0.0
  0
LINE
  5
58F
  8
0
  6
CONTINUOUS
 62
     7
 10
-172.65463
 20
43.718707999999992
 30
0.0
 11
-168.07419999999991
 21
47.233395000000002
 31
0.0
  0
LINE
  5
590
  8
0
  6
CONTINUOUS
 62
     7
 10
-168.07419999999991
 20
47.23339099999999
 30
0.0
 11
-168.82779999999991
 21
52.957496999999996
 31
0.0
  0
LINE
  5
591
  8
0
  6
CONTINUOUS
 62
     7
 10
-112.57326
 20
45.92812
 30
0.0
 11
-111.81967
 21
51.652221999999981
 31
0.0
  0
LINE
  5
592
  8
0
  6
CONTINUOUS
 62
     7
 10
-117.90725999999999
 20
43.718711999999996
 30
0.0
 11
-112.57323
 21
45.928134999999997
 31
0.0
  0
LINE
  5
593
  8
0
  6
CONTINUOUS
 62
     7
 10
-111.81965
 20
51.652209999999982
 30
0.0
 11
-116.40007
 21
55.166893000000002
 31
0.0
  0
LINE
  5
594
  8
0
  6
CONTINUOUS
 62
     7
 10
-116.40006
 20
55.166916000000001
 30
0.0
 11
-121.7340899999999
 21
52.957492999999999
 31
0.0
  0
LINE
  5
595
  8
0
  6
CONTINUOUS
 62
     7
 10
-122.48768
 20
47.233363999999987
 30
0.0
 11
-117.90725999999999
 21
43.718680999999989
 31
0.0
  0
LINE
  5
596
  8
0
  6
CONTINUOUS
 62
     7
 10
-121.7341199999999
 20
52.957484999999998
 30
0.0
 11
-122.4877199999999
 21
47.233383000000003
 31
0.0
  0
LINE
  5
597
  8
0
  6
CONTINUOUS
 62
     1
 10
-141.28095999999991
 20
152.34792999999991
 30
0.0
 11
-141.28095999999991
 21
145.34792999999979
 31
0.0
  0
LINE
  5
598
  8
0
  6
CONTINUOUS
 62
     7
 10
-423.19301999999982
 20
167.8654299999998
 30
0.0
 11
-420.19301999999988
 21
167.8654299999998
 31
0.0
  0
LINE
  5
599
  8
0
  6
CONTINUOUS
 62
     7
 10
-423.19301999999982
 20
156.31842
 30
0.0
 11
-420.19301999999988
 21
156.31842
 31
0.0
  0
LINE
  5
59A
  8
0
  6
CONTINUOUS
 62
     7
 10
-423.19301999999982
 20
159.20516999999981
 30
0.0
 11
-420.19301999999988
 21
159.20516999999981
 31
0.0
  0
LINE
  5
59B
  8
0
  6
CONTINUOUS
 62
     7
 10
-423.19301999999982
 20
164.97866999999991
 30
0.0
 11
-420.19301999999988
 21
164.97866999999991
 31
0.0
  0
LINE
  5
59C
  8
0
  6
CONTINUOUS
 62
     7
 10
-419.19301999999988
 20
157.3184099999998
 30
0.0
 11
-419.19301999999988
 21
166.86543
 31
0.0
  0
LINE
  5
59D
  8
0
  6
CONTINUOUS
 62
     7
 10
-423.19301999999982
 20
168.86545000000001
 30
0.0
 11
-423.19301999999982
 21
155.31841
 31
0.0
  0
LINE
  5
59E
  8
0
  6
CONTINUOUS
 62
     7
 10
-424.19299000000001
 20
168.86545000000001
 30
0.0
 11
-423.19301999999982
 21
168.86545000000001
 31
0.0
  0
LINE
  5
59F
  8
0
  6
CONTINUOUS
 62
     7
 10
-424.19299000000001
 20
155.31841
 30
0.0
 11
-423.19301999999982
 21
155.31841
 31
0.0
  0
LINE
  5
5A0
  8
0
  6
CENTER
 62
     1
 10
-364.50893999999988
 20
137.34792999999991
 30
0.0
 11
-458.41311999999988
 21
137.34792999999991
 31
0.0
  0
LINE
  5
5A1
  8
0
  6
CONTINUOUS
 62
     7
 10
-81.635490000000004
 20
164.30135000000001
 30
0.0
 11
-82.389083999999968
 21
158.5772399999999
 31
0.0
  0
LINE
  5
5A2
  8
0
  6
CONTINUOUS
 62
     7
 10
-445.19299000000001
 20
160.84228999999979
 30
0.0
 11
-444.19301999999988
 21
160.84228999999979
 31
0.0
  0
LINE
  5
5A3
  8
0
  6
CONTINUOUS
 62
     7
 10
-447.19301999999999
 20
145.37595999999991
 30
0.0
 11
-442.19299000000001
 21
145.37595999999991
 31
0.0
  0
LINE
  5
5A4
  8
0
  6
CONTINUOUS
 62
     7
 10
-447.19301999999999
 20
68.132194999999996
 30
0.0
 11
-442.19299000000001
 21
68.132194999999996
 31
0.0
  0
LINE
  5
5A5
  8
0
  6
CONTINUOUS
 62
     7
 10
-442.19299000000001
 20
186.34795
 30
0.0
 11
-442.19299000000001
 21
171.01508000000001
 31
0.0
  0
LINE
  5
5A6
  8
0
  6
CONTINUOUS
 62
     7
 10
-445.19299000000001
 20
169.0150899999999
 30
0.0
 11
-444.19301999999988
 21
169.0150899999999
 31
0.0
  0
LINE
  5
5A7
  8
0
  6
CONTINUOUS
 62
     7
 10
-440.19298999999978
 20
188.34792999999991
 30
0.0
 11
-435.19301999999988
 21
188.34792999999991
 31
0.0
  0
LINE
  5
5A8
  8
0
  6
CONTINUOUS
 62
     7
 10
-473.19298999999978
 20
71.347938999999997
 30
0.0
 11
-442.19299000000001
 21
71.347938999999997
 31
0.0
  0
LINE
  5
5A9
  8
0
  6
CONTINUOUS
 62
     7
 10
-473.19298999999978
 20
61.347931000000003
 30
0.0
 11
-473.19298999999978
 21
173.34792999999991
 31
0.0
  0
LINE
  5
5AA
  8
0
  6
CONTINUOUS
 62
     7
 10
-473.19295999999991
 20
61.347935
 30
0.0
 11
-450.11444
 21
60.743603
 31
0.0
  0
LINE
  5
5AB
  8
0
  6
CENTER
 62
     7
 10
-610.51427999999999
 20
117.34795
 30
0.0
 11
-428.2191199999998
 21
117.34795
 31
0.0
  0
LINE
  5
5AC
  8
0
  6
CONTINUOUS
 62
     7
 10
-473.19298999999978
 20
173.34792999999991
 30
0.0
 11
-447.06209999999999
 21
174.0321999999999
 31
0.0
  0
LINE
  5
5AD
  8
0
  6
CONTINUOUS
 62
     7
 10
-473.19298999999978
 20
85.410918999999964
 30
0.0
 11
-442.19299000000001
 21
85.410918999999964
 31
0.0
  0
LINE
  5
5AE
  8
0
  6
CONTINUOUS
 62
     7
 10
-473.19298999999978
 20
163.34792999999991
 30
0.0
 11
-447.19301999999999
 21
163.34792999999991
 31
0.0
  0
LINE
  5
5AF
  8
0
  6
CONTINUOUS
 62
     7
 10
-447.19301999999999
 20
66.132179000000008
 30
0.0
 11
-447.19301999999999
 21
54.347946
 31
0.0
  0
LINE
  5
5B0
  8
0
  6
CONTINUOUS
 62
     7
 10
-473.19298999999978
 20
149.28493999999981
 30
0.0
 11
-447.19301999999999
 21
149.28493999999981
 31
0.0
  0
LINE
  5
5B1
  8
0
  6
CONTINUOUS
 62
     7
 10
-442.19299000000001
 20
158.8422699999999
 30
0.0
 11
-442.19299000000001
 21
54.45957199999998
 31
0.0
  0
LINE
  5
5B2
  8
0
  6
CONTINUOUS
 62
     7
 10
-447.19301999999999
 20
167.01508999999979
 30
0.0
 11
-447.19301999999999
 21
147.37598
 31
0.0
  0
LINE
  5
5B3
  8
0
  6
CONTINUOUS
 62
     7
 10
-421.19299000000001
 20
150.69664
 30
0.0
 11
-398.35827999999992
 21
150.69664
 31
0.0
  0
LINE
  5
5B4
  8
0
  6
CONTINUOUS
 62
     7
 10
-432.19301999999988
 20
124.56419
 30
0.0
 11
-421.19299000000001
 21
124.56419
 31
0.0
  0
LINE
  5
5B5
  8
0
  6
CONTINUOUS
 62
     7
 10
-408.36339999999979
 20
150.69666000000001
 30
0.0
 11
-421.19301999999999
 21
124.5642099999999
 31
0.0
  0
LINE
  5
5B6
  8
0
  6
CONTINUOUS
 62
     7
 10
-421.19299000000001
 20
150.69664
 30
0.0
 11
-421.19299000000001
 21
124.56419
 31
0.0
  0
LINE
  5
5B7
  8
0
  6
CONTINUOUS
 62
     7
 10
-421.19299000000001
 20
187.9027699999998
 30
0.0
 11
-407.61102
 21
168.87538000000001
 31
0.0
  0
LINE
  5
5B8
  8
0
  6
CONTINUOUS
 62
     7
 10
-421.19299000000001
 20
187.9027899999999
 30
0.0
 11
-421.19299000000001
 21
168.87540000000001
 31
0.0
  0
LINE
  5
5B9
  8
0
  6
CONTINUOUS
 62
     7
 10
-372.19301999999999
 20
109.6932199999999
 30
0.0
 11
-371.19301999999988
 21
110.27057000000001
 31
0.0
  0
LINE
  5
5BA
  8
0
  6
CONTINUOUS
 62
     7
 10
-372.19299000000001
 20
165.0026399999999
 30
0.0
 11
-371.19299000000001
 21
164.42528999999979
 31
0.0
  0
LINE
  5
5BB
  8
0
  6
CONTINUOUS
 62
     7
 10
-424.19299000000001
 20
173.8747299999998
 30
0.0
 11
-424.19299000000001
 21
150.97266999999991
 31
0.0
  0
LINE
  5
5BC
  8
0
  6
CONTINUOUS
 62
     7
 10
-438.35247999999979
 20
58.310420999999998
 30
0.0
 11
-432.30181999999991
 21
86.834892000000025
 31
0.0
  0
LINE
  5
5BD
  8
0
  6
CONTINUOUS
 62
     7
 10
-395.19299000000001
 20
42.347945999999993
 30
0.0
 11
-395.19299000000001
 21
42.347945999999993
 31
0.0
  0
LINE
  5
5BE
  8
0
  6
CONTINUOUS
 62
     7
 10
-97.280945000000003
 20
122.34793000000001
 30
0.0
 11
-97.280945000000003
 21
59.347938999999982
 31
0.0
  0
LINE
  5
5BF
  8
0
  6
CONTINUOUS
 62
     7
 10
-193.28093999999999
 20
122.34793000000001
 30
0.0
 11
-193.28093999999999
 21
59.347938999999982
 31
0.0
  0
LINE
  5
5C0
  8
0
  6
CONTINUOUS
 62
     1
 10
-198.28093000000001
 20
152.60048
 30
0.0
 11
-198.28093000000001
 21
91.347931000000017
 31
0.0
  0
LINE
  5
5C1
  8
0
  6
CONTINUOUS
 62
     7
 10
-391.19299000000001
 20
155.13873000000001
 30
0.0
 11
-386.19299000000001
 21
155.13873000000001
 31
0.0
  0
LINE
  5
5C2
  8
0
  6
CONTINUOUS
 62
     7
 10
-67.280944999999988
 20
42.347945999999993
 30
0.0
 11
-67.280944999999988
 21
54.347946
 31
0.0
  0
LINE
  5
5C3
  8
0
  6
CONTINUOUS
 62
     1
 10
-92.280952000000013
 20
152.60048
 30
0.0
 11
-92.280952000000013
 21
91.347931000000017
 31
0.0
  0
LINE
  5
5C4
  8
0
  6
CONTINUOUS
 62
     7
 10
-193.28093999999999
 20
42.347945999999993
 30
0.0
 11
-193.28093999999999
 21
52.347954000000001
 31
0.0
  0
LINE
  5
5C5
  8
0
  6
CONTINUOUS
 62
     7
 10
-184.2809399999999
 20
54.347946
 30
0.0
 11
-184.2809399999999
 21
48.347946
 31
0.0
  0
LINE
  5
5C6
  8
0
  6
CONTINUOUS
 62
     7
 10
-399.19301999999999
 20
69.388756000000001
 30
0.0
 11
-390.19301999999988
 21
69.388756000000001
 31
0.0
  0
LINE
  5
5C7
  8
0
  6
CONTINUOUS
 62
     7
 10
-95.280951999999999
 20
54.347946
 30
0.0
 11
-69.280936999999994
 21
54.347946
 31
0.0
  0
LINE
  5
5C8
  8
0
  6
CONTINUOUS
 62
     7
 10
-67.280944999999988
 20
42.347945999999993
 30
0.0
 11
-97.280945000000003
 21
42.347945999999993
 31
0.0
  0
LINE
  5
5C9
  8
0
  6
DASHED
 62
     7
 10
-74.280945000000003
 20
54.347946
 30
0.0
 11
-74.280945000000003
 21
42.347945999999993
 31
0.0
  0
LINE
  5
5CA
  8
0
  6
CONTINUOUS
 62
     7
 10
-386.19299000000001
 20
182.19402999999991
 30
0.0
 11
-386.19299000000001
 21
73.388741000000024
 31
0.0
  0
LINE
  5
5CB
  8
0
  6
CONTINUOUS
 62
     7
 10
-223.2809399999999
 20
54.347942000000003
 30
0.0
 11
-212.51252999999991
 21
156.97810000000001
 31
0.0
  0
LINE
  5
5CC
  8
0
  6
CONTINUOUS
 62
     7
 10
-399.19301999999999
 20
147.13874999999979
 30
0.0
 11
-399.19301999999999
 21
59.347938999999982
 31
0.0
  0
LINE
  5
5CD
  8
0
  6
CONTINUOUS
 62
     7
 10
-439.19299000000001
 20
42.347945999999993
 30
0.0
 11
-439.19299000000001
 21
42.347945999999993
 31
0.0
  0
LINE
  5
5CE
  8
0
  6
DASHED
 62
     7
 10
-388.19299000000001
 20
54.347946
 30
0.0
 11
-388.19299000000001
 21
42.347945999999993
 31
0.0
  0
LINE
  5
5CF
  8
0
  6
CONTINUOUS
 62
     7
 10
-421.19299000000001
 20
168.87540000000001
 30
0.0
 11
-386.19299000000001
 21
168.87540000000001
 31
0.0
  0
LINE
  5
5D0
  8
0
  6
DASHED
 62
     7
 10
-86.280951999999999
 20
54.347946
 30
0.0
 11
-86.280951999999999
 21
42.347945999999993
 31
0.0
  0
LINE
  5
5D1
  8
0
  6
DASHED
 62
     7
 10
-376.19299000000001
 20
54.347946
 30
0.0
 11
-376.19299000000001
 21
42.347945999999993
 31
0.0
  0
LINE
  5
5D2
  8
0
  6
CONTINUOUS
 62
     7
 10
-394.19299000000001
 20
54.347946
 30
0.0
 11
-372.19301999999999
 21
54.347946
 31
0.0
  0
LINE
  5
5D3
  8
0
  6
CONTINUOUS
 62
     7
 10
-432.19301999999988
 20
124.56419
 30
0.0
 11
-432.19301999999988
 21
87.872406000000026
 31
0.0
  0
LINE
  5
5D4
  8
0
  6
CONTINUOUS
 62
     7
 10
-195.28093000000001
 20
54.347946
 30
0.0
 11
-221.2809399999999
 21
54.347946
 31
0.0
  0
LINE
  5
5D5
  8
0
  6
CONTINUOUS
 62
     7
 10
-223.2809399999999
 20
42.347945999999993
 30
0.0
 11
-193.28093999999999
 21
42.347945999999993
 31
0.0
  0
LINE
  5
5D6
  8
0
  6
CONTINUOUS
 62
     7
 10
-223.2809399999999
 20
42.347945999999993
 30
0.0
 11
-223.2809399999999
 21
54.347946
 31
0.0
  0
LINE
  5
5D7
  8
0
  6
DASHED
 62
     7
 10
-216.2809299999999
 20
54.347946
 30
0.0
 11
-216.2809299999999
 21
42.347945999999993
 31
0.0
  0
LINE
  5
5D8
  8
0
  6
DASHED
 62
     7
 10
-204.28093000000001
 20
54.347946
 30
0.0
 11
-204.28093000000001
 21
42.347945999999993
 31
0.0
  0
LINE
  5
5D9
  8
0
  6
DASHED
 62
     7
 10
-458.19299000000001
 20
54.347946
 30
0.0
 11
-458.19299000000001
 21
42.347945999999993
 31
0.0
  0
LINE
  5
5DA
  8
0
  6
DASHED
 62
     7
 10
-446.19299000000001
 20
54.347946
 30
0.0
 11
-446.19299000000001
 21
42.347945999999993
 31
0.0
  0
LINE
  5
5DB
  8
0
  6
CONTINUOUS
 62
     7
 10
-370.19299000000001
 20
52.347931000000003
 30
0.0
 11
-370.19299000000001
 21
42.347945999999993
 31
0.0
  0
LINE
  5
5DC
  8
0
  6
CONTINUOUS
 62
     7
 10
-438.19301999999999
 20
43.347931000000003
 30
0.0
 11
-396.19301999999988
 21
43.347931000000003
 31
0.0
  0
LINE
  5
5DD
  8
0
  6
CONTINUOUS
 62
     7
 10
-464.19299000000001
 20
52.347931000000003
 30
0.0
 11
-464.19299000000001
 21
42.347945999999993
 31
0.0
  0
LINE
  5
5DE
  8
0
  6
CONTINUOUS
 62
     7
 10
-373.19299000000001
 20
167.59895
 30
0.0
 11
-373.19299000000001
 21
58.092498999999997
 31
0.0
  0
LINE
  5
5DF
  8
0
  6
CONTINUOUS
 62
     7
 10
-381.62877999999989
 20
171.08597
 30
0.0
 11
-375.93151999999992
 21
170.5875199999999
 31
0.0
  0
LINE
  5
5E0
  8
0
  6
CONTINUOUS
 62
     7
 10
-435.19296000000003
 20
188.34791999999999
 30
0.0
 11
-391.06209999999987
 21
187.19231999999991
 31
0.0
  0
LINE
  5
5E1
  8
0
  6
CONTINUOUS
 62
     7
 10
-435.19301999999988
 20
188.34792999999991
 30
0.0
 11
-435.19301999999988
 21
73.20508599999998
 31
0.0
  0
LINE
  5
5E2
  8
0
  6
CENTER
 62
     7
 10
-452.19298999999978
 20
56.360999999999983
 30
0.0
 11
-452.19298999999978
 21
40.347946
 31
0.0
  0
LINE
  5
5E3
  8
0
  6
CONTINUOUS
 62
     7
 10
-395.19299000000001
 20
42.347945999999993
 30
0.0
 11
-370.19299000000001
 21
42.347945999999993
 31
0.0
  0
LINE
  5
5E4
  8
0
  6
CONTINUOUS
 62
     7
 10
-462.19301999999999
 20
54.347946
 30
0.0
 11
-443.24365
 21
54.347946
 31
0.0
  0
LINE
  5
5E5
  8
0
  6
CONTINUOUS
 62
     7
 10
-464.19299000000001
 20
42.347945999999993
 30
0.0
 11
-439.19299000000001
 21
42.347945999999993
 31
0.0
  0
LINE
  5
5E6
  8
0
  6
CENTER
 62
     7
 10
-382.19299000000001
 20
56.360999999999983
 30
0.0
 11
-382.19299000000001
 21
40.347946
 31
0.0
  0
LINE
  5
5E7
  8
0
  6
CENTER
 62
     1
 10
-364.50893999999988
 20
137.34792999999991
 30
0.0
 11
-439.08413999999999
 21
137.34792999999991
 31
0.0
  0
LINE
  5
5E8
  8
0
  6
CONTINUOUS
 62
     7
 10
-179.2809399999999
 20
59.347938999999982
 30
0.0
 11
-111.2809399999999
 21
59.347938999999982
 31
0.0
  0
LINE
  5
5E9
  8
0
  6
CENTER
 62
     1
 10
-80.280944999999988
 20
56.087291999999991
 30
0.0
 11
-80.280944999999988
 21
40.229613999999977
 31
0.0
  0
LINE
  5
5EA
  8
0
  6
CONTINUOUS
 62
     7
 10
-106.2809399999999
 20
54.347946
 30
0.0
 11
-106.2809399999999
 21
48.347946
 31
0.0
  0
LINE
  5
5EB
  8
0
  6
CENTER
 62
     1
 10
-210.28095999999999
 20
55.689467999999991
 30
0.0
 11
-210.28095999999999
 21
40.449261
 31
0.0
  0
LINE
  5
5EC
  8
0
  6
CONTINUOUS
 62
     7
 10
-97.280945000000003
 20
42.347945999999993
 30
0.0
 11
-97.280945000000003
 21
52.347954000000001
 31
0.0
  0
LINE
  5
5ED
  8
0
  6
CONTINUOUS
 62
     7
 10
-187.2809399999999
 20
45.347946
 30
0.0
 11
-191.28093999999999
 21
45.347946
 31
0.0
  0
LINE
  5
5EE
  8
0
  6
CONTINUOUS
 62
     7
 10
-98.280951999999985
 20
43.347953999999987
 30
0.0
 11
-192.28093000000001
 21
43.347953999999987
 31
0.0
  0
LINE
  5
5EF
  8
0
  6
CONTINUOUS
 62
     7
 10
-99.280936999999994
 20
45.347946
 30
0.0
 11
-103.28094
 21
45.347946
 31
0.0
  0
LINE
  5
5F0
  8
0
  6
CONTINUOUS
 62
     7
 10
-67.280944999999988
 20
54.347946
 30
0.0
 11
-78.049369999999982
 21
156.97812999999999
 31
0.0
  0
LINE
  5
5F1
  8
0
  6
CONTINUOUS
 62
     7
 10
-370.19299000000001
 20
112.0026399999999
 30
0.0
 11
-370.19299000000001
 21
162.69324
 31
0.0
  0
LINE
  5
5F2
  8
0
  6
CENTER
 62
     7
 10
-532.19298999999967
 20
155.94182000000001
 30
0.0
 11
-532.19298999999967
 21
74.695220999999975
 31
0.0
  0
LINE
  5
5F3
  8
0
  6
CONTINUOUS
 62
     3
 10
-575.19347999999979
 20
83.848182999999963
 30
0.0
 11
-575.19347999999979
 21
87.348174999999998
 31
0.0
  0
LINE
  5
5F4
  8
0
  6
CONTINUOUS
 62
     7
 10
-230.28093999999999
 20
147.34795
 30
0.0
 11
-230.28093999999999
 21
150.84792999999991
 31
0.0
  0
LINE
  5
5F5
  8
0
  6
CONTINUOUS
 62
     7
 10
-213.15572999999981
 20
150.84792999999991
 30
0.0
 11
-230.28093999999999
 21
150.84792999999991
 31
0.0
  0
LINE
  5
5F6
  8
0
  6
CONTINUOUS
 62
     7
 10
-238.2809399999999
 20
99.547943000000004
 30
0.0
 11
-238.2809399999999
 21
135.15794
 31
0.0
  0
LINE
  5
5F7
  8
0
  6
CONTINUOUS
 62
     7
 10
-235.28093000000001
 20
94.347938999999997
 30
0.0
 11
-238.2809299999999
 21
99.547950999999998
 31
0.0
  0
LINE
  5
5F8
  8
0
  6
CONTINUOUS
 62
     3
 10
-560.19299000000001
 20
83.848182999999963
 30
0.0
 11
-560.19299000000001
 21
87.348174999999998
 31
0.0
  0
LINE
  5
5F9
  8
0
  6
CONTINUOUS
 62
     7
 10
-216.7809399999999
 20
116.29723
 30
0.0
 11
-216.7809399999999
 21
148.84794999999991
 31
0.0
  0
LINE
  5
5FA
  8
0
  6
CONTINUOUS
 62
     7
 10
-235.28090999999989
 20
140.34792999999991
 30
0.0
 11
-238.28091000000001
 21
135.15792999999999
 31
0.0
  0
LINE
  5
5FB
  8
0
  6
CONTINUOUS
 62
     3
 10
-560.19299000000001
 20
85.848174999999969
 30
0.0
 11
-500.69299000000001
 21
85.848174999999969
 31
0.0
  0
LINE
  5
5FC
  8
0
  6
CONTINUOUS
 62
     3
 10
-560.19299000000001
 20
148.84769
 30
0.0
 11
-500.69299000000001
 21
148.84769
 31
0.0
  0
LINE
  5
5FD
  8
0
  6
CONTINUOUS
 62
     3
 10
-582.69348000000002
 20
109.8477
 30
0.0
 11
-579.19347999999979
 21
109.8477
 31
0.0
  0
LINE
  5
5FE
  8
0
  6
CONTINUOUS
 62
     3
 10
-560.19299000000001
 20
83.848182999999963
 30
0.0
 11
-575.19347999999979
 21
83.848182999999963
 31
0.0
  0
LINE
  5
5FF
  8
0
  6
CONTINUOUS
 62
     7
 10
-502.19298999999978
 20
145.84794999999991
 30
0.0
 11
-502.19298999999978
 21
88.847945999999965
 31
0.0
  0
LINE
  5
600
  8
0
  6
CONTINUOUS
 62
     7
 10
-481.19298999999978
 20
173.34792999999991
 30
0.0
 11
-481.19298999999978
 21
61.347931000000003
 31
0.0
  0
LINE
  5
601
  8
0
  6
CONTINUOUS
 62
     7
 10
-491.42296999999991
 20
147.34795
 30
0.0
 11
-491.42296999999991
 21
87.347945999999979
 31
0.0
  0
LINE
  5
602
  8
0
  6
CONTINUOUS
 62
     7
 10
-603.19299000000001
 20
165.3642899999999
 30
0.0
 11
-603.19299000000001
 21
122.34793000000001
 31
0.0
  0
LINE
  5
603
  8
0
  6
CONTINUOUS
 62
     7
 10
-600.9248
 20
167.09734
 30
0.0
 11
-598.69298999999978
 21
167.09734
 31
0.0
  0
LINE
  5
604
  8
0
  6
CONTINUOUS
 62
     7
 10
-600.98833999999965
 20
153.03713999999991
 30
0.0
 11
-598.89301
 21
153.03713999999991
 31
0.0
  0
LINE
  5
605
  8
0
  6
CONTINUOUS
 62
     7
 10
-601.42516999999987
 20
166.96303
 30
0.0
 11
-602.69335999999976
 21
166.23006999999981
 31
0.0
  0
LINE
  5
606
  8
0
  6
CONTINUOUS
 62
     7
 10
-601.43053999999995
 20
164.84704999999991
 30
0.0
 11
-602.70758000000001
 21
164.08074999999999
 31
0.0
  0
LINE
  5
607
  8
0
  6
CONTINUOUS
 62
     7
 10
-601.44275000000005
 20
160.3091
 30
0.0
 11
-602.7413899999998
 21
159.45752999999991
 31
0.0
  0
LINE
  5
608
  8
0
  6
CONTINUOUS
 62
     7
 10
-601.38115999999945
 20
152.95683
 30
0.0
 11
-602.58582000000001
 21
152.44234
 31
0.0
  0
LINE
  5
609
  8
0
  6
CONTINUOUS
 62
     7
 10
-600.91594999999995
 20
164.98953
 30
0.0
 11
-598.1929899999999
 21
164.98953
 31
0.0
  0
LINE
  5
60A
  8
0
  6
CONTINUOUS
 62
     7
 10
-600.89435000000003
 20
160.47281000000001
 30
0.0
 11
-598.1929899999999
 21
160.47281000000001
 31
0.0
  0
LINE
  5
60B
  8
0
  6
CONTINUOUS
 62
     7
 10
-601.04265999999996
 20
151.0910299999999
 30
0.0
 11
-599.19299000000001
 21
151.0910299999999
 31
0.0
  0
LINE
  5
60C
  8
0
  6
CONTINUOUS
 62
     7
 10
-600.92169000000001
 20
159.33286000000001
 30
0.0
 11
-599.19299000000001
 21
159.33286000000001
 31
0.0
  0
LINE
  5
60D
  8
0
  6
CONTINUOUS
 62
     7
 10
-600.94434000000001
 20
163.84958999999981
 30
0.0
 11
-599.19299000000001
 21
163.84958999999981
 31
0.0
  0
LINE
  5
60E
  8
0
  6
CONTINUOUS
 62
     7
 10
-600.95374000000004
 20
165.9510199999998
 30
0.0
 11
-598.69298999999978
 21
165.9510199999998
 31
0.0
  0
LINE
  5
60F
  8
0
  6
CONTINUOUS
 62
     7
 10
-601.42711999999995
 20
159.19571999999991
 30
0.0
 11
-602.69848999999999
 21
158.45105000000001
 31
0.0
  0
LINE
  5
610
  8
0
  6
CONTINUOUS
 62
     7
 10
-601.33667000000003
 20
151.0468799999999
 30
0.0
 11
-602.48699999999985
 21
150.6930499999998
 31
0.0
  0
LINE
  5
611
  8
0
  6
CONTINUOUS
 62
     7
 10
-601.40637000000004
 20
165.84273999999979
 30
0.0
 11
-602.64562999999976
 21
165.21370999999999
 31
0.0
  0
LINE
  5
612
  8
0
  6
CONTINUOUS
 62
     7
 10
-601.41265999999985
 20
163.73309
 30
0.0
 11
-602.66132000000005
 21
163.07123000000001
 31
0.0
  0
LINE
  5
613
  8
0
  6
CONTINUOUS
 62
     7
 10
-599.19299000000001
 20
143.34792999999991
 30
0.0
 11
-602.1929899999999
 21
143.34792999999991
 31
0.0
  0
LINE
  5
614
  8
0
  6
CONTINUOUS
 62
     7
 10
-599.19299000000001
 20
141.34795
 30
0.0
 11
-602.1929899999999
 21
141.34795
 31
0.0
  0
LINE
  5
615
  8
0
  6
CONTINUOUS
 62
     7
 10
-599.19299000000001
 20
133.34792999999999
 30
0.0
 11
-602.1929899999999
 21
133.34792999999999
 31
0.0
  0
LINE
  5
616
  8
0
  6
CONTINUOUS
 62
     7
 10
-599.19299000000001
 20
131.34792999999999
 30
0.0
 11
-602.1929899999999
 21
131.34792999999999
 31
0.0
  0
LINE
  5
617
  8
0
  6
CONTINUOUS
 62
     7
 10
-599.19299000000001
 20
123.34795
 30
0.0
 11
-602.1929899999999
 21
123.34795
 31
0.0
  0
LINE
  5
618
  8
0
  6
CONTINUOUS
 62
     7
 10
-599.19299000000001
 20
121.34793000000001
 30
0.0
 11
-602.1929899999999
 21
121.34793000000001
 31
0.0
  0
LINE
  5
619
  8
0
  6
CONTINUOUS
 62
     7
 10
-601.19299000000001
 20
132.95505
 30
0.0
 11
-601.19299000000001
 21
131.74361999999991
 31
0.0
  0
LINE
  5
61A
  8
0
  6
CONTINUOUS
 62
     7
 10
-601.19299000000001
 20
122.96115
 30
0.0
 11
-601.19299000000001
 21
121.8002599999998
 31
0.0
  0
LINE
  5
61B
  8
0
  6
CONTINUOUS
 62
     7
 10
-601.19299000000001
 20
142.97411
 30
0.0
 11
-601.19299000000001
 21
141.6112999999998
 31
0.0
  0
LINE
  5
61C
  8
0
  6
CONTINUOUS
 62
     7
 10
-601.19299000000001
 20
152.74081000000001
 30
0.0
 11
-601.19299000000001
 21
151.6808799999998
 31
0.0
  0
LINE
  5
61D
  8
0
  6
CONTINUOUS
 62
     7
 10
-601.19299000000001
 20
160.17837999999981
 30
0.0
 11
-601.19299000000001
 21
159.70621
 31
0.0
  0
LINE
  5
61E
  8
0
  6
CONTINUOUS
 62
     7
 10
-601.19299000000001
 20
164.74448000000001
 30
0.0
 11
-601.19299000000001
 21
164.19840999999991
 31
0.0
  0
LINE
  5
61F
  8
0
  6
CONTINUOUS
 62
     7
 10
-601.19299000000001
 20
166.8441
 30
0.0
 11
-601.19299000000001
 21
166.31833
 31
0.0
  0
LINE
  5
620
  8
0
  6
CONTINUOUS
 62
     7
 10
-604.69299000000001
 20
137.34792999999991
 30
0.0
 11
-604.69299000000001
 21
117.34795
 31
0.0
  0
LINE
  5
621
  8
0
  6
CONTINUOUS
 62
     7
 10
-604.69304999999997
 20
137.34792999999991
 30
0.0
 11
-603.19299000000001
 21
137.47916999999981
 31
0.0
  0
LINE
  5
622
  8
0
  6
CONTINUOUS
 62
     7
 10
-604.69299000000001
 20
132.49796000000001
 30
0.0
 11
-600.01549999999975
 21
132.49796000000001
 31
0.0
  0
LINE
  5
623
  8
0
  6
CONTINUOUS
 62
     7
 10
-604.69299000000001
 20
134.62990999999991
 30
0.0
 11
-603.19299000000001
 21
134.62990999999991
 31
0.0
  0
LINE
  5
624
  8
0
  6
CONTINUOUS
 62
     7
 10
-487.84865999999988
 20
153.34795
 30
0.0
 11
-586.82758000000001
 21
153.34795
 31
0.0
  0
LINE
  5
625
  8
0
  6
CONTINUOUS
 62
     7
 10
-487.84865999999988
 20
151.34792999999999
 30
0.0
 11
-586.82758000000001
 21
151.34792999999999
 31
0.0
  0
LINE
  5
626
  8
0
  6
CONTINUOUS
 62
     7
 10
-580.69348000000002
 20
143.34792999999991
 30
0.0
 11
-586.82758000000001
 21
143.34792999999991
 31
0.0
  0
LINE
  5
627
  8
0
  6
CONTINUOUS
 62
     7
 10
-580.69348000000002
 20
141.34795
 30
0.0
 11
-586.82758000000001
 21
141.34795
 31
0.0
  0
LINE
  5
628
  8
0
  6
CONTINUOUS
 62
     7
 10
-580.69348000000002
 20
133.34792999999999
 30
0.0
 11
-586.82758000000001
 21
133.34792999999999
 31
0.0
  0
LINE
  5
629
  8
0
  6
CONTINUOUS
 62
     7
 10
-580.69348000000002
 20
131.34792999999999
 30
0.0
 11
-586.82758000000001
 21
131.34792999999999
 31
0.0
  0
LINE
  5
62A
  8
0
  6
CONTINUOUS
 62
     7
 10
-582.69348000000002
 20
123.34795
 30
0.0
 11
-586.82758000000001
 21
123.34795
 31
0.0
  0
LINE
  5
62B
  8
0
  6
CONTINUOUS
 62
     7
 10
-582.69348000000002
 20
121.34793000000001
 30
0.0
 11
-586.82758000000001
 21
121.34793000000001
 31
0.0
  0
LINE
  5
62C
  8
0
  6
CONTINUOUS
 62
     7
 10
-587.51568999999995
 20
154.07095000000001
 30
0.0
 11
-484.37094000000002
 21
154.07095000000001
 31
0.0
  0
LINE
  5
62D
  8
0
  6
CONTINUOUS
 62
     7
 10
-587.51568999999995
 20
150.7151199999999
 30
0.0
 11
-575.19347999999979
 21
150.7151199999999
 31
0.0
  0
LINE
  5
62E
  8
0
  6
CONTINUOUS
 62
     7
 10
-587.73150999999984
 20
143.8340799999998
 30
0.0
 11
-580.69348000000002
 21
143.8340799999998
 31
0.0
  0
LINE
  5
62F
  8
0
  6
CONTINUOUS
 62
     7
 10
-587.73150999999984
 20
140.9111
 30
0.0
 11
-580.69348000000002
 21
140.9111
 31
0.0
  0
LINE
  5
630
  8
0
  6
CONTINUOUS
 62
     7
 10
-587.8620599999997
 20
133.6914399999998
 30
0.0
 11
-580.69348000000002
 21
133.6914399999998
 31
0.0
  0
LINE
  5
631
  8
0
  6
CONTINUOUS
 62
     7
 10
-587.8620599999997
 20
131.02958999999981
 30
0.0
 11
-580.69348000000002
 21
131.02958999999981
 31
0.0
  0
LINE
  5
632
  8
0
  6
CONTINUOUS
 62
     7
 10
-587.92407000000003
 20
123.6207
 30
0.0
 11
-582.69348000000002
 21
123.6207
 31
0.0
  0
LINE
  5
633
  8
0
  6
CONTINUOUS
 62
     7
 10
-587.92407000000003
 20
121.08286
 30
0.0
 11
-582.69348000000002
 21
121.08286
 31
0.0
  0
LINE
  5
634
  8
0
  6
CONTINUOUS
 62
     7
 10
-484.37094000000002
 20
150.7151199999999
 30
0.0
 11
-500.89300999999989
 21
150.7151199999999
 31
0.0
  0
LINE
  5
635
  8
0
  6
CONTINUOUS
 62
     7
 10
-501.89303999999998
 20
149.7151299999999
 30
0.0
 11
-501.89303999999998
 21
148.84769
 31
0.0
  0
LINE
  5
636
  8
0
  6
CONTINUOUS
 62
     7
 10
-587.92407000000003
 20
113.61296
 30
0.0
 11
-582.69348000000002
 21
113.61296
 31
0.0
  0
LINE
  5
637
  8
0
  6
CONTINUOUS
 62
     7
 10
-582.69348000000002
 20
113.3479499999999
 30
0.0
 11
-586.82758000000001
 21
113.3479499999999
 31
0.0
  0
LINE
  5
638
  8
0
  6
CONTINUOUS
 62
     7
 10
-582.69348000000002
 20
111.3479499999999
 30
0.0
 11
-586.82758000000001
 21
111.3479499999999
 31
0.0
  0
LINE
  5
639
  8
0
  6
CONTINUOUS
 62
     7
 10
-587.92407000000003
 20
111.0751199999999
 30
0.0
 11
-582.69348000000002
 21
111.0751199999999
 31
0.0
  0
LINE
  5
63A
  8
0
  6
CONTINUOUS
 62
     7
 10
-587.8620599999997
 20
103.6663099999999
 30
0.0
 11
-580.69348000000002
 21
103.6663099999999
 31
0.0
  0
LINE
  5
63B
  8
0
  6
CONTINUOUS
 62
     7
 10
-580.69348000000002
 20
103.34792999999991
 30
0.0
 11
-586.82758000000001
 21
103.34792999999991
 31
0.0
  0
LINE
  5
63C
  8
0
  6
CONTINUOUS
 62
     7
 10
-580.69348000000002
 20
101.34795
 30
0.0
 11
-586.82758000000001
 21
101.34795
 31
0.0
  0
LINE
  5
63D
  8
0
  6
CONTINUOUS
 62
     7
 10
-587.8620599999997
 20
101.0044399999999
 30
0.0
 11
-580.69348000000002
 21
101.0044399999999
 31
0.0
  0
LINE
  5
63E
  8
0
  6
CONTINUOUS
 62
     7
 10
-580.69348000000002
 20
93.347945999999993
 30
0.0
 11
-586.82758000000001
 21
93.347945999999993
 31
0.0
  0
LINE
  5
63F
  8
0
  6
CONTINUOUS
 62
     7
 10
-587.73144999999965
 20
93.784698000000006
 30
0.0
 11
-580.69348000000002
 21
93.784698000000006
 31
0.0
  0
LINE
  5
640
  8
0
  6
CONTINUOUS
 62
     7
 10
-580.69348000000002
 20
91.347931000000017
 30
0.0
 11
-586.82758000000001
 21
91.347931000000017
 31
0.0
  0
LINE
  5
641
  8
0
  6
CONTINUOUS
 62
     7
 10
-587.73144999999965
 20
90.861739999999969
 30
0.0
 11
-580.69348000000002
 21
90.861739999999969
 31
0.0
  0
LINE
  5
642
  8
0
  6
CONTINUOUS
 62
     7
 10
-487.84865999999988
 20
83.347938999999997
 30
0.0
 11
-532.19298999999967
 21
83.347938999999997
 31
0.0
  0
LINE
  5
643
  8
0
  6
CONTINUOUS
 62
     7
 10
-487.84865999999988
 20
81.347945999999965
 30
0.0
 11
-532.19298999999967
 21
81.347945999999965
 31
0.0
  0
LINE
  5
644
  8
0
  6
CONTINUOUS
 62
     7
 10
-587.51508000000001
 20
80.624863000000005
 30
0.0
 11
-532.19298999999967
 21
80.624863000000005
 31
0.0
  0
LINE
  5
645
  8
0
  6
CONTINUOUS
 62
     7
 10
-500.69301999999999
 20
87.08229799999998
 30
0.0
 11
-491.42299999999989
 21
87.347915999999984
 31
0.0
  0
LINE
  5
646
  8
0
  6
CONTINUOUS
 62
     7
 10
-501.89303999999998
 20
84.980689999999996
 30
0.0
 11
-501.89303999999998
 21
85.848174999999969
 31
0.0
  0
LINE
  5
647
  8
0
  6
CONTINUOUS
 62
     7
 10
-484.37094000000002
 20
83.980682000000002
 30
0.0
 11
-500.89300999999989
 21
83.980682000000002
 31
0.0
  0
LINE
  5
648
  8
0
  6
CONTINUOUS
 62
     7
 10
-600.98833999999965
 20
81.658676
 30
0.0
 11
-598.89301
 21
81.658676
 31
0.0
  0
LINE
  5
649
  8
0
  6
CONTINUOUS
 62
     7
 10
-601.38115999999945
 20
81.739036999999982
 30
0.0
 11
-602.58574999999985
 21
82.253517000000002
 31
0.0
  0
LINE
  5
64A
  8
0
  6
CONTINUOUS
 62
     7
 10
-601.04265999999996
 20
83.604767000000024
 30
0.0
 11
-599.19299000000001
 21
83.604767000000024
 31
0.0
  0
LINE
  5
64B
  8
0
  6
CONTINUOUS
 62
     7
 10
-601.33667000000003
 20
83.649010000000004
 30
0.0
 11
-602.48705999999981
 21
84.002853000000002
 31
0.0
  0
LINE
  5
64C
  8
0
  6
CONTINUOUS
 62
     7
 10
-599.19299000000001
 20
91.347931000000017
 30
0.0
 11
-602.1929899999999
 21
91.347931000000017
 31
0.0
  0
LINE
  5
64D
  8
0
  6
CONTINUOUS
 62
     7
 10
-599.19299000000001
 20
93.347945999999993
 30
0.0
 11
-602.1929899999999
 21
93.347945999999993
 31
0.0
  0
LINE
  5
64E
  8
0
  6
CONTINUOUS
 62
     7
 10
-599.19299000000001
 20
101.34795
 30
0.0
 11
-602.1929899999999
 21
101.34795
 31
0.0
  0
LINE
  5
64F
  8
0
  6
CONTINUOUS
 62
     7
 10
-601.19299000000001
 20
111.73466000000001
 30
0.0
 11
-601.19299000000001
 21
112.89555
 31
0.0
  0
LINE
  5
650
  8
0
  6
CONTINUOUS
 62
     7
 10
-599.19299000000001
 20
103.34792999999991
 30
0.0
 11
-602.1929899999999
 21
103.34792999999991
 31
0.0
  0
LINE
  5
651
  8
0
  6
CONTINUOUS
 62
     7
 10
-599.19299000000001
 20
111.3479499999999
 30
0.0
 11
-602.1929899999999
 21
111.3479499999999
 31
0.0
  0
LINE
  5
652
  8
0
  6
CONTINUOUS
 62
     7
 10
-599.19299000000001
 20
113.3479499999999
 30
0.0
 11
-602.1929899999999
 21
113.3479499999999
 31
0.0
  0
LINE
  5
653
  8
0
  6
CONTINUOUS
 62
     7
 10
-601.19299000000001
 20
101.7408099999999
 30
0.0
 11
-601.19299000000001
 21
102.9521899999999
 31
0.0
  0
LINE
  5
654
  8
0
  6
CONTINUOUS
 62
     7
 10
-601.19299000000001
 20
91.721717999999996
 30
0.0
 11
-601.19299000000001
 21
93.084571999999994
 31
0.0
  0
LINE
  5
655
  8
0
  6
CONTINUOUS
 62
     7
 10
-601.19299000000001
 20
81.955055000000016
 30
0.0
 11
-601.19299000000001
 21
83.014983999999984
 31
0.0
  0
LINE
  5
656
  8
0
  6
CONTINUOUS
 62
     7
 10
-587.51508000000001
 20
83.980682000000002
 30
0.0
 11
-575.19347999999979
 21
83.980682000000002
 31
0.0
  0
LINE
  5
657
  8
0
  6
CONTINUOUS
 62
     7
 10
-604.69299000000001
 20
97.347931000000003
 30
0.0
 11
-604.69299000000001
 21
117.34795
 31
0.0
  0
LINE
  5
658
  8
0
  6
CONTINUOUS
 62
     7
 10
-604.69292999999982
 20
97.347954000000016
 30
0.0
 11
-603.19292999999982
 21
97.216721000000007
 31
0.0
  0
LINE
  5
659
  8
0
  6
CONTINUOUS
 62
     7
 10
-604.69299000000001
 20
102.19792
 30
0.0
 11
-601.39928999999995
 21
102.19792
 31
0.0
  0
LINE
  5
65A
  8
0
  6
CONTINUOUS
 62
     7
 10
-604.69299000000001
 20
100.0658999999999
 30
0.0
 11
-603.19299000000001
 21
100.0658999999999
 31
0.0
  0
LINE
  5
65B
  8
0
  6
CONTINUOUS
 62
     7
 10
-532.19298999999967
 20
83.347938999999997
 30
0.0
 11
-586.82758000000001
 21
83.347938999999997
 31
0.0
  0
LINE
  5
65C
  8
0
  6
CONTINUOUS
 62
     7
 10
-579.19347999999979
 20
87.347945999999979
 30
0.0
 11
-503.69299000000001
 21
87.347945999999979
 31
0.0
  0
LINE
  5
65D
  8
0
  6
CONTINUOUS
 62
     7
 10
-532.19298999999967
 20
81.347945999999965
 30
0.0
 11
-586.82758000000001
 21
81.347945999999965
 31
0.0
  0
LINE
  5
65E
  8
0
  6
CONTINUOUS
 62
     7
 10
-532.19298999999967
 20
80.624863000000005
 30
0.0
 11
-484.37094000000002
 21
80.624863000000005
 31
0.0
  0
LINE
  5
65F
  8
0
  6
CONTINUOUS
 62
     7
 10
-597.19299000000001
 20
170.34792999999979
 30
0.0
 11
-597.19299000000001
 21
64.347931000000003
 31
0.0
  0
LINE
  5
660
  8
0
  6
CONTINUOUS
 62
     7
 10
-589.19299000000001
 20
170.34792999999979
 30
0.0
 11
-589.19299000000001
 21
67.907684000000003
 31
0.0
  0
LINE
  5
661
  8
0
  6
CONTINUOUS
 62
     7
 10
-602.69843000000003
 20
76.244804000000002
 30
0.0
 11
-602.72210999999982
 21
76.25865899999998
 31
0.0
  0
LINE
  5
662
  8
0
  6
CONTINUOUS
 62
     7
 10
-598.1929899999999
 20
167.34792999999991
 30
0.0
 11
-598.1929899999999
 21
66.224716000000001
 31
0.0
  0
LINE
  5
663
  8
0
  6
CONTINUOUS
 62
     7
 10
-598.1929899999999
 20
167.34792999999991
 30
0.0
 11
-597.19299000000001
 21
167.34792999999991
 31
0.0
  0
LINE
  5
664
  8
0
  6
CONTINUOUS
 62
     7
 10
-597.19299000000001
 20
170.34792999999979
 30
0.0
 11
-589.19299000000001
 21
170.34792999999979
 31
0.0
  0
LINE
  5
665
  8
0
  6
CONTINUOUS
 62
     7
 10
-596.49486999999976
 20
160.53933999999981
 30
0.0
 11
-590.2650799999999
 21
160.53933999999981
 31
0.0
  0
LINE
  5
666
  8
0
  6
CONTINUOUS
 62
     7
 10
-481.19298999999978
 20
163.34792999999991
 30
0.0
 11
-473.19298999999978
 21
163.34792999999991
 31
0.0
  0
LINE
  5
667
  8
0
  6
CONTINUOUS
 62
     7
 10
-481.19298999999978
 20
149.28538999999981
 30
0.0
 11
-473.19298999999978
 21
149.28538999999981
 31
0.0
  0
LINE
  5
668
  8
0
  6
CONTINUOUS
 62
     7
 10
-481.19298999999978
 20
173.34792999999991
 30
0.0
 11
-473.19298999999978
 21
173.34792999999991
 31
0.0
  0
LINE
  5
669
  8
0
  6
CONTINUOUS
 62
     7
 10
-565.19298999999978
 20
154.07095000000001
 30
0.0
 11
-565.19298999999978
 21
154.07095000000001
 31
0.0
  0
LINE
  5
66A
  8
0
  6
CONTINUOUS
 62
     7
 10
-565.19298999999978
 20
80.624863000000005
 30
0.0
 11
-565.19298999999978
 21
79.124863000000005
 31
0.0
  0
LINE
  5
66B
  8
0
  6
CONTINUOUS
 62
     7
 10
-585.98657000000003
 20
173.63120000000001
 30
0.0
 11
-489.06685999999968
 21
173.63120000000001
 31
0.0
  0
LINE
  5
66C
  8
0
  6
CONTINUOUS
 62
     7
 10
-589.19304999999986
 20
165.44364999999991
 30
0.0
 11
-587.95177999999999
 21
172.00307000000001
 31
0.0
  0
LINE
  5
66D
  8
0
  6
CONTINUOUS
 62
     7
 10
-583.8275799999999
 20
153.99913000000001
 30
0.0
 11
-589.19299000000001
 21
165.4436
 31
0.0
  0
LINE
  5
66E
  8
0
  6
CONTINUOUS
 62
     7
 10
-583.8275799999999
 20
80.696716000000023
 30
0.0
 11
-589.19304999999986
 21
69.252243000000007
 31
0.0
  0
LINE
  5
66F
  8
0
  6
CONTINUOUS
 62
     7
 10
-563.69299000000001
 20
155.57095000000001
 30
0.0
 11
-481.19298999999978
 21
155.57095000000001
 31
0.0
  0
LINE
  5
670
  8
0
  6
CONTINUOUS
 62
     7
 10
-585.93799000000001
 20
176.4775699999999
 30
0.0
 11
-552.1929899999999
 21
176.4775699999999
 31
0.0
  0
LINE
  5
671
  8
0
  6
CONTINUOUS
 62
     7
 10
-585.92462
 20
178.32528999999991
 30
0.0
 11
-552.1929899999999
 21
178.32528999999991
 31
0.0
  0
LINE
  5
672
  8
0
  6
CONTINUOUS
 62
     7
 10
-585.90331999999978
 20
179.2358099999999
 30
0.0
 11
-552.1929899999999
 21
179.2358099999999
 31
0.0
  0
LINE
  5
673
  8
0
  6
CONTINUOUS
 62
     7
 10
-589.19299000000001
 20
166.7881899999999
 30
0.0
 11
-587.91290000000004
 21
174.79335
 31
0.0
  0
LINE
  5
674
  8
0
  6
CONTINUOUS
 62
     7
 10
-589.19292999999982
 20
168.13278
 30
0.0
 11
-587.90192000000002
 21
176.62585000000001
 31
0.0
  0
LINE
  5
675
  8
0
  6
CONTINUOUS
 62
     7
 10
-589.19292999999982
 20
168.13278
 30
0.0
 11
-587.88409000000001
 21
177.51224999999991
 31
0.0
  0
LINE
  5
676
  8
0
  6
CONTINUOUS
 62
     7
 10
-550.19299000000001
 20
177.2358099999999
 30
0.0
 11
-550.19299000000001
 21
173.63120000000001
 31
0.0
  0
LINE
  5
677
  8
0
  6
CONTINUOUS
 62
     7
 10
-482.99083999999988
 20
156.68274
 30
0.0
 11
-487.13497999999993
 21
172.14879999999991
 31
0.0
  0
LINE
  5
678
  8
0
  6
CONTINUOUS
 62
     7
 10
-486.65246999999999
 20
170.34792999999979
 30
0.0
 11
-481.19298999999978
 21
170.34792999999979
 31
0.0
  0
LINE
  5
679
  8
0
  6
CONTINUOUS
 62
     7
 10
-603.19299000000001
 20
69.331512000000004
 30
0.0
 11
-603.19299000000001
 21
112.34793000000001
 31
0.0
  0
LINE
  5
67A
  8
0
  6
CONTINUOUS
 62
     7
 10
-600.9248
 20
67.598557
 30
0.0
 11
-598.69298999999978
 21
67.598557
 31
0.0
  0
LINE
  5
67B
  8
0
  6
CONTINUOUS
 62
     7
 10
-601.42523000000006
 20
67.732780000000005
 30
0.0
 11
-602.69341999999995
 21
68.465758999999991
 31
0.0
  0
LINE
  5
67C
  8
0
  6
CONTINUOUS
 62
     7
 10
-601.43053999999995
 20
69.848823999999993
 30
0.0
 11
-602.70752000000005
 21
70.615096999999977
 31
0.0
  0
LINE
  5
67D
  8
0
  6
CONTINUOUS
 62
     7
 10
-601.44269000000008
 20
74.386757000000003
 30
0.0
 11
-602.74132999999995
 21
75.238311999999979
 31
0.0
  0
LINE
  5
67E
  8
0
  6
CONTINUOUS
 62
     7
 10
-600.91594999999995
 20
69.706283999999997
 30
0.0
 11
-598.1929899999999
 21
69.706283999999997
 31
0.0
  0
LINE
  5
67F
  8
0
  6
CONTINUOUS
 62
     7
 10
-600.89435000000003
 20
74.222992000000005
 30
0.0
 11
-598.1929899999999
 21
74.222992000000005
 31
0.0
  0
LINE
  5
680
  8
0
  6
CONTINUOUS
 62
     7
 10
-600.92169000000001
 20
75.363006999999982
 30
0.0
 11
-599.19299000000001
 21
75.363006999999982
 31
0.0
  0
LINE
  5
681
  8
0
  6
CONTINUOUS
 62
     7
 10
-600.94434000000001
 20
70.846298000000004
 30
0.0
 11
-599.19299000000001
 21
70.846298000000004
 31
0.0
  0
LINE
  5
682
  8
0
  6
CONTINUOUS
 62
     7
 10
-600.95374000000004
 20
68.744843000000003
 30
0.0
 11
-598.69298999999978
 21
68.744843000000003
 31
0.0
  0
LINE
  5
683
  8
0
  6
CONTINUOUS
 62
     7
 10
-601.42711999999995
 20
75.500136999999981
 30
0.0
 11
-602.69843000000003
 21
76.244796999999977
 31
0.0
  0
LINE
  5
684
  8
0
  6
CONTINUOUS
 62
     7
 10
-601.40637000000004
 20
68.853194999999999
 30
0.0
 11
-602.64562999999976
 21
69.482224000000002
 31
0.0
  0
LINE
  5
685
  8
0
  6
CONTINUOUS
 62
     7
 10
-601.41265999999985
 20
70.962738000000002
 30
0.0
 11
-602.66132000000005
 21
71.624595999999997
 31
0.0
  0
LINE
  5
686
  8
0
  6
CONTINUOUS
 62
     7
 10
-601.19299000000001
 20
74.517493999999999
 30
0.0
 11
-601.19299000000001
 21
74.989609000000002
 31
0.0
  0
LINE
  5
687
  8
0
  6
CONTINUOUS
 62
     7
 10
-601.19299000000001
 20
69.95139300000001
 30
0.0
 11
-601.19299000000001
 21
70.49741400000002
 31
0.0
  0
LINE
  5
688
  8
0
  6
CONTINUOUS
 62
     7
 10
-601.19299000000001
 20
67.851791000000006
 30
0.0
 11
-601.19299000000001
 21
68.377533
 31
0.0
  0
LINE
  5
689
  8
0
  6
CONTINUOUS
 62
     7
 10
-598.1929899999999
 20
67.347931000000003
 30
0.0
 11
-597.19299000000001
 21
67.347931000000003
 31
0.0
  0
LINE
  5
68A
  8
0
  6
CONTINUOUS
 62
     7
 10
-597.19299000000001
 20
64.347931000000003
 30
0.0
 11
-589.19299000000001
 21
64.347931000000003
 31
0.0
  0
LINE
  5
68B
  8
0
  6
CONTINUOUS
 62
     7
 10
-596.49486999999976
 20
74.156479000000004
 30
0.0
 11
-590.2650799999999
 21
74.156479000000004
 31
0.0
  0
LINE
  5
68C
  8
0
  6
CONTINUOUS
 62
     7
 10
-481.19298999999978
 20
71.347938999999997
 30
0.0
 11
-473.19298999999978
 21
71.347938999999997
 31
0.0
  0
LINE
  5
68D
  8
0
  6
CONTINUOUS
 62
     7
 10
-481.19298999999978
 20
61.347931000000003
 30
0.0
 11
-473.19298999999978
 21
61.347931000000003
 31
0.0
  0
LINE
  5
68E
  8
0
  6
CONTINUOUS
 62
     7
 10
-585.98657000000003
 20
61.064667000000007
 30
0.0
 11
-489.06685999999968
 21
61.064667000000007
 31
0.0
  0
LINE
  5
68F
  8
0
  6
CONTINUOUS
 62
     7
 10
-589.19304999999986
 20
69.252173999999997
 30
0.0
 11
-587.95177999999999
 21
62.692809999999987
 31
0.0
  0
LINE
  5
690
  8
0
  6
CONTINUOUS
 62
     7
 10
-585.93799000000001
 20
58.218291999999991
 30
0.0
 11
-552.1929899999999
 21
58.218291999999991
 31
0.0
  0
LINE
  5
691
  8
0
  6
CONTINUOUS
 62
     7
 10
-585.92462
 20
56.370528999999998
 30
0.0
 11
-552.1929899999999
 21
56.370528999999998
 31
0.0
  0
LINE
  5
692
  8
0
  6
CONTINUOUS
 62
     7
 10
-585.90331999999978
 20
55.459991000000002
 30
0.0
 11
-552.1929899999999
 21
55.459991000000002
 31
0.0
  0
LINE
  5
693
  8
0
  6
CONTINUOUS
 62
     7
 10
-589.19299000000001
 20
67.907668999999999
 30
0.0
 11
-587.91290000000004
 21
59.902484999999992
 31
0.0
  0
LINE
  5
694
  8
0
  6
CONTINUOUS
 62
     7
 10
-589.19304999999986
 20
66.563094999999976
 30
0.0
 11
-587.90204000000006
 21
58.069957999999993
 31
0.0
  0
LINE
  5
695
  8
0
  6
CONTINUOUS
 62
     7
 10
-589.19304999999986
 20
66.563071999999991
 30
0.0
 11
-587.88415999999995
 21
57.183613000000001
 31
0.0
  0
LINE
  5
696
  8
0
  6
CONTINUOUS
 62
     7
 10
-550.19299000000001
 20
57.46000699999999
 30
0.0
 11
-550.19299000000001
 21
61.064667000000007
 31
0.0
  0
LINE
  5
697
  8
0
  6
CONTINUOUS
 62
     7
 10
-482.69301999999988
 20
79.124915999999999
 30
0.0
 11
-487.13504
 21
62.547061999999997
 31
0.0
  0
LINE
  5
698
  8
0
  6
CONTINUOUS
 62
     7
 10
-486.65246999999999
 20
64.347931000000003
 30
0.0
 11
-481.19298999999978
 21
64.347931000000003
 31
0.0
  0
LINE
  5
699
  8
0
  6
CONTINUOUS
 62
     7
 10
-481.19298999999978
 20
85.410506999999967
 30
0.0
 11
-473.19298999999978
 21
85.410506999999967
 31
0.0
  0
LINE
  5
69A
  8
0
  6
CONTINUOUS
 62
     7
 10
-565.19298999999978
 20
80.624863000000005
 30
0.0
 11
-565.19298999999978
 21
80.624863000000005
 31
0.0
  0
LINE
  5
69B
  8
0
  6
CONTINUOUS
 62
     7
 10
-563.69299000000001
 20
79.124863000000005
 30
0.0
 11
-481.19298999999978
 21
79.124863000000005
 31
0.0
  0
LINE
  5
69C
  8
0
  6
CENTER
 62
     1
 10
-83.546111999999994
 20
117.34795
 30
0.0
 11
-206.78548000000001
 21
117.34795
 31
0.0
  0
LINE
  5
69D
  8
0
  6
CONTINUOUS
 62
     7
 10
-220.18565000000001
 20
83.847953999999987
 30
0.0
 11
-230.28093999999999
 21
83.847953999999987
 31
0.0
  0
LINE
  5
69E
  8
0
  6
CONTINUOUS
 62
     7
 10
-235.2809399999999
 20
87.347945999999979
 30
0.0
 11
-219.8184399999999
 21
87.347945999999979
 31
0.0
  0
LINE
  5
69F
  8
0
  6
CONTINUOUS
 62
     7
 10
-235.2809399999999
 20
147.34795
 30
0.0
 11
-216.7809399999999
 21
147.34795
 31
0.0
  0
LINE
  5
6A0
  8
0
  6
CONTINUOUS
 62
     7
 10
-235.2809399999999
 20
87.347945999999979
 30
0.0
 11
-235.2809399999999
 21
147.34795
 31
0.0
  0
LINE
  5
6A1
  8
0
  6
CONTINUOUS
 62
     7
 10
-230.28093999999999
 20
87.347945999999979
 30
0.0
 11
-230.28093999999999
 21
83.847953999999987
 31
0.0
  0
LINE
  5
6A2
  8
0
  6
CONTINUOUS
 62
     7
 10
-500.69299000000001
 20
87.347945999999979
 30
0.0
 11
-491.42296999999991
 21
87.347945999999979
 31
0.0
  0
LINE
  5
6A3
  8
0
  6
CONTINUOUS
 62
     3
 10
-556.82097999999985
 20
139.84769
 30
0.0
 11
-552.61596999999995
 21
139.84769
 31
0.0
  0
LINE
  5
6A4
  8
0
  6
CONTINUOUS
 62
     3
 10
-554.69299000000001
 20
137.78568000000001
 30
0.0
 11
-554.69299000000001
 21
141.81167999999991
 31
0.0
  0
LINE
  5
6A5
  8
0
  6
CONTINUOUS
 62
     3
 10
-580.69348000000002
 20
124.8476899999999
 30
0.0
 11
-580.69348000000002
 21
148.84769
 31
0.0
  0
LINE
  5
6A6
  8
0
  6
CONTINUOUS
 62
     3
 10
-580.69348000000002
 20
85.848174999999969
 30
0.0
 11
-580.69348000000002
 21
109.8477
 31
0.0
  0
LINE
  5
6A7
  8
0
  6
CONTINUOUS
 62
     3
 10
-555.19299000000001
 20
94.348183000000006
 30
0.0
 11
-555.19299000000001
 21
134.37071
 31
0.0
  0
LINE
  5
6A8
  8
0
  6
CONTINUOUS
 62
     3
 10
-509.19299000000001
 20
100.32567
 30
0.0
 11
-509.19299000000001
 21
140.34769
 31
0.0
  0
LINE
  5
6A9
  8
0
  6
CONTINUOUS
 62
     3
 10
-500.69299000000001
 20
85.848174999999969
 30
0.0
 11
-500.69299000000001
 21
148.84769
 31
0.0
  0
LINE
  5
6AA
  8
0
  6
CONTINUOUS
 62
     3
 10
-549.21600000000001
 20
140.34769
 30
0.0
 11
-509.19299000000001
 21
140.34769
 31
0.0
  0
LINE
  5
6AB
  8
0
  6
CONTINUOUS
 62
     3
 10
-555.19299000000001
 20
94.348183000000006
 30
0.0
 11
-515.17102
 21
94.348183000000006
 31
0.0
  0
LINE
  5
6AC
  8
0
  6
CONTINUOUS
 62
     3
 10
-580.69348000000002
 20
148.84769
 30
0.0
 11
-575.19347999999979
 21
148.84769
 31
0.0
  0
LINE
  5
6AD
  8
0
  6
CONTINUOUS
 62
     3
 10
-580.69348000000002
 20
85.848174999999969
 30
0.0
 11
-575.19347999999979
 21
85.848174999999969
 31
0.0
  0
LINE
  5
6AE
  8
0
  6
CONTINUOUS
 62
     3
 10
-509.69299000000001
 20
92.786179000000004
 30
0.0
 11
-509.69299000000001
 21
96.812118999999996
 31
0.0
  0
LINE
  5
6AF
  8
0
  6
CONTINUOUS
 62
     3
 10
-511.82100999999989
 20
94.848174999999998
 30
0.0
 11
-507.61599999999987
 21
94.848174999999998
 31
0.0
  0
LINE
  5
6B0
  8
0
  6
CONTINUOUS
 62
     3
 10
-549.99297999999999
 20
135.15170000000001
 30
0.0
 11
-514.39301
 21
135.15170000000001
 31
0.0
  0
LINE
  5
6B1
  8
0
  6
CONTINUOUS
 62
     3
 10
-549.99297999999999
 20
99.547714000000013
 30
0.0
 11
-514.39301
 21
99.547714000000013
 31
0.0
  0
LINE
  5
6B2
  8
0
  6
CONTINUOUS
 62
     3
 10
-514.39301
 20
99.547714000000013
 30
0.0
 11
-514.39301
 21
135.15170000000001
 31
0.0
  0
LINE
  5
6B3
  8
0
  6
CONTINUOUS
 62
     3
 10
-549.99297999999999
 20
99.547714000000013
 30
0.0
 11
-549.99297999999999
 21
135.15170000000001
 31
0.0
  0
LINE
  5
6B4
  8
0
  6
CONTINUOUS
 62
     3
 10
-579.19347999999979
 20
147.34769
 30
0.0
 11
-503.69299000000001
 21
147.34769
 31
0.0
  0
LINE
  5
6B5
  8
0
  6
CONTINUOUS
 62
     3
 10
-579.19347999999979
 20
87.348174999999998
 30
0.0
 11
-579.19347999999979
 21
147.34769
 31
0.0
  0
LINE
  5
6B6
  8
0
  6
CONTINUOUS
 62
     3
 10
-560.19299000000001
 20
150.8476899999998
 30
0.0
 11
-560.19299000000001
 21
147.34769
 31
0.0
  0
LINE
  5
6B7
  8
0
  6
CONTINUOUS
 62
     3
 10
-575.19347999999979
 20
150.8476899999998
 30
0.0
 11
-560.19299000000001
 21
150.8476899999998
 31
0.0
  0
LINE
  5
6B8
  8
0
  6
CONTINUOUS
 62
     3
 10
-575.19347999999979
 20
150.8476899999998
 30
0.0
 11
-575.19347999999979
 21
147.34769
 31
0.0
  0
LINE
  5
6B9
  8
0
  6
CONTINUOUS
 62
     3
 10
-582.69348000000002
 20
124.8476899999999
 30
0.0
 11
-579.19347999999979
 21
124.8476899999999
 31
0.0
  0
LINE
  5
6BA
  8
0
  6
CONTINUOUS
 62
     3
 10
-582.69348000000002
 20
109.8477
 30
0.0
 11
-582.69348000000002
 21
124.8476899999999
 31
0.0
  0
LINE
  5
6BB
  8
0
  6
CONTINUOUS
 62
     7
 10
-500.69299000000001
 20
147.34795
 30
0.0
 11
-491.42296999999991
 21
147.34795
 31
0.0
  0
LINE
  5
6BC
  8
0
  6
CONTINUOUS
 62
     7
 10
-216.7809399999999
 20
148.84794999999991
 30
0.0
 11
-213.36556999999991
 21
148.84794999999991
 31
0.0
  0
LINE
  5
6BD
  8
0
  6
CONTINUOUS
 62
     7
 10
-424.19299000000001
 20
310.09942999999993
 30
0.0
 11
-424.19299000000001
 21
289.45470999999998
 31
0.0
  0
LINE
  5
6BE
  8
0
  6
CONTINUOUS
 62
     7
 10
-423.19298999999978
 20
308.62871999999999
 30
0.0
 11
-423.19298999999978
 21
295.08166999999992
 31
0.0
  0
LINE
  5
6BF
  8
0
  6
CONTINUOUS
 62
     7
 10
-424.19299000000001
 20
295.08166999999992
 30
0.0
 11
-423.19298999999978
 21
295.08166999999992
 31
0.0
  0
LINE
  5
6C0
  8
0
  6
CONTINUOUS
 62
     7
 10
-424.19299000000001
 20
308.62871999999999
 30
0.0
 11
-423.19298999999978
 21
308.62871999999999
 31
0.0
  0
LINE
  5
6C1
  8
0
  6
CONTINUOUS
 62
     7
 10
-419.19301999999988
 20
297.08166999999992
 30
0.0
 11
-419.19301999999988
 21
306.62869000000001
 31
0.0
  0
LINE
  5
6C2
  8
0
  6
CONTINUOUS
 62
     7
 10
-423.19298999999978
 20
304.74193999999989
 30
0.0
 11
-420.19299000000001
 21
304.74193999999989
 31
0.0
  0
LINE
  5
6C3
  8
0
  6
CONTINUOUS
 62
     7
 10
-423.19298999999978
 20
298.96843999999982
 30
0.0
 11
-420.19299000000001
 21
298.96843999999982
 31
0.0
  0
LINE
  5
6C4
  8
0
  6
CONTINUOUS
 62
     7
 10
-423.19298999999978
 20
296.08166999999992
 30
0.0
 11
-420.19299000000001
 21
296.08166999999992
 31
0.0
  0
LINE
  5
6C5
  8
0
  6
CONTINUOUS
 62
     7
 10
-423.19298999999978
 20
307.62871999999987
 30
0.0
 11
-420.19299000000001
 21
307.62871999999987
 31
0.0
  0
LINE
  5
6C6
  8
0
  6
CONTINUOUS
 62
     7
 10
-370.19299000000001
 20
347.66669000000002
 30
0.0
 11
-368.19301999999999
 21
347.66669000000002
 31
0.0
  0
LINE
  5
6C7
  8
0
  6
CONTINUOUS
 62
     7
 10
-370.19299000000001
 20
372.66663
 30
0.0
 11
-368.19301999999999
 21
372.66663
 31
0.0
  0
LINE
  5
6C8
  8
0
  6
CONTINUOUS
 62
     7
 10
-328.19299000000001
 20
372.16665999999992
 30
0.0
 11
-328.19299000000001
 21
348.16665999999998
 31
0.0
  0
LINE
  5
6C9
  8
0
  6
CONTINUOUS
 62
     7
 10
-368.19301999999999
 20
372.66663
 30
0.0
 11
-368.19301999999999
 21
347.66669000000002
 31
0.0
  0
LINE
  5
6CA
  8
0
  6
CONTINUOUS
 62
     7
 10
-368.19301999999999
 20
372.16665999999992
 30
0.0
 11
-328.19299000000001
 21
372.16665999999992
 31
0.0
  0
LINE
  5
6CB
  8
0
  6
CONTINUOUS
 62
     7
 10
-368.19301999999999
 20
348.16665999999998
 30
0.0
 11
-328.19299000000001
 21
348.16665999999998
 31
0.0
  0
LINE
  5
6CC
  8
0
  6
CONTINUOUS
 62
     7
 10
-360.19299000000001
 20
364.16663
 30
0.0
 11
-360.19299000000001
 21
356.16665999999992
 31
0.0
  0
LINE
  5
6CD
  8
0
  6
CONTINUOUS
 62
     7
 10
-464.19299000000001
 20
435.38040000000001
 30
0.0
 11
-464.19299000000001
 21
416.40233999999992
 31
0.0
  0
LINE
  5
6CE
  8
0
  6
CENTER
 62
     7
 10
-452.19298999999978
 20
432.41070999999988
 30
0.0
 11
-452.19298999999978
 21
417.77078
 31
0.0
  0
LINE
  5
6CF
  8
0
  6
CENTER
 62
     7
 10
-459.52761999999979
 20
425.16665999999998
 30
0.0
 11
-444.44848999999988
 21
425.16665999999998
 31
0.0
  0
LINE
  5
6D0
  8
0
  6
CONTINUOUS
 62
     7
 10
-370.19299000000001
 20
434.59482000000003
 30
0.0
 11
-370.19299000000001
 21
411.73849000000001
 31
0.0
  0
LINE
  5
6D1
  8
0
  6
CONTINUOUS
 62
     7
 10
-432.1929599999998
 20
438.16665999999992
 30
0.0
 11
-372.14062999999987
 21
436.59411999999992
 31
0.0
  0
LINE
  5
6D2
  8
0
  6
CONTINUOUS
 62
     7
 10
-462.24533000000002
 20
437.37972999999988
 30
0.0
 11
-432.19298999999972
 21
438.16668999999979
 31
0.0
  0
LINE
  5
6D3
  8
0
  6
CONTINUOUS
 62
     7
 10
-435.19299000000001
 20
431.16665999999992
 30
0.0
 11
-435.19299000000001
 21
289.16665999999992
 31
0.0
  0
LINE
  5
6D4
  8
0
  6
CENTER
 62
     7
 10
-382.19299000000001
 20
432.54433999999998
 30
0.0
 11
-382.19299000000001
 21
417.43007999999998
 31
0.0
  0
LINE
  5
6D5
  8
0
  6
CONTINUOUS
 62
     7
 10
-373.19299000000001
 20
409.71161000000001
 30
0.0
 11
-373.19299000000001
 21
310.62169999999998
 31
0.0
  0
LINE
  5
6D6
  8
0
  6
CENTER
 62
     7
 10
-452.19298999999978
 20
287.20746000000008
 30
0.0
 11
-452.19298999999978
 21
302.69080000000002
 31
0.0
  0
LINE
  5
6D7
  8
0
  6
CONTINUOUS
 62
     7
 10
-372.22786999999988
 20
333.59557999999993
 30
0.0
 11
-371.15807999999998
 21
333.63292999999999
 31
0.0
  0
LINE
  5
6D8
  8
0
  6
CONTINUOUS
 62
     7
 10
-372.22791000000001
 20
386.73773
 30
0.0
 11
-371.15807999999998
 21
386.70037999999988
 31
0.0
  0
LINE
  5
6D9
  8
0
  6
CONTINUOUS
 62
     7
 10
-370.19299000000001
 20
334.63231999999999
 30
0.0
 11
-370.19299000000001
 21
385.70095999999978
 31
0.0
  0
LINE
  5
6DA
  8
0
  6
CONTINUOUS
 62
     7
 10
-373.19296000000003
 20
409.71161000000001
 30
0.0
 11
-372.14062999999987
 21
409.73917
 31
0.0
  0
LINE
  5
6DB
  8
0
  6
CENTER
 62
     7
 10
-459.56450999999993
 20
295.16665999999992
 30
0.0
 11
-444.67412999999999
 21
295.16665999999992
 31
0.0
  0
LINE
  5
6DC
  8
0
  6
CONTINUOUS
 62
     7
 10
-370.19299000000001
 20
285.7384899999999
 30
0.0
 11
-370.19299000000001
 21
308.59482000000008
 31
0.0
  0
LINE
  5
6DD
  8
0
  6
CONTINUOUS
 62
     7
 10
-464.19299000000001
 20
284.95294000000001
 30
0.0
 11
-464.19299000000001
 21
303.93097
 31
0.0
  0
LINE
  5
6DE
  8
0
  6
CONTINUOUS
 62
     7
 10
-432.1929599999998
 20
282.16665999999998
 30
0.0
 11
-372.14062999999987
 21
283.73916999999989
 31
0.0
  0
LINE
  5
6DF
  8
0
  6
CONTINUOUS
 62
     7
 10
-462.24533000000002
 20
282.95361000000008
 30
0.0
 11
-432.19298999999972
 21
282.16665999999998
 31
0.0
  0
LINE
  5
6E0
  8
0
  6
CENTER
 62
     7
 10
-382.19299000000001
 20
287.36597
 30
0.0
 11
-382.19299000000001
 21
302.76004
 31
0.0
  0
LINE
  5
6E1
  8
0
  6
CONTINUOUS
 62
     7
 10
-432.19298999999972
 20
434.31069999999988
 30
0.0
 11
-439.19299000000001
 21
437.98336999999981
 31
0.0
  0
LINE
  5
6E2
  8
0
  6
CONTINUOUS
 62
     7
 10
-434.78997999999962
 20
431.15613000000002
 30
0.0
 11
-439.19296000000003
 21
433.46622000000002
 31
0.0
  0
LINE
  5
6E3
  8
0
  6
CONTINUOUS
 62
     7
 10
-439.19299000000001
 20
437.98334
 30
0.0
 11
-439.19299000000001
 21
433.46625
 31
0.0
  0
LINE
  5
6E4
  8
0
  6
CONTINUOUS
 62
     7
 10
-372.14066000000003
 20
310.59411999999992
 30
0.0
 11
-373.19299000000001
 21
310.62166999999999
 31
0.0
  0
LINE
  5
6E5
  8
0
  6
CONTINUOUS
 62
     7
 10
-360.19299000000001
 20
356.16665999999992
 30
0.0
 11
-328.19299000000001
 21
356.16665999999992
 31
0.0
  0
LINE
  5
6E6
  8
0
  6
CONTINUOUS
 62
     7
 10
-360.19299000000001
 20
364.16663
 30
0.0
 11
-328.19299000000001
 21
364.16663
 31
0.0
  0
LINE
  5
6E7
  8
0
  6
CONTINUOUS
 62
     7
 10
-386.19296000000003
 20
309.91565000000008
 30
0.0
 11
-386.19296000000003
 21
410.41766000000001
 31
0.0
  0
LINE
  5
6E8
  8
0
  6
CONTINUOUS
 62
     7
 10
-377.75720000000001
 20
408.56598000000002
 30
0.0
 11
-382.45470999999992
 21
408.97696000000002
 31
0.0
  0
LINE
  5
6E9
  8
0
  6
CONTINUOUS
 62
     7
 10
-377.75720000000001
 20
311.76735999999983
 30
0.0
 11
-382.45470999999992
 21
311.35638
 31
0.0
  0
LINE
  5
6EA
  8
0
  6
CONTINUOUS
 62
     7
 10
-388.93149
 20
306.92705999999993
 30
0.0
 11
-394.62878000000001
 21
306.42862000000002
 31
0.0
  0
LINE
  5
6EB
  8
0
  6
CONTINUOUS
 62
     7
 10
-399.19299000000001
 20
288.16345000000001
 30
0.0
 11
-399.19299000000001
 21
301.44763
 31
0.0
  0
LINE
  5
6EC
  8
0
  6
CONTINUOUS
 62
     7
 10
-432.19298999999972
 20
431.0881
 30
0.0
 11
-432.19298999999972
 21
434.31066999999979
 31
0.0
  0
LINE
  5
6ED
  8
0
  6
CONTINUOUS
 62
     7
 10
-439.19299000000001
 20
282.3499799999999
 30
0.0
 11
-439.19299000000001
 21
286.86707000000001
 31
0.0
  0
LINE
  5
6EE
  8
0
  6
CONTINUOUS
 62
     7
 10
-434.78997999999962
 20
289.17721999999992
 30
0.0
 11
-439.19299000000001
 21
286.86709999999982
 31
0.0
  0
LINE
  5
6EF
  8
0
  6
CONTINUOUS
 62
     7
 10
-432.19298999999972
 20
286.02263999999991
 30
0.0
 11
-439.19299000000001
 21
282.3499799999999
 31
0.0
  0
LINE
  5
6F0
  8
0
  6
CONTINUOUS
 62
     7
 10
-432.19298999999972
 20
289.24520999999982
 30
0.0
 11
-432.19298999999972
 21
286.02263999999991
 31
0.0
  0
LINE
  5
6F1
  8
0
  6
CONTINUOUS
 62
     3
 10
-581.46582000000001
 20
294.66665999999998
 30
0.0
 11
-501.46597000000003
 21
294.66665999999998
 31
0.0
  0
LINE
  5
6F2
  8
0
  6
CONTINUOUS
 62
     3
 10
-501.46597000000003
 20
294.66665999999998
 30
0.0
 11
-501.46597000000003
 21
287.66665999999992
 31
0.0
  0
LINE
  5
6F3
  8
0
  6
CONTINUOUS
 62
     3
 10
-502.96597000000003
 20
271.16665999999998
 30
0.0
 11
-502.96597000000003
 21
287.66665999999992
 31
0.0
  0
LINE
  5
6F4
  8
0
  6
CONTINUOUS
 62
     3
 10
-560.96594000000005
 20
283.66665999999998
 30
0.0
 11
-560.96594000000005
 21
291.16665999999992
 31
0.0
  0
LINE
  5
6F5
  8
0
  6
CONTINUOUS
 62
     3
 10
-575.96582000000001
 20
291.16665999999992
 30
0.0
 11
-575.96582000000001
 21
283.66665999999998
 31
0.0
  0
LINE
  5
6F6
  8
0
  6
CONTINUOUS
 62
     3
 10
-579.96582000000001
 20
291.16665999999992
 30
0.0
 11
-579.96582000000001
 21
271.16665999999998
 31
0.0
  0
LINE
  5
6F7
  8
0
  6
CONTINUOUS
 62
     3
 10
-550.76598999999999
 20
268.16665999999992
 30
0.0
 11
-515.16602
 21
268.16665999999992
 31
0.0
  0
LINE
  5
6F8
  8
0
  6
CONTINUOUS
 62
     3
 10
-579.96582000000001
 20
271.16665999999998
 30
0.0
 11
-502.96597000000003
 21
271.16665999999998
 31
0.0
  0
LINE
  5
6F9
  8
0
  6
CONTINUOUS
 62
     3
 10
-579.96582000000001
 20
287.66665999999992
 30
0.0
 11
-575.96582000000001
 21
287.66665999999992
 31
0.0
  0
LINE
  5
6FA
  8
0
  6
CONTINUOUS
 62
     3
 10
-509.96590999999989
 20
271.16663
 30
0.0
 11
-515.16594999999995
 21
268.16662999999983
 31
0.0
  0
LINE
  5
6FB
  8
0
  6
CONTINUOUS
 62
     3
 10
-550.76598999999999
 20
268.16669000000002
 30
0.0
 11
-555.96594000000005
 21
271.16665999999998
 31
0.0
  0
LINE
  5
6FC
  8
0
  6
CONTINUOUS
 62
     3
 10
-583.46581999999978
 20
291.16665999999992
 30
0.0
 11
-583.46581999999978
 21
276.16762999999992
 31
0.0
  0
LINE
  5
6FD
  8
0
  6
CONTINUOUS
 62
     3
 10
-579.96582000000001
 20
276.16762999999992
 30
0.0
 11
-583.46581999999978
 21
276.16762999999992
 31
0.0
  0
LINE
  5
6FE
  8
0
  6
CONTINUOUS
 62
     3
 10
-564.46594000000005
 20
291.16665999999992
 30
0.0
 11
-564.46594000000005
 21
283.66665999999998
 31
0.0
  0
LINE
  5
6FF
  8
0
  6
CONTINUOUS
 62
     3
 10
-572.46582000000001
 20
291.16665999999992
 30
0.0
 11
-572.46582000000001
 21
283.66665999999998
 31
0.0
  0
LINE
  5
700
  8
0
  6
CONTINUOUS
 62
     3
 10
-560.96594000000005
 20
287.66665999999992
 30
0.0
 11
-501.46597000000003
 21
287.66665999999992
 31
0.0
  0
LINE
  5
701
  8
0
  6
CONTINUOUS
 62
     3
 10
-583.46581999999978
 20
291.16665999999992
 30
0.0
 11
-501.46597000000003
 21
291.16665999999992
 31
0.0
  0
LINE
  5
702
  8
0
  6
CONTINUOUS
 62
     3
 10
-581.46582000000001
 20
294.66665999999998
 30
0.0
 11
-581.46582000000001
 21
291.16665999999992
 31
0.0
  0
LINE
  5
703
  8
0
  6
CONTINUOUS
 62
     7
 10
-502.6929599999998
 20
295.66665999999992
 30
0.0
 11
-502.6929599999998
 21
294.66665999999998
 31
0.0
  0
LINE
  5
704
  8
0
  6
CONTINUOUS
 62
     7
 10
-561.69299000000001
 20
295.66665999999992
 30
0.0
 11
-561.69299000000001
 21
294.66665999999998
 31
0.0
  0
LINE
  5
705
  8
0
  6
CONTINUOUS
 62
     7
 10
-482.98720999999989
 20
405.09554999999989
 30
0.0
 11
-487.13292999999999
 21
420.57668999999993
 31
0.0
  0
LINE
  5
706
  8
0
  6
CONTINUOUS
 62
     7
 10
-482.98720999999989
 20
404.18554999999992
 30
0.0
 11
-487.13297
 21
419.66665999999992
 31
0.0
  0
LINE
  5
707
  8
0
  6
CONTINUOUS
 62
     7
 10
-482.98723999999999
 20
402.33559999999989
 30
0.0
 11
-487.13297
 21
417.81671
 31
0.0
  0
LINE
  5
708
  8
0
  6
CONTINUOUS
 62
     7
 10
-481.19296000000003
 20
416.16665999999998
 30
0.0
 11
-481.19296000000003
 21
304.16665999999992
 31
0.0
  0
LINE
  5
709
  8
0
  6
CONTINUOUS
 62
     7
 10
-603.19299000000001
 20
408.18667999999991
 30
0.0
 11
-603.19299000000001
 21
365.16665999999992
 31
0.0
  0
LINE
  5
70A
  8
0
  6
CONTINUOUS
 62
     7
 10
-600.92296999999985
 20
409.91665999999998
 30
0.0
 11
-598.69298999999978
 21
409.91665999999998
 31
0.0
  0
LINE
  5
70B
  8
0
  6
CONTINUOUS
 62
     7
 10
-600.99292000000003
 20
395.85660000000001
 30
0.0
 11
-598.89293999999995
 21
395.85660000000001
 31
0.0
  0
LINE
  5
70C
  8
0
  6
CONTINUOUS
 62
     7
 10
-601.42296999999985
 20
409.78662000000003
 30
0.0
 11
-602.69292999999982
 21
409.04662999999999
 31
0.0
  0
LINE
  5
70D
  8
0
  6
CONTINUOUS
 62
     7
 10
-601.43291999999985
 20
407.66669000000002
 30
0.0
 11
-602.71294999999998
 21
406.89669999999978
 31
0.0
  0
LINE
  5
70E
  8
0
  6
CONTINUOUS
 62
     7
 10
-601.44299000000001
 20
403.12664999999998
 30
0.0
 11
-602.74303999999995
 21
402.27663999999999
 31
0.0
  0
LINE
  5
70F
  8
0
  6
CONTINUOUS
 62
     7
 10
-601.38292999999999
 20
395.77661000000001
 30
0.0
 11
-602.58294999999998
 21
395.26662999999991
 31
0.0
  0
LINE
  5
710
  8
0
  6
CONTINUOUS
 62
     7
 10
-600.91296
 20
407.80666999999988
 30
0.0
 11
-598.1929899999999
 21
407.80666999999988
 31
0.0
  0
LINE
  5
711
  8
0
  6
CONTINUOUS
 62
     7
 10
-600.89293999999995
 20
403.29665999999992
 30
0.0
 11
-598.1929899999999
 21
403.29665999999992
 31
0.0
  0
LINE
  5
712
  8
0
  6
CONTINUOUS
 62
     7
 10
-601.04296999999985
 20
393.90665000000001
 30
0.0
 11
-599.19299000000001
 21
393.90665000000001
 31
0.0
  0
LINE
  5
713
  8
0
  6
CONTINUOUS
 62
     7
 10
-600.92296999999985
 20
402.15665000000001
 30
0.0
 11
-599.19299000000001
 21
402.15665000000001
 31
0.0
  0
LINE
  5
714
  8
0
  6
CONTINUOUS
 62
     7
 10
-600.94299000000001
 20
406.66665999999992
 30
0.0
 11
-599.19299000000001
 21
406.66665999999992
 31
0.0
  0
LINE
  5
715
  8
0
  6
CONTINUOUS
 62
     7
 10
-600.95299999999975
 20
408.76662999999991
 30
0.0
 11
-598.69298999999978
 21
408.76662999999991
 31
0.0
  0
LINE
  5
716
  8
0
  6
CONTINUOUS
 62
     7
 10
-601.42296999999985
 20
402.01668999999993
 30
0.0
 11
-602.7029399999999
 21
401.26672000000002
 31
0.0
  0
LINE
  5
717
  8
0
  6
CONTINUOUS
 62
     7
 10
-601.33300999999994
 20
393.86669999999992
 30
0.0
 11
-602.48297000000002
 21
393.51672000000002
 31
0.0
  0
LINE
  5
718
  8
0
  6
CONTINUOUS
 62
     7
 10
-601.40295000000003
 20
408.66665999999998
 30
0.0
 11
-602.64293999999995
 21
408.03665000000001
 31
0.0
  0
LINE
  5
719
  8
0
  6
CONTINUOUS
 62
     7
 10
-601.41290000000004
 20
406.55666999999988
 30
0.0
 11
-602.66295999999966
 21
405.88665999999989
 31
0.0
  0
LINE
  5
71A
  8
0
  6
CONTINUOUS
 62
     7
 10
-599.19299000000001
 20
386.16665999999992
 30
0.0
 11
-602.1929899999999
 21
386.16665999999992
 31
0.0
  0
LINE
  5
71B
  8
0
  6
CONTINUOUS
 62
     7
 10
-599.19299000000001
 20
384.16665999999992
 30
0.0
 11
-602.1929899999999
 21
384.16665999999992
 31
0.0
  0
LINE
  5
71C
  8
0
  6
CONTINUOUS
 62
     7
 10
-599.19299000000001
 20
376.16665999999992
 30
0.0
 11
-602.1929899999999
 21
376.16665999999992
 31
0.0
  0
LINE
  5
71D
  8
0
  6
CONTINUOUS
 62
     7
 10
-599.19299000000001
 20
374.16665999999992
 30
0.0
 11
-602.1929899999999
 21
374.16665999999992
 31
0.0
  0
LINE
  5
71E
  8
0
  6
CONTINUOUS
 62
     7
 10
-599.19299000000001
 20
366.16665999999992
 30
0.0
 11
-602.1929899999999
 21
366.16665999999992
 31
0.0
  0
LINE
  5
71F
  8
0
  6
CONTINUOUS
 62
     7
 10
-599.19299000000001
 20
364.16665999999992
 30
0.0
 11
-602.1929899999999
 21
364.16665999999992
 31
0.0
  0
LINE
  5
720
  8
0
  6
CONTINUOUS
 62
     7
 10
-601.19299000000001
 20
375.77663999999987
 30
0.0
 11
-601.19299000000001
 21
374.56667999999991
 31
0.0
  0
LINE
  5
721
  8
0
  6
CONTINUOUS
 62
     7
 10
-601.19299000000001
 20
365.77663999999987
 30
0.0
 11
-601.19299000000001
 21
364.61660999999992
 31
0.0
  0
LINE
  5
722
  8
0
  6
CONTINUOUS
 62
     7
 10
-601.19299000000001
 20
385.79665999999992
 30
0.0
 11
-601.19299000000001
 21
384.42667
 31
0.0
  0
LINE
  5
723
  8
0
  6
CONTINUOUS
 62
     7
 10
-601.19299000000001
 20
395.55666999999988
 30
0.0
 11
-601.19299000000001
 21
394.49660999999992
 31
0.0
  0
LINE
  5
724
  8
0
  6
CONTINUOUS
 62
     7
 10
-601.19299000000001
 20
402.99660999999998
 30
0.0
 11
-601.19299000000001
 21
402.52663999999987
 31
0.0
  0
LINE
  5
725
  8
0
  6
CONTINUOUS
 62
     7
 10
-601.19299000000001
 20
407.56667999999962
 30
0.0
 11
-601.19299000000001
 21
407.01662999999991
 31
0.0
  0
LINE
  5
726
  8
0
  6
CONTINUOUS
 62
     7
 10
-601.19299000000001
 20
409.66665999999981
 30
0.0
 11
-601.19299000000001
 21
409.1366299999998
 31
0.0
  0
LINE
  5
727
  8
0
  6
CONTINUOUS
 62
     7
 10
-604.69299000000001
 20
380.16665999999992
 30
0.0
 11
-604.69299000000001
 21
360.16665999999992
 31
0.0
  0
LINE
  5
728
  8
0
  6
CONTINUOUS
 62
     7
 10
-604.69292999999982
 20
380.16660000000002
 30
0.0
 11
-603.19299000000001
 21
380.29659999999978
 31
0.0
  0
LINE
  5
729
  8
0
  6
CONTINUOUS
 62
     7
 10
-604.69299000000001
 20
375.31667999999979
 30
0.0
 11
-603.19299000000001
 21
375.31667999999979
 31
0.0
  0
LINE
  5
72A
  8
0
  6
CONTINUOUS
 62
     7
 10
-604.69299000000001
 20
377.44668999999999
 30
0.0
 11
-603.19299000000001
 21
377.44668999999999
 31
0.0
  0
LINE
  5
72B
  8
0
  6
CONTINUOUS
 62
     7
 10
-487.85297000000003
 20
396.16665999999998
 30
0.0
 11
-586.83300999999994
 21
396.16665999999998
 31
0.0
  0
LINE
  5
72C
  8
0
  6
CONTINUOUS
 62
     7
 10
-487.85297000000003
 20
394.16665999999992
 30
0.0
 11
-586.83300999999994
 21
394.16665999999992
 31
0.0
  0
LINE
  5
72D
  8
0
  6
CONTINUOUS
 62
     7
 10
-520.19299000000001
 20
386.16665999999992
 30
0.0
 11
-586.83300999999994
 21
386.16665999999992
 31
0.0
  0
LINE
  5
72E
  8
0
  6
CONTINUOUS
 62
     7
 10
-487.86014
 20
384.16665999999992
 30
0.0
 11
-586.83300999999994
 21
384.16665999999992
 31
0.0
  0
LINE
  5
72F
  8
0
  6
CONTINUOUS
 62
     7
 10
-552.75427000000002
 20
376.16665999999992
 30
0.0
 11
-586.83300999999994
 21
376.16665999999992
 31
0.0
  0
LINE
  5
730
  8
0
  6
CONTINUOUS
 62
     7
 10
-552.75427000000002
 20
374.16665999999992
 30
0.0
 11
-586.83300999999994
 21
374.16665999999992
 31
0.0
  0
LINE
  5
731
  8
0
  6
CONTINUOUS
 62
     7
 10
-552.75427000000002
 20
366.16665999999992
 30
0.0
 11
-586.83300999999994
 21
366.16665999999992
 31
0.0
  0
LINE
  5
732
  8
0
  6
CONTINUOUS
 62
     7
 10
-552.75427000000002
 20
364.16665999999992
 30
0.0
 11
-586.83300999999994
 21
364.16665999999992
 31
0.0
  0
LINE
  5
733
  8
0
  6
CONTINUOUS
 62
     7
 10
-587.51293999999984
 20
396.88662999999991
 30
0.0
 11
-484.37295999999992
 21
396.88662999999991
 31
0.0
  0
LINE
  5
734
  8
0
  6
CONTINUOUS
 62
     7
 10
-587.51293999999984
 20
393.53665000000001
 30
0.0
 11
-520.17296999999985
 21
393.53665000000001
 31
0.0
  0
LINE
  5
735
  8
0
  6
CONTINUOUS
 62
     7
 10
-587.73290999999995
 20
386.65665000000001
 30
0.0
 11
-520.19299000000001
 21
386.65665000000001
 31
0.0
  0
LINE
  5
736
  8
0
  6
CONTINUOUS
 62
     7
 10
-587.73290999999995
 20
383.72671999999989
 30
0.0
 11
-484.15872000000002
 21
383.72671999999989
 31
0.0
  0
LINE
  5
737
  8
0
  6
CONTINUOUS
 62
     7
 10
-587.86292000000003
 20
376.50662
 30
0.0
 11
-551.53430000000003
 21
376.50662
 31
0.0
  0
LINE
  5
738
  8
0
  6
CONTINUOUS
 62
     7
 10
-587.86292000000003
 20
373.84670999999992
 30
0.0
 11
-551.53430000000003
 21
373.84670999999992
 31
0.0
  0
LINE
  5
739
  8
0
  6
CONTINUOUS
 62
     7
 10
-587.92296999999985
 20
366.43667999999991
 30
0.0
 11
-551.47424000000001
 21
366.43667999999991
 31
0.0
  0
LINE
  5
73A
  8
0
  6
CONTINUOUS
 62
     7
 10
-587.92296999999985
 20
363.90665000000001
 30
0.0
 11
-551.47424000000001
 21
363.90665000000001
 31
0.0
  0
LINE
  5
73B
  8
0
  6
CONTINUOUS
 62
     7
 10
-587.92296999999985
 20
356.43667999999991
 30
0.0
 11
-551.47424000000001
 21
356.43667999999991
 31
0.0
  0
LINE
  5
73C
  8
0
  6
CONTINUOUS
 62
     7
 10
-552.75427000000002
 20
356.16665999999992
 30
0.0
 11
-586.83300999999994
 21
356.16665999999992
 31
0.0
  0
LINE
  5
73D
  8
0
  6
CONTINUOUS
 62
     7
 10
-552.75427000000002
 20
354.16665999999992
 30
0.0
 11
-586.83300999999994
 21
354.16665999999992
 31
0.0
  0
LINE
  5
73E
  8
0
  6
CONTINUOUS
 62
     7
 10
-587.92296999999985
 20
353.89663999999999
 30
0.0
 11
-551.47424000000001
 21
353.89663999999999
 31
0.0
  0
LINE
  5
73F
  8
0
  6
CONTINUOUS
 62
     7
 10
-587.86292000000003
 20
346.48660000000001
 30
0.0
 11
-551.53430000000003
 21
346.48660000000001
 31
0.0
  0
LINE
  5
740
  8
0
  6
CONTINUOUS
 62
     7
 10
-552.75427000000002
 20
346.16665999999998
 30
0.0
 11
-586.83300999999994
 21
346.16665999999998
 31
0.0
  0
LINE
  5
741
  8
0
  6
CONTINUOUS
 62
     7
 10
-552.75427000000002
 20
344.16665999999998
 30
0.0
 11
-586.83300999999994
 21
344.16665999999998
 31
0.0
  0
LINE
  5
742
  8
0
  6
CONTINUOUS
 62
     7
 10
-587.86292000000003
 20
343.82668999999993
 30
0.0
 11
-551.52172999999993
 21
343.82668999999993
 31
0.0
  0
LINE
  5
743
  8
0
  6
CONTINUOUS
 62
     7
 10
-487.86014
 20
336.16665999999992
 30
0.0
 11
-586.83300999999994
 21
336.16665999999992
 31
0.0
  0
LINE
  5
744
  8
0
  6
CONTINUOUS
 62
     7
 10
-587.73290999999995
 20
336.60660000000001
 30
0.0
 11
-484.15872000000002
 21
336.60660000000001
 31
0.0
  0
LINE
  5
745
  8
0
  6
CONTINUOUS
 62
     7
 10
-520.19299000000001
 20
334.16665999999992
 30
0.0
 11
-586.83300999999994
 21
334.16665999999992
 31
0.0
  0
LINE
  5
746
  8
0
  6
CONTINUOUS
 62
     7
 10
-587.73290999999995
 20
333.67667
 30
0.0
 11
-520.19299000000001
 21
333.67667
 31
0.0
  0
LINE
  5
747
  8
0
  6
CONTINUOUS
 62
     7
 10
-487.85297000000003
 20
326.16665999999992
 30
0.0
 11
-532.19298999999967
 21
326.16665999999992
 31
0.0
  0
LINE
  5
748
  8
0
  6
CONTINUOUS
 62
     7
 10
-487.85297000000003
 20
324.16665999999992
 30
0.0
 11
-532.19298999999967
 21
324.16665999999992
 31
0.0
  0
LINE
  5
749
  8
0
  6
CONTINUOUS
 62
     7
 10
-587.51293999999984
 20
323.44668999999999
 30
0.0
 11
-532.19298999999967
 21
323.44668999999999
 31
0.0
  0
LINE
  5
74A
  8
0
  6
CONTINUOUS
 62
     7
 10
-484.37295999999992
 20
326.79665999999992
 30
0.0
 11
-502.21294999999998
 21
326.79665999999992
 31
0.0
  0
LINE
  5
74B
  8
0
  6
CONTINUOUS
 62
     7
 10
-600.99292000000003
 20
324.47672
 30
0.0
 11
-598.89293999999995
 21
324.47672
 31
0.0
  0
LINE
  5
74C
  8
0
  6
CONTINUOUS
 62
     7
 10
-601.38287000000003
 20
324.55666999999988
 30
0.0
 11
-602.58289000000002
 21
325.07668999999993
 31
0.0
  0
LINE
  5
74D
  8
0
  6
CONTINUOUS
 62
     7
 10
-601.04296999999985
 20
326.42667
 30
0.0
 11
-599.19299000000001
 21
326.42667
 31
0.0
  0
LINE
  5
74E
  8
0
  6
CONTINUOUS
 62
     7
 10
-601.33294999999998
 20
326.46663999999993
 30
0.0
 11
-602.48290999999995
 21
326.82662999999991
 31
0.0
  0
LINE
  5
74F
  8
0
  6
CONTINUOUS
 62
     7
 10
-599.19299000000001
 20
334.16665999999992
 30
0.0
 11
-602.1929899999999
 21
334.16665999999992
 31
0.0
  0
LINE
  5
750
  8
0
  6
CONTINUOUS
 62
     7
 10
-599.19299000000001
 20
336.16665999999992
 30
0.0
 11
-602.1929899999999
 21
336.16665999999992
 31
0.0
  0
LINE
  5
751
  8
0
  6
CONTINUOUS
 62
     7
 10
-599.19299000000001
 20
344.16665999999998
 30
0.0
 11
-602.1929899999999
 21
344.16665999999998
 31
0.0
  0
LINE
  5
752
  8
0
  6
CONTINUOUS
 62
     7
 10
-599.19299000000001
 20
346.16665999999998
 30
0.0
 11
-602.1929899999999
 21
346.16665999999998
 31
0.0
  0
LINE
  5
753
  8
0
  6
CONTINUOUS
 62
     7
 10
-599.19299000000001
 20
354.16665999999992
 30
0.0
 11
-602.1929899999999
 21
354.16665999999992
 31
0.0
  0
LINE
  5
754
  8
0
  6
CONTINUOUS
 62
     7
 10
-599.19299000000001
 20
356.16665999999992
 30
0.0
 11
-602.1929899999999
 21
356.16665999999992
 31
0.0
  0
LINE
  5
755
  8
0
  6
CONTINUOUS
 62
     7
 10
-601.19299000000001
 20
344.55667
 30
0.0
 11
-601.19299000000001
 21
345.77663999999999
 31
0.0
  0
LINE
  5
756
  8
0
  6
CONTINUOUS
 62
     7
 10
-601.19299000000001
 20
354.55667
 30
0.0
 11
-601.19299000000001
 21
355.71670999999998
 31
0.0
  0
LINE
  5
757
  8
0
  6
CONTINUOUS
 62
     7
 10
-601.19299000000001
 20
334.53665000000001
 30
0.0
 11
-601.19299000000001
 21
335.90665000000001
 31
0.0
  0
LINE
  5
758
  8
0
  6
CONTINUOUS
 62
     7
 10
-601.19299000000001
 20
324.77663999999982
 30
0.0
 11
-601.19299000000001
 21
325.83670000000001
 31
0.0
  0
LINE
  5
759
  8
0
  6
CONTINUOUS
 62
     7
 10
-604.69299000000001
 20
340.16665999999992
 30
0.0
 11
-604.69299000000001
 21
360.16665999999992
 31
0.0
  0
LINE
  5
75A
  8
0
  6
CONTINUOUS
 62
     7
 10
-604.69292999999982
 20
340.16663
 30
0.0
 11
-603.19299000000001
 21
340.03662000000008
 31
0.0
  0
LINE
  5
75B
  8
0
  6
CONTINUOUS
 62
     7
 10
-604.69299000000001
 20
345.01662999999991
 30
0.0
 11
-603.19299000000001
 21
345.01662999999991
 31
0.0
  0
LINE
  5
75C
  8
0
  6
CONTINUOUS
 62
     7
 10
-604.69299000000001
 20
342.88662999999991
 30
0.0
 11
-603.19299000000001
 21
342.88662999999991
 31
0.0
  0
LINE
  5
75D
  8
0
  6
CONTINUOUS
 62
     7
 10
-587.51293999999984
 20
326.79665999999992
 30
0.0
 11
-520.17296999999985
 21
326.79665999999992
 31
0.0
  0
LINE
  5
75E
  8
0
  6
CONTINUOUS
 62
     7
 10
-532.19298999999967
 20
326.16665999999992
 30
0.0
 11
-586.83300999999994
 21
326.16665999999992
 31
0.0
  0
LINE
  5
75F
  8
0
  6
CONTINUOUS
 62
     7
 10
-532.19298999999967
 20
324.16665999999992
 30
0.0
 11
-586.83300999999994
 21
324.16665999999992
 31
0.0
  0
LINE
  5
760
  8
0
  6
CONTINUOUS
 62
     7
 10
-532.19298999999967
 20
323.44668999999999
 30
0.0
 11
-484.37295999999992
 21
323.44668999999999
 31
0.0
  0
LINE
  5
761
  8
0
  6
CONTINUOUS
 62
     7
 10
-597.19299000000001
 20
413.16665999999992
 30
0.0
 11
-597.19299000000001
 21
307.16665999999992
 31
0.0
  0
LINE
  5
762
  8
0
  6
CONTINUOUS
 62
     7
 10
-589.19299000000001
 20
413.16665999999992
 30
0.0
 11
-589.19299000000001
 21
307.16665999999992
 31
0.0
  0
LINE
  5
763
  8
0
  6
CONTINUOUS
 62
     7
 10
-602.70299999999975
 20
319.06664999999992
 30
0.0
 11
-602.72295999999994
 21
319.07662999999991
 31
0.0
  0
LINE
  5
764
  8
0
  6
CONTINUOUS
 62
     7
 10
-598.1929899999999
 20
410.16665999999992
 30
0.0
 11
-598.1929899999999
 21
310.16665999999992
 31
0.0
  0
LINE
  5
765
  8
0
  6
CONTINUOUS
 62
     7
 10
-598.1929899999999
 20
410.16665999999992
 30
0.0
 11
-597.19299000000001
 21
410.16665999999992
 31
0.0
  0
LINE
  5
766
  8
0
  6
CONTINUOUS
 62
     7
 10
-597.19299000000001
 20
413.16665999999992
 30
0.0
 11
-589.19299000000001
 21
413.16665999999992
 31
0.0
  0
LINE
  5
767
  8
0
  6
CONTINUOUS
 62
     7
 10
-596.49292000000003
 20
403.35660000000001
 30
0.0
 11
-590.26294000000019
 21
403.35660000000001
 31
0.0
  0
LINE
  5
768
  8
0
  6
CONTINUOUS
 62
     7
 10
-481.19296000000003
 20
406.16665999999992
 30
0.0
 11
-473.19295999999991
 21
406.16665999999992
 31
0.0
  0
LINE
  5
769
  8
0
  6
CONTINUOUS
 62
     7
 10
-481.19296000000003
 20
392.10660000000001
 30
0.0
 11
-473.19295999999991
 21
392.10660000000001
 31
0.0
  0
LINE
  5
76A
  8
0
  6
CONTINUOUS
 62
     7
 10
-481.19296000000003
 20
416.16665999999998
 30
0.0
 11
-473.19295999999991
 21
416.16665999999998
 31
0.0
  0
LINE
  5
76B
  8
0
  6
CONTINUOUS
 62
     7
 10
-585.98290999999995
 20
416.44668999999982
 30
0.0
 11
-489.06295999999992
 21
416.44668999999982
 31
0.0
  0
LINE
  5
76C
  8
0
  6
CONTINUOUS
 62
     7
 10
-589.19292999999982
 20
408.26672000000002
 30
0.0
 11
-587.95294000000001
 21
414.82668999999999
 31
0.0
  0
LINE
  5
76D
  8
0
  6
CONTINUOUS
 62
     7
 10
-583.83294999999976
 20
396.81662
 30
0.0
 11
-589.19292999999982
 21
408.26659999999993
 31
0.0
  0
LINE
  5
76E
  8
0
  6
CONTINUOUS
 62
     7
 10
-583.83300999999994
 20
323.51662999999991
 30
0.0
 11
-589.19292999999982
 21
312.07672000000002
 31
0.0
  0
LINE
  5
76F
  8
0
  6
CONTINUOUS
 62
     7
 10
-585.94299000000001
 20
419.29665999999997
 30
0.0
 11
-489.06295999999992
 21
419.29665999999997
 31
0.0
  0
LINE
  5
770
  8
0
  6
CONTINUOUS
 62
     7
 10
-585.92296999999985
 20
421.14663999999988
 30
0.0
 11
-489.06295999999992
 21
421.14663999999988
 31
0.0
  0
LINE
  5
771
  8
0
  6
CONTINUOUS
 62
     7
 10
-585.90295000000003
 20
422.05667
 30
0.0
 11
-489.06290000000001
 21
422.05667
 31
0.0
  0
LINE
  5
772
  8
0
  6
CONTINUOUS
 62
     7
 10
-589.19292999999982
 20
409.60669000000001
 30
0.0
 11
-587.91295999999966
 21
417.61664000000002
 31
0.0
  0
LINE
  5
773
  8
0
  6
CONTINUOUS
 62
     7
 10
-589.19292999999982
 20
410.95663000000002
 30
0.0
 11
-587.90288999999996
 21
419.44672000000003
 31
0.0
  0
LINE
  5
774
  8
0
  6
CONTINUOUS
 62
     7
 10
-589.19299000000001
 20
410.95666999999997
 30
0.0
 11
-587.88300000000004
 21
420.33670000000001
 31
0.0
  0
LINE
  5
775
  8
0
  6
CONTINUOUS
 62
     7
 10
-482.99292000000003
 20
399.50662
 30
0.0
 11
-487.13292999999999
 21
414.96667000000002
 31
0.0
  0
LINE
  5
776
  8
0
  6
CONTINUOUS
 62
     7
 10
-486.65294999999992
 20
413.16665999999992
 30
0.0
 11
-481.19296000000003
 21
413.16665999999992
 31
0.0
  0
LINE
  5
777
  8
0
  6
CONTINUOUS
 62
     7
 10
-603.19299000000001
 20
312.14663999999999
 30
0.0
 11
-603.19299000000001
 21
355.16665999999992
 31
0.0
  0
LINE
  5
778
  8
0
  6
CONTINUOUS
 62
     7
 10
-600.92296999999985
 20
310.41665999999992
 30
0.0
 11
-598.69298999999978
 21
310.41665999999992
 31
0.0
  0
LINE
  5
779
  8
0
  6
CONTINUOUS
 62
     7
 10
-601.42291
 20
310.55660999999992
 30
0.0
 11
-602.69292999999982
 21
311.28662000000008
 31
0.0
  0
LINE
  5
77A
  8
0
  6
CONTINUOUS
 62
     7
 10
-601.43291999999985
 20
312.66665999999998
 30
0.0
 11
-602.71294999999998
 21
313.43667999999991
 31
0.0
  0
LINE
  5
77B
  8
0
  6
CONTINUOUS
 62
     7
 10
-601.44292999999959
 20
317.20659999999998
 30
0.0
 11
-602.74297999999999
 21
318.05660999999998
 31
0.0
  0
LINE
  5
77C
  8
0
  6
CONTINUOUS
 62
     7
 10
-600.91296
 20
312.52663999999999
 30
0.0
 11
-598.1929899999999
 21
312.52663999999999
 31
0.0
  0
LINE
  5
77D
  8
0
  6
CONTINUOUS
 62
     7
 10
-600.89293999999995
 20
317.04665999999992
 30
0.0
 11
-598.1929899999999
 21
317.04665999999992
 31
0.0
  0
LINE
  5
77E
  8
0
  6
CONTINUOUS
 62
     7
 10
-600.92296999999985
 20
318.1866799999998
 30
0.0
 11
-599.19299000000001
 21
318.1866799999998
 31
0.0
  0
LINE
  5
77F
  8
0
  6
CONTINUOUS
 62
     7
 10
-600.94299000000001
 20
313.66665999999992
 30
0.0
 11
-599.19299000000001
 21
313.66665999999992
 31
0.0
  0
LINE
  5
780
  8
0
  6
CONTINUOUS
 62
     7
 10
-600.95299999999975
 20
311.56667999999991
 30
0.0
 11
-598.69298999999978
 21
311.56667999999991
 31
0.0
  0
LINE
  5
781
  8
0
  6
CONTINUOUS
 62
     7
 10
-601.42296999999985
 20
318.31670999999989
 30
0.0
 11
-602.7029399999999
 21
319.06667999999979
 31
0.0
  0
LINE
  5
782
  8
0
  6
CONTINUOUS
 62
     7
 10
-601.40295000000003
 20
311.67660999999993
 30
0.0
 11
-602.64300999999978
 21
312.30660999999992
 31
0.0
  0
LINE
  5
783
  8
0
  6
CONTINUOUS
 62
     7
 10
-601.41290000000004
 20
313.78662000000008
 30
0.0
 11
-602.66295999999966
 21
314.44666000000001
 31
0.0
  0
LINE
  5
784
  8
0
  6
CONTINUOUS
 62
     7
 10
-601.19299000000001
 20
317.33670000000001
 30
0.0
 11
-601.19299000000001
 21
317.80667
 31
0.0
  0
LINE
  5
785
  8
0
  6
CONTINUOUS
 62
     7
 10
-601.19299000000001
 20
312.76662999999991
 30
0.0
 11
-601.19299000000001
 21
313.31667999999991
 31
0.0
  0
LINE
  5
786
  8
0
  6
CONTINUOUS
 62
     7
 10
-601.19299000000001
 20
310.66665999999998
 30
0.0
 11
-601.19299000000001
 21
311.19668999999999
 31
0.0
  0
LINE
  5
787
  8
0
  6
CONTINUOUS
 62
     7
 10
-598.1929899999999
 20
310.16665999999992
 30
0.0
 11
-597.19299000000001
 21
310.16665999999992
 31
0.0
  0
LINE
  5
788
  8
0
  6
CONTINUOUS
 62
     7
 10
-597.19299000000001
 20
307.16665999999992
 30
0.0
 11
-589.19299000000001
 21
307.16665999999992
 31
0.0
  0
LINE
  5
789
  8
0
  6
CONTINUOUS
 62
     7
 10
-596.49292000000003
 20
316.97671999999989
 30
0.0
 11
-590.26294000000019
 21
316.97671999999989
 31
0.0
  0
LINE
  5
78A
  8
0
  6
CONTINUOUS
 62
     7
 10
-481.19296000000003
 20
314.16665999999992
 30
0.0
 11
-473.19295999999991
 21
314.16665999999992
 31
0.0
  0
LINE
  5
78B
  8
0
  6
CONTINUOUS
 62
     7
 10
-481.19296000000003
 20
304.16665999999992
 30
0.0
 11
-473.19295999999991
 21
304.16665999999992
 31
0.0
  0
LINE
  5
78C
  8
0
  6
CONTINUOUS
 62
     7
 10
-585.98290999999995
 20
303.88662999999991
 30
0.0
 11
-489.06295999999992
 21
303.88662999999991
 31
0.0
  0
LINE
  5
78D
  8
0
  6
CONTINUOUS
 62
     7
 10
-589.19292999999982
 20
312.07662999999991
 30
0.0
 11
-587.95294000000001
 21
305.51662999999991
 31
0.0
  0
LINE
  5
78E
  8
0
  6
CONTINUOUS
 62
     7
 10
-586.28673999999978
 20
301.0366499999999
 30
0.0
 11
-563.79480000000001
 21
301.0366499999999
 31
0.0
  0
LINE
  5
78F
  8
0
  6
CONTINUOUS
 62
     7
 10
-589.19292999999982
 20
310.72662000000008
 30
0.0
 11
-587.91290000000004
 21
302.72667999999999
 31
0.0
  0
LINE
  5
790
  8
0
  6
CONTINUOUS
 62
     7
 10
-589.19292999999982
 20
309.38672000000008
 30
0.0
 11
-588.18364999999994
 21
302.73653999999982
 31
0.0
  0
LINE
  5
791
  8
0
  6
CONTINUOUS
 62
     7
 10
-589.19299000000001
 20
309.38668999999999
 30
0.0
 11
-588.26751999999999
 21
302.76006999999993
 31
0.0
  0
LINE
  5
792
  8
0
  6
CONTINUOUS
 62
     7
 10
-482.98720999999989
 20
320.84778
 30
0.0
 11
-487.13292999999999
 21
305.36666999999989
 31
0.0
  0
LINE
  5
793
  8
0
  6
CONTINUOUS
 62
     7
 10
-486.65093999999988
 20
307.16665999999992
 30
0.0
 11
-481.19296000000003
 21
307.16665999999992
 31
0.0
  0
LINE
  5
794
  8
0
  6
CONTINUOUS
 62
     7
 10
-481.19296000000003
 20
328.22672
 30
0.0
 11
-473.19295999999991
 21
328.22672
 31
0.0
  0
LINE
  5
795
  8
0
  6
CONTINUOUS
 62
     3
 10
-562.19299000000001
 20
295.66663
 30
0.0
 11
-562.40819999999985
 21
303.88668999999982
 31
0.0
  0
LINE
  5
796
  8
0
  6
CONTINUOUS
 62
     3
 10
-502.19292999999999
 20
295.66663
 30
0.0
 11
-501.97769
 21
303.88672000000008
 31
0.0
  0
LINE
  5
797
  8
0
  6
CONTINUOUS
 62
     3
 10
-482.19292999999988
 20
307.16665999999992
 30
0.0
 11
-487.91869999999989
 21
298.34976
 31
0.0
  0
LINE
  5
798
  8
0
  6
CONTINUOUS
 62
     7
 10
-502.19295999999991
 20
295.66665999999992
 30
0.0
 11
-562.19299000000001
 21
295.66665999999992
 31
0.0
  0
LINE
  5
799
  8
0
  6
CONTINUOUS
 62
     7
 10
-500.67934999999989
 20
297.66665999999992
 30
0.0
 11
-489.17675999999989
 21
297.66665999999992
 31
0.0
  0
LINE
  5
79A
  8
0
  6
CONTINUOUS
 62
     7
 10
-503.21294999999992
 20
387.66665999999998
 30
0.0
 11
-503.21294999999992
 21
392.52663999999987
 31
0.0
  0
LINE
  5
79B
  8
0
  6
CONTINUOUS
 62
     7
 10
-519.17296999999985
 20
387.66665999999998
 30
0.0
 11
-519.17296999999985
 21
392.52663999999987
 31
0.0
  0
LINE
  5
79C
  8
0
  6
CONTINUOUS
 62
     7
 10
-503.69295999999991
 20
387.66665999999998
 30
0.0
 11
-503.69295999999991
 21
392.66665999999992
 31
0.0
  0
LINE
  5
79D
  8
0
  6
CONTINUOUS
 62
     7
 10
-518.6929899999999
 20
387.66665999999998
 30
0.0
 11
-518.6929899999999
 21
392.66665999999992
 31
0.0
  0
LINE
  5
79E
  8
0
  6
CONTINUOUS
 62
     7
 10
-547.19299000000001
 20
373.16665999999998
 30
0.0
 11
-484.19295999999991
 21
373.16665999999998
 31
0.0
  0
LINE
  5
79F
  8
0
  6
CONTINUOUS
 62
     7
 10
-547.19299000000001
 20
339.66665999999992
 30
0.0
 11
-484.19295999999991
 21
339.66665999999992
 31
0.0
  0
LINE
  5
7A0
  8
0
  6
CONTINUOUS
 62
     7
 10
-547.19299000000001
 20
380.66665999999992
 30
0.0
 11
-484.19295999999991
 21
380.66665999999992
 31
0.0
  0
LINE
  5
7A1
  8
0
  6
CONTINUOUS
 62
     3
 10
-484.19295999999991
 20
380.66665999999992
 30
0.0
 11
-484.19295999999991
 21
339.66665999999992
 31
0.0
  0
LINE
  5
7A2
  8
0
  6
CONTINUOUS
 62
     3
 10
-547.19299000000001
 20
380.66665999999992
 30
0.0
 11
-547.19299000000001
 21
339.66665999999992
 31
0.0
  0
LINE
  5
7A3
  8
0
  6
CONTINUOUS
 62
     7
 10
-502.19295999999991
 20
386.65665000000001
 30
0.0
 11
-484.14724999999999
 21
386.65665000000001
 31
0.0
  0
LINE
  5
7A4
  8
0
  6
CONTINUOUS
 62
     7
 10
-502.19295999999991
 20
333.68667999999991
 30
0.0
 11
-484.15872000000002
 21
333.68667999999991
 31
0.0
  0
LINE
  5
7A5
  8
0
  6
CONTINUOUS
 62
     7
 10
-503.21294999999992
 20
332.66665999999992
 30
0.0
 11
-503.21294999999992
 21
327.80667
 31
0.0
  0
LINE
  5
7A6
  8
0
  6
CONTINUOUS
 62
     7
 10
-519.17296999999985
 20
332.66665999999992
 30
0.0
 11
-519.17296999999985
 21
327.80667
 31
0.0
  0
LINE
  5
7A7
  8
0
  6
CONTINUOUS
 62
     7
 10
-503.69295999999991
 20
332.66665999999992
 30
0.0
 11
-503.69295999999991
 21
327.66665999999992
 31
0.0
  0
LINE
  5
7A8
  8
0
  6
CONTINUOUS
 62
     7
 10
-518.6929899999999
 20
332.66665999999992
 30
0.0
 11
-518.6929899999999
 21
327.66665999999992
 31
0.0
  0
LINE
  5
7A9
  8
0
  6
CONTINUOUS
 62
     7
 10
-487.86014
 20
334.16665999999992
 30
0.0
 11
-502.19295999999991
 21
334.16665999999992
 31
0.0
  0
LINE
  5
7AA
  8
0
  6
CONTINUOUS
 62
     7
 10
-487.84582999999998
 20
386.16665999999992
 30
0.0
 11
-502.19295999999991
 21
386.16665999999992
 31
0.0
  0
LINE
  5
7AB
  8
0
  6
CONTINUOUS
 62
     3
 10
-502.21294999999998
 20
393.52663999999999
 30
0.0
 11
-484.37295999999992
 21
393.52663999999999
 31
0.0
  0
LINE
  5
7AC
  8
0
  6
CONTINUOUS
 62
     7
 10
-422.4571199999998
 20
289.50015000000002
 30
0.0
 11
-435.19296000000003
 21
289.16665999999992
 31
0.0
  0
LINE
  5
7AD
  8
0
  6
CONTINUOUS
 62
     7
 10
-422.45715000000001
 20
430.83315999999979
 30
0.0
 11
-435.19296000000003
 21
431.16665999999992
 31
0.0
  0
LINE
  5
7AE
  8
0
  6
CENTER
 62
     7
 10
-390.13909999999993
 20
295.16665999999992
 30
0.0
 11
-374.33562999999992
 21
295.16665999999992
 31
0.0
  0
LINE
  5
7AF
  8
0
  6
CENTER
 62
     7
 10
-389.59235000000001
 20
425.16665999999998
 30
0.0
 11
-374.72385000000003
 21
425.16665999999998
 31
0.0
  0
LINE
  5
7B0
  8
0
  6
CONTINUOUS
 62
     7
 10
-424.19299000000001
 20
310.09942999999993
 30
0.0
 11
-421.19299000000001
 21
310.09942999999993
 31
0.0
  0
LINE
  5
7B1
  8
0
  6
CONTINUOUS
 62
     7
 10
-421.19295999999991
 20
310.09942999999993
 30
0.0
 11
-421.19295999999991
 21
410.23388999999992
 31
0.0
  0
LINE
  5
7B2
  8
0
  6
CONTINUOUS
 62
     7
 10
-421.19295999999991
 20
310.0994
 30
0.0
 11
-407.61099000000002
 21
312.65778
 31
0.0
  0
LINE
  5
7B3
  8
0
  6
CONTINUOUS
 62
     7
 10
-420.09655999999978
 20
290.16338999999982
 30
0.0
 11
-409.4597799999998
 21
296.27660999999989
 31
0.0
  0
LINE
  5
7B4
  8
0
  6
CONTINUOUS
 62
     7
 10
-399.19299000000001
 20
418.88564999999988
 30
0.0
 11
-399.19299000000001
 21
432.16985999999991
 31
0.0
  0
LINE
  5
7B5
  8
0
  6
CONTINUOUS
 62
     7
 10
-389.11441000000002
 20
313.14211999999992
 30
0.0
 11
-407.61099000000002
 21
312.65778
 31
0.0
  0
LINE
  5
7B6
  8
0
  6
CONTINUOUS
 62
     7
 10
-402.11443999999989
 20
297.07037000000008
 30
0.0
 11
-407.09917999999988
 21
296.93982
 31
0.0
  0
LINE
  5
7B7
  8
0
  6
CONTINUOUS
 62
     7
 10
-388.93149
 20
413.40622000000002
 30
0.0
 11
-394.62875000000003
 21
413.90469000000002
 31
0.0
  0
LINE
  5
7B8
  8
0
  6
CONTINUOUS
 62
     7
 10
-420.09655999999978
 20
430.16988999999978
 30
0.0
 11
-409.45980999999989
 21
424.05669999999992
 31
0.0
  0
LINE
  5
7B9
  8
0
  6
CONTINUOUS
 62
     7
 10
-421.19295999999991
 20
410.23388999999992
 30
0.0
 11
-407.61099000000002
 21
407.6755099999998
 31
0.0
  0
LINE
  5
7BA
  8
0
  6
CONTINUOUS
 62
     7
 10
-389.11441000000002
 20
407.19115999999991
 30
0.0
 11
-407.61102
 21
407.67554000000001
 31
0.0
  0
LINE
  5
7BB
  8
0
  6
CONTINUOUS
 62
     7
 10
-402.11446999999981
 20
423.26294000000001
 30
0.0
 11
-407.09921000000003
 21
423.39345999999989
 31
0.0
  0
LINE
  5
7BC
  8
0
  6
CONTINUOUS
 62
     7
 10
-423.19298999999978
 20
412.70461999999992
 30
0.0
 11
-420.19299000000001
 21
412.70461999999992
 31
0.0
  0
LINE
  5
7BD
  8
0
  6
CONTINUOUS
 62
     7
 10
-423.19298999999978
 20
424.25161999999989
 30
0.0
 11
-420.19299000000001
 21
424.25161999999989
 31
0.0
  0
LINE
  5
7BE
  8
0
  6
CONTINUOUS
 62
     7
 10
-423.19298999999978
 20
421.36487
 30
0.0
 11
-420.19299000000001
 21
421.36487
 31
0.0
  0
LINE
  5
7BF
  8
0
  6
CONTINUOUS
 62
     7
 10
-423.19298999999978
 20
415.59136999999998
 30
0.0
 11
-420.19299000000001
 21
415.59136999999998
 31
0.0
  0
LINE
  5
7C0
  8
0
  6
CONTINUOUS
 62
     7
 10
-419.19301999999988
 20
423.25164999999998
 30
0.0
 11
-419.19301999999988
 21
413.70461999999992
 31
0.0
  0
LINE
  5
7C1
  8
0
  6
CONTINUOUS
 62
     7
 10
-424.19299000000001
 20
411.70458999999988
 30
0.0
 11
-423.19298999999978
 21
411.70458999999988
 31
0.0
  0
LINE
  5
7C2
  8
0
  6
CONTINUOUS
 62
     7
 10
-424.19299000000001
 20
425.25164999999993
 30
0.0
 11
-423.19298999999978
 21
425.25164999999993
 31
0.0
  0
LINE
  5
7C3
  8
0
  6
CONTINUOUS
 62
     7
 10
-423.19298999999978
 20
411.70458999999988
 30
0.0
 11
-423.19298999999978
 21
425.25164999999993
 31
0.0
  0
LINE
  5
7C4
  8
0
  6
CONTINUOUS
 62
     7
 10
-424.19299000000001
 20
410.23388999999992
 30
0.0
 11
-424.19299000000001
 21
430.87860000000001
 31
0.0
  0
LINE
  5
7C5
  8
0
  6
CONTINUOUS
 62
     7
 10
-424.19299000000001
 20
410.23388999999992
 30
0.0
 11
-421.19299000000001
 21
410.23388999999992
 31
0.0
  0
LINE
  5
7C6
  8
0
  6
CONTINUOUS
 62
     7
 10
-435.19296000000003
 20
289.16665999999992
 30
0.0
 11
-440.24532999999991
 21
289.29894999999999
 31
0.0
  0
LINE
  5
7C7
  8
0
  6
CONTINUOUS
 62
     7
 10
-435.19299000000001
 20
431.16665999999992
 30
0.0
 11
-440.24529999999999
 21
431.03432999999961
 31
0.0
  0
LINE
  5
7C8
  8
0
  6
CONTINUOUS
 62
     7
 10
-442.19295999999991
 20
291.29827999999992
 30
0.0
 11
-442.19295999999991
 21
429.03503000000001
 31
0.0
  0
LINE
  5
7C9
  8
0
  6
CONTINUOUS
 62
     7
 10
-473.19295999999991
 20
304.16665999999992
 30
0.0
 11
-473.19295999999991
 21
416.16665999999998
 31
0.0
  0
LINE
  5
7CA
  8
0
  6
CONTINUOUS
 62
     7
 10
-447.19299000000001
 20
303.48584
 30
0.0
 11
-473.19292999999999
 21
304.16665999999992
 31
0.0
  0
LINE
  5
7CB
  8
0
  6
CONTINUOUS
 62
     7
 10
-473.19295999999991
 20
314.16635000000002
 30
0.0
 11
-442.19295999999991
 21
314.16635000000002
 31
0.0
  0
LINE
  5
7CC
  8
0
  6
CONTINUOUS
 62
     7
 10
-445.19299000000001
 20
294.95537999999982
 30
0.0
 11
-444.19295999999991
 21
294.95537999999982
 31
0.0
  0
LINE
  5
7CD
  8
0
  6
CONTINUOUS
 62
     7
 10
-447.19299000000001
 20
296.95537999999988
 30
0.0
 11
-447.19299000000001
 21
312.16635000000002
 31
0.0
  0
LINE
  5
7CE
  8
0
  6
CONTINUOUS
 62
     7
 10
-447.19299000000001
 20
423.37795999999997
 30
0.0
 11
-447.19299000000001
 21
408.16696000000002
 31
0.0
  0
LINE
  5
7CF
  8
0
  6
CONTINUOUS
 62
     7
 10
-447.19296000000003
 20
416.84749999999991
 30
0.0
 11
-473.19292999999999
 21
416.16665999999998
 31
0.0
  0
LINE
  5
7D0
  8
0
  6
CONTINUOUS
 62
     7
 10
-473.19295999999991
 20
406.16696000000002
 30
0.0
 11
-442.19295999999991
 21
406.16696000000002
 31
0.0
  0
LINE
  5
7D1
  8
0
  6
CONTINUOUS
 62
     7
 10
-445.19299000000001
 20
425.37795999999992
 30
0.0
 11
-444.19295999999991
 21
425.37795999999992
 31
0.0
  0
LINE
  5
7D2
  8
0
  6
CONTINUOUS
 62
     7
 10
-473.19295999999991
 20
328.22672
 30
0.0
 11
-442.19295999999991
 21
328.22672
 31
0.0
  0
LINE
  5
7D3
  8
0
  6
CONTINUOUS
 62
     7
 10
-473.19295999999991
 20
392.10660000000001
 30
0.0
 11
-442.19295999999991
 21
392.10660000000001
 31
0.0
  0
CIRCLE
  5
7D4
  8
0
  6
CONTINUOUS
 62
     7
 10
-203.59240999999989
 20
162.0919199999999
 30
0.0
 40
4.9999995000000004
  0
CIRCLE
  5
7D5
  8
0
  6
CONTINUOUS
 62
     7
 10
-86.969475000000003
 20
162.09183999999979
 30
0.0
 40
4.9999995000000004
  0
ARC
  5
7D6
  8
0
  6
CONTINUOUS
 62
     7
 10
-145.2809399999999
 20
137.34792999999991
 30
0.0
 40
12.0
 50
109.47122
 51
70.528789000000003
  0
CIRCLE
  5
7D7
  8
0
  6
CONTINUOUS
 62
     7
 10
-173.40823
 20
49.442802
 30
0.0
 40
4.9999995000000004
  0
CIRCLE
  5
7D8
  8
0
  6
CONTINUOUS
 62
     7
 10
-117.1537
 20
49.442802
 30
0.0
 40
4.9999995000000004
  0
CIRCLE
  5
7D9
  8
0
  6
CONTINUOUS
 62
     7
 10
-145.2809399999999
 20
137.34792999999991
 30
0.0
 40
3.0
  0
CIRCLE
  5
7DA
  8
0
  6
CONTINUOUS
 62
     7
 10
-145.2809399999999
 20
137.34792999999991
 30
0.0
 40
4.0
  0
ARC
  5
7DB
  8
0
  6
CONTINUOUS
 62
     7
 10
-420.19301999999988
 20
165.97866999999991
 30
0.0
 40
1.0
 50
270.0
 51
0.0
  0
ARC
  5
7DC
  8
0
  6
CONTINUOUS
 62
     7
 10
-420.19301999999988
 20
160.2051499999998
 30
0.0
 40
1.0
 50
270.0
 51
0.0
  0
ARC
  5
7DD
  8
0
  6
CONTINUOUS
 62
     7
 10
-420.19301999999988
 20
157.3184099999998
 30
0.0
 40
1.0
 50
270.0
 51
0.0
  0
ARC
  5
7DE
  8
0
  6
CONTINUOUS
 62
     7
 10
-420.19301999999988
 20
158.20515
 30
0.0
 40
1.0
 50
0.0
 51
90.000003000000007
  0
ARC
  5
7DF
  8
0
  6
CONTINUOUS
 62
     7
 10
-420.19301999999988
 20
163.97867999999991
 30
0.0
 40
1.0
 50
0.0
 51
90.000003000000007
  0
ARC
  5
7E0
  8
0
  6
CONTINUOUS
 62
     7
 10
-420.19301999999988
 20
166.86543
 30
0.0
 40
1.0
 50
0.0
 51
90.000003000000007
  0
ARC
  5
7E1
  8
0
  6
CONTINUOUS
 62
     7
 10
-450.19301999999999
 20
57.744621000000002
 30
0.0
 40
3.0
 50
0.0
 51
88.499996999999965
  0
ARC
  5
7E2
  8
0
  6
CONTINUOUS
 62
     7
 10
-445.19299000000001
 20
162.84228999999991
 30
0.0
 40
2.0
 50
179.99998999999991
 51
270.0
  0
ARC
  5
7E3
  8
0
  6
CONTINUOUS
 62
     7
 10
-440.19298999999978
 20
186.34795
 30
0.0
 40
2.0
 50
90.000003000000007
 51
180.00001
  0
ARC
  5
7E4
  8
0
  6
CONTINUOUS
 62
     7
 10
-447.19301999999999
 20
179.03047000000001
 30
0.0
 40
5.0
 50
271.49999999999972
 51
0.0
  0
ARC
  5
7E5
  8
0
  6
CONTINUOUS
 62
     7
 10
-449.19299000000001
 20
66.132179000000008
 30
0.0
 40
2.0
 50
0.0
 51
90.000003000000007
  0
ARC
  5
7E6
  8
0
  6
CONTINUOUS
 62
     7
 10
-444.19301999999988
 20
158.8422699999999
 30
0.0
 40
2.0
 50
0.0
 51
90.000003000000007
  0
ARC
  5
7E7
  8
0
  6
CONTINUOUS
 62
     7
 10
-449.19299000000001
 20
147.37598
 30
0.0
 40
2.0
 50
270.0
 51
0.0
  0
ARC
  5
7E8
  8
0
  6
CONTINUOUS
 62
     7
 10
-445.19299000000001
 20
167.01508999999979
 30
0.0
 40
2.0
 50
90.000003000000007
 51
180.00001
  0
ARC
  5
7E9
  8
0
  6
CONTINUOUS
 62
     7
 10
-444.19301999999988
 20
171.01508000000001
 30
0.0
 40
2.0
 50
270.0
 51
0.0
  0
ARC
  5
7EA
  8
0
  6
CONTINUOUS
 62
     7
 10
-423.19301999999982
 20
176.87473
 30
0.0
 40
2.0
 50
270.0
 51
0.0
  0
ARC
  5
7EB
  8
0
  6
CONTINUOUS
 62
     7
 10
-423.19301999999982
 20
147.97266999999999
 30
0.0
 40
2.0
 50
0.0
 51
90.000003000000007
  0
ARC
  5
7EC
  8
0
  6
CONTINUOUS
 62
     7
 10
-423.19301999999982
 20
150.97266999999991
 30
0.0
 40
1.0
 50
179.99998999999991
 51
270.0
  0
ARC
  5
7ED
  8
0
  6
CONTINUOUS
 62
     7
 10
-208.61959999999999
 20
146.16527999999991
 30
0.0
 40
5.0
 50
86.800639000000004
 51
174.01018999999991
  0
ARC
  5
7EE
  8
0
  6
CONTINUOUS
 62
     7
 10
-99.779488000000001
 20
167.8812699999998
 30
0.0
 40
3.0
 50
350.70567
 51
47.999358999999998
  0
ARC
  5
7EF
  8
0
  6
CONTINUOUS
 62
     7
 10
-145.2809399999999
 20
78.347945999999979
 30
0.0
 40
110.0
 50
58.263835999999991
 51
121.73617
  0
ARC
  5
7F0
  8
0
  6
CONTINUOUS
 62
     7
 10
-190.3481899999999
 20
173.18435999999991
 30
0.0
 40
5.0
 50
115.41755999999999
 51
205.06296999999989
  0
ARC
  5
7F1
  8
0
  6
CONTINUOUS
 62
     7
 10
-97.940169999999995
 20
154.8910799999999
 30
0.0
 40
20.0
 50
5.9898154999999971
 51
58.263835999999991
  0
ARC
  5
7F2
  8
0
  6
CONTINUOUS
 62
     7
 10
-192.6217199999999
 20
154.8910799999999
 30
0.0
 40
20.0
 50
121.73617
 51
174.01018999999991
  0
ARC
  5
7F3
  8
0
  6
CONTINUOUS
 62
     7
 10
-372.19301999999999
 20
162.69324
 30
0.0
 40
2.0
 50
0.0
 51
60.000002000000002
  0
ARC
  5
7F4
  8
0
  6
CONTINUOUS
 62
     7
 10
-371.19299000000001
 20
107.96118
 30
0.0
 40
2.0
 50
119.9999999999999
 51
180.00001
  0
ARC
  5
7F5
  8
0
  6
CONTINUOUS
 62
     7
 10
-371.19299000000001
 20
166.7347
 30
0.0
 40
2.0
 50
179.99998999999991
 51
240.00001
  0
ARC
  5
7F6
  8
0
  6
CONTINUOUS
 62
     7
 10
-372.19301999999999
 20
112.0026399999999
 30
0.0
 40
2.0
 50
300.0
 51
0.0
  0
ARC
  5
7F7
  8
0
  6
CONTINUOUS
 62
     7
 10
-126.2809399999998
 20
91.347931000000017
 30
0.0
 40
34.0
 50
328.53302000000002
 51
0.0
  0
ARC
  5
7F8
  8
0
  6
CONTINUOUS
 62
     7
 10
-99.280936999999994
 20
43.347953999999987
 30
0.0
 40
2.0
 50
0.0
 51
90.000003000000007
  0
ARC
  5
7F9
  8
0
  6
CONTINUOUS
 62
     7
 10
-81.942284000000001
 20
146.16527999999991
 30
0.0
 40
5.0
 50
5.9898154999999971
 51
93.199359000000001
  0
ARC
  5
7FA
  8
0
  6
CONTINUOUS
 62
     7
 10
-164.2809399999999
 20
91.347931000000017
 30
0.0
 40
34.0
 50
179.99998999999991
 51
211.46697
  0
ARC
  5
7FB
  8
0
  6
CONTINUOUS
 62
     7
 10
-443.24365
 20
59.347938999999982
 30
0.0
 40
5.0
 50
270.0
 51
348.02386999999999
  0
ARC
  5
7FC
  8
0
  6
CONTINUOUS
 62
     7
 10
-391.19299000000001
 20
147.13874999999979
 30
0.0
 40
8.0
 50
90.000003000000007
 51
180.00001
  0
ARC
  5
7FD
  8
0
  6
CONTINUOUS
 62
     7
 10
-145.2809399999999
 20
117.34795
 30
0.0
 40
71.0
 50
152.9994199999999
 51
174.01018999999991
  0
ARC
  5
7FE
  8
0
  6
CONTINUOUS
 62
     7
 10
-111.2809399999999
 20
54.347946
 30
0.0
 40
5.0
 50
0.0000000000000814
 51
90.000003000000007
  0
ARC
  5
7FF
  8
0
  6
CONTINUOUS
 62
     7
 10
-95.280951999999999
 20
52.347954000000001
 30
0.0
 40
2.0
 50
90.000003000000007
 51
180.00001
  0
ARC
  5
800
  8
0
  6
CONTINUOUS
 62
     7
 10
-145.2809399999999
 20
117.34795
 30
0.0
 40
71.0
 50
47.999358999999998
 51
132.00065000000001
  0
ARC
  5
801
  8
0
  6
CONTINUOUS
 62
     7
 10
-179.2809399999999
 20
54.347946
 30
0.0
 40
5.0
 50
90.000003000000007
 51
180.00001
  0
ARC
  5
802
  8
0
  6
CONTINUOUS
 62
     7
 10
-69.280936999999994
 20
52.347954000000001
 30
0.0
 40
2.0
 50
0.0
 51
90.000003000000007
  0
ARC
  5
803
  8
0
  6
CONTINUOUS
 62
     7
 10
-145.2809399999999
 20
137.34792999999991
 30
0.0
 40
26.500001999999999
 50
270.0
 51
90.000003000000007
  0
ARC
  5
804
  8
0
  6
CONTINUOUS
 62
     7
 10
-394.19299000000001
 20
59.347938999999982
 30
0.0
 40
5.0
 50
180.00001
 51
270.0
  0
ARC
  5
805
  8
0
  6
CONTINUOUS
 62
     7
 10
-83.002678000000003
 20
165.13568000000001
 30
0.0
 40
13.999998
 50
154.93703999999991
 51
273.19936999999987
  0
ARC
  5
806
  8
0
  6
CONTINUOUS
 62
     7
 10
-195.28093000000001
 20
52.347954000000001
 30
0.0
 40
2.0
 50
0.0
 51
90.000003000000007
  0
ARC
  5
807
  8
0
  6
CONTINUOUS
 62
     7
 10
-438.19301999999999
 20
42.347945999999993
 30
0.0
 40
1.0
 50
90.000003000000007
 51
180.00001
  0
ARC
  5
808
  8
0
  6
CONTINUOUS
 62
     7
 10
-462.19301999999999
 20
52.347931000000003
 30
0.0
 40
2.0
 50
90.000003000000007
 51
180.00001
  0
ARC
  5
809
  8
0
  6
CONTINUOUS
 62
     7
 10
-372.19301999999999
 20
52.347931000000003
 30
0.0
 40
2.0
 50
0.0
 51
90.000003000000007
  0
ARC
  5
80A
  8
0
  6
CONTINUOUS
 62
     7
 10
-368.19299000000001
 20
58.092498999999997
 30
0.0
 40
5.0
 50
179.99998999999991
 51
235.15011000000001
  0
ARC
  5
80B
  8
0
  6
CONTINUOUS
 62
     7
 10
-391.19299000000001
 20
182.19402999999991
 30
0.0
 40
5.0
 50
0.0
 51
88.499996999999965
  0
ARC
  5
80C
  8
0
  6
CONTINUOUS
 62
     7
 10
-103.28094
 20
48.347946
 30
0.0
 40
3.0
 50
179.99998999999991
 51
270.0
  0
ARC
  5
80D
  8
0
  6
CONTINUOUS
 62
     7
 10
-92.280952000000013
 20
59.347938999999982
 30
0.0
 40
5.0
 50
179.99998999999991
 51
270.0
  0
ARC
  5
80E
  8
0
  6
CONTINUOUS
 62
     7
 10
-207.55919999999981
 20
165.13568000000001
 30
0.0
 40
13.999998
 50
266.80063999999987
 51
25.06296900000001
  0
ARC
  5
80F
  8
0
  6
CONTINUOUS
 62
     7
 10
-390.19301999999988
 20
73.388741000000024
 30
0.0
 40
4.0
 50
270.0
 51
0.0
  0
ARC
  5
810
  8
0
  6
CONTINUOUS
 62
     7
 10
-145.2809399999999
 20
122.34793000000001
 30
0.0
 40
48.0
 50
0.0
 51
180.00001
  0
ARC
  5
811
  8
0
  6
CONTINUOUS
 62
     7
 10
-221.2809399999999
 20
52.347954000000001
 30
0.0
 40
2.0
 50
90.000003000000007
 51
180.00001
  0
ARC
  5
812
  8
0
  6
CONTINUOUS
 62
     7
 10
-145.2809399999999
 20
117.34795
 30
0.0
 40
71.0
 50
5.989814199999997
 51
27.000572999999999
  0
ARC
  5
813
  8
0
  6
CONTINUOUS
 62
     7
 10
-145.2809399999999
 20
137.34792999999991
 30
0.0
 40
26.500001999999999
 50
90.000003000000007
 51
270.0
  0
ARC
  5
814
  8
0
  6
CONTINUOUS
 62
     7
 10
-437.19299000000001
 20
87.872406000000026
 30
0.0
 40
5.0
 50
348.02386999999999
 51
0.0
  0
ARC
  5
815
  8
0
  6
CONTINUOUS
 62
     7
 10
-396.19301999999988
 20
42.347945999999993
 30
0.0
 40
1.0
 50
0.0
 51
90.000003000000007
  0
ARC
  5
816
  8
0
  6
CONTINUOUS
 62
     7
 10
-423.19301999999982
 20
173.8747299999998
 30
0.0
 40
1.0
 50
90.000003000000007
 51
180.00001
  0
ARC
  5
817
  8
0
  6
CONTINUOUS
 62
     7
 10
-100.2137
 20
173.18435999999991
 30
0.0
 40
5.0
 50
334.93702999999988
 51
64.582443999999995
  0
ARC
  5
818
  8
0
  6
CONTINUOUS
 62
     7
 10
-191.28093999999999
 20
43.347953999999987
 30
0.0
 40
2.0
 50
90.000003000000007
 51
180.00001
  0
ARC
  5
819
  8
0
  6
CONTINUOUS
 62
     7
 10
-187.2809399999999
 20
48.347946
 30
0.0
 40
3.0
 50
270.0
 51
0.0
  0
ARC
  5
81A
  8
0
  6
CONTINUOUS
 62
     7
 10
-192.28093000000001
 20
42.347945999999993
 30
0.0
 40
1.0
 50
90.000003000000007
 51
180.00001
  0
ARC
  5
81B
  8
0
  6
CONTINUOUS
 62
     7
 10
-98.280951999999985
 20
42.347945999999993
 30
0.0
 40
1.0
 50
0.0
 51
90.000003000000007
  0
ARC
  5
81C
  8
0
  6
CONTINUOUS
 62
     7
 10
-97.280945000000003
 20
152.60048
 30
0.0
 40
5.0
 50
0.0
 51
41.280590999999973
  0
ARC
  5
81D
  8
0
  6
CONTINUOUS
 62
     7
 10
-190.78238999999991
 20
167.8812699999998
 30
0.0
 40
3.0
 50
132.00065000000001
 51
189.29434000000001
  0
ARC
  5
81E
  8
0
  6
CONTINUOUS
 62
     7
 10
-193.28093999999999
 20
152.60048
 30
0.0
 40
5.0
 50
138.71941000000001
 51
180.00001
  0
ARC
  5
81F
  8
0
  6
CONTINUOUS
 62
     7
 10
-198.28093000000001
 20
59.347938999999982
 30
0.0
 40
5.0
 50
270.0
 51
0.0
  0
ARC
  5
820
  8
0
  6
CONTINUOUS
 62
     7
 10
-205.86907999999991
 20
148.21991
 30
0.0
 40
3.0
 50
95.705737999999997
 51
152.9994199999999
  0
ARC
  5
821
  8
0
  6
CONTINUOUS
 62
     7
 10
-381.19301999999988
 20
176.0669399999999
 30
0.0
 40
5.0
 50
179.99998999999991
 51
265.0
  0
ARC
  5
822
  8
0
  6
CONTINUOUS
 62
     7
 10
-376.19299000000001
 20
167.59895
 30
0.0
 40
3.0
 50
0.0
 51
84.999996999999979
  0
ARC
  5
823
  8
0
  6
CONTINUOUS
 62
     7
 10
-84.69280999999998
 20
148.21991
 30
0.0
 40
3.0
 50
27.000572999999999
 51
84.294260999999977
  0
ARC
  5
824
  8
0
  6
CONTINUOUS
 62
     3
 10
-554.69299000000001
 20
139.84769
 30
0.0
 40
5.5
 50
264.78411999999992
 51
5.2159094000000001
  0
ARC
  5
825
  8
0
  6
CONTINUOUS
 62
     7
 10
-602.1929899999999
 20
165.3642899999999
 30
0.0
 40
1.0
 50
120.0264
 51
180.00001
  0
ARC
  5
826
  8
0
  6
CONTINUOUS
 62
     7
 10
-602.1929899999999
 20
164.32201000000001
 30
0.0
 40
1.0
 50
116.91126
 51
180.00001
  0
ARC
  5
827
  8
0
  6
CONTINUOUS
 62
     7
 10
-600.9248
 20
166.09731999999991
 30
0.0
 40
1.0
 50
90.000003000000007
 51
120.0264
  0
ARC
  5
828
  8
0
  6
CONTINUOUS
 62
     7
 10
-600.95374000000004
 20
164.9510199999998
 30
0.0
 40
1.0
 50
90.000003000000007
 51
116.91126
  0
ARC
  5
829
  8
0
  6
CONTINUOUS
 62
     7
 10
-600.91594999999995
 20
163.98953
 30
0.0
 40
1.0
 50
90.000003000000007
 51
120.9666
  0
ARC
  5
82A
  8
0
  6
CONTINUOUS
 62
     7
 10
-600.94434000000001
 20
162.84958
 30
0.0
 40
1.0
 50
90.000003000000007
 51
117.92659999999979
  0
ARC
  5
82B
  8
0
  6
CONTINUOUS
 62
     7
 10
-600.89435000000003
 20
159.47281999999981
 30
0.0
 40
1.0
 50
90.000003000000007
 51
123.25473
  0
ARC
  5
82C
  8
0
  6
CONTINUOUS
 62
     7
 10
-600.92169000000001
 20
158.33286000000001
 30
0.0
 40
1.0
 50
90.000003000000007
 51
120.3594999999999
  0
ARC
  5
82D
  8
0
  6
CONTINUOUS
 62
     7
 10
-602.1929899999999
 20
157.58816999999999
 30
0.0
 40
1.0
 50
120.3594999999999
 51
180.00001
  0
ARC
  5
82E
  8
0
  6
CONTINUOUS
 62
     7
 10
-602.1929899999999
 20
158.62125
 30
0.0
 40
1.0
 50
123.25473
 51
180.00001
  0
ARC
  5
82F
  8
0
  6
CONTINUOUS
 62
     7
 10
-602.1929899999999
 20
162.18764999999991
 30
0.0
 40
1.0
 50
117.92659999999979
 51
180.00001
  0
ARC
  5
830
  8
0
  6
CONTINUOUS
 62
     7
 10
-602.1929899999999
 20
163.22324
 30
0.0
 40
1.0
 50
120.9666
 51
180.00001
  0
ARC
  5
831
  8
0
  6
CONTINUOUS
 62
     7
 10
-600.98833999999965
 20
152.03713999999991
 30
0.0
 40
1.0
 50
90.000003000000007
 51
113.12703
  0
ARC
  5
832
  8
0
  6
CONTINUOUS
 62
     7
 10
-601.04265999999996
 20
150.09104999999991
 30
0.0
 40
1.0
 50
90.000003000000007
 51
107.0976299999999
  0
ARC
  5
833
  8
0
  6
CONTINUOUS
 62
     7
 10
-602.1929899999999
 20
149.73720999999981
 30
0.0
 40
1.0
 50
107.0976299999999
 51
180.00001
  0
ARC
  5
834
  8
0
  6
CONTINUOUS
 62
     7
 10
-602.1929899999999
 20
151.52267000000001
 30
0.0
 40
1.0
 50
113.12703
 51
180.00001
  0
ARC
  5
835
  8
0
  6
CONTINUOUS
 62
     7
 10
-602.1929899999999
 20
142.34792999999991
 30
0.0
 40
1.0
 50
90.000003000000007
 51
180.00001
  0
ARC
  5
836
  8
0
  6
CONTINUOUS
 62
     7
 10
-602.1929899999999
 20
142.34792999999991
 30
0.0
 40
1.0
 50
179.99998999999991
 51
270.0
  0
ARC
  5
837
  8
0
  6
CONTINUOUS
 62
     7
 10
-602.1929899999999
 20
132.34794999999991
 30
0.0
 40
1.0
 50
90.000003000000007
 51
180.00001
  0
ARC
  5
838
  8
0
  6
CONTINUOUS
 62
     7
 10
-602.1929899999999
 20
132.34794999999991
 30
0.0
 40
1.0
 50
179.99998999999991
 51
270.0
  0
ARC
  5
839
  8
0
  6
CONTINUOUS
 62
     7
 10
-602.1929899999999
 20
122.34793000000001
 30
0.0
 40
1.0
 50
90.000003000000007
 51
180.00001
  0
ARC
  5
83A
  8
0
  6
CONTINUOUS
 62
     7
 10
-602.1929899999999
 20
122.34793000000001
 30
0.0
 40
1.0
 50
179.99998999999991
 51
270.0
  0
ARC
  5
83B
  8
0
  6
CONTINUOUS
 62
     7
 10
-599.19299000000001
 20
120.34795
 30
0.0
 40
1.0
 50
0.0
 51
90.000003000000007
  0
ARC
  5
83C
  8
0
  6
CONTINUOUS
 62
     7
 10
-599.19299000000001
 20
124.34793000000001
 30
0.0
 40
1.0
 50
270.0
 51
0.0
  0
ARC
  5
83D
  8
0
  6
CONTINUOUS
 62
     7
 10
-599.19299000000001
 20
130.34792999999999
 30
0.0
 40
1.0
 50
0.0
 51
90.000003000000007
  0
ARC
  5
83E
  8
0
  6
CONTINUOUS
 62
     7
 10
-599.19299000000001
 20
134.34792999999999
 30
0.0
 40
1.0
 50
270.0
 51
0.0
  0
ARC
  5
83F
  8
0
  6
CONTINUOUS
 62
     7
 10
-599.19299000000001
 20
140.34792999999991
 30
0.0
 40
1.0
 50
0.0
 51
90.000003000000007
  0
ARC
  5
840
  8
0
  6
CONTINUOUS
 62
     7
 10
-599.19299000000001
 20
144.34795
 30
0.0
 40
1.0
 50
270.0
 51
0.0
  0
ARC
  5
841
  8
0
  6
CONTINUOUS
 62
     7
 10
-599.19299000000001
 20
150.09104999999991
 30
0.0
 40
1.0
 50
0.0
 51
90.000003000000007
  0
ARC
  5
842
  8
0
  6
CONTINUOUS
 62
     7
 10
-599.19299000000001
 20
158.33286000000001
 30
0.0
 40
1.0
 50
0.0
 51
90.000003000000007
  0
ARC
  5
843
  8
0
  6
CONTINUOUS
 62
     7
 10
-598.89301
 20
153.73715000000001
 30
0.0
 40
0.6999999900000004
 50
270.0
 51
0.0
  0
ARC
  5
844
  8
0
  6
CONTINUOUS
 62
     7
 10
-599.19299000000001
 20
162.84958
 30
0.0
 40
1.0
 50
0.0
 51
90.000003000000007
  0
ARC
  5
845
  8
0
  6
CONTINUOUS
 62
     7
 10
-598.69298999999978
 20
165.45103
 30
0.0
 40
0.5
 50
0.0
 51
90.000003000000007
  0
ARC
  5
846
  8
0
  6
CONTINUOUS
 62
     7
 10
-598.69298999999978
 20
167.59732
 30
0.0
 40
0.5
 50
270.0
 51
0.0
  0
ARC
  5
847
  8
0
  6
CONTINUOUS
 62
     7
 10
-586.64362000000006
 20
82.347931000000003
 30
0.0
 40
1.0
 50
90.000003000000007
 51
270.0
  0
ARC
  5
848
  8
0
  6
CONTINUOUS
 62
     7
 10
-500.89300999999989
 20
149.7151299999999
 30
0.0
 40
1.0
 50
90.000003000000007
 51
180.00001
  0
ARC
  5
849
  8
0
  6
CONTINUOUS
 62
     7
 10
-500.89300999999989
 20
84.980689999999996
 30
0.0
 40
1.0
 50
179.99998999999991
 51
270.0
  0
ARC
  5
84A
  8
0
  6
CONTINUOUS
 62
     7
 10
-484.37094000000002
 20
152.39304999999979
 30
0.0
 40
1.6779127
 50
270.0
 51
90.000003000000007
  0
ARC
  5
84B
  8
0
  6
CONTINUOUS
 62
     7
 10
-487.84865999999988
 20
152.34792999999991
 30
0.0
 40
1.0
 50
270.0
 51
90.000003000000007
  0
ARC
  5
84C
  8
0
  6
CONTINUOUS
 62
     7
 10
-487.84865999999988
 20
82.347931000000003
 30
0.0
 40
1.0
 50
270.0
 51
90.000003000000007
  0
ARC
  5
84D
  8
0
  6
CONTINUOUS
 62
     7
 10
-484.37094000000002
 20
82.302773000000002
 30
0.0
 40
1.6779127
 50
270.0
 51
90.000003000000007
  0
ARC
  5
84E
  8
0
  6
CONTINUOUS
 62
     7
 10
-599.19299000000001
 20
84.604774000000006
 30
0.0
 40
1.0
 50
270.0
 51
0.0
  0
ARC
  5
84F
  8
0
  6
CONTINUOUS
 62
     7
 10
-599.19299000000001
 20
94.347931000000003
 30
0.0
 40
1.0
 50
270.0
 51
0.0
  0
ARC
  5
850
  8
0
  6
CONTINUOUS
 62
     7
 10
-599.19299000000001
 20
90.347945999999993
 30
0.0
 40
1.0
 50
0.0
 51
90.000003000000007
  0
ARC
  5
851
  8
0
  6
CONTINUOUS
 62
     7
 10
-598.89301
 20
80.958709999999982
 30
0.0
 40
0.6999999900000004
 50
0.0
 51
90.000003000000007
  0
ARC
  5
852
  8
0
  6
CONTINUOUS
 62
     7
 10
-600.98833999999965
 20
82.658660999999981
 30
0.0
 40
1.0
 50
246.87297000000001
 51
270.0
  0
ARC
  5
853
  8
0
  6
CONTINUOUS
 62
     7
 10
-601.04265999999996
 20
84.604774000000006
 30
0.0
 40
1.0
 50
252.90236999999999
 51
270.0
  0
ARC
  5
854
  8
0
  6
CONTINUOUS
 62
     7
 10
-602.1929899999999
 20
84.958648999999994
 30
0.0
 40
1.0
 50
179.99998999999991
 51
252.90236999999999
  0
ARC
  5
855
  8
0
  6
CONTINUOUS
 62
     7
 10
-602.1929899999999
 20
83.173186999999984
 30
0.0
 40
1.0
 50
179.99998999999991
 51
246.8729799999999
  0
ARC
  5
856
  8
0
  6
CONTINUOUS
 62
     7
 10
-602.1929899999999
 20
92.347938999999997
 30
0.0
 40
1.0
 50
179.99998999999991
 51
270.0
  0
ARC
  5
857
  8
0
  6
CONTINUOUS
 62
     7
 10
-602.1929899999999
 20
92.347938999999997
 30
0.0
 40
1.0
 50
90.000003000000007
 51
180.00001
  0
ARC
  5
858
  8
0
  6
CONTINUOUS
 62
     7
 10
-602.1929899999999
 20
102.34795
 30
0.0
 40
1.0
 50
179.99998999999991
 51
270.0
  0
ARC
  5
859
  8
0
  6
CONTINUOUS
 62
     7
 10
-602.1929899999999
 20
102.34795
 30
0.0
 40
1.0
 50
90.000003000000007
 51
180.00001
  0
ARC
  5
85A
  8
0
  6
CONTINUOUS
 62
     7
 10
-602.1929899999999
 20
112.34793000000001
 30
0.0
 40
1.0
 50
179.99998999999991
 51
270.0
  0
ARC
  5
85B
  8
0
  6
CONTINUOUS
 62
     7
 10
-602.1929899999999
 20
112.34793000000001
 30
0.0
 40
1.0
 50
90.000003000000007
 51
180.00001
  0
ARC
  5
85C
  8
0
  6
CONTINUOUS
 62
     7
 10
-599.19299000000001
 20
114.3479499999999
 30
0.0
 40
1.0
 50
270.0
 51
0.0
  0
ARC
  5
85D
  8
0
  6
CONTINUOUS
 62
     7
 10
-599.19299000000001
 20
110.3479499999999
 30
0.0
 40
1.0
 50
0.0
 51
90.000003000000007
  0
ARC
  5
85E
  8
0
  6
CONTINUOUS
 62
     7
 10
-599.19299000000001
 20
104.3479499999999
 30
0.0
 40
1.0
 50
270.0
 51
0.0
  0
ARC
  5
85F
  8
0
  6
CONTINUOUS
 62
     7
 10
-599.19299000000001
 20
100.34792999999991
 30
0.0
 40
1.0
 50
0.0
 51
90.000003000000007
  0
ARC
  5
860
  8
0
  6
CONTINUOUS
 62
     7
 10
-503.69299000000001
 20
88.847945999999965
 30
0.0
 40
1.5
 50
270.0
 51
0.0
  0
ARC
  5
861
  8
0
  6
CONTINUOUS
 62
     7
 10
-503.69299000000001
 20
145.84794999999991
 30
0.0
 40
1.5
 50
0.0
 51
90.000003000000007
  0
ARC
  5
862
  8
0
  6
CONTINUOUS
 62
     7
 10
-587.51568999999995
 20
152.39304999999979
 30
0.0
 40
1.6779127
 50
90.000003000000007
 51
270.0
  0
ARC
  5
863
  8
0
  6
CONTINUOUS
 62
     7
 10
-586.64362000000006
 20
152.34792999999991
 30
0.0
 40
1.0
 50
90.000003000000007
 51
270.0
  0
ARC
  5
864
  8
0
  6
CONTINUOUS
 62
     7
 10
-586.64362000000006
 20
142.34792999999991
 30
0.0
 40
1.0
 50
90.000003000000007
 51
270.0
  0
ARC
  5
865
  8
0
  6
CONTINUOUS
 62
     7
 10
-586.64362000000006
 20
132.34794999999991
 30
0.0
 40
1.0
 50
90.000003000000007
 51
270.0
  0
ARC
  5
866
  8
0
  6
CONTINUOUS
 62
     7
 10
-586.64362000000006
 20
122.34793000000001
 30
0.0
 40
1.0
 50
90.000003000000007
 51
270.0
  0
ARC
  5
867
  8
0
  6
CONTINUOUS
 62
     7
 10
-586.64362000000006
 20
112.34793000000001
 30
0.0
 40
1.0
 50
90.000003000000007
 51
270.0
  0
ARC
  5
868
  8
0
  6
CONTINUOUS
 62
     7
 10
-586.64362000000006
 20
102.34795
 30
0.0
 40
1.0
 50
90.000003000000007
 51
270.0
  0
ARC
  5
869
  8
0
  6
CONTINUOUS
 62
     7
 10
-586.64362000000006
 20
92.347938999999997
 30
0.0
 40
1.0
 50
90.000003000000007
 51
270.0
  0
ARC
  5
86A
  8
0
  6
CONTINUOUS
 62
     7
 10
-587.73150999999984
 20
142.37260000000001
 30
0.0
 40
1.4614868000000001
 50
90.000003000000007
 51
270.0
  0
ARC
  5
86B
  8
0
  6
CONTINUOUS
 62
     7
 10
-587.8620599999997
 20
132.3605
 30
0.0
 40
1.330932599999999
 50
90.000003000000007
 51
270.0
  0
ARC
  5
86C
  8
0
  6
CONTINUOUS
 62
     7
 10
-587.92407000000003
 20
122.35177999999991
 30
0.0
 40
1.268920899999999
 50
90.000003000000007
 51
270.0
  0
ARC
  5
86D
  8
0
  6
CONTINUOUS
 62
     7
 10
-587.92407000000003
 20
112.34404000000001
 30
0.0
 40
1.268920899999999
 50
90.000003000000007
 51
270.0
  0
ARC
  5
86E
  8
0
  6
CONTINUOUS
 62
     7
 10
-587.8620599999997
 20
102.3353599999998
 30
0.0
 40
1.330932599999999
 50
90.000003000000007
 51
270.0
  0
ARC
  5
86F
  8
0
  6
CONTINUOUS
 62
     7
 10
-587.73144999999965
 20
92.323218999999995
 30
0.0
 40
1.461502099999997
 50
90.000003000000007
 51
270.0
  0
ARC
  5
870
  8
0
  6
CONTINUOUS
 62
     7
 10
-587.51508000000001
 20
82.302773000000002
 30
0.0
 40
1.6779174999999991
 50
90.000003000000007
 51
270.0
  0
ARC
  5
871
  8
0
  6
CONTINUOUS
 62
     7
 10
-599.19299000000001
 20
76.363014000000007
 30
0.0
 40
1.0
 50
334.63675999999998
 51
0.0
  0
ARC
  5
872
  8
0
  6
CONTINUOUS
 62
     7
 10
-602.1929899999999
 20
77.107703999999998
 30
0.0
 40
1.0
 50
179.99998999999991
 51
239.64048999999989
  0
ARC
  5
873
  8
0
  6
CONTINUOUS
 62
     7
 10
-585.98657000000003
 20
171.63121000000001
 30
0.0
 40
2.0
 50
90.000003000000007
 51
169.28431
  0
ARC
  5
874
  8
0
  6
CONTINUOUS
 62
     7
 10
-563.69299000000001
 20
154.07095000000001
 30
0.0
 40
1.5
 50
90.000003000000007
 51
180.00001
  0
ARC
  5
875
  8
0
  6
CONTINUOUS
 62
     7
 10
-585.93799000000001
 20
174.47757999999999
 30
0.0
 40
2.0
 50
90.000003000000007
 51
170.91503
  0
ARC
  5
876
  8
0
  6
CONTINUOUS
 62
     7
 10
-585.92462
 20
176.32529999999991
 30
0.0
 40
2.0
 50
90.000003000000007
 51
171.3566099999999
  0
ARC
  5
877
  8
0
  6
CONTINUOUS
 62
     7
 10
-585.90331999999978
 20
177.2358099999999
 30
0.0
 40
2.0
 50
90.000003000000007
 51
172.05596
  0
ARC
  5
878
  8
0
  6
CONTINUOUS
 62
     7
 10
-552.1929899999999
 20
174.47757999999999
 30
0.0
 40
2.0
 50
0.0
 51
90.000003000000007
  0
ARC
  5
879
  8
0
  6
CONTINUOUS
 62
     7
 10
-552.1929899999999
 20
176.32529999999991
 30
0.0
 40
2.0
 50
0.0
 51
90.000003000000007
  0
ARC
  5
87A
  8
0
  6
CONTINUOUS
 62
     7
 10
-552.1929899999999
 20
177.2358099999999
 30
0.0
 40
2.0
 50
0.0
 51
90.000003000000007
  0
ARC
  5
87B
  8
0
  6
CONTINUOUS
 62
     7
 10
-489.06685999999968
 20
171.63121000000001
 30
0.0
 40
2.0
 50
15.0
 51
90.000003000000007
  0
ARC
  5
87C
  8
0
  6
CONTINUOUS
 62
     7
 10
-481.54199000000011
 20
157.07095000000001
 30
0.0
 40
1.5
 50
195.00001
 51
270.0
  0
ARC
  5
87D
  8
0
  6
CONTINUOUS
 62
     7
 10
-585.90331999999978
 20
57.46000699999999
 30
0.0
 40
2.0
 50
187.9440399999998
 51
270.0
  0
ARC
  5
87E
  8
0
  6
CONTINUOUS
 62
     7
 10
-552.1929899999999
 20
57.46000699999999
 30
0.0
 40
2.0
 50
270.0
 51
0.0
  0
ARC
  5
87F
  8
0
  6
CONTINUOUS
 62
     7
 10
-489.06685999999968
 20
63.064681999999998
 30
0.0
 40
2.0
 50
270.0
 51
345.0
  0
ARC
  5
880
  8
0
  6
CONTINUOUS
 62
     7
 10
-552.1929899999999
 20
58.37052199999998
 30
0.0
 40
2.0
 50
270.0
 51
0.0
  0
ARC
  5
881
  8
0
  6
CONTINUOUS
 62
     7
 10
-552.1929899999999
 20
60.218306999999982
 30
0.0
 40
2.0
 50
270.0
 51
0.0
  0
ARC
  5
882
  8
0
  6
CONTINUOUS
 62
     7
 10
-602.1929899999999
 20
69.331512000000004
 30
0.0
 40
1.0
 50
179.99998999999991
 51
239.97361000000001
  0
ARC
  5
883
  8
0
  6
CONTINUOUS
 62
     7
 10
-602.1929899999999
 20
70.373885999999985
 30
0.0
 40
1.0
 50
179.99998999999991
 51
243.08874999999981
  0
ARC
  5
884
  8
0
  6
CONTINUOUS
 62
     7
 10
-600.9248
 20
68.598540999999983
 30
0.0
 40
1.0
 50
239.9736
 51
270.0
  0
ARC
  5
885
  8
0
  6
CONTINUOUS
 62
     7
 10
-600.95374000000004
 20
69.74485
 30
0.0
 40
1.0
 50
243.08874
 51
270.0
  0
ARC
  5
886
  8
0
  6
CONTINUOUS
 62
     7
 10
-600.91594999999995
 20
70.706268000000023
 30
0.0
 40
1.0
 50
239.0334
 51
270.0
  0
ARC
  5
887
  8
0
  6
CONTINUOUS
 62
     7
 10
-600.94434000000001
 20
71.846282999999985
 30
0.0
 40
1.0
 50
242.07339999999999
 51
270.0
  0
ARC
  5
888
  8
0
  6
CONTINUOUS
 62
     7
 10
-600.89435000000003
 20
75.222999999999999
 30
0.0
 40
1.0
 50
236.74527
 51
270.0
  0
ARC
  5
889
  8
0
  6
CONTINUOUS
 62
     7
 10
-600.92169000000001
 20
76.363014000000007
 30
0.0
 40
1.0
 50
239.6405
 51
270.0
  0
ARC
  5
88A
  8
0
  6
CONTINUOUS
 62
     7
 10
-602.1929899999999
 20
77.107703999999998
 30
0.0
 40
1.0
 50
179.99998999999991
 51
239.64048999999989
  0
ARC
  5
88B
  8
0
  6
CONTINUOUS
 62
     7
 10
-602.1929899999999
 20
76.074554000000006
 30
0.0
 40
1.0
 50
179.99998999999991
 51
236.74527999999981
  0
ARC
  5
88C
  8
0
  6
CONTINUOUS
 62
     7
 10
-602.1929899999999
 20
72.508162999999982
 30
0.0
 40
1.0
 50
179.99998999999991
 51
242.07341
  0
ARC
  5
88D
  8
0
  6
CONTINUOUS
 62
     7
 10
-602.1929899999999
 20
71.472565000000003
 30
0.0
 40
1.0
 50
179.99998999999991
 51
239.0334
  0
ARC
  5
88E
  8
0
  6
CONTINUOUS
 62
     7
 10
-599.19299000000001
 20
76.363014000000007
 30
0.0
 40
1.0
 50
270.0
 51
0.0
  0
ARC
  5
88F
  8
0
  6
CONTINUOUS
 62
     7
 10
-599.19299000000001
 20
71.846282999999985
 30
0.0
 40
1.0
 50
270.0
 51
0.0
  0
ARC
  5
890
  8
0
  6
CONTINUOUS
 62
     7
 10
-598.69298999999978
 20
69.244857999999994
 30
0.0
 40
0.5
 50
270.0
 51
0.0
  0
ARC
  5
891
  8
0
  6
CONTINUOUS
 62
     7
 10
-598.69298999999978
 20
67.098540999999997
 30
0.0
 40
0.5
 50
0.0
 51
90.000003000000007
  0
ARC
  5
892
  8
0
  6
CONTINUOUS
 62
     7
 10
-585.98657000000003
 20
63.064681999999998
 30
0.0
 40
2.0
 50
190.71569
 51
270.0
  0
ARC
  5
893
  8
0
  6
CONTINUOUS
 62
     7
 10
-585.93799000000001
 20
60.218306999999982
 30
0.0
 40
2.0
 50
189.08497
 51
270.0
  0
ARC
  5
894
  8
0
  6
CONTINUOUS
 62
     7
 10
-585.92462
 20
58.37052199999998
 30
0.0
 40
2.0
 50
188.6433899999999
 51
270.0
  0
ARC
  5
895
  8
0
  6
CONTINUOUS
 62
     3
 10
-509.69299000000001
 20
94.848174999999998
 30
0.0
 40
5.5
 50
84.784087999999983
 51
185.21596
  0
ARC
  5
896
  8
0
  6
CONTINUOUS
 62
     7
 10
-420.19299000000001
 20
306.62869000000001
 30
0.0
 40
1.0
 50
0.0
 51
90.000003000000007
  0
ARC
  5
897
  8
0
  6
CONTINUOUS
 62
     7
 10
-420.19299000000001
 20
303.74194
 30
0.0
 40
1.0
 50
0.0
 51
90.000003000000007
  0
ARC
  5
898
  8
0
  6
CONTINUOUS
 62
     7
 10
-420.19299000000001
 20
297.96843999999999
 30
0.0
 40
1.0
 50
0.0
 51
90.000003000000007
  0
ARC
  5
899
  8
0
  6
CONTINUOUS
 62
     7
 10
-420.19299000000001
 20
297.08166999999992
 30
0.0
 40
1.0
 50
269.99998999999991
 51
0.00000068324625
  0
ARC
  5
89A
  8
0
  6
CONTINUOUS
 62
     7
 10
-420.19299000000001
 20
299.96840999999989
 30
0.0
 40
1.0
 50
269.99998999999991
 51
0.00000068324625
  0
ARC
  5
89B
  8
0
  6
CONTINUOUS
 62
     7
 10
-420.19299000000001
 20
305.74194
 30
0.0
 40
1.0
 50
269.99998999999991
 51
0.00000068324625
  0
ARC
  5
89C
  8
0
  6
CONTINUOUS
 62
     7
 10
-372.19299000000001
 20
434.59482000000003
 30
0.0
 40
2.0
 50
0.0
 51
88.499996999999965
  0
ARC
  5
89D
  8
0
  6
CONTINUOUS
 62
     7
 10
-462.19299000000001
 20
435.38040000000001
 30
0.0
 40
2.0
 50
91.500000999999969
 51
180.00001
  0
ARC
  5
89E
  8
0
  6
CONTINUOUS
 62
     7
 10
-372.19299000000001
 20
411.73849000000001
 30
0.0
 40
2.0
 50
271.49999999999972
 51
0.0
  0
ARC
  5
89F
  8
0
  6
CONTINUOUS
 62
     7
 10
-452.19298999999978
 20
425.16665999999998
 30
0.0
 40
6.0
 50
359.45747999999992
 51
326.44272000000001
  0
CIRCLE
  5
8A0
  8
0
  6
CONTINUOUS
 62
     7
 10
-382.19299000000001
 20
425.16665999999998
 30
0.0
 40
6.0
  0
ARC
  5
8A1
  8
0
  6
CONTINUOUS
 62
     7
 10
-372.19299000000001
 20
332.59618999999992
 30
0.0
 40
1.0
 50
91.999998000000005
 51
180.00001
  0
ARC
  5
8A2
  8
0
  6
CONTINUOUS
 62
     7
 10
-371.19299000000001
 20
334.63231999999999
 30
0.0
 40
1.0
 50
272.0
 51
0.0
  0
ARC
  5
8A3
  8
0
  6
CONTINUOUS
 62
     7
 10
-372.19299000000001
 20
387.73712
 30
0.0
 40
1.0
 50
180.00001
 51
268.0
  0
ARC
  5
8A4
  8
0
  6
CONTINUOUS
 62
     7
 10
-371.19299000000001
 20
385.70095999999978
 30
0.0
 40
1.0
 50
0.0
 51
88.0
  0
ARC
  5
8A5
  8
0
  6
CONTINUOUS
 62
     7
 10
-372.19299000000001
 20
285.7384899999999
 30
0.0
 40
2.0
 50
271.49999999999972
 51
0.0
  0
ARC
  5
8A6
  8
0
  6
CONTINUOUS
 62
     7
 10
-462.19299000000001
 20
284.95294000000001
 30
0.0
 40
2.0
 50
180.00001
 51
268.5
  0
ARC
  5
8A7
  8
0
  6
CONTINUOUS
 62
     7
 10
-372.19299000000001
 20
308.59482000000008
 30
0.0
 40
2.0
 50
0.0
 51
88.499996999999965
  0
ARC
  5
8A8
  8
0
  6
CONTINUOUS
 62
     7
 10
-452.19298999999978
 20
295.16665999999992
 30
0.0
 40
6.0
 50
33.557299999999991
 51
0.54251828
  0
CIRCLE
  5
8A9
  8
0
  6
CONTINUOUS
 62
     7
 10
-382.19299000000001
 20
295.16665999999992
 30
0.0
 40
6.0
  0
ARC
  5
8AA
  8
0
  6
CONTINUOUS
 62
     7
 10
-360.19299000000001
 20
360.16663
 30
0.0
 40
3.9999962
 50
90.000003000000007
 51
270.0
  0
ARC
  5
8AB
  8
0
  6
CONTINUOUS
 62
     7
 10
-378.19299000000001
 20
403.58499
 30
0.0
 40
5.0
 50
0.0
 51
85.000004000000004
  0
ARC
  5
8AC
  8
0
  6
CONTINUOUS
 62
     7
 10
-378.19299000000001
 20
316.74828999999988
 30
0.0
 40
5.0
 50
275.0
 51
0.0
  0
ARC
  5
8AD
  8
0
  6
CONTINUOUS
 62
     7
 10
-394.19299000000001
 20
301.44763
 30
0.0
 40
5.0
 50
95.000001999999995
 51
180.00001
  0
ARC
  5
8AE
  8
0
  6
CONTINUOUS
 62
     7
 10
-394.19299000000001
 20
418.88564999999988
 30
0.0
 40
5.0
 50
180.00001
 51
265.00000999999992
  0
ARC
  5
8AF
  8
0
  6
CONTINUOUS
 62
     3
 10
-568.46582000000001
 20
283.66665999999998
 30
0.0
 40
7.5
 50
179.99997999999991
 51
0.000010017913
  0
ARC
  5
8B0
  8
0
  6
CONTINUOUS
 62
     3
 10
-568.46582000000001
 20
283.66665999999998
 30
0.0
 40
4.0
 50
179.99997999999991
 51
0.000010017912
  0
ARC
  5
8B1
  8
0
  6
CONTINUOUS
 62
     7
 10
-481.53975999999989
 20
405.49941999999999
 30
0.0
 40
1.502775999999999
 50
194.75642999999991
 51
269.87757999999991
  0
ARC
  5
8B2
  8
0
  6
CONTINUOUS
 62
     7
 10
-481.53975999999989
 20
404.58938999999998
 30
0.0
 40
1.502775999999999
 50
194.75642999999991
 51
269.87757999999991
  0
ARC
  5
8B3
  8
0
  6
CONTINUOUS
 62
     7
 10
-481.53975999999989
 20
402.73941000000002
 30
0.0
 40
1.502775999999999
 50
194.75642999999991
 51
269.87757999999991
  0
ARC
  5
8B4
  8
0
  6
CONTINUOUS
 62
     7
 10
-489.06780999999989
 20
420.05190999999991
 30
0.0
 40
2.0047290000000002
 50
15.173496
 51
89.861677999999998
  0
ARC
  5
8B5
  8
0
  6
CONTINUOUS
 62
     7
 10
-489.06780999999989
 20
419.14187999999979
 30
0.0
 40
2.0047290000000002
 50
15.173496
 51
89.861677999999998
  0
ARC
  5
8B6
  8
0
  6
CONTINUOUS
 62
     7
 10
-489.06780999999989
 20
417.2919
 30
0.0
 40
2.0047290000000002
 50
15.173496
 51
89.861677999999998
  0
ARC
  5
8B7
  8
0
  6
CONTINUOUS
 62
     7
 10
-481.53975999999989
 20
320.44387999999992
 30
0.0
 40
1.502775999999999
 50
90.122413000000037
 51
165.24357000000001
  0
ARC
  5
8B8
  8
0
  6
CONTINUOUS
 62
     7
 10
-602.19970999999998
 20
408.18459999999988
 30
0.0
 40
0.99319202
 50
119.77338
 51
179.87958999999981
  0
ARC
  5
8B9
  8
0
  6
CONTINUOUS
 62
     7
 10
-602.19739000000004
 20
407.14639
 30
0.0
 40
0.995579
 50
116.5870899999999
 51
179.98264
  0
ARC
  5
8BA
  8
0
  6
CONTINUOUS
 62
     7
 10
-600.93090999999981
 20
408.92081000000002
 30
0.0
 40
0.9959030199999999
 50
89.541267000000005
 51
119.60717
  0
ARC
  5
8BB
  8
0
  6
CONTINUOUS
 62
     7
 10
-600.96813999999995
 20
407.77260999999987
 30
0.0
 40
0.99411702
 50
89.122643999999966
 51
115.93498
  0
ARC
  5
8BC
  8
0
  6
CONTINUOUS
 62
     7
 10
-600.92407000000003
 20
406.81241
 30
0.0
 40
0.99427301
 50
89.356065999999984
 51
120.78091000000001
  0
ARC
  5
8BD
  8
0
  6
CONTINUOUS
 62
     7
 10
-600.95789000000002
 20
405.67129999999997
 30
0.0
 40
0.99545902
 50
89.141291000000024
 51
117.20381999999999
  0
ARC
  5
8BE
  8
0
  6
CONTINUOUS
 62
     7
 10
-600.88634999999999
 20
402.30044999999978
 30
0.0
 40
0.99617702
 50
90.381317999999979
 51
123.9704899999999
  0
ARC
  5
8BF
  8
0
  6
CONTINUOUS
 62
     7
 10
-600.91357000000005
 20
401.16019
 30
0.0
 40
0.99648702
 50
90.540720999999976
 51
120.74377
  0
ARC
  5
8C0
  8
0
  6
CONTINUOUS
 62
     7
 10
-602.19884999999988
 20
400.40982000000002
 30
0.0
 40
0.99404597
 50
120.4682
 51
180.18563999999989
  0
ARC
  5
8C1
  8
0
  6
CONTINUOUS
 62
     7
 10
-602.1981199999999
 20
401.44423999999998
 30
0.0
 40
0.9948369899999999
 50
123.20496
 51
180.4378599999998
  0
ARC
  5
8C2
  8
0
  6
CONTINUOUS
 62
     7
 10
-602.19970999999998
 20
405.00808999999998
 30
0.0
 40
0.9932109699999999
 50
117.7993199999999
 51
180.08187000000001
  0
ARC
  5
8C3
  8
0
  6
CONTINUOUS
 62
     7
 10
-602.19848999999965
 20
406.04567999999989
 30
0.0
 40
0.9944329899999999
 50
121.15213
 51
179.9405099999999
  0
ARC
  5
8C4
  8
0
  6
CONTINUOUS
 62
     7
 10
-600.99194
 20
394.86124000000001
 30
0.0
 40
0.9954450099999999
 50
90.056905000000043
 51
113.1274499999999
  0
ARC
  5
8C5
  8
0
  6
CONTINUOUS
 62
     7
 10
-601.05382999999995
 20
392.91397000000001
 30
0.0
 40
0.9927430199999999
 50
89.374555000000001
 51
106.33207
  0
ARC
  5
8C6
  8
0
  6
CONTINUOUS
 62
     7
 10
-602.19665999999995
 20
392.56241
 30
0.0
 40
0.9962710099999999
 50
106.69792
 51
180.3300499999998
  0
ARC
  5
8C7
  8
0
  6
CONTINUOUS
 62
     7
 10
-602.19653000000005
 20
394.34817999999979
 30
0.0
 40
0.9963999999999998
 50
112.81735999999979
 51
180.09041999999991
  0
ARC
  5
8C8
  8
0
  6
CONTINUOUS
 62
     7
 10
-602.19788000000017
 20
385.17153999999999
 30
0.0
 40
0.99507803
 50
89.715886999999981
 51
180.28411
  0
ARC
  5
8C9
  8
0
  6
CONTINUOUS
 62
     7
 10
-602.19275000000016
 20
385.1669
 30
0.0
 40
1.000203
 50
180.01165
 51
269.98835000000003
  0
ARC
  5
8CA
  8
0
  6
CONTINUOUS
 62
     7
 10
-602.19788000000017
 20
375.17153999999999
 30
0.0
 40
0.99508202
 50
89.716099
 51
180.28390999999991
  0
ARC
  5
8CB
  8
0
  6
CONTINUOUS
 62
     7
 10
-602.19275000000016
 20
375.1669
 30
0.0
 40
1.0001999999999991
 50
180.0114299999999
 51
269.98856999999992
  0
ARC
  5
8CC
  8
0
  6
CONTINUOUS
 62
     7
 10
-602.19788000000017
 20
365.17153999999999
 30
0.0
 40
0.9950849999999999
 50
89.716311000000005
 51
180.28368999999981
  0
ARC
  5
8CD
  8
0
  6
CONTINUOUS
 62
     7
 10
-602.19275000000016
 20
365.1669
 30
0.0
 40
1.0001959999999981
 50
180.01122000000001
 51
269.98877999999991
  0
ARC
  5
8CE
  8
0
  6
CONTINUOUS
 62
     7
 10
-599.19275000000005
 20
363.16677999999979
 30
0.0
 40
0.9998249999999999
 50
359.98995000000002
 51
90.010050000000007
  0
ARC
  5
8CF
  8
0
  6
CONTINUOUS
 62
     7
 10
-599.19788000000005
 20
367.17153999999999
 30
0.0
 40
1.0049469
 50
270.28134999999992
 51
359.71866
  0
ARC
  5
8D0
  8
0
  6
CONTINUOUS
 62
     7
 10
-599.19275000000005
 20
373.16677999999979
 30
0.0
 40
0.9998210099999999
 50
359.98975000000002
 51
90.010255000000001
  0
ARC
  5
8D1
  8
0
  6
CONTINUOUS
 62
     7
 10
-599.19788000000005
 20
377.17153999999999
 30
0.0
 40
1.004939
 50
270.28091000000001
 51
359.71910000000008
  0
ARC
  5
8D2
  8
0
  6
CONTINUOUS
 62
     7
 10
-599.19275000000005
 20
383.16677999999979
 30
0.0
 40
0.9998289899999999
 50
359.99018999999993
 51
90.009810999999985
  0
ARC
  5
8D3
  8
0
  6
CONTINUOUS
 62
     7
 10
-599.19788000000005
 20
387.17153999999988
 30
0.0
 40
1.004942999999999
 50
270.28111000000001
 51
359.71888999999987
  0
ARC
  5
8D4
  8
0
  6
CONTINUOUS
 62
     7
 10
-599.19128000000001
 20
392.90836000000002
 30
0.0
 40
0.9982839799999999
 50
359.90141999999992
 51
90.098575999999994
  0
ARC
  5
8D5
  8
0
  6
CONTINUOUS
 62
     7
 10
-599.19530999999995
 20
401.15432999999962
 30
0.0
 40
1.002353
 50
0.13432682
 51
89.865673000000001
  0
ARC
  5
8D6
  8
0
  6
CONTINUOUS
 62
     7
 10
-598.89745999999957
 20
396.56119000000001
 30
0.0
 40
0.704566
 50
270.37009999999992
 51
359.62990999999982
  0
ARC
  5
8D7
  8
0
  6
CONTINUOUS
 62
     7
 10
-599.19201999999996
 20
405.66762999999992
 30
0.0
 40
0.9990100299999999
 50
359.94319000000002
 51
90.056808999999959
  0
ARC
  5
8D8
  8
0
  6
CONTINUOUS
 62
     7
 10
-598.69127999999978
 20
408.2683399999998
 30
0.0
 40
0.4983060100000002
 50
359.80489
 51
90.195107000000007
  0
ARC
  5
8D9
  8
0
  6
CONTINUOUS
 62
     7
 10
-598.69750999999985
 20
410.42129999999992
 30
0.0
 40
0.50463498
 50
270.52382999999992
 51
359.47617000000002
  0
ARC
  5
8DA
  8
0
  6
CONTINUOUS
 62
     7
 10
-586.64832000000001
 20
325.16665999999998
 30
0.0
 40
1.000013899999999
 50
89.691659999999985
 51
270.30833999999999
  0
ARC
  5
8DB
  8
0
  6
CONTINUOUS
 62
     7
 10
-484.37295999999992
 20
395.21170000000001
 30
0.0
 40
1.6750020000000001
 50
269.99998999999991
 51
90.000003000000007
  0
ARC
  5
8DC
  8
0
  6
CONTINUOUS
 62
     7
 10
-487.85297000000003
 20
395.16665999999992
 30
0.0
 40
1.0
 50
269.99998999999991
 51
90.000003000000007
  0
ARC
  5
8DD
  8
0
  6
CONTINUOUS
 62
     7
 10
-487.85297000000003
 20
325.16665999999998
 30
0.0
 40
1.0
 50
269.99998999999991
 51
90.000003000000007
  0
ARC
  5
8DE
  8
0
  6
CONTINUOUS
 62
     7
 10
-484.37295999999992
 20
325.12160999999992
 30
0.0
 40
1.6750020000000001
 50
269.99998999999991
 51
90.000003000000007
  0
ARC
  5
8DF
  8
0
  6
CONTINUOUS
 62
     7
 10
-599.19628999999975
 20
327.42995999999988
 30
0.0
 40
1.003352
 50
270.19110999999992
 51
359.80889999999982
  0
ARC
  5
8E0
  8
0
  6
CONTINUOUS
 62
     7
 10
-599.19788000000005
 20
337.17153999999982
 30
0.0
 40
1.0049469
 50
270.28136999999992
 51
359.71863000000002
  0
ARC
  5
8E1
  8
0
  6
CONTINUOUS
 62
     7
 10
-599.19275000000005
 20
333.1667799999999
 30
0.0
 40
0.9998239899999999
 50
359.98991999999993
 51
90.010076999999981
  0
ARC
  5
8E2
  8
0
  6
CONTINUOUS
 62
     7
 10
-598.8924599999998
 20
323.77724999999992
 30
0.0
 40
0.6994530000000001
 50
359.95517000000001
 51
90.044829000000021
  0
ARC
  5
8E3
  8
0
  6
CONTINUOUS
 62
     7
 10
-600.98999000000003
 20
325.48183999999998
 30
0.0
 40
1.005233
 50
246.98638999999989
 51
269.82924999999989
  0
ARC
  5
8E4
  8
0
  6
CONTINUOUS
 62
     7
 10
-601.05237
 20
327.42935
 30
0.0
 40
1.002699
 50
253.7527199999999
 51
270.54064
  0
ARC
  5
8E5
  8
0
  6
CONTINUOUS
 62
     7
 10
-602.19653000000005
 20
327.78104000000002
 30
0.0
 40
0.99638802
 50
180.24991
 51
253.29664
  0
ARC
  5
8E6
  8
0
  6
CONTINUOUS
 62
     7
 10
-602.1964099999999
 20
325.99515000000002
 30
0.0
 40
0.9965090199999998
 50
179.91374999999999
 51
247.17845
  0
ARC
  5
8E7
  8
0
  6
CONTINUOUS
 62
     7
 10
-602.19275000000016
 20
335.1669
 30
0.0
 40
1.0001959999999981
 50
180.01124999999999
 51
269.98874999999992
  0
ARC
  5
8E8
  8
0
  6
CONTINUOUS
 62
     7
 10
-602.19788000000017
 20
335.17153999999982
 30
0.0
 40
0.9950849999999999
 50
89.716282999999976
 51
180.2837199999999
  0
ARC
  5
8E9
  8
0
  6
CONTINUOUS
 62
     7
 10
-602.19275000000016
 20
345.16689999999983
 30
0.0
 40
1.0001999999999991
 50
180.01146
 51
269.98853999999972
  0
ARC
  5
8EA
  8
0
  6
CONTINUOUS
 62
     7
 10
-602.19788000000017
 20
345.17153999999982
 30
0.0
 40
0.9950810099999999
 50
89.716071999999997
 51
180.28391999999999
  0
ARC
  5
8EB
  8
0
  6
CONTINUOUS
 62
     7
 10
-602.19275000000016
 20
355.16689999999983
 30
0.0
 40
1.0002040000000001
 50
180.01166000000001
 51
269.9883200000001
  0
ARC
  5
8EC
  8
0
  6
CONTINUOUS
 62
     7
 10
-602.19788000000017
 20
355.17153999999982
 30
0.0
 40
0.9950770099999999
 50
89.715860000000006
 51
180.28413999999989
  0
ARC
  5
8ED
  8
0
  6
CONTINUOUS
 62
     7
 10
-599.19788000000005
 20
357.17153999999982
 30
0.0
 40
1.004942999999999
 50
270.28113999999988
 51
359.71886999999992
  0
ARC
  5
8EE
  8
0
  6
CONTINUOUS
 62
     7
 10
-599.19275000000005
 20
353.16677999999979
 30
0.0
 40
0.9998279799999998
 50
359.99015999999978
 51
90.009838000000002
  0
ARC
  5
8EF
  8
0
  6
CONTINUOUS
 62
     7
 10
-599.19788000000005
 20
347.17153999999982
 30
0.0
 40
1.004939
 50
270.28093999999999
 51
359.71906999999999
  0
ARC
  5
8F0
  8
0
  6
CONTINUOUS
 62
     7
 10
-599.19275000000005
 20
343.1667799999999
 30
0.0
 40
0.9998210099999999
 50
359.98971999999998
 51
90.010281999999961
  0
ARC
  5
8F1
  8
0
  6
CONTINUOUS
 62
     7
 10
-587.52039000000002
 20
395.21170000000001
 30
0.0
 40
1.6750160000000001
 50
89.746144999999984
 51
270.25387000000001
  0
ARC
  5
8F2
  8
0
  6
CONTINUOUS
 62
     7
 10
-586.64832000000001
 20
395.16665999999992
 30
0.0
 40
1.000013899999999
 50
89.691659999999985
 51
270.30833999999999
  0
ARC
  5
8F3
  8
0
  6
CONTINUOUS
 62
     7
 10
-586.64832000000001
 20
385.16665999999992
 30
0.0
 40
1.000013899999999
 50
89.691659999999985
 51
270.30833999999999
  0
ARC
  5
8F4
  8
0
  6
CONTINUOUS
 62
     7
 10
-586.64832000000001
 20
375.16665999999998
 30
0.0
 40
1.000013899999999
 50
89.691659999999985
 51
270.30833999999999
  0
ARC
  5
8F5
  8
0
  6
CONTINUOUS
 62
     7
 10
-586.64832000000001
 20
365.16665999999992
 30
0.0
 40
1.000013899999999
 50
89.691659999999985
 51
270.30833999999999
  0
ARC
  5
8F6
  8
0
  6
CONTINUOUS
 62
     7
 10
-586.64832000000001
 20
355.16665999999992
 30
0.0
 40
1.000013899999999
 50
89.691659999999985
 51
270.30833999999999
  0
ARC
  5
8F7
  8
0
  6
CONTINUOUS
 62
     7
 10
-586.64832000000001
 20
345.16665999999992
 30
0.0
 40
1.000013899999999
 50
89.691659999999985
 51
270.30833999999999
  0
ARC
  5
8F8
  8
0
  6
CONTINUOUS
 62
     7
 10
-586.64832000000001
 20
335.16665999999992
 30
0.0
 40
1.000013899999999
 50
89.691659999999985
 51
270.30833999999999
  0
ARC
  5
8F9
  8
0
  6
CONTINUOUS
 62
     7
 10
-587.73290999999995
 20
385.19167999999991
 30
0.0
 40
1.465004
 50
90.000003000000007
 51
270.0
  0
ARC
  5
8FA
  8
0
  6
CONTINUOUS
 62
     7
 10
-587.86292000000003
 20
375.17667
 30
0.0
 40
1.3300049999999981
 50
90.000003000000007
 51
270.0
  0
ARC
  5
8FB
  8
0
  6
CONTINUOUS
 62
     7
 10
-587.92882999999995
 20
365.17165999999992
 30
0.0
 40
1.2650129999999991
 50
89.735579000000016
 51
270.26441
  0
ARC
  5
8FC
  8
0
  6
CONTINUOUS
 62
     7
 10
-587.92882999999995
 20
355.16665999999992
 30
0.0
 40
1.2700129999999981
 50
89.736616999999995
 51
270.26337000000001
  0
ARC
  5
8FD
  8
0
  6
CONTINUOUS
 62
     7
 10
-587.86292000000003
 20
345.15665000000001
 30
0.0
 40
1.3300049999999981
 50
90.000003000000007
 51
270.0
  0
ARC
  5
8FE
  8
0
  6
CONTINUOUS
 62
     7
 10
-587.73290999999995
 20
335.14162999999991
 30
0.0
 40
1.465004
 50
90.000003000000007
 51
270.0
  0
ARC
  5
8FF
  8
0
  6
CONTINUOUS
 62
     7
 10
-587.51977999999986
 20
325.12160999999992
 30
0.0
 40
1.675014
 50
89.766498999999982
 51
270.23351000000002
  0
ARC
  5
900
  8
0
  6
CONTINUOUS
 62
     7
 10
-599.19617000000005
 20
319.19338999999991
 30
0.0
 40
1.0032760000000001
 50
334.19810000000001
 51
359.61810999999977
  0
ARC
  5
901
  8
0
  6
CONTINUOUS
 62
     7
 10
-602.19446000000016
 20
319.92592999999999
 30
0.0
 40
0.9984580299999999
 50
179.9595799999999
 51
239.38657000000001
  0
ARC
  5
902
  8
0
  6
CONTINUOUS
 62
     7
 10
-585.99426000000005
 20
414.45254999999992
 30
0.0
 40
1.994108999999999
 50
89.675548000000006
 51
169.18777
  0
ARC
  5
903
  8
0
  6
CONTINUOUS
 62
     7
 10
-585.94275000000005
 20
417.30141999999989
 30
0.0
 40
1.995282999999997
 50
90.006203999999983
 51
170.90835000000001
  0
ARC
  5
904
  8
0
  6
CONTINUOUS
 62
     7
 10
-585.92834000000005
 20
419.14992999999998
 30
0.0
 40
1.9967330000000001
 50
89.843967000000006
 51
171.45387999999991
  0
ARC
  5
905
  8
0
  6
CONTINUOUS
 62
     7
 10
-585.90648999999985
 20
420.06106999999992
 30
0.0
 40
1.995633
 50
89.899708000000004
 51
172.06112999999991
  0
ARC
  5
906
  8
0
  6
CONTINUOUS
 62
     7
 10
-489.06286999999992
 20
414.44838999999979
 30
0.0
 40
1.9982919999999991
 50
15.032547999999981
 51
90.002631999999977
  0
ARC
  5
907
  8
0
  6
CONTINUOUS
 62
     7
 10
-481.53975999999989
 20
399.88943
 30
0.0
 40
1.502775999999999
 50
194.75642999999991
 51
269.87757999999991
  0
ARC
  5
908
  8
0
  6
CONTINUOUS
 62
     7
 10
-489.06780999999989
 20
305.89139
 30
0.0
 40
2.0047290000000002
 50
270.13832000000002
 51
344.82650000000001
  0
ARC
  5
909
  8
0
  6
CONTINUOUS
 62
     7
 10
-602.19530999999995
 20
312.15127999999999
 30
0.0
 40
0.9976310099999999
 50
180.26780999999991
 51
240.07924
  0
ARC
  5
90A
  8
0
  6
CONTINUOUS
 62
     7
 10
-602.19727
 20
313.19704999999982
 30
0.0
 40
0.9956849800000001
 50
180.02112999999991
 51
243.40913999999981
  0
ARC
  5
90B
  8
0
  6
CONTINUOUS
 62
     7
 10
-600.91223000000002
 20
311.41775999999999
 30
0.0
 40
1.001123999999999
 50
239.32782000000009
 51
269.38767999999988
  0
ARC
  5
90C
  8
0
  6
CONTINUOUS
 62
     7
 10
-600.94713999999976
 20
312.56594999999982
 30
0.0
 40
0.9993420200000001
 50
242.86199999999999
 51
269.66546
  0
ARC
  5
90D
  8
0
  6
CONTINUOUS
 62
     7
 10
-600.92151000000001
 20
313.53030000000001
 30
0.0
 40
1.0037439999999991
 50
239.37112999999999
 51
270.49189999999987
  0
ARC
  5
90E
  8
0
  6
CONTINUOUS
 62
     7
 10
-600.93773999999985
 20
314.66726999999992
 30
0.0
 40
1.0006820000000001
 50
241.65062
 51
269.7039299999999
  0
ARC
  5
90F
  8
0
  6
CONTINUOUS
 62
     7
 10
-600.90015000000005
 20
318.04714999999987
 30
0.0
 40
1.000521999999999
 50
237.14617999999999
 51
270.41343999999998
  0
ARC
  5
910
  8
0
  6
CONTINUOUS
 62
     7
 10
-600.92957000000001
 20
319.18765000000002
 30
0.0
 40
1.0010449999999991
 50
240.47187
 51
270.37970999999999
  0
ARC
  5
911
  8
0
  6
CONTINUOUS
 62
     7
 10
-602.19446000000016
 20
319.92592999999999
 30
0.0
 40
0.9984580299999999
 50
179.9595799999999
 51
239.38657000000001
  0
ARC
  5
912
  8
0
  6
CONTINUOUS
 62
     7
 10
-602.19385
 20
318.89139
 30
0.0
 40
0.9990889999999998
 50
179.69508999999991
 51
236.66209000000001
  0
ARC
  5
913
  8
0
  6
CONTINUOUS
 62
     7
 10
-602.19519000000003
 20
315.32790999999992
 30
0.0
 40
0.9977070099999998
 50
180.0740199999999
 51
242.04481000000001
  0
ARC
  5
914
  8
0
  6
CONTINUOUS
 62
     7
 10
-602.19421
 20
314.29019
 30
0.0
 40
0.9987969999999998
 50
179.62728000000001
 51
238.70795000000001
  0
ARC
  5
915
  8
0
  6
CONTINUOUS
 62
     7
 10
-599.19542999999965
 20
319.18912
 30
0.0
 40
1.002470999999999
 50
270.14107000000001
 51
359.85892999999987
  0
ARC
  5
916
  8
0
  6
CONTINUOUS
 62
     7
 10
-599.19701999999995
 20
314.67081000000002
 30
0.0
 40
1.004119999999999
 50
270.23460999999992
 51
359.76538999999991
  0
ARC
  5
917
  8
0
  6
CONTINUOUS
 62
     7
 10
-598.69628999999986
 20
312.07010000000002
 30
0.0
 40
0.5033929900000002
 50
270.38490999999982
 51
359.61509999999993
  0
ARC
  5
918
  8
0
  6
CONTINUOUS
 62
     7
 10
-598.6925
 20
309.91714000000002
 30
0.0
 40
0.49952301
 50
359.94522999999992
 51
90.054773999999981
  0
ARC
  5
919
  8
0
  6
CONTINUOUS
 62
     7
 10
-585.98803999999996
 20
305.88589000000002
 30
0.0
 40
1.9992490000000001
 50
190.64309999999981
 51
270.14742999999999
  0
ARC
  5
91A
  8
0
  6
CONTINUOUS
 62
     7
 10
-585.9367699999998
 20
303.03701999999998
 30
0.0
 40
2.000420099999999
 50
188.92681999999991
 51
269.82270999999992
  0
ARC
  5
91B
  8
0
  6
CONTINUOUS
 62
     7
 10
-500.67934999999989
 20
296.16665999999998
 30
0.0
 40
1.5
 50
90.000003000000007
 51
178.5
  0
ARC
  5
91C
  8
0
  6
CONTINUOUS
 62
     3
 10
-489.17675999999989
 20
299.16665999999992
 30
0.0
 40
1.5
 50
269.99998999999991
 51
327.0
  0
ARC
  5
91D
  8
0
  6
CONTINUOUS
 62
     7
 10
-586.20630000000006
 20
303.0366499999999
 30
0.0
 40
2.0
 50
188.6296199999999
 51
269.99998999999991
  0
ARC
  5
91E
  8
0
  6
CONTINUOUS
 62
     7
 10
-586.28673999999978
 20
303.0366499999999
 30
0.0
 40
2.0
 50
187.9504399999999
 51
269.99998999999991
  0
ARC
  5
91F
  8
0
  6
CONTINUOUS
 62
     7
 10
-563.79480000000001
 20
299.53665000000001
 30
0.0
 40
1.5
 50
1.500002699999998
 51
90.000003000000007
  0
ARC
  5
920
  8
0
  6
CONTINUOUS
 62
     7
 10
-552.75427000000002
 20
375.16665999999998
 30
0.0
 40
1.0000056999999991
 50
269.99998999999991
 51
90.000003000000007
  0
ARC
  5
921
  8
0
  6
CONTINUOUS
 62
     7
 10
-552.75427000000002
 20
365.16665999999992
 30
0.0
 40
1.0000056999999991
 50
269.99998999999991
 51
90.000003000000007
  0
ARC
  5
922
  8
0
  6
CONTINUOUS
 62
     7
 10
-552.75427000000002
 20
355.16665999999992
 30
0.0
 40
1.0000056999999991
 50
269.99998999999991
 51
90.000003000000007
  0
ARC
  5
923
  8
0
  6
CONTINUOUS
 62
     7
 10
-552.75427000000002
 20
345.16665999999992
 30
0.0
 40
1.0000056999999991
 50
269.99998999999991
 51
90.000003000000007
  0
ARC
  5
924
  8
0
  6
CONTINUOUS
 62
     7
 10
-502.19295999999991
 20
327.66665999999992
 30
0.0
 40
1.5
 50
179.99998999999991
 51
270.0
  0
ARC
  5
925
  8
0
  6
CONTINUOUS
 62
     7
 10
-520.19299000000001
 20
327.66665999999992
 30
0.0
 40
1.5
 50
269.99998999999991
 51
0.00000068324516
  0
ARC
  5
926
  8
0
  6
CONTINUOUS
 62
     7
 10
-520.17296999999985
 20
327.80667
 30
0.0
 40
1.0
 50
269.99998999999991
 51
0.00000068324625
  0
ARC
  5
927
  8
0
  6
CONTINUOUS
 62
     7
 10
-502.21294999999998
 20
327.80667
 30
0.0
 40
1.0
 50
179.99998999999991
 51
270.0
  0
CIRCLE
  5
928
  8
0
  6
CONTINUOUS
 62
     3
 10
-513.69299000000001
 20
388.66665999999992
 30
0.0
 40
1.1000000000000001
  0
CIRCLE
  5
929
  8
0
  6
CONTINUOUS
 62
     3
 10
-513.69299000000001
 20
388.66665999999992
 30
0.0
 40
1.149999999999999
  0
CIRCLE
  5
92A
  8
0
  6
CONTINUOUS
 62
     3
 10
-508.69295999999991
 20
388.66665999999992
 30
0.0
 40
1.0
  0
ARC
  5
92B
  8
0
  6
CONTINUOUS
 62
     7
 10
-520.19299000000001
 20
387.66665999999998
 30
0.0
 40
1.02
 50
269.99998999999991
 51
0.00000068324403
  0
ARC
  5
92C
  8
0
  6
CONTINUOUS
 62
     7
 10
-502.19295999999991
 20
387.66665999999998
 30
0.0
 40
1.02
 50
179.99998999999991
 51
270.0
  0
ARC
  5
92D
  8
0
  6
CONTINUOUS
 62
     7
 10
-520.19299000000001
 20
387.66665999999998
 30
0.0
 40
1.5
 50
269.99998999999991
 51
0.00000068324516
  0
ARC
  5
92E
  8
0
  6
CONTINUOUS
 62
     7
 10
-502.19295999999991
 20
387.66665999999998
 30
0.0
 40
1.5
 50
179.99998999999991
 51
270.0
  0
CIRCLE
  5
92F
  8
0
  6
CONTINUOUS
 62
     3
 10
-508.69295999999991
 20
331.66665999999998
 30
0.0
 40
1.0
  0
CIRCLE
  5
930
  8
0
  6
CONTINUOUS
 62
     3
 10
-513.69299000000001
 20
331.66665999999998
 30
0.0
 40
1.149999999999999
  0
CIRCLE
  5
931
  8
0
  6
CONTINUOUS
 62
     3
 10
-513.69299000000001
 20
331.66665999999998
 30
0.0
 40
1.1000000000000001
  0
ARC
  5
932
  8
0
  6
CONTINUOUS
 62
     7
 10
-520.19299000000001
 20
332.66665999999992
 30
0.0
 40
1.02
 50
0.0
 51
90.000003000000007
  0
ARC
  5
933
  8
0
  6
CONTINUOUS
 62
     7
 10
-502.19295999999991
 20
332.66665999999992
 30
0.0
 40
1.02
 50
90.000003000000007
 51
180.00001
  0
ARC
  5
934
  8
0
  6
CONTINUOUS
 62
     7
 10
-520.19299000000001
 20
332.66665999999992
 30
0.0
 40
1.5
 50
0.0
 51
90.000003000000007
  0
ARC
  5
935
  8
0
  6
CONTINUOUS
 62
     7
 10
-502.19295999999991
 20
332.66665999999992
 30
0.0
 40
1.5
 50
90.000003000000007
 51
180.00001
  0
ARC
  5
936
  8
0
  6
CONTINUOUS
 62
     7
 10
-551.52795000000003
 20
345.15665000000001
 30
0.0
 40
1.3300148000000001
 50
269.72941999999989
 51
90.270567000000014
  0
ARC
  5
937
  8
0
  6
CONTINUOUS
 62
     7
 10
-551.46605999999997
 20
355.16665999999992
 30
0.0
 40
1.2700266
 50
269.62931999999989
 51
90.370669999999961
  0
ARC
  5
938
  8
0
  6
CONTINUOUS
 62
     7
 10
-551.46605999999997
 20
365.17667
 30
0.0
 40
1.2700266
 50
269.62931999999989
 51
90.370669999999961
  0
ARC
  5
939
  8
0
  6
CONTINUOUS
 62
     7
 10
-551.52795000000003
 20
375.18167
 30
0.0
 40
1.3350147999999991
 50
269.73043000000001
 51
90.269555999999994
  0
ARC
  5
93A
  8
0
  6
CONTINUOUS
 62
     7
 10
-487.85300000000001
 20
385.16665999999992
 30
0.0
 40
1.0000255999999981
 50
269.58947000000001
 51
90.410531000000006
  0
ARC
  5
93B
  8
0
  6
CONTINUOUS
 62
     7
 10
-484.15297999999979
 20
385.19668999999988
 30
0.0
 40
1.460011199999999
 50
269.77525000000003
 51
90.224749999999986
  0
ARC
  5
93C
  8
0
  6
CONTINUOUS
 62
     7
 10
-487.85300000000001
 20
335.16665999999992
 30
0.0
 40
1.0000255999999981
 50
269.58947000000001
 51
90.410531000000006
  0
ARC
  5
93D
  8
0
  6
CONTINUOUS
 62
     7
 10
-484.15297999999979
 20
335.13662999999991
 30
0.0
 40
1.460011199999999
 50
269.77525000000003
 51
90.224749999999986
  0
ARC
  5
93E
  8
0
  6
CONTINUOUS
 62
     7
 10
-502.21294999999998
 20
392.52663999999987
 30
0.0
 40
1.0
 50
90.000003000000007
 51
180.00001
  0
ARC
  5
93F
  8
0
  6
CONTINUOUS
 62
     7
 10
-502.19295999999991
 20
392.66665999999992
 30
0.0
 40
1.5
 50
90.000003000000007
 51
180.00001
  0
ARC
  5
940
  8
0
  6
CONTINUOUS
 62
     7
 10
-520.19299000000001
 20
392.66665999999992
 30
0.0
 40
1.5
 50
0.0
 51
90.000003000000007
  0
ARC
  5
941
  8
0
  6
CONTINUOUS
 62
     7
 10
-520.17296999999985
 20
392.52663999999987
 30
0.0
 40
1.0
 50
0.0
 51
90.000003000000007
  0
ARC
  5
942
  8
0
  6
CONTINUOUS
 62
     7
 10
-394.19299000000001
 20
288.16345000000001
 30
0.0
 40
5.0
 50
180.00001
 51
271.49999999999972
  0
ARC
  5
943
  8
0
  6
CONTINUOUS
 62
     7
 10
-394.19299000000001
 20
432.16985999999991
 30
0.0
 40
5.0
 50
88.499996999999965
 51
180.00001
  0
ARC
  5
944
  8
0
  6
CONTINUOUS
 62
     7
 10
-402.19298999999978
 20
300.06934000000001
 30
0.0
 40
3.0
 50
271.49999999999972
 51
0.0
  0
ARC
  5
945
  8
0
  6
CONTINUOUS
 62
     7
 10
-422.58800999999988
 20
294.49844000000002
 30
0.0
 40
5.0
 50
271.49999999999972
 51
299.88702000000001
  0
ARC
  5
946
  8
0
  6
CONTINUOUS
 62
     7
 10
-406.96832000000001
 20
291.94155999999992
 30
0.0
 40
5.0
 50
91.500000999999969
 51
119.88701999999979
  0
ARC
  5
947
  8
0
  6
CONTINUOUS
 62
     7
 10
-389.19296000000003
 20
316.14111000000008
 30
0.0
 40
3.0
 50
271.49999999999972
 51
0.0
  0
ARC
  5
948
  8
0
  6
CONTINUOUS
 62
     7
 10
-389.19296000000003
 20
309.91565000000008
 30
0.0
 40
3.0
 50
275.0
 51
0.0
  0
ARC
  5
949
  8
0
  6
CONTINUOUS
 62
     7
 10
-382.01895000000002
 20
306.37536999999992
 30
0.0
 40
5.0
 50
95.000001999999995
 51
153.73433
  0
ARC
  5
94A
  8
0
  6
CONTINUOUS
 62
     7
 10
-382.01895000000002
 20
413.95792
 30
0.0
 40
5.0
 50
206.26567
 51
265.00000999999992
  0
ARC
  5
94B
  8
0
  6
CONTINUOUS
 62
     7
 10
-389.19296000000003
 20
404.19220000000001
 30
0.0
 40
3.0
 50
0.0
 51
88.499996999999965
  0
ARC
  5
94C
  8
0
  6
CONTINUOUS
 62
     7
 10
-422.58800999999988
 20
425.83486999999991
 30
0.0
 40
5.0
 50
60.11298
 51
88.499996999999965
  0
ARC
  5
94D
  8
0
  6
CONTINUOUS
 62
     7
 10
-389.19296000000003
 20
410.41766000000001
 30
0.0
 40
3.0
 50
0.0
 51
85.000004000000004
  0
ARC
  5
94E
  8
0
  6
CONTINUOUS
 62
     7
 10
-406.96832000000001
 20
428.39175
 30
0.0
 40
5.0
 50
240.11297999999999
 51
268.5
  0
ARC
  5
94F
  8
0
  6
CONTINUOUS
 62
     7
 10
-402.19298999999978
 20
420.26398
 30
0.0
 40
3.0
 50
0.0
 51
88.499996999999965
  0
ARC
  5
950
  8
0
  6
CONTINUOUS
 62
     7
 10
-420.19299000000001
 20
414.59136999999993
 30
0.0
 40
1.0
 50
0.0
 51
90.000003000000007
  0
ARC
  5
951
  8
0
  6
CONTINUOUS
 62
     7
 10
-420.19299000000001
 20
420.36489999999992
 30
0.0
 40
1.0
 50
0.0
 51
90.000003000000007
  0
ARC
  5
952
  8
0
  6
CONTINUOUS
 62
     7
 10
-420.19299000000001
 20
423.25164999999998
 30
0.0
 40
1.0
 50
0.0
 51
90.000003000000007
  0
ARC
  5
953
  8
0
  6
CONTINUOUS
 62
     7
 10
-420.19299000000001
 20
422.36487
 30
0.0
 40
1.0
 50
269.99998999999991
 51
0.00000068324625
  0
ARC
  5
954
  8
0
  6
CONTINUOUS
 62
     7
 10
-420.19299000000001
 20
416.59136999999993
 30
0.0
 40
1.0
 50
269.99998999999991
 51
0.00000068324625
  0
ARC
  5
955
  8
0
  6
CONTINUOUS
 62
     7
 10
-420.19299000000001
 20
413.70461999999992
 30
0.0
 40
1.0
 50
269.99998999999991
 51
0.00000068324625
  0
ARC
  5
956
  8
0
  6
CONTINUOUS
 62
     7
 10
-319.70425
 20
360.16665999999992
 30
0.0
 40
101.4887199999999
 50
151.89332999999999
 51
208.10667000000001
  0
ARC
  5
957
  8
0
  6
CONTINUOUS
 62
     7
 10
-440.1929599999998
 20
291.29827999999992
 30
0.0
 40
2.0
 50
180.00001
 51
268.5
  0
ARC
  5
958
  8
0
  6
CONTINUOUS
 62
     7
 10
-440.1929599999998
 20
429.03503000000001
 30
0.0
 40
2.0
 50
91.500000999999969
 51
180.00001
  0
ARC
  5
959
  8
0
  6
CONTINUOUS
 62
     7
 10
-445.19299000000001
 20
296.95537999999988
 30
0.0
 40
2.0
 50
180.00001
 51
270.0
  0
ARC
  5
95A
  8
0
  6
CONTINUOUS
 62
     7
 10
-449.19299000000001
 20
312.16635000000002
 30
0.0
 40
2.0
 50
0.0
 51
90.000003000000007
  0
ARC
  5
95B
  8
0
  6
CONTINUOUS
 62
     7
 10
-444.19295999999991
 20
292.95537999999982
 30
0.0
 40
2.0
 50
0.0
 51
90.000003000000007
  0
ARC
  5
95C
  8
0
  6
CONTINUOUS
 62
     7
 10
-444.19295999999991
 20
427.37795999999997
 30
0.0
 40
2.0
 50
270.0
 51
0.0
  0
ARC
  5
95D
  8
0
  6
CONTINUOUS
 62
     7
 10
-445.19299000000001
 20
423.37795999999997
 30
0.0
 40
2.0
 50
90.000003000000007
 51
180.00001
  0
ARC
  5
95E
  8
0
  6
CONTINUOUS
 62
     7
 10
-449.19299000000001
 20
408.16696000000002
 30
0.0
 40
2.0
 50
270.0
 51
0.0
  0
POLYLINE
  5
95F
  8
0
  6
CONTINUOUS
 62
     7
 66
     1
 10
0.0
 20
0.0
 30
0.0
  0
VERTEX
  5
960
  8
0
  6
CONTINUOUS
 62
     7
 10
-586.82758000000001
 20
117.34795
 30
0.0
  0
VERTEX
  5
961
  8
0
  6
CONTINUOUS
 62
     7
 10
-586.82485999999994
 20
113.61547
 30
0.0
 42
-1.0
  0
SEQEND
  5
962
  8
0
 62
     7
  0
POLYLINE
  5
963
  8
0
  6
CONTINUOUS
 62
     7
 66
     1
 10
0.0
 20
0.0
 30
0.0
  0
VERTEX
  5
964
  8
0
  6
CONTINUOUS
 62
     7
 10
-586.7842099999998
 20
111.0766499999999
 30
0.0
  0
VERTEX
  5
965
  8
0
  6
CONTINUOUS
 62
     7
 10
-586.48554000000001
 20
103.66658
 30
0.0
 42
-1.0
  0
SEQEND
  5
966
  8
0
 62
     7
  0
POLYLINE
  5
967
  8
0
  6
CONTINUOUS
 62
     7
 66
     1
 10
0.0
 20
0.0
 30
0.0
  0
VERTEX
  5
968
  8
0
  6
CONTINUOUS
 62
     7
 10
-586.31254999999965
 20
101.00534
 30
0.0
  0
VERTEX
  5
969
  8
0
  6
CONTINUOUS
 62
     7
 10
-585.66649000000007
 20
93.784393000000009
 30
0.0
 42
-1.0
  0
SEQEND
  5
96A
  8
0
 62
     7
  0
POLYLINE
  5
96B
  8
0
  6
CONTINUOUS
 62
     7
 66
     1
 10
0.0
 20
0.0
 30
0.0
  0
VERTEX
  5
96C
  8
0
  6
CONTINUOUS
 62
     7
 10
-585.33079999999995
 20
90.860940000000014
 30
0.0
  0
VERTEX
  5
96D
  8
0
  6
CONTINUOUS
 62
     7
 10
-584.37031999999999
 20
83.979347000000004
 30
0.0
 42
-1.0
  0
SEQEND
  5
96E
  8
0
 62
     7
  0
POLYLINE
  5
96F
  8
0
  6
CONTINUOUS
 62
     7
 66
     1
 10
0.0
 20
0.0
 30
0.0
  0
VERTEX
  5
970
  8
0
  6
CONTINUOUS
 62
     7
 10
-586.82758000000001
 20
117.34795
 30
0.0
  0
VERTEX
  5
971
  8
0
  6
CONTINUOUS
 62
     7
 10
-586.82485999999994
 20
121.0804199999998
 30
0.0
 42
-1.0
  0
SEQEND
  5
972
  8
0
 62
     7
  0
POLYLINE
  5
973
  8
0
  6
CONTINUOUS
 62
     7
 66
     1
 10
0.0
 20
0.0
 30
0.0
  0
VERTEX
  5
974
  8
0
  6
CONTINUOUS
 62
     7
 10
-586.7842099999998
 20
123.61923
 30
0.0
  0
VERTEX
  5
975
  8
0
  6
CONTINUOUS
 62
     7
 10
-586.48554000000001
 20
131.02924999999991
 30
0.0
 42
-1.0
  0
SEQEND
  5
976
  8
0
 62
     7
  0
POLYLINE
  5
977
  8
0
  6
CONTINUOUS
 62
     7
 66
     1
 10
0.0
 20
0.0
 30
0.0
  0
VERTEX
  5
978
  8
0
  6
CONTINUOUS
 62
     7
 10
-586.31254999999965
 20
133.69048000000001
 30
0.0
  0
VERTEX
  5
979
  8
0
  6
CONTINUOUS
 62
     7
 10
-585.66649000000007
 20
140.9113899999999
 30
0.0
 42
-1.0
  0
SEQEND
  5
97A
  8
0
 62
     7
  0
POLYLINE
  5
97B
  8
0
  6
CONTINUOUS
 62
     7
 66
     1
 10
0.0
 20
0.0
 30
0.0
  0
VERTEX
  5
97C
  8
0
  6
CONTINUOUS
 62
     7
 10
-585.33079999999995
 20
143.83485999999991
 30
0.0
  0
VERTEX
  5
97D
  8
0
  6
CONTINUOUS
 62
     7
 10
-584.3703099999999
 20
150.7165099999998
 30
0.0
 42
-1.0
  0
SEQEND
  5
97E
  8
0
 62
     7
  0
POLYLINE
  5
97F
  8
0
  6
CONTINUOUS
 62
     7
 66
     1
 10
0.0
 20
0.0
 30
0.0
  0
VERTEX
  5
980
  8
0
  6
CONTINUOUS
 62
     7
 10
-586.83300999999994
 20
360.16665999999992
 30
0.0
 42
0.00043465572
  0
VERTEX
  5
981
  8
0
  6
CONTINUOUS
 62
     7
 10
-586.83532000000002
 20
359.85552000000001
 30
0.0
 42
0.00030402944
  0
VERTEX
  5
982
  8
0
  6
CONTINUOUS
 62
     7
 10
-586.83718999999985
 20
359.54441000000008
 30
0.0
 42
0.00039705232
  0
VERTEX
  5
983
  8
0
  6
CONTINUOUS
 62
     7
 10
-586.83861999999965
 20
359.23331000000002
 30
0.0
 42
0.0003876649
  0
VERTEX
  5
984
  8
0
  6
CONTINUOUS
 62
     7
 10
-586.83956000000001
 20
358.92216999999982
 30
0.0
 42
0.00040613779
  0
VERTEX
  5
985
  8
0
  6
CONTINUOUS
 62
     7
 10
-586.84001000000001
 20
358.61106000000001
 30
0.0
 42
0.00035571855
  0
VERTEX
  5
986
  8
0
  6
CONTINUOUS
 62
     7
 10
-586.83996999999999
 20
358.29995999999983
 30
0.0
 42
0.00034187231
  0
VERTEX
  5
987
  8
0
  6
CONTINUOUS
 62
     7
 10
-586.83951999999999
 20
357.98881999999992
 30
0.0
 42
0.00040586803
  0
VERTEX
  5
988
  8
0
  6
CONTINUOUS
 62
     7
 10
-586.83857999999975
 20
357.67772000000002
 30
0.0
 42
0.00040118616
  0
VERTEX
  5
989
  8
0
  6
CONTINUOUS
 62
     7
 10
-586.8371599999997
 20
357.36649
 30
0.0
 42
0.00038319866
  0
VERTEX
  5
98A
  8
0
  6
CONTINUOUS
 62
     7
 10
-586.83524
 20
357.05534999999992
 30
0.0
 42
0.00040742138
  0
VERTEX
  5
98B
  8
0
  6
CONTINUOUS
 62
     7
 10
-586.83284000000003
 20
356.74412000000001
 30
0.0
 42
0.00035780713
  0
VERTEX
  5
98C
  8
0
  6
CONTINUOUS
 62
     7
 10
-586.8299599999998
 20
356.43301000000002
 30
0.0
  0
SEQEND
  5
98D
  8
0
 62
     7
  0
POLYLINE
  5
98E
  8
0
  6
CONTINUOUS
 62
     7
 66
     1
 10
0.0
 20
0.0
 30
0.0
  0
VERTEX
  5
98F
  8
0
  6
CONTINUOUS
 62
     7
 10
-586.78894000000003
 20
353.89627000000002
 30
0.0
 42
0.0007888942
  0
VERTEX
  5
990
  8
0
  6
CONTINUOUS
 62
     7
 10
-586.77409999999975
 20
353.27850999999993
 30
0.0
 42
0.00068143706
  0
VERTEX
  5
991
  8
0
  6
CONTINUOUS
 62
     7
 10
-586.75745999999981
 20
352.66090999999977
 30
0.0
 42
0.00078719873
  0
VERTEX
  5
992
  8
0
  6
CONTINUOUS
 62
     7
 10
-586.73901000000001
 20
352.04323999999991
 30
0.0
 42
0.00075144512
  0
VERTEX
  5
993
  8
0
  6
CONTINUOUS
 62
     7
 10
-586.71865000000003
 20
351.42563999999987
 30
0.0
 42
0.0007859439
  0
VERTEX
  5
994
  8
0
  6
CONTINUOUS
 62
     7
 10
-586.69638999999995
 20
350.80820999999992
 30
0.0
 42
0.00073349187
  0
VERTEX
  5
995
  8
0
  6
CONTINUOUS
 62
     7
 10
-586.67223999999965
 20
350.19083000000001
 30
0.0
 42
0.00075773274
  0
VERTEX
  5
996
  8
0
  6
CONTINUOUS
 62
     7
 10
-586.64625999999998
 20
349.57342999999992
 30
0.0
 42
0.00073477293
  0
VERTEX
  5
997
  8
0
  6
CONTINUOUS
 62
     7
 10
-586.61842999999965
 20
348.95603999999992
 30
0.0
 42
0.00077014543
  0
VERTEX
  5
998
  8
0
  6
CONTINUOUS
 62
     7
 10
-586.58875
 20
348.33864999999992
 30
0.0
 42
0.00077088328
  0
VERTEX
  5
999
  8
0
  6
CONTINUOUS
 62
     7
 10
-586.55714
 20
347.72151999999983
 30
0.0
 42
0.00073482991
  0
VERTEX
  5
99A
  8
0
  6
CONTINUOUS
 62
     7
 10
-586.52369999999985
 20
347.10448999999983
 30
0.0
 42
0.00075616115
  0
VERTEX
  5
99B
  8
0
  6
CONTINUOUS
 62
     7
 10
-586.48839999999996
 20
346.48745999999983
 30
0.0
  0
SEQEND
  5
99C
  8
0
 62
     7
  0
POLYLINE
  5
99D
  8
0
  6
CONTINUOUS
 62
     7
 66
     1
 10
0.0
 20
0.0
 30
0.0
  0
VERTEX
  5
99E
  8
0
  6
CONTINUOUS
 62
     7
 10
-586.31470000000002
 20
343.82607999999999
 30
0.0
 42
0.00073721998
  0
VERTEX
  5
99F
  8
0
  6
CONTINUOUS
 62
     7
 10
-586.27054999999984
 20
343.22367000000008
 30
0.0
 42
0.00074398494
  0
VERTEX
  5
9A0
  8
0
  6
CONTINUOUS
 62
     7
 10
-586.22460999999998
 20
342.62139999999982
 30
0.0
 42
0.00073322622
  0
VERTEX
  5
9A1
  8
0
  6
CONTINUOUS
 62
     7
 10
-586.17687999999998
 20
342.01907
 30
0.0
 42
0.00071357031
  0
VERTEX
  5
9A2
  8
0
  6
CONTINUOUS
 62
     7
 10
-586.12743999999998
 20
341.41707999999988
 30
0.0
 42
0.00079961878
  0
VERTEX
  5
9A3
  8
0
  6
CONTINUOUS
 62
     7
 10
-586.07618000000002
 20
340.8152199999999
 30
0.0
 42
0.00070980539
  0
VERTEX
  5
9A4
  8
0
  6
CONTINUOUS
 62
     7
 10
-586.02306999999985
 20
340.21341000000001
 30
0.0
 42
0.0007418407
  0
VERTEX
  5
9A5
  8
0
  6
CONTINUOUS
 62
     7
 10
-585.9682499999999
 20
339.61187999999993
 30
0.0
 42
0.00069469606
  0
VERTEX
  5
9A6
  8
0
  6
CONTINUOUS
 62
     7
 10
-585.91169000000002
 20
339.01064999999988
 30
0.0
 42
0.00077213468
  0
VERTEX
  5
9A7
  8
0
  6
CONTINUOUS
 62
     7
 10
-585.85338999999999
 20
338.40944999999982
 30
0.0
 42
0.00076522242
  0
VERTEX
  5
9A8
  8
0
  6
CONTINUOUS
 62
     7
 10
-585.79319999999996
 20
337.80844000000002
 30
0.0
 42
0.0006989821
  0
VERTEX
  5
9A9
  8
0
  6
CONTINUOUS
 62
     7
 10
-585.73127999999986
 20
337.20769000000001
 30
0.0
 42
0.00074640581
  0
VERTEX
  5
9AA
  8
0
  6
CONTINUOUS
 62
     7
 10
-585.66759999999999
 20
336.60708999999991
 30
0.0
  0
SEQEND
  5
9AB
  8
0
 62
     7
  0
POLYLINE
  5
9AC
  8
0
  6
CONTINUOUS
 62
     7
 66
     1
 10
0.0
 20
0.0
 30
0.0
  0
VERTEX
  5
9AD
  8
0
  6
CONTINUOUS
 62
     7
 10
-585.33203000000003
 20
333.68362000000002
 30
0.0
 42
0.0006890002
  0
VERTEX
  5
9AE
  8
0
  6
CONTINUOUS
 62
     7
 10
-585.26115000000004
 20
333.10887000000002
 30
0.0
 42
0.00067934106
  0
VERTEX
  5
9AF
  8
0
  6
CONTINUOUS
 62
     7
 10
-585.18867
 20
332.53417999999988
 30
0.0
 42
0.00071569314
  0
VERTEX
  5
9B0
  8
0
  6
CONTINUOUS
 62
     7
 10
-585.11461999999995
 20
331.95987000000002
 30
0.0
 42
0.00069587808
  0
VERTEX
  5
9B1
  8
0
  6
CONTINUOUS
 62
     7
 10
-585.03894000000003
 20
331.38572999999991
 30
0.0
 42
0.00071687036
  0
VERTEX
  5
9B2
  8
0
  6
CONTINUOUS
 62
     7
 10
-584.96163000000001
 20
330.8117299999999
 30
0.0
 42
0.00069759108
  0
VERTEX
  5
9B3
  8
0
  6
CONTINUOUS
 62
     7
 10
-584.88269000000003
 20
330.23795000000001
 30
0.0
 42
0.000733212
  0
VERTEX
  5
9B4
  8
0
  6
CONTINUOUS
 62
     7
 10
-584.80210999999952
 20
329.66447999999991
 30
0.0
 42
0.00064546132
  0
VERTEX
  5
9B5
  8
0
  6
CONTINUOUS
 62
     7
 10
-584.71996999999988
 20
329.09136999999993
 30
0.0
 42
0.00074206151
  0
VERTEX
  5
9B6
  8
0
  6
CONTINUOUS
 62
     7
 10
-584.63622999999995
 20
328.51833999999991
 30
0.0
 42
0.00073581337
  0
VERTEX
  5
9B7
  8
0
  6
CONTINUOUS
 62
     7
 10
-584.55075999999985
 20
327.94558000000001
 30
0.0
 42
0.0006891394
  0
VERTEX
  5
9B8
  8
0
  6
CONTINUOUS
 62
     7
 10
-584.46370999999988
 20
327.37322999999992
 30
0.0
 42
0.00072290801
  0
VERTEX
  5
9B9
  8
0
  6
CONTINUOUS
 62
     7
 10
-584.375
 20
326.80092999999999
 30
0.0
  0
SEQEND
  5
9BA
  8
0
 62
     7
  0
POLYLINE
  5
9BB
  8
0
  6
CONTINUOUS
 62
     7
 66
     1
 10
0.0
 20
0.0
 30
0.0
  0
VERTEX
  5
9BC
  8
0
  6
CONTINUOUS
 62
     7
 10
-586.83300999999994
 20
360.16665999999992
 30
0.0
 42
-0.00043465642
  0
VERTEX
  5
9BD
  8
0
  6
CONTINUOUS
 62
     7
 10
-586.83532000000002
 20
360.47778999999991
 30
0.0
 42
-0.00030402561
  0
VERTEX
  5
9BE
  8
0
  6
CONTINUOUS
 62
     7
 10
-586.83718999999985
 20
360.78890000000001
 30
0.0
 42
-0.00039706113
  0
VERTEX
  5
9BF
  8
0
  6
CONTINUOUS
 62
     7
 10
-586.83861999999965
 20
361.10001
 30
0.0
 42
-0.00038765718
  0
VERTEX
  5
9C0
  8
0
  6
CONTINUOUS
 62
     7
 10
-586.83956000000001
 20
361.41115000000002
 30
0.0
 42
-0.00040613432
  0
VERTEX
  5
9C1
  8
0
  6
CONTINUOUS
 62
     7
 10
-586.84001000000001
 20
361.72224999999997
 30
0.0
 42
-0.00035573434
  0
VERTEX
  5
9C2
  8
0
  6
CONTINUOUS
 62
     7
 10
-586.83996999999999
 20
362.03336000000002
 30
0.0
 42
-0.00034185747
  0
VERTEX
  5
9C3
  8
0
  6
CONTINUOUS
 62
     7
 10
-586.83951999999999
 20
362.34448999999989
 30
0.0
 42
-0.00040586505
  0
VERTEX
  5
9C4
  8
0
  6
CONTINUOUS
 62
     7
 10
-586.83857999999975
 20
362.65559999999988
 30
0.0
 42
-0.00040120779
  0
VERTEX
  5
9C5
  8
0
  6
CONTINUOUS
 62
     7
 10
-586.8371599999997
 20
362.96682999999979
 30
0.0
 42
-0.00038317817
  0
VERTEX
  5
9C6
  8
0
  6
CONTINUOUS
 62
     7
 10
-586.83524
 20
363.27796000000001
 30
0.0
 42
-0.00040741864
  0
VERTEX
  5
9C7
  8
0
  6
CONTINUOUS
 62
     7
 10
-586.83284000000003
 20
363.58918999999992
 30
0.0
 42
-0.00035783326
  0
VERTEX
  5
9C8
  8
0
  6
CONTINUOUS
 62
     7
 10
-586.8299599999998
 20
363.90030000000002
 30
0.0
  0
SEQEND
  5
9C9
  8
0
 62
     7
  0
POLYLINE
  5
9CA
  8
0
  6
CONTINUOUS
 62
     7
 66
     1
 10
0.0
 20
0.0
 30
0.0
  0
VERTEX
  5
9CB
  8
0
  6
CONTINUOUS
 62
     7
 10
-586.78894000000003
 20
366.43703999999991
 30
0.0
 42
-0.00078886175
  0
VERTEX
  5
9CC
  8
0
  6
CONTINUOUS
 62
     7
 10
-586.77409999999975
 20
367.0548
 30
0.0
 42
-0.0006814346
  0
VERTEX
  5
9CD
  8
0
  6
CONTINUOUS
 62
     7
 10
-586.75745999999981
 20
367.67241000000001
 30
0.0
 42
-0.00078723428
  0
VERTEX
  5
9CE
  8
0
  6
CONTINUOUS
 62
     7
 10
-586.73901000000001
 20
368.29007000000001
 30
0.0
 42
-0.00079528173
  0
VERTEX
  5
9CF
  8
0
  6
CONTINUOUS
 62
     7
 10
-586.71855000000005
 20
368.90767
 30
0.0
 42
-0.00068165265
  0
VERTEX
  5
9D0
  8
0
  6
CONTINUOUS
 62
     7
 10
-586.69629999999995
 20
369.52510000000001
 30
0.0
 42
-0.00077904685
  0
VERTEX
  5
9D1
  8
0
  6
CONTINUOUS
 62
     7
 10
-586.67223999999965
 20
370.14260999999988
 30
0.0
 42
-0.00075976021
  0
VERTEX
  5
9D2
  8
0
  6
CONTINUOUS
 62
     7
 10
-586.64625999999998
 20
370.75999999999988
 30
0.0
 42
-0.00073240022
  0
VERTEX
  5
9D3
  8
0
  6
CONTINUOUS
 62
     7
 10
-586.61842999999965
 20
371.37727999999998
 30
0.0
 42
-0.00077017535
  0
VERTEX
  5
9D4
  8
0
  6
CONTINUOUS
 62
     7
 10
-586.58875
 20
371.99466000000001
 30
0.0
 42
-0.0007708528
  0
VERTEX
  5
9D5
  8
0
  6
CONTINUOUS
 62
     7
 10
-586.55714
 20
372.61178999999993
 30
0.0
 42
-0.00073483069
  0
VERTEX
  5
9D6
  8
0
  6
CONTINUOUS
 62
     7
 10
-586.52369999999985
 20
373.22881999999993
 30
0.0
 42
-0.00075618777
  0
VERTEX
  5
9D7
  8
0
  6
CONTINUOUS
 62
     7
 10
-586.48839999999996
 20
373.84586000000002
 30
0.0
  0
SEQEND
  5
9D8
  8
0
 62
     7
  0
POLYLINE
  5
9D9
  8
0
  6
CONTINUOUS
 62
     7
 66
     1
 10
0.0
 20
0.0
 30
0.0
  0
VERTEX
  5
9DA
  8
0
  6
CONTINUOUS
 62
     7
 10
-586.31470000000002
 20
376.50722999999988
 30
0.0
 42
-0.00073370515
  0
VERTEX
  5
9DB
  8
0
  6
CONTINUOUS
 62
     7
 10
-586.27054999999984
 20
377.10964999999999
 30
0.0
 42
-0.0007521132
  0
VERTEX
  5
9DC
  8
0
  6
CONTINUOUS
 62
     7
 10
-586.22460999999998
 20
377.71204
 30
0.0
 42
-0.00072974907
  0
VERTEX
  5
9DD
  8
0
  6
CONTINUOUS
 62
     7
 10
-586.17687999999998
 20
378.31423999999998
 30
0.0
 42
-0.00071355786
  0
VERTEX
  5
9DE
  8
0
  6
CONTINUOUS
 62
     7
 10
-586.12743999999998
 20
378.91624000000002
 30
0.0
 42
-0.00079962051
  0
VERTEX
  5
9DF
  8
0
  6
CONTINUOUS
 62
     7
 10
-586.07618000000002
 20
379.51808999999992
 30
0.0
 42
-0.00070981156
  0
VERTEX
  5
9E0
  8
0
  6
CONTINUOUS
 62
     7
 10
-586.02306999999985
 20
380.11989999999997
 30
0.0
 42
-0.00073754173
  0
VERTEX
  5
9E1
  8
0
  6
CONTINUOUS
 62
     7
 10
-585.96825999999999
 20
380.72143999999992
 30
0.0
 42
-0.00070466633
  0
VERTEX
  5
9E2
  8
0
  6
CONTINUOUS
 62
     7
 10
-585.91169000000002
 20
381.32279999999992
 30
0.0
 42
-0.00076787225
  0
VERTEX
  5
9E3
  8
0
  6
CONTINUOUS
 62
     7
 10
-585.85338999999999
 20
381.92385999999988
 30
0.0
 42
-0.00076521763
  0
VERTEX
  5
9E4
  8
0
  6
CONTINUOUS
 62
     7
 10
-585.79319999999996
 20
382.52488
 30
0.0
 42
-0.00069898529
  0
VERTEX
  5
9E5
  8
0
  6
CONTINUOUS
 62
     7
 10
-585.73127999999986
 20
383.12563
 30
0.0
 42
-0.00074640664
  0
VERTEX
  5
9E6
  8
0
  6
CONTINUOUS
 62
     7
 10
-585.66759999999999
 20
383.72622999999987
 30
0.0
  0
SEQEND
  5
9E7
  8
0
 62
     7
  0
POLYLINE
  5
9E8
  8
0
  6
CONTINUOUS
 62
     7
 66
     1
 10
0.0
 20
0.0
 30
0.0
  0
VERTEX
  5
9E9
  8
0
  6
CONTINUOUS
 62
     7
 10
-585.33203000000003
 20
386.64968999999991
 30
0.0
 42
-0.00068898293
  0
VERTEX
  5
9EA
  8
0
  6
CONTINUOUS
 62
     7
 10
-585.26115000000004
 20
387.22443999999979
 30
0.0
 42
-0.00067933813
  0
VERTEX
  5
9EB
  8
0
  6
CONTINUOUS
 62
     7
 10
-585.18867
 20
387.79912999999999
 30
0.0
 42
-0.000715718
  0
VERTEX
  5
9EC
  8
0
  6
CONTINUOUS
 62
     7
 10
-585.11461999999995
 20
388.37344000000002
 30
0.0
 42
-0.0006958567
  0
VERTEX
  5
9ED
  8
0
  6
CONTINUOUS
 62
     7
 10
-585.03894000000003
 20
388.94757999999979
 30
0.0
 42
-0.00071687214
  0
VERTEX
  5
9EE
  8
0
  6
CONTINUOUS
 62
     7
 10
-584.96163000000001
 20
389.52157999999991
 30
0.0
 42
-0.00069760017
  0
VERTEX
  5
9EF
  8
0
  6
CONTINUOUS
 62
     7
 10
-584.88269000000003
 20
390.09537
 30
0.0
 42
-0.00073320364
  0
VERTEX
  5
9F0
  8
0
  6
CONTINUOUS
 62
     7
 10
-584.80210999999952
 20
390.66882999999979
 30
0.0
 42
-0.00064546479
  0
VERTEX
  5
9F1
  8
0
  6
CONTINUOUS
 62
     7
 10
-584.71996999999988
 20
391.24194
 30
0.0
 42
-0.00074205583
  0
VERTEX
  5
9F2
  8
0
  6
CONTINUOUS
 62
     7
 10
-584.63622999999995
 20
391.81497000000002
 30
0.0
 42
-0.00073582106
  0
VERTEX
  5
9F3
  8
0
  6
CONTINUOUS
 62
     7
 10
-584.55075999999985
 20
392.38772999999998
 30
0.0
 42
-0.00068913793
  0
VERTEX
  5
9F4
  8
0
  6
CONTINUOUS
 62
     7
 10
-584.46370999999988
 20
392.96008
 30
0.0
 42
-0.00072288972
  0
VERTEX
  5
9F5
  8
0
  6
CONTINUOUS
 62
     7
 10
-584.375
 20
393.53237999999988
 30
0.0
  0
SEQEND
  5
9F6
  8
0
 62
     7
  0
TEXT
  5
CC7
  8
0
  6
CONTINUOUS
 62
     0
 10
-275.81849944558923
 20
329.22706426634102
 30
0.0
 40
10.0
  1
VX01-060M~VX01-200M
  0
ENDSEC
  0
EOF
