  0
SECTION
  2
HEADER
  9
$ACADVER
  1
AC1009
  9
$INSBASE
 10
0.0
 20
0.0
 30
0.0
  9
$EXTMIN
 10
-686.83703127195724
 20
57.933092654759321
 30
-0.0000000000000058
  9
$EXTMAX
 10
-55.262716317627572
 20
523.12192766678106
 30
0.0000000000000104
  9
$LIMMIN
 10
0.0
 20
0.0
  9
$LIMMAX
 10
12.0
 20
9.0
  9
$ORTHOMODE
 70
     0
  9
$REGENMODE
 70
     1
  9
$FILLMODE
 70
     1
  9
$QTEXTMODE
 70
     0
  9
$MIRRTEXT
 70
     1
  9
$DRAGMODE
 70
     2
  9
$LTSCALE
 40
1.0
  9
$OSMODE
 70
   551
  9
$ATTMODE
 70
     1
  9
$TEXTSIZE
 40
0.2
  9
$TRACEWID
 40
0.05
  9
$TEXTSTYLE
  7
STANDARD
  9
$CLAYER
  8
0
  9
$CELTYPE
  6
CONTINUOUS
  9
$CECOLOR
 62
   256
  9
$DIMSCALE
 40
1.0
  9
$DIMASZ
 40
0.18
  9
$DIMEXO
 40
0.0625
  9
$DIMDLI
 40
0.38
  9
$DIMRND
 40
0.0
  9
$DIMDLE
 40
0.0
  9
$DIMEXE
 40
0.18
  9
$DIMTP
 40
0.0
  9
$DIMTM
 40
0.0
  9
$DIMTXT
 40
0.18
  9
$DIMCEN
 40
0.09
  9
$DIMTSZ
 40
0.0
  9
$DIMTOL
 70
     0
  9
$DIMLIM
 70
     0
  9
$DIMTIH
 70
     1
  9
$DIMTOH
 70
     1
  9
$DIMSE1
 70
     0
  9
$DIMSE2
 70
     0
  9
$DIMTAD
 70
     0
  9
$DIMZIN
 70
     0
  9
$DIMBLK
  1

  9
$DIMASO
 70
     1
  9
$DIMSHO
 70
     1
  9
$DIMPOST
  1

  9
$DIMAPOST
  1

  9
$DIMALT
 70
     0
  9
$DIMALTD
 70
     2
  9
$DIMALTF
 40
25.399999999999999
  9
$DIMLFAC
 40
1.0
  9
$DIMTOFL
 70
     0
  9
$DIMTVP
 40
0.0
  9
$DIMTIX
 70
     0
  9
$DIMSOXD
 70
     0
  9
$DIMSAH
 70
     0
  9
$DIMBLK1
  1

  9
$DIMBLK2
  1

  9
$DIMSTYLE
  2
STANDARD
  9
$DIMCLRD
 70
     0
  9
$DIMCLRE
 70
     0
  9
$DIMCLRT
 70
     0
  9
$DIMTFAC
 40
1.0
  9
$DIMGAP
 40
0.09
  9
$LUNITS
 70
     2
  9
$LUPREC
 70
     4
  9
$SKETCHINC
 40
0.1
  9
$FILLETRAD
 40
0.0
  9
$AUNITS
 70
     0
  9
$AUPREC
 70
     0
  9
$MENU
  1
.
  9
$ELEVATION
 40
0.0
  9
$PELEVATION
 40
0.0
  9
$THICKNESS
 40
0.0
  9
$LIMCHECK
 70
     0
  9
$BLIPMODE
 70
     0
  9
$CHAMFERA
 40
0.0
  9
$CHAMFERB
 40
0.0
  9
$SKPOLY
 70
     0
  9
$TDCREATE
 40
2452300.4222428361
  9
$TDUPDATE
 40
2458540.6751355561
  9
$TDINDWG
 40
0.0207223727
  9
$TDUSRTIMER
 40
0.0207223264
  9
$USRTIMER
 70
     1
  9
$ANGBASE
 50
0.0
  9
$ANGDIR
 70
     0
  9
$PDMODE
 70
     0
  9
$PDSIZE
 40
0.0
  9
$PLINEWID
 40
0.0
  9
$COORDS
 70
     1
  9
$SPLFRAME
 70
     0
  9
$SPLINETYPE
 70
     6
  9
$SPLINESEGS
 70
     8
  9
$ATTDIA
 70
     1
  9
$ATTREQ
 70
     1
  9
$HANDLING
 70
     1
  9
$HANDSEED
  5
D88
  9
$SURFTAB1
 70
     6
  9
$SURFTAB2
 70
     6
  9
$SURFTYPE
 70
     6
  9
$SURFU
 70
     6
  9
$SURFV
 70
     6
  9
$UCSNAME
  2

  9
$UCSORG
 10
0.0
 20
0.0
 30
0.0
  9
$UCSXDIR
 10
1.0
 20
0.0
 30
0.0
  9
$UCSYDIR
 10
0.0
 20
1.0
 30
0.0
  9
$PUCSNAME
  2

  9
$PUCSORG
 10
0.0
 20
0.0
 30
0.0
  9
$PUCSXDIR
 10
1.0
 20
0.0
 30
0.0
  9
$PUCSYDIR
 10
0.0
 20
1.0
 30
0.0
  9
$USERI1
 70
     0
  9
$USERI2
 70
     0
  9
$USERI3
 70
     0
  9
$USERI4
 70
     0
  9
$USERI5
 70
     0
  9
$USERR1
 40
0.0
  9
$USERR2
 40
0.0
  9
$USERR3
 40
0.0
  9
$USERR4
 40
0.0
  9
$USERR5
 40
0.0
  9
$WORLDVIEW
 70
     1
  9
$SHADEDGE
 70
     3
  9
$SHADEDIF
 70
    70
  9
$TILEMODE
 70
     1
  9
$MAXACTVP
 70
    64
  9
$PLIMCHECK
 70
     0
  9
$PEXTMIN
 10
1.0000000000000000E+020
 20
1.0000000000000000E+020
 30
1.0000000000000000E+020
  9
$PEXTMAX
 10
-1.0000000000000000E+020
 20
-1.0000000000000000E+020
 30
-1.0000000000000000E+020
  9
$PLIMMIN
 10
0.0
 20
0.0
  9
$PLIMMAX
 10
12.0
 20
9.0
  9
$UNITMODE
 70
     0
  9
$VISRETAIN
 70
     1
  9
$PLINEGEN
 70
     0
  9
$PSLTSCALE
 70
     1
  0
ENDSEC
  0
SECTION
  2
TABLES
  0
TABLE
  2
VPORT
 70
     1
  0
VPORT
  2
*ACTIVE
 70
     0
 10
0.0
 20
0.0
 11
1.0
 21
1.0
 12
-371.04987379479252
 22
290.5275101607703
 13
0.0
 23
0.0
 14
1.0
 24
1.0
 15
0.0
 25
0.0
 16
0.0
 26
0.0
 36
1.0
 17
0.0
 27
0.0
 37
0.0
 40
468.38235104185259
 41
1.7571592210767459
 42
50.0
 43
0.0
 44
0.0
 50
0.0
 51
0.0
 71
     0
 72
   100
 73
     1
 74
     1
 75
     0
 76
     0
 77
     0
 78
     0
  0
ENDTAB
  0
TABLE
  2
LTYPE
 70
    20
  0
LTYPE
  2
CONTINUOUS
 70
     0
  3
Solid line
 72
    65
 73
     0
 40
0.0
  0
LTYPE
  2
DASHED
 70
     0
  3
__ __ __ __ __ __ __ __ __ __ __ __ __ __ __
 72
    65
 73
     2
 40
3.5
 49
2.0
 49
-1.5
  0
LTYPE
  2
CENTER
 70
     0
  3
____ _ ____ _ ____ _ ____ _ ____ _ ____ _ ____
 72
    65
 73
     4
 40
17.5
 49
13.0
 49
-1.5
 49
1.5
 49
-1.5
  0
LTYPE
  2
PHANTOM
 70
     0
  3
_____ _ _ _____ _ _ _____ _ _ _____ _ _ ____  
 72
    65
 73
     6
 40
15.5
 49
8.0
 49
-1.5
 49
1.5
 49
-1.5
 49
1.5
 49
-1.5
  0
LTYPE
  2
DOT
 70
     0
  3
. . . . . . . . . . . . . . . . . . . . . . . .
 72
    65
 73
     2
 40
0.25
 49
0.0
 49
-0.25
  0
LTYPE
  2
AM_ISO02W050
 70
     0
  3
__ __ __ __ __ __ __ __ __ __ __ __ __ __ __
 72
    65
 73
     2
 40
7.5
 49
6.0
 49
-1.5
  0
LTYPE
  2
AM_ISO08W050
 70
     0
  3
____ . ____ . ____ . ____ . ____ . ____ . ____
 72
    65
 73
     4
 40
18.0
 49
12.0
 49
-1.5
 49
3.0
 49
-1.5
  0
LTYPE
  2
AM_ISO09W050
 70
     0
  3
_____ . . _____ . . _____ . . ____ .. ____
 72
    65
 73
     6
 40
22.5
 49
12.0
 49
-1.5
 49
3.0
 49
-1.5
 49
3.0
 49
-1.5
  0
LTYPE
  2
AMCONSTR
 70
     0
  3
_______________________
 72
    65
 73
     2
 40
9999.0
 49
9999.0
 49
0.0
  0
LTYPE
  2
AM_ISO08W050X2
 70
     0
  3
__ . __ . __ . __ . __ . __
 72
    65
 73
     4
 40
9.0
 49
6.0
 49
-0.75
 49
1.5
 49
-0.75
  0
LTYPE
  2
AM_ISO02W050X2
 70
     0
  3
 _ _ _ _ _ _ _ _ _ _ _ _
 72
    65
 73
     2
 40
3.75
 49
3.0
 49
-0.75
  0
LTYPE
  2
AMZIGZAG
 70
     0
  3
/\/-/\/-/\/-/\/-/\/-/\/
 72
    65
 73
     2
 40
11.000099999999991
 49
0.0001
 49
-11.0
  0
LTYPE
  2
HIDDEN
 70
     0
  3
Hidden __ __ __ __ __ __ __ __ __ __ __ __ __ _
 72
    65
 73
     2
 40
0.375
 49
0.25
 49
-0.125
  0
LTYPE
  2
PHANTOM2
 70
     0
  3
Phantom (.5x) ___ _ _ ___ _ _ ___ _ _ ___ _ _
 72
    65
 73
     6
 40
1.25
 49
0.625
 49
-0.125
 49
0.125
 49
-0.125
 49
0.125
 49
-0.125
  0
LTYPE
  2
CENTER2
 70
     0
  3
Center (.5x) ___ _ ___ _ ___ _ ___ _ ___ _ ___
 72
    65
 73
     4
 40
1.125
 49
0.75
 49
-0.125
 49
0.125
 49
-0.125
  0
LTYPE
  2
HIDDEN2
 70
     0
  3
Hidden (.5x) _ _ _ _ _ _ _ _ _ _ _ _ _ _ _ _ _
 72
    65
 73
     2
 40
0.1875
 49
0.125
 49
-0.0625
  0
LTYPE
  2
AMZIGZAG2
 70
     0
  3
/\/-/\/-/\/-/\/-/\/-/\/
 72
    65
 73
     2
 40
0.4401
 49
0.0001
 49
-0.4400000000000003
  0
LTYPE
  2
ACANSTGB
 70
     0
  3
__ . . __ . .
 72
    65
 73
     6
 40
0.35433070866
 49
0.15748031496
 49
-0.03937007874
 49
0.03937007874
 49
-0.03937007874
 49
0.03937007874
 49
-0.03937007874
  0
LTYPE
  2
ACANSTGL
 70
     0
  3
_ _ _ _ _
 72
    65
 73
     2
 40
0.11811023622
 49
0.07874015748
 49
-0.03937007874
  0
ENDTAB
  0
TABLE
  2
LAYER
 70
     1
  0
LAYER
  2
0
 70
     0
 62
     7
  6
CONTINUOUS
  0
ENDTAB
  0
TABLE
  2
STYLE
 70
     5
  0
STYLE
  2
STANDARD
 70
     0
 40
0.0
 41
1.0
 50
0.0
 71
     0
 42
0.2
  3
txt
  4
BIGFONT
  0
STYLE
  2
ANNOTATIVE
 70
     0
 40
0.0
 41
1.0
 50
0.0
 71
     0
 42
0.2
  3
txt
  4

  0
STYLE
  2

 70
     1
 40
0.0
 41
1.0
 50
0.0
 71
     0
 42
0.2
  3
ltypeshp.shx
  4

  0
STYLE
  2
ACANSTS
 70
     0
 40
1.0
 41
1.0
 50
0.0
 71
     0
 42
0.2
  3
romans.shx
  4
extfont.shx
  0
STYLE
  2
ACANSGDT
 70
     0
 40
0.0
 41
1.0
 50
0.0
 71
     0
 42
0.2
  3
amgdt.shx
  4

  0
ENDTAB
  0
TABLE
  2
VIEW
 70
     0
  0
ENDTAB
  0
TABLE
  2
UCS
 70
     0
  0
ENDTAB
  0
TABLE
  2
APPID
 70
    11
  0
APPID
  2
ACAD
 70
     0
  0
APPID
  2
ACADANNOTATIVE
 70
     0
  0
APPID
  2
MCAD_NO_VIS
 70
     0
  0
APPID
  2
ACAD_TEMP_GRAPHIC
 70
     0
  0
APPID
  2
ACATTRIBSERVICES
 70
     0
  0
APPID
  2
DESIGNERASSEMBLIES
 70
     0
  0
APPID
  2
ACAD_DSTYLE_DIMBREAK
 70
     0
  0
APPID
  2
ACAD_DSTYLE_DIMJAG
 70
     0
  0
APPID
  2
ACAD_NAV_VCDISPLAY
 70
     0
  0
APPID
  2
ACAD_EXEMPT_FROM_CAD_STANDARDS
 70
     0
  0
APPID
  2
ACAD_MLEADERVER
 70
     0
  0
ENDTAB
  0
TABLE
  2
DIMSTYLE
 70
     8
  0
DIMSTYLE
  2
STANDARD
 70
     0
  3

  4

  5

  6

  7

 40
1.0
 41
0.18
 42
0.0625
 43
0.38
 44
0.18
 45
0.0
 46
0.0
 47
0.0
 48
0.0
140
0.18
141
0.09
142
0.0
143
25.399999999999999
144
1.0
145
0.0
146
1.0
147
0.09
 71
     0
 72
     0
 73
     1
 74
     1
 75
     0
 76
     0
 77
     0
 78
     0
170
     0
171
     2
172
     0
173
     0
174
     0
175
     0
176
     0
177
     0
178
     0
  0
DIMSTYLE
  2
ANNOTATIVE
 70
     0
  3

  4

  5

  6

  7

 40
1.0
 41
0.18
 42
0.0625
 43
0.38
 44
0.18
 45
0.0
 46
0.0
 47
0.0
 48
0.0
140
0.18
141
0.09
142
0.0
143
25.399999999999999
144
1.0
145
0.0
146
1.0
147
0.09
 71
     0
 72
     0
 73
     1
 74
     1
 75
     0
 76
     0
 77
     0
 78
     0
170
     0
171
     2
172
     0
173
     0
174
     0
175
     0
176
     0
177
     0
178
     0
  0
DIMSTYLE
  2
AM_ANSI
 70
     0
  3

  4
mm
  5

  6

  7

 40
1.0
 41
0.1
 42
0.05
 43
0.5
 44
0.1
 45
0.0
 46
0.0
 47
0.1
 48
0.1
140
0.12
141
0.0
142
0.0
143
25.399999999999999
144
1.0
145
0.0
146
0.71
147
0.06
 71
     0
 72
     0
 73
     1
 74
     1
 75
     0
 76
     0
 77
     0
 78
     7
170
     0
171
     2
172
     0
173
     0
174
     0
175
     0
176
   256
177
   256
178
     2
  0
DIMSTYLE
  2
AM_ANSI$3
 70
     0
  3

  4
mm
  5

  6

  7

 40
1.0
 41
0.1
 42
0.05
 43
0.5
 44
0.1
 45
0.0
 46
0.0
 47
0.1
 48
0.1
140
0.12
141
0.0
142
0.0
143
25.399999999999999
144
1.0
145
0.0
146
0.71
147
0.06
 71
     0
 72
     0
 73
     1
 74
     1
 75
     0
 76
     0
 77
     0
 78
     7
170
     0
171
     2
172
     0
173
     0
174
     0
175
     0
176
   256
177
   256
178
     2
  0
DIMSTYLE
  2
AM_ANSI$4
 70
     0
  3

  4
mm
  5

  6

  7

 40
1.0
 41
0.1
 42
0.05
 43
0.5
 44
0.1
 45
0.0
 46
0.0
 47
0.1
 48
0.1
140
0.12
141
0.0
142
0.0
143
25.399999999999999
144
1.0
145
0.0
146
0.71
147
0.06
 71
     0
 72
     0
 73
     1
 74
     1
 75
     0
 76
     0
 77
     0
 78
     7
170
     0
171
     2
172
     0
173
     0
174
     0
175
     0
176
   256
177
   256
178
     2
  0
DIMSTYLE
  2
AM_ANSI$7
 70
     0
  3

  4
mm
  5

  6

  7

 40
1.0
 41
0.1
 42
0.05
 43
0.5
 44
0.1
 45
0.0
 46
0.0
 47
0.1
 48
0.1
140
0.24
141
0.0
142
0.0
143
25.399999999999999
144
1.0
145
0.0
146
0.71
147
0.06
 71
     0
 72
     0
 73
     1
 74
     1
 75
     0
 76
     0
 77
     0
 78
     7
170
     0
171
     2
172
     0
173
     0
174
     0
175
     0
176
   256
177
   256
178
     2
  0
DIMSTYLE
  2
AM_ANSI$SF
 70
     0
  3

  4
mm
  5

  6

  7

 40
1.0
 41
0.1
 42
0.05
 43
0.5
 44
0.1
 45
0.0
 46
0.0
 47
0.1
 48
0.1
140
0.12
141
0.0
142
0.0
143
25.399999999999999
144
1.0
145
0.0
146
0.71
147
0.06
 71
     0
 72
     0
 73
     1
 74
     1
 75
     1
 76
     1
 77
     0
 78
     7
170
     0
171
     2
172
     0
173
     0
174
     0
175
     0
176
   256
177
   256
178
     2
  0
DIMSTYLE
  2
AM_ANSI$SH
 70
     0
  3

  4
mm
  5

  6

  7

 40
1.0
 41
0.1
 42
0.05
 43
0.5
 44
0.1
 45
0.0
 46
0.0
 47
0.1
 48
0.1
140
0.12
141
0.0
142
0.0
143
25.399999999999999
144
1.0
145
0.0
146
0.71
147
0.06
 71
     0
 72
     0
 73
     1
 74
     1
 75
     1
 76
     1
 77
     0
 78
     7
170
     0
171
     2
172
     0
173
     1
174
     0
175
     0
176
   256
177
   256
178
     2
  0
ENDTAB
  0
ENDSEC
  0
SECTION
  2
BLOCKS
  0
BLOCK
  8
0
  2
$MODEL_SPACE
 70
     0
 10
0.0
 20
0.0
 30
0.0
  3
$MODEL_SPACE
  1

  0
ENDBLK
  5
C93
  8
0
  0
BLOCK
 67
     1
  8
0
  2
$PAPER_SPACE
 70
     0
 10
0.0
 20
0.0
 30
0.0
  3
$PAPER_SPACE
  1

  0
ENDBLK
  5
C8F
 67
     1
  8
0
  0
BLOCK
  8
0
  2
GENAXEH
 70
     0
 10
0.0
 20
0.0
 30
0.0
  3
GENAXEH
  1

  0
LINE
  5
5A3
  8
0
 10
-1.0
 20
0.0
 30
0.0
 11
1.0
 21
0.0
 31
0.0
  0
ENDBLK
  5
5A4
  8
0
  0
BLOCK
  8
0
  2
_ACMFILLEDHALF
 70
     0
 10
0.0
 20
0.0
 30
0.0
  3
_ACMFILLEDHALF
  1

  0
TRACE
  5
B95
  8
0
  6
CONTINUOUS
 62
     0
 10
-0.8
 20
0.0
 30
0.0
 11
-1.0
 21
0.166666666
 31
0.0
 12
0.0
 22
0.0
 32
0.0
 13
0.0
 23
0.0
 33
0.0
  0
LINE
  5
B96
  8
0
  6
CONTINUOUS
 62
     0
 10
-1.0
 20
0.0
 30
0.0
 11
-0.8
 21
0.0
 31
0.0
  0
ENDBLK
  5
B94
  8
0
  0
BLOCK
  8
0
  2
*U4
 70
     1
 10
0.0
 20
0.0
 30
0.0
  3
*U4
  1

  0
TEXT
  5
C1C
  8
0
  6
CONTINUOUS
 62
     0
 10
-0.6666665150994883
 20
-0.6666663659759707
 30
0.0
 40
10.0
  1
ＶＸ０１－００３Ｍ～ＶＸ０１－０５０ＥＭ
  0
ENDBLK
  5
C1E
  8
0
  0
BLOCK
  8
0
  2
*U5
 70
     1
 10
0.0
 20
0.0
 30
0.0
  3
*U5
  1

  0
TEXT
  5
C20
  8
0
  6
CONTINUOUS
 62
     0
 10
-277.36106176965183
 20
283.85202107429268
 30
0.0
 40
10.0
  1
ＶＸ０１－２４０Ｍ～ＶＸ０１－６００Ｍ
  0
ENDBLK
  5
C22
  8
0
  0
ENDSEC
  0
SECTION
  2
ENTITIES
  0
LINE
  5
5A5
  8
0
  6
CENTER
 62
     7
 10
-684.01470999999981
 20
433.09484999999989
 30
0.0
 11
-309.92682000000002
 21
433.09484999999989
 31
0.0
  0
LINE
  5
5A6
  8
0
  6
CONTINUOUS
 62
     7
 10
-359.63382000000001
 20
418.09485000000001
 30
0.0
 11
-356.63382000000001
 21
418.09485000000001
 31
0.0
  0
LINE
  5
5A7
  8
0
  6
CONTINUOUS
 62
     7
 10
-314.63385
 20
447.09485000000001
 30
0.0
 11
-314.63385
 21
419.09485000000001
 31
0.0
  0
LINE
  5
5A8
  8
0
  6
CONTINUOUS
 62
     7
 10
-356.63382000000001
 20
447.09485000000001
 30
0.0
 11
-314.63385
 21
447.09485000000001
 31
0.0
  0
LINE
  5
5A9
  8
0
  6
CONTINUOUS
 62
     7
 10
-356.63382000000001
 20
448.09485000000001
 30
0.0
 11
-356.63382000000001
 21
418.09485000000001
 31
0.0
  0
LINE
  5
5AA
  8
0
  6
CONTINUOUS
 62
     7
 10
-356.63382000000001
 20
419.09485000000001
 30
0.0
 11
-314.63385
 21
419.09485000000001
 31
0.0
  0
LINE
  5
5AB
  8
0
  6
CONTINUOUS
 62
     7
 10
-346.63384999999982
 20
437.09484999999989
 30
0.0
 11
-346.63384999999982
 21
429.09484999999989
 31
0.0
  0
LINE
  5
5AC
  8
0
  6
CONTINUOUS
 62
     7
 10
-359.63382000000001
 20
448.09485000000001
 30
0.0
 11
-356.63382000000001
 21
448.09485000000001
 31
0.0
  0
LINE
  5
5AD
  8
0
  6
CONTINUOUS
 62
     7
 10
-361.66000000000003
 20
462.14792
 30
0.0
 11
-360.60766999999998
 21
462.12035999999989
 31
0.0
  0
LINE
  5
5AE
  8
0
  6
CONTINUOUS
 62
     7
 10
-467.41030999999992
 20
497.41317999999961
 30
0.0
 11
-466.06011999999998
 21
497.05139000000003
 31
0.0
  0
LINE
  5
5AF
  8
0
  6
CONTINUOUS
 62
     7
 10
-469.63382000000001
 20
519.20348999999999
 30
0.0
 11
-469.63382000000001
 21
500.31094000000002
 31
0.0
  0
LINE
  5
5B0
  8
0
  6
CONTINUOUS
 62
     7
 10
-359.63382000000001
 20
518.26080000000002
 30
0.0
 11
-359.63382000000001
 21
491.09484999999989
 31
0.0
  0
LINE
  5
5B1
  8
0
  6
CENTER
 62
     7
 10
-462.67252000000002
 20
508.09484999999989
 30
0.0
 11
-446.87112000000002
 21
508.09484999999989
 31
0.0
  0
LINE
  5
5B2
  8
0
  6
CONTINUOUS
 62
     7
 10
-432.63385
 20
523.09484999999995
 30
0.0
 11
-362.55532999999991
 21
521.25976999999989
 31
0.0
  0
LINE
  5
5B3
  8
0
  6
CONTINUOUS
 62
     7
 10
-466.71233999999998
 20
522.20250999999985
 30
0.0
 11
-432.63382000000001
 21
523.09490999999991
 31
0.0
  0
LINE
  5
5B4
  8
0
  6
CENTER
 62
     7
 10
-454.63382000000001
 20
516.24347
 30
0.0
 11
-454.63382000000001
 21
499.37981999999988
 31
0.0
  0
LINE
  5
5B5
  8
0
  6
CENTER
 62
     7
 10
-374.63382000000001
 20
516.50903000000005
 30
0.0
 11
-374.63382000000001
 21
499.24704000000003
 31
0.0
  0
LINE
  5
5B6
  8
0
  6
CENTER
 62
     7
 10
-382.8689
 20
508.09484999999989
 30
0.0
 11
-366.00521999999989
 21
508.09484999999989
 31
0.0
  0
LINE
  5
5B7
  8
0
  6
CONTINUOUS
 62
     7
 10
-432.63382000000001
 20
517.96221999999977
 30
0.0
 11
-432.63382000000001
 21
515.34575999999993
 31
0.0
  0
LINE
  5
5B8
  8
0
  6
CONTINUOUS
 62
     7
 10
-361.66000000000003
 20
404.04177999999979
 30
0.0
 11
-360.60764
 21
404.06934000000001
 31
0.0
  0
LINE
  5
5B9
  8
0
  6
CONTINUOUS
 62
     7
 10
-469.63382000000001
 20
346.98621000000009
 30
0.0
 11
-469.63382000000001
 21
365.87875000000003
 31
0.0
  0
LINE
  5
5BA
  8
0
  6
CONTINUOUS
 62
     7
 10
-467.41028
 20
368.77652
 30
0.0
 11
-466.06011999999998
 21
369.13830999999988
 31
0.0
  0
LINE
  5
5BB
  8
0
  6
CONTINUOUS
 62
     7
 10
-359.63382000000001
 20
347.92888999999991
 30
0.0
 11
-359.63382000000001
 21
375.09485000000001
 31
0.0
  0
LINE
  5
5BC
  8
0
  6
CENTER
 62
     7
 10
-463.05153999999999
 20
358.09485000000001
 30
0.0
 11
-446.51540999999992
 21
358.09485000000001
 31
0.0
  0
LINE
  5
5BD
  8
0
  6
CONTINUOUS
 62
     7
 10
-432.63382000000001
 20
343.09484999999989
 30
0.0
 11
-362.55529999999999
 21
344.92989999999992
 31
0.0
  0
LINE
  5
5BE
  8
0
  6
CONTINUOUS
 62
     7
 10
-466.71237000000002
 20
343.98723999999999
 30
0.0
 11
-432.63385
 21
343.09484999999989
 31
0.0
  0
LINE
  5
5BF
  8
0
  6
CENTER
 62
     7
 10
-454.63382000000001
 20
349.49761999999993
 30
0.0
 11
-454.63382000000001
 21
365.98739999999992
 31
0.0
  0
LINE
  5
5C0
  8
0
  6
CENTER
 62
     7
 10
-374.63382000000001
 20
349.33715999999993
 30
0.0
 11
-374.63382000000001
 21
366.61496
 31
0.0
  0
LINE
  5
5C1
  8
0
  6
CONTINUOUS
 62
     7
 10
-435.63382000000001
 20
350.84390000000002
 30
0.0
 11
-435.63382000000001
 21
515.34575999999993
 31
0.0
  0
LINE
  5
5C2
  8
0
  6
CONTINUOUS
 62
     7
 10
-362.63382000000001
 20
378.96782999999988
 30
0.0
 11
-362.63382000000001
 21
487.22185999999988
 31
0.0
  0
LINE
  5
5C3
  8
0
  6
CONTINUOUS
 62
     7
 10
-359.63382000000001
 20
461.1207
 30
0.0
 11
-359.63382000000001
 21
405.06900000000002
 31
0.0
  0
LINE
  5
5C4
  8
0
  6
CONTINUOUS
 62
     7
 10
-436.63382000000001
 20
521.96221999999977
 30
0.0
 11
-436.63382000000001
 21
518.61908000000005
 31
0.0
  0
LINE
  5
5C5
  8
0
  6
CONTINUOUS
 62
     7
 10
-346.63384999999982
 20
429.09484999999989
 30
0.0
 11
-314.63385
 21
429.09484999999989
 31
0.0
  0
LINE
  5
5C6
  8
0
  6
CONTINUOUS
 62
     7
 10
-346.63384999999982
 20
437.09484999999989
 30
0.0
 11
-314.63385
 21
437.09484999999989
 31
0.0
  0
LINE
  5
5C7
  8
0
  6
CONTINUOUS
 62
     7
 10
-374.63382000000001
 20
377.92327999999992
 30
0.0
 11
-374.63382000000001
 21
488.26641999999993
 31
0.0
  0
LINE
  5
5C8
  8
0
  6
CONTINUOUS
 62
     7
 10
-365.37237999999979
 20
487.33443999999992
 30
0.0
 11
-371.16782000000001
 21
487.84145999999998
 31
0.0
  0
LINE
  5
5C9
  8
0
  6
CONTINUOUS
 62
     7
 10
-365.37234000000001
 20
378.85525999999999
 30
0.0
 11
-371.16778999999991
 21
378.34823999999998
 31
0.0
  0
LINE
  5
5CA
  8
0
  6
CONTINUOUS
 62
     7
 10
-379.45934999999992
 20
493.26337000000001
 30
0.0
 11
-384.91302000000002
 21
493.45379999999989
 31
0.0
  0
LINE
  5
5CB
  8
0
  6
CONTINUOUS
 62
     7
 10
-379.45931999999988
 20
372.92635999999987
 30
0.0
 11
-384.91302000000002
 21
372.73590000000002
 31
0.0
  0
LINE
  5
5CC
  8
0
  6
CONTINUOUS
 62
     7
 10
-392.63382000000001
 20
349.27492999999993
 30
0.0
 11
-392.63382000000001
 21
364.74077999999992
 31
0.0
  0
LINE
  5
5CD
  8
0
  6
CONTINUOUS
 62
     7
 10
-392.63382000000001
 20
501.44890999999961
 30
0.0
 11
-392.63382000000001
 21
516.91479000000004
 31
0.0
  0
LINE
  5
5CE
  8
0
  6
CONTINUOUS
 62
     7
 10
-435.63382000000001
 20
350.84390000000002
 30
0.0
 11
-432.63382000000001
 21
350.84390000000002
 31
0.0
  0
LINE
  5
5CF
  8
0
  6
CONTINUOUS
 62
     7
 10
-435.63382000000001
 20
515.34575999999993
 30
0.0
 11
-432.63382000000001
 21
515.34575999999993
 31
0.0
  0
LINE
  5
5D0
  8
0
  6
CENTER
 62
     7
 10
-382.86284999999992
 20
358.09485000000001
 30
0.0
 11
-366.01967999999999
 21
358.09485000000001
 31
0.0
  0
LINE
  5
5D1
  8
0
  6
CONTINUOUS
 62
     7
 10
-432.63382000000001
 20
348.22747999999979
 30
0.0
 11
-432.63382000000001
 21
350.84390000000002
 31
0.0
  0
LINE
  5
5D2
  8
0
  6
CONTINUOUS
 62
     7
 10
-436.63382000000001
 20
344.22747999999979
 30
0.0
 11
-436.63382000000001
 21
347.57062000000002
 31
0.0
  0
LINE
  5
5D3
  8
0
  6
CONTINUOUS
 62
     7
 10
-435.63382000000001
 20
350.84390000000002
 30
0.0
 11
-447.80831999999992
 21
351.26904000000002
 31
0.0
  0
LINE
  5
5D4
  8
0
  6
CONTINUOUS
 62
     7
 10
-435.63382000000001
 20
515.34582999999986
 30
0.0
 11
-447.80831999999992
 21
514.92065000000002
 31
0.0
  0
LINE
  5
5D5
  8
0
  6
CONTINUOUS
 62
     7
 10
-452.63382000000001
 20
356.26598999999987
 30
0.0
 11
-452.63382000000001
 21
509.9237099999998
 31
0.0
  0
LINE
  5
5D6
  8
0
  6
CONTINUOUS
 62
     7
 10
-452.63382000000001
 20
492.40334999999999
 30
0.0
 11
-442.63384999999988
 21
492.40334999999999
 31
0.0
  0
LINE
  5
5D7
  8
0
  6
CONTINUOUS
 62
     7
 10
-452.63382000000001
 20
373.78635000000003
 30
0.0
 11
-442.63384999999988
 21
373.78635000000003
 31
0.0
  0
LINE
  5
5D8
  8
0
  6
CONTINUOUS
 62
     7
 10
-442.63384999999988
 20
362.00470000000001
 30
0.0
 11
-442.63384999999988
 21
504.185
 31
0.0
  0
LINE
  5
5D9
  8
0
  6
CONTINUOUS
 62
     7
 10
-479.13382000000001
 20
369.59485000000001
 30
0.0
 11
-479.13382000000001
 21
496.59485000000001
 31
0.0
  0
LINE
  5
5DA
  8
0
  6
CONTINUOUS
 62
     7
 10
-479.13382000000001
 20
485.13482999999968
 30
0.0
 11
-452.63385
 21
485.13482999999968
 31
0.0
  0
LINE
  5
5DB
  8
0
  6
CONTINUOUS
 62
     7
 10
-479.13382000000001
 20
470.24279999999999
 30
0.0
 11
-452.63385
 21
470.24279999999999
 31
0.0
  0
LINE
  5
5DC
  8
0
  6
CONTINUOUS
 62
     7
 10
-479.13378999999998
 20
496.59485000000001
 30
0.0
 11
-455.52910999999989
 21
497.41913
 31
0.0
  0
LINE
  5
5DD
  8
0
  6
CONTINUOUS
 62
     7
 10
-479.13378999999998
 20
369.59485000000001
 30
0.0
 11
-455.52913999999993
 21
368.77053999999998
 31
0.0
  0
LINE
  5
5DE
  8
0
  6
CONTINUOUS
 62
     7
 10
-479.13382000000001
 20
395.94690000000003
 30
0.0
 11
-452.63385
 21
395.94690000000003
 31
0.0
  0
LINE
  5
5DF
  8
0
  6
CONTINUOUS
 62
     7
 10
-479.13382000000001
 20
381.05486999999999
 30
0.0
 11
-452.63385
 21
381.05486999999999
 31
0.0
  0
LINE
  5
5E0
  8
0
  6
CONTINUOUS
 62
     7
 10
-149.28093999999979
 20
187.5479399999999
 30
0.0
 11
-141.28095999999991
 21
187.5479399999999
 31
0.0
  0
LINE
  5
5E1
  8
0
  6
CONTINUOUS
 62
     7
 10
-149.28093999999979
 20
180.54793000000001
 30
0.0
 11
-141.28095999999991
 21
180.54793000000001
 31
0.0
  0
LINE
  5
5E2
  8
0
  6
CONTINUOUS
 62
     7
 10
-141.28095999999991
 20
180.54793000000001
 30
0.0
 11
-141.28095999999991
 21
187.5479399999999
 31
0.0
  0
LINE
  5
5E3
  8
0
  6
CONTINUOUS
 62
     7
 10
-359.63384999999982
 20
185.54793000000001
 30
0.0
 11
-356.63385
 21
185.54793000000001
 31
0.0
  0
LINE
  5
5E4
  8
0
  6
CONTINUOUS
 62
     7
 10
-346.63387999999992
 20
187.5479399999999
 30
0.0
 11
-346.63387999999992
 21
184.5479399999999
 31
0.0
  0
LINE
  5
5E5
  8
0
  6
CONTINUOUS
 62
     7
 10
-346.63387999999992
 20
187.5479399999999
 30
0.0
 11
-314.63385
 21
187.5479399999999
 31
0.0
  0
LINE
  5
5E6
  8
0
  6
CENTER
 62
     7
 10
-466.90692000000001
 20
170.54793000000001
 30
0.0
 11
-309.68610000000001
 21
170.54793000000001
 31
0.0
  0
LINE
  5
5E7
  8
0
  6
CONTINUOUS
 62
     7
 10
-356.63385
 20
156.5479399999999
 30
0.0
 11
-314.63385
 21
156.5479399999999
 31
0.0
  0
LINE
  5
5E8
  8
0
  6
CONTINUOUS
 62
     7
 10
-356.63385
 20
185.54793000000001
 30
0.0
 11
-356.63385
 21
155.54793000000001
 31
0.0
  0
LINE
  5
5E9
  8
0
  6
CONTINUOUS
 62
     7
 10
-356.63385
 20
184.5479399999999
 30
0.0
 11
-314.63385
 21
184.5479399999999
 31
0.0
  0
LINE
  5
5EA
  8
0
  6
CONTINUOUS
 62
     7
 10
-149.28093999999979
 20
180.54793000000001
 30
0.0
 11
-149.28093999999979
 21
187.5479399999999
 31
0.0
  0
LINE
  5
5EB
  8
0
  6
CONTINUOUS
 62
     7
 10
-314.63385
 20
187.5479399999999
 30
0.0
 11
-314.63385
 21
156.5479399999999
 31
0.0
  0
LINE
  5
5EC
  8
0
  6
CONTINUOUS
 62
     7
 10
-359.63384999999982
 20
155.54793000000001
 30
0.0
 11
-356.63385
 21
155.54793000000001
 31
0.0
  0
LINE
  5
5ED
  8
0
  6
CONTINUOUS
 62
     7
 10
-362.63385
 20
81.420906000000016
 30
0.0
 11
-362.63385
 21
206.7989199999999
 31
0.0
  0
LINE
  5
5EE
  8
0
  6
CONTINUOUS
 62
     7
 10
-88.28093699999998
 20
79.547919999999976
 30
0.0
 11
-57.280940999999991
 21
79.547919999999976
 31
0.0
  0
LINE
  5
5EF
  8
0
  6
CONTINUOUS
 62
     7
 10
-235.2809399999999
 20
64.547934999999995
 30
0.0
 11
-235.2809399999999
 21
79.547919999999976
 31
0.0
  0
LINE
  5
5F0
  8
0
  6
CONTINUOUS
 62
     7
 10
-92.280929999999984
 20
66.547927999999999
 30
0.0
 11
-198.28093000000001
 21
66.547927999999999
 31
0.0
  0
LINE
  5
5F1
  8
0
  6
DASHED
 62
     7
 10
-214.2809399999999
 20
79.547919999999976
 30
0.0
 11
-214.2809399999999
 21
64.547934999999995
 31
0.0
  0
LINE
  5
5F2
  8
0
  6
DASHED
 62
     7
 10
-226.28093999999999
 20
79.547919999999976
 30
0.0
 11
-226.28093999999999
 21
64.547934999999995
 31
0.0
  0
LINE
  5
5F3
  8
0
  6
CONTINUOUS
 62
     7
 10
-219.08681000000001
 20
199.70189999999999
 30
0.0
 11
-183.52780000000001
 21
218.74940000000001
 31
0.0
  0
LINE
  5
5F4
  8
0
  6
CONTINUOUS
 62
     7
 10
-386.63384999999988
 20
64.547919999999991
 30
0.0
 11
-386.63384999999988
 21
64.547919999999991
 31
0.0
  0
LINE
  5
5F5
  8
0
  6
CONTINUOUS
 62
     7
 10
-441.63387999999998
 20
65.547919999999991
 30
0.0
 11
-387.63387999999992
 21
65.547919999999991
 31
0.0
  0
LINE
  5
5F6
  8
0
  6
CONTINUOUS
 62
     7
 10
-467.63384999999988
 20
79.547919999999976
 30
0.0
 11
-442.11953999999997
 21
79.547919999999976
 31
0.0
  0
LINE
  5
5F7
  8
0
  6
CONTINUOUS
 62
     7
 10
-359.63384999999982
 20
77.547927999999999
 30
0.0
 11
-359.63384999999982
 21
64.547919999999991
 31
0.0
  0
LINE
  5
5F8
  8
0
  6
CONTINUOUS
 62
     7
 10
-469.63387999999992
 20
64.547919999999991
 30
0.0
 11
-442.63387999999992
 21
64.547919999999991
 31
0.0
  0
LINE
  5
5F9
  8
0
  6
CONTINUOUS
 62
     7
 10
-387.63387999999992
 20
79.547919999999976
 30
0.0
 11
-361.63387999999992
 21
79.547919999999976
 31
0.0
  0
LINE
  5
5FA
  8
0
  6
CENTER
 62
     7
 10
-70.280944999999988
 20
61.745987
 30
0.0
 11
-70.280944999999988
 21
81.102249
 31
0.0
  0
LINE
  5
5FB
  8
0
  6
CENTER
 62
     7
 10
-220.28093999999999
 20
62.071705000000001
 30
0.0
 11
-220.28093999999999
 21
81.734595999999996
 31
0.0
  0
LINE
  5
5FC
  8
0
  6
DASHED
 62
     7
 10
-76.28093699999998
 20
79.547919999999976
 30
0.0
 11
-76.28093699999998
 21
64.547934999999995
 31
0.0
  0
LINE
  5
5FD
  8
0
  6
DASHED
 62
     7
 10
-64.280936999999994
 20
79.547919999999976
 30
0.0
 11
-64.280936999999994
 21
64.547934999999995
 31
0.0
  0
LINE
  5
5FE
  8
0
  6
CONTINUOUS
 62
     7
 10
-55.280932999999997
 20
79.547943000000004
 30
0.0
 11
-64.893096999999983
 21
157.28753999999981
 31
0.0
  0
LINE
  5
5FF
  8
0
  6
CONTINUOUS
 62
     7
 10
-235.2809399999999
 20
79.547927999999985
 30
0.0
 11
-225.66877999999991
 21
157.28755000000001
 31
0.0
  0
LINE
  5
600
  8
0
  6
CONTINUOUS
 62
     7
 10
-382.63387999999992
 20
201.78120000000001
 30
0.0
 11
-374.63385
 21
201.78120000000001
 31
0.0
  0
LINE
  5
601
  8
0
  6
CONTINUOUS
 62
     7
 10
-392.63384999999988
 20
92.161208999999985
 30
0.0
 11
-379.63387999999998
 21
92.161208999999985
 31
0.0
  0
LINE
  5
602
  8
0
  6
CONTINUOUS
 62
     7
 10
-103.28094
 20
71.547927999999999
 30
0.0
 11
-103.28094
 21
72.547934999999981
 31
0.0
  0
LINE
  5
603
  8
0
  6
CONTINUOUS
 62
     7
 10
-91.280936999999994
 20
84.547934999999995
 30
0.0
 11
-91.280936999999994
 21
155.54793000000001
 31
0.0
  0
LINE
  5
604
  8
0
  6
CONTINUOUS
 62
     7
 10
-187.2809399999999
 20
71.547927999999999
 30
0.0
 11
-187.2809399999999
 21
72.547934999999981
 31
0.0
  0
LINE
  5
605
  8
0
  6
CONTINUOUS
 62
     7
 10
-392.63384999999988
 20
84.54791299999998
 30
0.0
 11
-392.63384999999988
 21
191.78121999999999
 31
0.0
  0
LINE
  5
606
  8
0
  6
CONTINUOUS
 62
     7
 10
-386.63384999999988
 20
64.547919999999991
 30
0.0
 11
-359.63384999999982
 21
64.547919999999991
 31
0.0
  0
LINE
  5
607
  8
0
  6
DASHED
 62
     7
 10
-368.63385
 20
79.547919999999976
 30
0.0
 11
-368.63385
 21
64.547919999999991
 31
0.0
  0
LINE
  5
608
  8
0
  6
DASHED
 62
     7
 10
-460.63387999999992
 20
79.547919999999976
 30
0.0
 11
-460.63387999999992
 21
64.547919999999991
 31
0.0
  0
LINE
  5
609
  8
0
  6
DASHED
 62
     7
 10
-448.63387999999992
 20
79.547919999999976
 30
0.0
 11
-448.63387999999992
 21
64.547919999999991
 31
0.0
  0
LINE
  5
60A
  8
0
  6
DASHED
 62
     7
 10
-380.63384999999988
 20
79.547919999999976
 30
0.0
 11
-380.63384999999988
 21
64.547919999999991
 31
0.0
  0
LINE
  5
60B
  8
0
  6
CONTINUOUS
 62
     7
 10
-432.63387999999998
 20
117.01675
 30
0.0
 11
-432.63387999999998
 21
152.33658
 31
0.0
  0
LINE
  5
60C
  8
0
  6
CONTINUOUS
 62
     7
 10
-370.06966999999992
 20
210.19846000000001
 30
0.0
 11
-365.37241
 21
209.78750999999991
 31
0.0
  0
LINE
  5
60D
  8
0
  6
CONTINUOUS
 62
     7
 10
-85.280936999999966
 20
118.34792
 30
0.0
 11
-85.280936999999966
 21
199.79789999999991
 31
0.0
  0
LINE
  5
60E
  8
0
  6
CONTINUOUS
 62
     7
 10
-199.2809399999999
 20
84.547934999999995
 30
0.0
 11
-199.2809399999999
 21
155.54793000000001
 31
0.0
  0
LINE
  5
60F
  8
0
  6
CONTINUOUS
 62
     7
 10
-182.28093000000001
 20
77.547927999999999
 30
0.0
 11
-108.2809399999999
 21
77.547927999999999
 31
0.0
  0
LINE
  5
610
  8
0
  6
CONTINUOUS
 62
     7
 10
-200.28093000000001
 20
64.547934999999995
 30
0.0
 11
-200.28093000000001
 21
77.547927999999999
 31
0.0
  0
LINE
  5
611
  8
0
  6
CONTINUOUS
 62
     7
 10
-200.28093000000001
 20
64.547934999999995
 30
0.0
 11
-235.2809399999999
 21
64.547934999999995
 31
0.0
  0
LINE
  5
612
  8
0
  6
CONTINUOUS
 62
     7
 10
-90.280936999999994
 20
64.547934999999995
 30
0.0
 11
-55.280937000000002
 21
64.547934999999995
 31
0.0
  0
LINE
  5
613
  8
0
  6
CONTINUOUS
 62
     7
 10
-90.280936999999994
 20
64.547934999999995
 30
0.0
 11
-90.280936999999994
 21
77.547927999999999
 31
0.0
  0
LINE
  5
614
  8
0
  6
CONTINUOUS
 62
     7
 10
-55.280937000000002
 20
64.547934999999995
 30
0.0
 11
-55.280937000000002
 21
79.547919999999976
 31
0.0
  0
LINE
  5
615
  8
0
  6
CONTINUOUS
 62
     7
 10
-374.63385
 20
97.161224000000004
 30
0.0
 11
-374.63385
 21
221.87980999999991
 31
0.0
  0
LINE
  5
616
  8
0
  6
CONTINUOUS
 62
     7
 10
-469.63387999999992
 20
77.547927999999999
 30
0.0
 11
-469.63387999999992
 21
64.547919999999991
 31
0.0
  0
LINE
  5
617
  8
0
  6
CENTER
 62
     7
 10
-181.35903999999999
 20
170.54793000000001
 30
0.0
 11
-109.02266999999991
 21
170.54793000000001
 31
0.0
  0
LINE
  5
618
  8
0
  6
CENTER
 62
     7
 10
-145.2809399999999
 20
57.940334
 30
0.0
 11
-145.2809399999999
 21
237.0887799999999
 31
0.0
  0
LINE
  5
619
  8
0
  6
CENTER
 62
     7
 10
-374.63391000000001
 20
81.539742000000004
 30
0.0
 11
-374.63391000000001
 21
62.093406999999992
 31
0.0
  0
LINE
  5
61A
  8
0
  6
CENTER
 62
     7
 10
-454.63387999999998
 20
81.345382999999998
 30
0.0
 11
-454.63387999999998
 21
61.832381999999988
 31
0.0
  0
LINE
  5
61B
  8
0
  6
CONTINUOUS
 62
     7
 10
-202.2809399999999
 20
79.547919999999976
 30
0.0
 11
-233.28093000000001
 21
79.547919999999976
 31
0.0
  0
LINE
  5
61C
  8
0
  6
CONTINUOUS
 62
     7
 10
-435.63390999999962
 20
228.3479199999999
 30
0.0
 11
-379.50299000000001
 21
226.87808000000001
 31
0.0
  0
LINE
  5
61D
  8
0
  6
CONTINUOUS
 62
     7
 10
-55.280940999999999
 20
79.547919999999976
 30
0.0
 11
-63.072082999999999
 21
186.75762999999981
 31
0.0
  0
LINE
  5
61E
  8
0
  6
CONTINUOUS
 62
     7
 10
-71.475052000000019
 20
199.70193
 30
0.0
 11
-107.03406
 21
218.74943999999991
 31
0.0
  0
LINE
  5
61F
  8
0
  6
CONTINUOUS
 62
     7
 10
-359.63384999999982
 20
142.5220799999999
 30
0.0
 11
-359.63384999999982
 21
198.57378
 31
0.0
  0
LINE
  5
620
  8
0
  6
CONTINUOUS
 62
     7
 10
-361.66005999999987
 20
141.4948599999999
 30
0.0
 11
-360.60770000000002
 21
141.5224199999999
 31
0.0
  0
LINE
  5
621
  8
0
  6
CONTINUOUS
 62
     7
 10
-361.66005999999987
 20
199.6009699999999
 30
0.0
 11
-360.60772999999989
 21
199.57340999999991
 31
0.0
  0
LINE
  5
622
  8
0
  6
CONTINUOUS
 62
     7
 10
-432.72098
 20
116.0872699999998
 30
0.0
 11
-439.17177999999961
 21
81.990250000000003
 31
0.0
  0
LINE
  5
623
  8
0
  6
CONTINUOUS
 62
     7
 10
-235.2809399999999
 20
79.547927999999985
 30
0.0
 11
-227.48981000000001
 21
186.7576099999998
 31
0.0
  0
LINE
  5
624
  8
0
  6
CONTINUOUS
 62
     7
 10
-442.63387999999992
 20
64.547919999999991
 30
0.0
 11
-442.63387999999992
 21
64.547919999999991
 31
0.0
  0
LINE
  5
625
  8
0
  6
CONTINUOUS
 62
     7
 10
-435.63387999999992
 20
228.34792999999991
 30
0.0
 11
-435.63387999999992
 21
100.69079000000001
 31
0.0
  0
LINE
  5
626
  8
0
  6
CONTINUOUS
 62
     7
 10
-479.13387999999998
 20
95.847922999999994
 30
0.0
 11
-452.63385
 21
95.847922999999994
 31
0.0
  0
LINE
  5
627
  8
0
  6
CONTINUOUS
 62
     7
 10
-479.13387999999998
 20
110.2
 30
0.0
 11
-452.63385
 21
110.2
 31
0.0
  0
LINE
  5
628
  8
0
  6
CONTINUOUS
 62
     7
 10
-452.63385
 20
218.1702699999999
 30
0.0
 11
-452.63385
 21
79.547919999999976
 31
0.0
  0
LINE
  5
629
  8
0
  6
CONTINUOUS
 62
     7
 10
-447.80835000000002
 20
223.1672199999999
 30
0.0
 11
-447.16320999999988
 21
223.18975999999989
 31
0.0
  0
LINE
  5
62A
  8
0
  6
CONTINUOUS
 62
     7
 10
-479.13387999999998
 20
198.84792999999999
 30
0.0
 11
-452.63385
 21
198.84792999999999
 31
0.0
  0
LINE
  5
62B
  8
0
  6
CONTINUOUS
 62
     7
 10
-456.35302999999999
 20
211.69215
 30
0.0
 11
-455.11295000000001
 21
211.91081
 31
0.0
  0
LINE
  5
62C
  8
0
  6
CONTINUOUS
 62
     7
 10
-456.49080999999961
 20
83.028023000000005
 30
0.0
 11
-455.11291999999997
 21
82.785056999999981
 31
0.0
  0
LINE
  5
62D
  8
0
  6
CONTINUOUS
 62
     7
 10
-435.63390999999962
 20
228.34792999999991
 30
0.0
 11
-440.70366999999987
 21
228.1708999999999
 31
0.0
  0
LINE
  5
62E
  8
0
  6
CONTINUOUS
 62
     7
 10
-442.63387999999992
 20
226.17212000000001
 30
0.0
 11
-442.63387999999992
 21
203.68200999999991
 31
0.0
  0
LINE
  5
62F
  8
0
  6
CONTINUOUS
 62
     7
 10
-479.13387999999998
 20
83.847938999999982
 30
0.0
 11
-456.90703999999999
 21
83.071761999999978
 31
0.0
  0
LINE
  5
630
  8
0
  6
CONTINUOUS
 62
     7
 10
-479.13387999999998
 20
210.84791999999999
 30
0.0
 11
-457.04674999999992
 21
211.6192199999999
 31
0.0
  0
LINE
  5
631
  8
0
  6
CONTINUOUS
 62
     7
 10
-479.13387999999998
 20
184.49585999999999
 30
0.0
 11
-452.63385
 21
184.49585999999999
 31
0.0
  0
LINE
  5
632
  8
0
  6
CONTINUOUS
 62
     7
 10
-450.63387999999992
 20
180.49715
 30
0.0
 11
-444.63387999999992
 21
180.49715
 31
0.0
  0
LINE
  5
633
  8
0
  6
CONTINUOUS
 62
     7
 10
-450.63387999999992
 20
201.68200999999991
 30
0.0
 11
-444.63387999999992
 21
201.68200999999991
 31
0.0
  0
LINE
  5
634
  8
0
  6
CONTINUOUS
 62
     7
 10
-451.71840999999989
 20
174.0200199999999
 30
0.0
 11
-444.63387999999992
 21
174.0200199999999
 31
0.0
  0
LINE
  5
635
  8
0
  6
CONTINUOUS
 62
     7
 10
-450.63387999999992
 20
85.803946999999965
 30
0.0
 11
-444.63387999999992
 21
85.803946999999965
 31
0.0
  0
LINE
  5
636
  8
0
  6
CONTINUOUS
 62
     7
 10
-442.63387999999992
 20
178.49713
 30
0.0
 11
-442.63387999999992
 21
87.803939999999983
 31
0.0
  0
LINE
  5
637
  8
0
  6
CENTER
 62
     7
 10
-606.63391000000001
 20
210.94176999999991
 30
0.0
 11
-606.63391000000001
 21
129.69521
 31
0.0
  0
LINE
  5
638
  8
0
  6
CONTINUOUS
 62
     3
 10
-649.63440000000003
 20
138.84816000000001
 30
0.0
 11
-649.63440000000003
 21
142.34816000000001
 31
0.0
  0
LINE
  5
639
  8
0
  6
CONTINUOUS
 62
     3
 10
-634.63385000000005
 20
138.84816000000001
 30
0.0
 11
-634.63385000000005
 21
142.34816000000001
 31
0.0
  0
LINE
  5
63A
  8
0
  6
CONTINUOUS
 62
     3
 10
-634.63385000000005
 20
140.84816000000001
 30
0.0
 11
-575.13391000000001
 21
140.84816000000001
 31
0.0
  0
LINE
  5
63B
  8
0
  6
CONTINUOUS
 62
     3
 10
-634.63385000000005
 20
203.84766999999991
 30
0.0
 11
-575.13391000000001
 21
203.84766999999991
 31
0.0
  0
LINE
  5
63C
  8
0
  6
CONTINUOUS
 62
     3
 10
-657.13440000000003
 20
164.84766999999991
 30
0.0
 11
-653.63433999999995
 21
164.84766999999991
 31
0.0
  0
LINE
  5
63D
  8
0
  6
CONTINUOUS
 62
     3
 10
-634.63385000000005
 20
138.84816000000001
 30
0.0
 11
-649.63440000000003
 21
138.84816000000001
 31
0.0
  0
LINE
  5
63E
  8
0
  6
CONTINUOUS
 62
     7
 10
-576.63391000000001
 20
200.84790000000001
 30
0.0
 11
-576.63391000000001
 21
143.84790000000001
 31
0.0
  0
LINE
  5
63F
  8
0
  6
CONTINUOUS
 62
     7
 10
-555.63391000000001
 20
228.3479199999999
 30
0.0
 11
-555.63391000000001
 21
116.34791
 31
0.0
  0
LINE
  5
640
  8
0
  6
CONTINUOUS
 62
     7
 10
-565.86382999999978
 20
202.34790000000001
 30
0.0
 11
-565.86382999999978
 21
142.34790000000001
 31
0.0
  0
LINE
  5
641
  8
0
  6
CONTINUOUS
 62
     7
 10
-677.63391000000001
 20
220.36426
 30
0.0
 11
-677.63391000000001
 21
177.3479199999999
 31
0.0
  0
LINE
  5
642
  8
0
  6
CONTINUOUS
 62
     7
 10
-675.36565999999982
 20
222.09728999999999
 30
0.0
 11
-673.13391000000001
 21
222.09728999999999
 31
0.0
  0
LINE
  5
643
  8
0
  6
CONTINUOUS
 62
     7
 10
-675.42920000000004
 20
208.03711999999999
 30
0.0
 11
-673.33385999999985
 21
208.03711999999999
 31
0.0
  0
LINE
  5
644
  8
0
  6
CONTINUOUS
 62
     7
 10
-675.86603000000002
 20
221.96300999999991
 30
0.0
 11
-677.13422000000003
 21
221.23006000000001
 31
0.0
  0
LINE
  5
645
  8
0
  6
CONTINUOUS
 62
     7
 10
-675.87145999999996
 20
219.84701999999999
 30
0.0
 11
-677.14844000000016
 21
219.08072000000001
 31
0.0
  0
LINE
  5
646
  8
0
  6
CONTINUOUS
 62
     7
 10
-675.88360999999986
 20
215.30906999999991
 30
0.0
 11
-677.18224999999995
 21
214.45750000000001
 31
0.0
  0
LINE
  5
647
  8
0
  6
CONTINUOUS
 62
     7
 10
-675.82208000000003
 20
207.9567899999999
 30
0.0
 11
-677.02661000000001
 21
207.44232
 31
0.0
  0
LINE
  5
648
  8
0
  6
CONTINUOUS
 62
     7
 10
-675.35680999999977
 20
219.98952
 30
0.0
 11
-672.63385000000005
 21
219.98952
 31
0.0
  0
LINE
  5
649
  8
0
  6
CONTINUOUS
 62
     7
 10
-675.33520999999985
 20
215.4727799999998
 30
0.0
 11
-672.63385000000005
 21
215.4727799999998
 31
0.0
  0
LINE
  5
64A
  8
0
  6
CONTINUOUS
 62
     7
 10
-675.48352
 20
206.09099999999981
 30
0.0
 11
-673.63385000000017
 21
206.09099999999981
 31
0.0
  0
LINE
  5
64B
  8
0
  6
CONTINUOUS
 62
     7
 10
-675.36255000000006
 20
214.33284
 30
0.0
 11
-673.63385000000017
 21
214.33284
 31
0.0
  0
LINE
  5
64C
  8
0
  6
CONTINUOUS
 62
     7
 10
-675.38518999999985
 20
218.84954999999999
 30
0.0
 11
-673.63385000000017
 21
218.84954999999999
 31
0.0
  0
LINE
  5
64D
  8
0
  6
CONTINUOUS
 62
     7
 10
-675.39458999999965
 20
220.95099999999991
 30
0.0
 11
-673.13391000000001
 21
220.95099999999991
 31
0.0
  0
LINE
  5
64E
  8
0
  6
CONTINUOUS
 62
     7
 10
-675.86797999999999
 20
214.1956799999999
 30
0.0
 11
-677.13927999999999
 21
213.45102
 31
0.0
  0
LINE
  5
64F
  8
0
  6
CONTINUOUS
 62
     7
 10
-675.77759000000003
 20
206.04683
 30
0.0
 11
-676.92785999999978
 21
205.6930099999999
 31
0.0
  0
LINE
  5
650
  8
0
  6
CONTINUOUS
 62
     7
 10
-675.84722999999997
 20
220.8426799999998
 30
0.0
 11
-677.08649000000003
 21
220.21367000000001
 31
0.0
  0
LINE
  5
651
  8
0
  6
CONTINUOUS
 62
     7
 10
-675.85351999999978
 20
218.73305999999999
 30
0.0
 11
-677.10217
 21
218.0712
 31
0.0
  0
LINE
  5
652
  8
0
  6
CONTINUOUS
 62
     7
 10
-673.63385000000017
 20
198.3479199999999
 30
0.0
 11
-676.63385000000005
 21
198.3479199999999
 31
0.0
  0
LINE
  5
653
  8
0
  6
CONTINUOUS
 62
     7
 10
-673.63385000000017
 20
196.34790000000001
 30
0.0
 11
-676.63385000000005
 21
196.34790000000001
 31
0.0
  0
LINE
  5
654
  8
0
  6
CONTINUOUS
 62
     7
 10
-673.63385000000017
 20
188.34790000000001
 30
0.0
 11
-676.63385000000005
 21
188.34790000000001
 31
0.0
  0
LINE
  5
655
  8
0
  6
CONTINUOUS
 62
     7
 10
-673.63385000000017
 20
186.34791999999999
 30
0.0
 11
-676.63385000000005
 21
186.34791999999999
 31
0.0
  0
LINE
  5
656
  8
0
  6
CONTINUOUS
 62
     7
 10
-673.63385000000017
 20
178.3478999999999
 30
0.0
 11
-676.63385000000005
 21
178.3478999999999
 31
0.0
  0
LINE
  5
657
  8
0
  6
CONTINUOUS
 62
     7
 10
-673.63385000000017
 20
176.34790000000001
 30
0.0
 11
-676.63385000000005
 21
176.34790000000001
 31
0.0
  0
LINE
  5
658
  8
0
  6
CONTINUOUS
 62
     7
 10
-675.63385000000005
 20
187.95502999999999
 30
0.0
 11
-675.63385000000005
 21
186.7436099999999
 31
0.0
  0
LINE
  5
659
  8
0
  6
CONTINUOUS
 62
     7
 10
-675.63385000000005
 20
177.96114
 30
0.0
 11
-675.63385000000005
 21
176.80025000000001
 31
0.0
  0
LINE
  5
65A
  8
0
  6
CONTINUOUS
 62
     7
 10
-675.63385000000005
 20
197.97406000000001
 30
0.0
 11
-675.63385000000005
 21
196.61126999999999
 31
0.0
  0
LINE
  5
65B
  8
0
  6
CONTINUOUS
 62
     7
 10
-675.63385000000005
 20
207.74078
 30
0.0
 11
-675.63385000000005
 21
206.6808599999998
 31
0.0
  0
LINE
  5
65C
  8
0
  6
CONTINUOUS
 62
     7
 10
-675.63385000000005
 20
215.17833999999991
 30
0.0
 11
-675.63385000000005
 21
214.70618999999999
 31
0.0
  0
LINE
  5
65D
  8
0
  6
CONTINUOUS
 62
     7
 10
-675.63385000000005
 20
219.74445
 30
0.0
 11
-675.63385000000005
 21
219.19835999999989
 31
0.0
  0
LINE
  5
65E
  8
0
  6
CONTINUOUS
 62
     7
 10
-675.63385000000005
 20
221.84406000000001
 30
0.0
 11
-675.63385000000005
 21
221.31831
 31
0.0
  0
LINE
  5
65F
  8
0
  6
CONTINUOUS
 62
     7
 10
-679.13391000000001
 20
192.3479199999999
 30
0.0
 11
-679.13391000000001
 21
172.34790000000001
 31
0.0
  0
LINE
  5
660
  8
0
  6
CONTINUOUS
 62
     7
 10
-679.13385000000005
 20
192.34790000000001
 30
0.0
 11
-677.63385000000005
 21
192.47914
 31
0.0
  0
LINE
  5
661
  8
0
  6
CONTINUOUS
 62
     7
 10
-679.13391000000001
 20
187.49791999999999
 30
0.0
 11
-674.45636000000002
 21
187.49791999999999
 31
0.0
  0
LINE
  5
662
  8
0
  6
CONTINUOUS
 62
     7
 10
-679.13391000000001
 20
189.62989999999991
 30
0.0
 11
-677.63391000000001
 21
189.62989999999991
 31
0.0
  0
LINE
  5
663
  8
0
  6
CONTINUOUS
 62
     7
 10
-562.28949
 20
208.34790000000001
 30
0.0
 11
-661.26849000000004
 21
208.34790000000001
 31
0.0
  0
LINE
  5
664
  8
0
  6
CONTINUOUS
 62
     7
 10
-562.28949
 20
206.34790000000001
 30
0.0
 11
-661.26849000000004
 21
206.34790000000001
 31
0.0
  0
LINE
  5
665
  8
0
  6
CONTINUOUS
 62
     7
 10
-655.13433999999995
 20
198.3479199999999
 30
0.0
 11
-661.26849000000004
 21
198.3479199999999
 31
0.0
  0
LINE
  5
666
  8
0
  6
CONTINUOUS
 62
     7
 10
-655.13433999999995
 20
196.34790000000001
 30
0.0
 11
-661.26849000000004
 21
196.34790000000001
 31
0.0
  0
LINE
  5
667
  8
0
  6
CONTINUOUS
 62
     7
 10
-655.13433999999995
 20
188.34790000000001
 30
0.0
 11
-661.26849000000004
 21
188.34790000000001
 31
0.0
  0
LINE
  5
668
  8
0
  6
CONTINUOUS
 62
     7
 10
-655.13433999999995
 20
186.34791999999999
 30
0.0
 11
-661.26849000000004
 21
186.34791999999999
 31
0.0
  0
LINE
  5
669
  8
0
  6
CONTINUOUS
 62
     7
 10
-657.13440000000003
 20
178.3478999999999
 30
0.0
 11
-661.26849000000004
 21
178.3478999999999
 31
0.0
  0
LINE
  5
66A
  8
0
  6
CONTINUOUS
 62
     7
 10
-657.13440000000003
 20
176.34790000000001
 30
0.0
 11
-661.26849000000004
 21
176.34790000000001
 31
0.0
  0
LINE
  5
66B
  8
0
  6
CONTINUOUS
 62
     7
 10
-661.95659999999975
 20
209.07093999999981
 30
0.0
 11
-558.81177000000002
 21
209.07093999999981
 31
0.0
  0
LINE
  5
66C
  8
0
  6
CONTINUOUS
 62
     7
 10
-661.95659999999975
 20
205.71508999999989
 30
0.0
 11
-649.63440000000003
 21
205.71508999999989
 31
0.0
  0
LINE
  5
66D
  8
0
  6
CONTINUOUS
 62
     7
 10
-662.1723599999998
 20
198.83405999999991
 30
0.0
 11
-655.13433999999995
 21
198.83405999999991
 31
0.0
  0
LINE
  5
66E
  8
0
  6
CONTINUOUS
 62
     7
 10
-662.1723599999998
 20
195.91107
 30
0.0
 11
-655.13433999999995
 21
195.91107
 31
0.0
  0
LINE
  5
66F
  8
0
  6
CONTINUOUS
 62
     7
 10
-662.30291999999963
 20
188.69140999999999
 30
0.0
 11
-655.13433999999995
 21
188.69140999999999
 31
0.0
  0
LINE
  5
670
  8
0
  6
CONTINUOUS
 62
     7
 10
-662.30291999999963
 20
186.02954
 30
0.0
 11
-655.13433999999995
 21
186.02954
 31
0.0
  0
LINE
  5
671
  8
0
  6
CONTINUOUS
 62
     7
 10
-662.36492999999984
 20
178.62067999999991
 30
0.0
 11
-657.13440000000003
 21
178.62067999999991
 31
0.0
  0
LINE
  5
672
  8
0
  6
CONTINUOUS
 62
     7
 10
-662.36492999999984
 20
176.08284
 30
0.0
 11
-657.13440000000003
 21
176.08284
 31
0.0
  0
LINE
  5
673
  8
0
  6
CONTINUOUS
 62
     7
 10
-558.81177000000002
 20
205.71508999999989
 30
0.0
 11
-575.33385999999985
 21
205.71508999999989
 31
0.0
  0
LINE
  5
674
  8
0
  6
CONTINUOUS
 62
     7
 10
-576.33385999999985
 20
204.71509
 30
0.0
 11
-576.33385999999985
 21
203.84766999999991
 31
0.0
  0
LINE
  5
675
  8
0
  6
CONTINUOUS
 62
     7
 10
-662.36492999999984
 20
168.61292
 30
0.0
 11
-657.13440000000003
 21
168.61292
 31
0.0
  0
LINE
  5
676
  8
0
  6
CONTINUOUS
 62
     7
 10
-657.13440000000003
 20
168.34791999999979
 30
0.0
 11
-661.26849000000004
 21
168.34791999999979
 31
0.0
  0
LINE
  5
677
  8
0
  6
CONTINUOUS
 62
     7
 10
-657.13440000000003
 20
166.34790000000001
 30
0.0
 11
-661.26849000000004
 21
166.34790000000001
 31
0.0
  0
LINE
  5
678
  8
0
  6
CONTINUOUS
 62
     7
 10
-662.36492999999984
 20
166.0750699999999
 30
0.0
 11
-657.13440000000003
 21
166.0750699999999
 31
0.0
  0
LINE
  5
679
  8
0
  6
CONTINUOUS
 62
     7
 10
-662.30291999999963
 20
158.66625999999991
 30
0.0
 11
-655.13433999999995
 21
158.66625999999991
 31
0.0
  0
LINE
  5
67A
  8
0
  6
CONTINUOUS
 62
     7
 10
-655.13433999999995
 20
158.34791999999999
 30
0.0
 11
-661.26849000000004
 21
158.34791999999999
 31
0.0
  0
LINE
  5
67B
  8
0
  6
CONTINUOUS
 62
     7
 10
-655.13433999999995
 20
156.3479199999999
 30
0.0
 11
-661.26849000000004
 21
156.3479199999999
 31
0.0
  0
LINE
  5
67C
  8
0
  6
CONTINUOUS
 62
     7
 10
-662.30291999999963
 20
156.00441000000001
 30
0.0
 11
-655.13433999999995
 21
156.00441000000001
 31
0.0
  0
LINE
  5
67D
  8
0
  6
CONTINUOUS
 62
     7
 10
-655.13433999999995
 20
148.34790000000001
 30
0.0
 11
-661.26849000000004
 21
148.34790000000001
 31
0.0
  0
LINE
  5
67E
  8
0
  6
CONTINUOUS
 62
     7
 10
-662.17229999999995
 20
148.78467999999981
 30
0.0
 11
-655.13433999999995
 21
148.78467999999981
 31
0.0
  0
LINE
  5
67F
  8
0
  6
CONTINUOUS
 62
     7
 10
-655.13433999999995
 20
146.3479199999999
 30
0.0
 11
-661.26849000000004
 21
146.3479199999999
 31
0.0
  0
LINE
  5
680
  8
0
  6
CONTINUOUS
 62
     7
 10
-662.17229999999995
 20
145.86168999999981
 30
0.0
 11
-655.13433999999995
 21
145.86168999999981
 31
0.0
  0
LINE
  5
681
  8
0
  6
CONTINUOUS
 62
     7
 10
-562.28949
 20
138.3479199999999
 30
0.0
 11
-606.63391000000001
 21
138.3479199999999
 31
0.0
  0
LINE
  5
682
  8
0
  6
CONTINUOUS
 62
     7
 10
-562.28949
 20
136.34790000000001
 30
0.0
 11
-606.63391000000001
 21
136.34790000000001
 31
0.0
  0
LINE
  5
683
  8
0
  6
CONTINUOUS
 62
     7
 10
-661.95592999999985
 20
135.62482
 30
0.0
 11
-606.63391000000001
 21
135.62482
 31
0.0
  0
LINE
  5
684
  8
0
  6
CONTINUOUS
 62
     7
 10
-575.13391000000001
 20
142.08225999999991
 30
0.0
 11
-565.86388999999986
 21
142.34788999999981
 31
0.0
  0
LINE
  5
685
  8
0
  6
CONTINUOUS
 62
     7
 10
-576.33385999999985
 20
139.98067
 30
0.0
 11
-576.33385999999985
 21
140.84816000000001
 31
0.0
  0
LINE
  5
686
  8
0
  6
CONTINUOUS
 62
     7
 10
-558.81177000000002
 20
138.98067
 30
0.0
 11
-575.33385999999985
 21
138.98067
 31
0.0
  0
LINE
  5
687
  8
0
  6
CONTINUOUS
 62
     7
 10
-675.42920000000004
 20
136.6586299999999
 30
0.0
 11
-673.33385999999985
 21
136.6586299999999
 31
0.0
  0
LINE
  5
688
  8
0
  6
CONTINUOUS
 62
     7
 10
-675.82202000000018
 20
136.73901000000001
 30
0.0
 11
-677.02666999999985
 21
137.25352000000001
 31
0.0
  0
LINE
  5
689
  8
0
  6
CONTINUOUS
 62
     7
 10
-675.48352
 20
138.60474999999991
 30
0.0
 11
-673.63385000000017
 21
138.60474999999991
 31
0.0
  0
LINE
  5
68A
  8
0
  6
CONTINUOUS
 62
     7
 10
-675.77752999999996
 20
138.64896999999999
 30
0.0
 11
-676.92791999999963
 21
139.0028199999999
 31
0.0
  0
LINE
  5
68B
  8
0
  6
CONTINUOUS
 62
     7
 10
-673.63385000000017
 20
146.3479199999999
 30
0.0
 11
-676.63385000000005
 21
146.3479199999999
 31
0.0
  0
LINE
  5
68C
  8
0
  6
CONTINUOUS
 62
     7
 10
-673.63385000000017
 20
148.34790000000001
 30
0.0
 11
-676.63385000000005
 21
148.34790000000001
 31
0.0
  0
LINE
  5
68D
  8
0
  6
CONTINUOUS
 62
     7
 10
-673.63385000000017
 20
156.3479199999999
 30
0.0
 11
-676.63385000000005
 21
156.3479199999999
 31
0.0
  0
LINE
  5
68E
  8
0
  6
CONTINUOUS
 62
     7
 10
-675.63385000000005
 20
166.73462000000001
 30
0.0
 11
-675.63385000000005
 21
167.89551
 31
0.0
  0
LINE
  5
68F
  8
0
  6
CONTINUOUS
 62
     7
 10
-673.63385000000017
 20
158.34791999999999
 30
0.0
 11
-676.63385000000005
 21
158.34791999999999
 31
0.0
  0
LINE
  5
690
  8
0
  6
CONTINUOUS
 62
     7
 10
-673.63385000000017
 20
166.34790000000001
 30
0.0
 11
-676.63385000000005
 21
166.34790000000001
 31
0.0
  0
LINE
  5
691
  8
0
  6
CONTINUOUS
 62
     7
 10
-673.63385000000017
 20
168.34791999999979
 30
0.0
 11
-676.63385000000005
 21
168.34791999999979
 31
0.0
  0
LINE
  5
692
  8
0
  6
CONTINUOUS
 62
     7
 10
-675.63385000000005
 20
156.74080000000001
 30
0.0
 11
-675.63385000000005
 21
157.95214999999999
 31
0.0
  0
LINE
  5
693
  8
0
  6
CONTINUOUS
 62
     7
 10
-675.63385000000005
 20
146.72168999999991
 30
0.0
 11
-675.63385000000005
 21
148.08455000000001
 31
0.0
  0
LINE
  5
694
  8
0
  6
CONTINUOUS
 62
     7
 10
-675.63385000000005
 20
136.95502999999991
 30
0.0
 11
-675.63385000000005
 21
138.01497000000001
 31
0.0
  0
LINE
  5
695
  8
0
  6
CONTINUOUS
 62
     7
 10
-661.95592999999985
 20
138.98067
 30
0.0
 11
-649.63440000000003
 21
138.98067
 31
0.0
  0
LINE
  5
696
  8
0
  6
CONTINUOUS
 62
     7
 10
-679.13391000000001
 20
152.34791999999979
 30
0.0
 11
-679.13391000000001
 21
172.34790000000001
 31
0.0
  0
LINE
  5
697
  8
0
  6
CONTINUOUS
 62
     7
 10
-679.13385000000005
 20
152.34792999999991
 30
0.0
 11
-677.63385000000005
 21
152.21669
 31
0.0
  0
LINE
  5
698
  8
0
  6
CONTINUOUS
 62
     7
 10
-679.13391000000001
 20
157.1978899999998
 30
0.0
 11
-675.84020999999996
 21
157.1978899999998
 31
0.0
  0
LINE
  5
699
  8
0
  6
CONTINUOUS
 62
     7
 10
-679.13391000000001
 20
155.06585999999999
 30
0.0
 11
-677.63391000000001
 21
155.06585999999999
 31
0.0
  0
LINE
  5
69A
  8
0
  6
CONTINUOUS
 62
     7
 10
-606.63391000000001
 20
138.3479199999999
 30
0.0
 11
-661.26849000000004
 21
138.3479199999999
 31
0.0
  0
LINE
  5
69B
  8
0
  6
CONTINUOUS
 62
     7
 10
-653.63433999999995
 20
142.34790000000001
 30
0.0
 11
-578.13391000000001
 21
142.34790000000001
 31
0.0
  0
LINE
  5
69C
  8
0
  6
CONTINUOUS
 62
     7
 10
-606.63391000000001
 20
136.34790000000001
 30
0.0
 11
-661.26849000000004
 21
136.34790000000001
 31
0.0
  0
LINE
  5
69D
  8
0
  6
CONTINUOUS
 62
     7
 10
-606.63391000000001
 20
135.62482
 30
0.0
 11
-558.81177000000002
 21
135.62482
 31
0.0
  0
LINE
  5
69E
  8
0
  6
CONTINUOUS
 62
     7
 10
-671.6339099999999
 20
225.34791999999999
 30
0.0
 11
-671.6339099999999
 21
119.34791
 31
0.0
  0
LINE
  5
69F
  8
0
  6
CONTINUOUS
 62
     7
 10
-663.63385000000005
 20
225.34791999999999
 30
0.0
 11
-663.63385000000005
 21
122.90766000000001
 31
0.0
  0
LINE
  5
6A0
  8
0
  6
CONTINUOUS
 62
     7
 10
-677.13933999999995
 20
131.24481
 30
0.0
 11
-677.16295999999977
 21
131.25863999999979
 31
0.0
  0
LINE
  5
6A1
  8
0
  6
CONTINUOUS
 62
     7
 10
-672.63385000000005
 20
222.3479199999999
 30
0.0
 11
-672.63385000000005
 21
121.2246699999999
 31
0.0
  0
LINE
  5
6A2
  8
0
  6
CONTINUOUS
 62
     7
 10
-672.63385000000005
 20
222.3479199999999
 30
0.0
 11
-671.6339099999999
 21
222.3479199999999
 31
0.0
  0
LINE
  5
6A3
  8
0
  6
CONTINUOUS
 62
     7
 10
-671.6339099999999
 20
225.34791999999999
 30
0.0
 11
-663.63385000000005
 21
225.34791999999999
 31
0.0
  0
LINE
  5
6A4
  8
0
  6
CONTINUOUS
 62
     7
 10
-670.93573000000004
 20
215.53932
 30
0.0
 11
-664.70592999999985
 21
215.53932
 31
0.0
  0
LINE
  5
6A5
  8
0
  6
CONTINUOUS
 62
     7
 10
-555.63391000000001
 20
218.34790000000001
 30
0.0
 11
-547.63385000000005
 21
218.34790000000001
 31
0.0
  0
LINE
  5
6A6
  8
0
  6
CONTINUOUS
 62
     7
 10
-555.63391000000001
 20
204.28533999999991
 30
0.0
 11
-547.63385000000005
 21
204.28533999999991
 31
0.0
  0
LINE
  5
6A7
  8
0
  6
CONTINUOUS
 62
     7
 10
-555.63391000000001
 20
228.3479199999999
 30
0.0
 11
-547.63385000000005
 21
228.3479199999999
 31
0.0
  0
LINE
  5
6A8
  8
0
  6
CONTINUOUS
 62
     7
 10
-639.63391000000001
 20
209.07093999999981
 30
0.0
 11
-639.63391000000001
 21
209.07093999999981
 31
0.0
  0
LINE
  5
6A9
  8
0
  6
CONTINUOUS
 62
     7
 10
-639.63391000000001
 20
135.62482
 30
0.0
 11
-639.63391000000001
 21
134.12482
 31
0.0
  0
LINE
  5
6AA
  8
0
  6
CONTINUOUS
 62
     7
 10
-660.42749000000003
 20
228.63117999999989
 30
0.0
 11
-563.50769000000003
 21
228.63117999999989
 31
0.0
  0
LINE
  5
6AB
  8
0
  6
CONTINUOUS
 62
     7
 10
-663.63385000000005
 20
220.4436
 30
0.0
 11
-662.39257999999995
 21
227.00301999999991
 31
0.0
  0
LINE
  5
6AC
  8
0
  6
CONTINUOUS
 62
     7
 10
-658.26842999999985
 20
208.99909999999991
 30
0.0
 11
-663.63385000000005
 21
220.44356999999991
 31
0.0
  0
LINE
  5
6AD
  8
0
  6
CONTINUOUS
 62
     7
 10
-658.26842999999985
 20
135.69666999999981
 30
0.0
 11
-663.63385000000005
 21
124.2522
 31
0.0
  0
LINE
  5
6AE
  8
0
  6
CONTINUOUS
 62
     7
 10
-638.1339099999999
 20
210.57093999999981
 30
0.0
 11
-555.63391000000001
 21
210.57093999999981
 31
0.0
  0
LINE
  5
6AF
  8
0
  6
CONTINUOUS
 62
     7
 10
-660.37885000000017
 20
231.47755000000001
 30
0.0
 11
-626.63385000000005
 21
231.47755000000001
 31
0.0
  0
LINE
  5
6B0
  8
0
  6
CONTINUOUS
 62
     7
 10
-660.36547999999982
 20
233.32526999999999
 30
0.0
 11
-626.63385000000005
 21
233.32526999999999
 31
0.0
  0
LINE
  5
6B1
  8
0
  6
CONTINUOUS
 62
     7
 10
-660.34418000000005
 20
234.23577999999981
 30
0.0
 11
-626.63385000000005
 21
234.23577999999981
 31
0.0
  0
LINE
  5
6B2
  8
0
  6
CONTINUOUS
 62
     7
 10
-663.63391000000001
 20
221.7881799999999
 30
0.0
 11
-662.35382000000004
 21
229.79335
 31
0.0
  0
LINE
  5
6B3
  8
0
  6
CONTINUOUS
 62
     7
 10
-663.63385000000005
 20
223.1327499999999
 30
0.0
 11
-662.34283000000005
 21
231.62582
 31
0.0
  0
LINE
  5
6B4
  8
0
  6
CONTINUOUS
 62
     7
 10
-663.63391000000001
 20
223.13276999999999
 30
0.0
 11
-662.32500999999979
 21
232.51221000000001
 31
0.0
  0
LINE
  5
6B5
  8
0
  6
CONTINUOUS
 62
     7
 10
-624.63391000000001
 20
232.23578999999989
 30
0.0
 11
-624.63391000000001
 21
228.63117999999989
 31
0.0
  0
LINE
  5
6B6
  8
0
  6
CONTINUOUS
 62
     7
 10
-557.43176000000005
 20
211.68268999999989
 30
0.0
 11
-561.57592999999986
 21
227.14877000000001
 31
0.0
  0
LINE
  5
6B7
  8
0
  6
CONTINUOUS
 62
     7
 10
-561.09338000000002
 20
225.34791999999999
 30
0.0
 11
-555.63391000000001
 21
225.34791999999999
 31
0.0
  0
LINE
  5
6B8
  8
0
  6
CONTINUOUS
 62
     7
 10
-677.63391000000001
 20
124.3314899999999
 30
0.0
 11
-677.63391000000001
 21
167.3479199999999
 31
0.0
  0
LINE
  5
6B9
  8
0
  6
CONTINUOUS
 62
     7
 10
-675.36565999999982
 20
122.59851
 30
0.0
 11
-673.13391000000001
 21
122.59851
 31
0.0
  0
LINE
  5
6BA
  8
0
  6
CONTINUOUS
 62
     7
 10
-675.86608999999964
 20
122.73276
 30
0.0
 11
-677.13422000000003
 21
123.46571
 31
0.0
  0
LINE
  5
6BB
  8
0
  6
CONTINUOUS
 62
     7
 10
-675.87145999999996
 20
124.8488199999999
 30
0.0
 11
-677.14837999999975
 21
125.6150699999998
 31
0.0
  0
LINE
  5
6BC
  8
0
  6
CONTINUOUS
 62
     7
 10
-675.88367000000005
 20
129.38673
 30
0.0
 11
-677.18224999999995
 21
130.23830000000001
 31
0.0
  0
LINE
  5
6BD
  8
0
  6
CONTINUOUS
 62
     7
 10
-675.35680999999977
 20
124.7062399999998
 30
0.0
 11
-672.63385000000005
 21
124.7062399999998
 31
0.0
  0
LINE
  5
6BE
  8
0
  6
CONTINUOUS
 62
     7
 10
-675.33520999999985
 20
129.22298000000001
 30
0.0
 11
-672.63385000000005
 21
129.22298000000001
 31
0.0
  0
LINE
  5
6BF
  8
0
  6
CONTINUOUS
 62
     7
 10
-675.36255000000006
 20
130.36299
 30
0.0
 11
-673.63385000000017
 21
130.36299
 31
0.0
  0
LINE
  5
6C0
  8
0
  6
CONTINUOUS
 62
     7
 10
-675.38518999999985
 20
125.84625
 30
0.0
 11
-673.63385000000017
 21
125.84625
 31
0.0
  0
LINE
  5
6C1
  8
0
  6
CONTINUOUS
 62
     7
 10
-675.39458999999965
 20
123.7448199999999
 30
0.0
 11
-673.13391000000001
 21
123.7448199999999
 31
0.0
  0
LINE
  5
6C2
  8
0
  6
CONTINUOUS
 62
     7
 10
-675.86804000000018
 20
130.50011000000001
 30
0.0
 11
-677.13933999999995
 21
131.2448
 31
0.0
  0
LINE
  5
6C3
  8
0
  6
CONTINUOUS
 62
     7
 10
-675.84722999999997
 20
123.85314
 30
0.0
 11
-677.08649000000003
 21
124.48215999999979
 31
0.0
  0
LINE
  5
6C4
  8
0
  6
CONTINUOUS
 62
     7
 10
-675.85357999999985
 20
125.9627199999999
 30
0.0
 11
-677.10222999999985
 21
126.6245799999999
 31
0.0
  0
LINE
  5
6C5
  8
0
  6
CONTINUOUS
 62
     7
 10
-675.63385000000005
 20
129.51747
 30
0.0
 11
-675.63385000000005
 21
129.98956000000001
 31
0.0
  0
LINE
  5
6C6
  8
0
  6
CONTINUOUS
 62
     7
 10
-675.63385000000005
 20
124.95137
 30
0.0
 11
-675.63385000000005
 21
125.4973899999999
 31
0.0
  0
LINE
  5
6C7
  8
0
  6
CONTINUOUS
 62
     7
 10
-675.63385000000005
 20
122.8517499999999
 30
0.0
 11
-675.63385000000005
 21
123.37751
 31
0.0
  0
LINE
  5
6C8
  8
0
  6
CONTINUOUS
 62
     7
 10
-672.63385000000005
 20
122.34791
 30
0.0
 11
-671.6339099999999
 21
122.34791
 31
0.0
  0
LINE
  5
6C9
  8
0
  6
CONTINUOUS
 62
     7
 10
-671.6339099999999
 20
119.34791
 30
0.0
 11
-663.63385000000005
 21
119.34791
 31
0.0
  0
LINE
  5
6CA
  8
0
  6
CONTINUOUS
 62
     7
 10
-670.93573000000004
 20
129.15643
 30
0.0
 11
-664.70592999999985
 21
129.15643
 31
0.0
  0
LINE
  5
6CB
  8
0
  6
CONTINUOUS
 62
     7
 10
-555.63391000000001
 20
126.34792
 30
0.0
 11
-547.63385000000005
 21
126.34792
 31
0.0
  0
LINE
  5
6CC
  8
0
  6
CONTINUOUS
 62
     7
 10
-555.63391000000001
 20
116.34791
 30
0.0
 11
-547.63385000000005
 21
116.34791
 31
0.0
  0
LINE
  5
6CD
  8
0
  6
CONTINUOUS
 62
     7
 10
-660.42749000000003
 20
116.06464
 30
0.0
 11
-563.50769000000003
 21
116.06464
 31
0.0
  0
LINE
  5
6CE
  8
0
  6
CONTINUOUS
 62
     7
 10
-663.63385000000005
 20
124.25216
 30
0.0
 11
-662.39257999999995
 21
117.6927899999999
 31
0.0
  0
LINE
  5
6CF
  8
0
  6
CONTINUOUS
 62
     7
 10
-660.37885000000017
 20
113.2182699999999
 30
0.0
 11
-626.63385000000005
 21
113.2182699999999
 31
0.0
  0
LINE
  5
6D0
  8
0
  6
CONTINUOUS
 62
     7
 10
-660.36547999999982
 20
111.37048
 30
0.0
 11
-626.63385000000005
 21
111.37048
 31
0.0
  0
LINE
  5
6D1
  8
0
  6
CONTINUOUS
 62
     7
 10
-660.34418000000005
 20
110.45997
 30
0.0
 11
-626.63385000000005
 21
110.45997
 31
0.0
  0
LINE
  5
6D2
  8
0
  6
CONTINUOUS
 62
     7
 10
-663.63385000000005
 20
122.9076399999998
 30
0.0
 11
-662.35375999999985
 21
114.90248
 31
0.0
  0
LINE
  5
6D3
  8
0
  6
CONTINUOUS
 62
     7
 10
-663.63391000000001
 20
121.5630899999998
 30
0.0
 11
-662.34283000000005
 21
113.0699399999999
 31
0.0
  0
LINE
  5
6D4
  8
0
  6
CONTINUOUS
 62
     7
 10
-663.63391000000001
 20
121.5630299999999
 30
0.0
 11
-662.32506999999976
 21
112.18358000000001
 31
0.0
  0
LINE
  5
6D5
  8
0
  6
CONTINUOUS
 62
     7
 10
-624.63391000000001
 20
112.45996
 30
0.0
 11
-624.63391000000001
 21
116.06464
 31
0.0
  0
LINE
  5
6D6
  8
0
  6
CONTINUOUS
 62
     7
 10
-557.13385000000005
 20
134.12487999999999
 30
0.0
 11
-561.57592999999986
 21
117.5470199999999
 31
0.0
  0
LINE
  5
6D7
  8
0
  6
CONTINUOUS
 62
     7
 10
-561.09338000000002
 20
119.34791
 30
0.0
 11
-555.63391000000001
 21
119.34791
 31
0.0
  0
LINE
  5
6D8
  8
0
  6
CONTINUOUS
 62
     7
 10
-555.63391000000001
 20
140.4104599999998
 30
0.0
 11
-547.63385000000005
 21
140.4104599999998
 31
0.0
  0
LINE
  5
6D9
  8
0
  6
CONTINUOUS
 62
     7
 10
-639.63391000000001
 20
135.62482
 30
0.0
 11
-639.63391000000001
 21
135.62482
 31
0.0
  0
LINE
  5
6DA
  8
0
  6
CONTINUOUS
 62
     7
 10
-638.1339099999999
 20
134.12482
 30
0.0
 11
-555.63391000000001
 21
134.12482
 31
0.0
  0
LINE
  5
6DB
  8
0
  6
CONTINUOUS
 62
     7
 10
-575.13391000000001
 20
142.34790000000001
 30
0.0
 11
-565.86382999999978
 21
142.34790000000001
 31
0.0
  0
LINE
  5
6DC
  8
0
  6
CONTINUOUS
 62
     3
 10
-631.26183999999978
 20
194.84766999999999
 30
0.0
 11
-627.05682000000002
 21
194.84766999999999
 31
0.0
  0
LINE
  5
6DD
  8
0
  6
CONTINUOUS
 62
     3
 10
-629.13391000000001
 20
192.7856399999998
 30
0.0
 11
-629.13391000000001
 21
196.8116599999999
 31
0.0
  0
LINE
  5
6DE
  8
0
  6
CONTINUOUS
 62
     3
 10
-655.13433999999995
 20
179.84766999999991
 30
0.0
 11
-655.13433999999995
 21
203.84766999999991
 31
0.0
  0
LINE
  5
6DF
  8
0
  6
CONTINUOUS
 62
     3
 10
-655.13433999999995
 20
140.84816000000001
 30
0.0
 11
-655.13433999999995
 21
164.84766999999991
 31
0.0
  0
LINE
  5
6E0
  8
0
  6
CONTINUOUS
 62
     3
 10
-629.63385000000005
 20
149.34816000000001
 30
0.0
 11
-629.63385000000005
 21
189.3706699999999
 31
0.0
  0
LINE
  5
6E1
  8
0
  6
CONTINUOUS
 62
     3
 10
-583.63385000000005
 20
155.32563999999991
 30
0.0
 11
-583.63385000000005
 21
195.34765999999991
 31
0.0
  0
LINE
  5
6E2
  8
0
  6
CONTINUOUS
 62
     3
 10
-575.13391000000001
 20
140.84816000000001
 30
0.0
 11
-575.13391000000001
 21
203.84766999999991
 31
0.0
  0
LINE
  5
6E3
  8
0
  6
CONTINUOUS
 62
     3
 10
-623.65686000000005
 20
195.34765999999991
 30
0.0
 11
-583.63385000000005
 21
195.34765999999991
 31
0.0
  0
LINE
  5
6E4
  8
0
  6
CONTINUOUS
 62
     3
 10
-629.63385000000005
 20
149.34816000000001
 30
0.0
 11
-589.61187999999981
 21
149.34816000000001
 31
0.0
  0
LINE
  5
6E5
  8
0
  6
CONTINUOUS
 62
     3
 10
-655.13433999999995
 20
203.84766999999991
 30
0.0
 11
-649.63440000000003
 21
203.84766999999991
 31
0.0
  0
LINE
  5
6E6
  8
0
  6
CONTINUOUS
 62
     3
 10
-655.13433999999995
 20
140.84816000000001
 30
0.0
 11
-649.63440000000003
 21
140.84816000000001
 31
0.0
  0
LINE
  5
6E7
  8
0
  6
CONTINUOUS
 62
     3
 10
-584.1339099999999
 20
147.78613000000001
 30
0.0
 11
-584.1339099999999
 21
151.81207000000001
 31
0.0
  0
LINE
  5
6E8
  8
0
  6
CONTINUOUS
 62
     3
 10
-586.26184000000001
 20
149.84816000000001
 30
0.0
 11
-582.05682000000002
 21
149.84816000000001
 31
0.0
  0
LINE
  5
6E9
  8
0
  6
CONTINUOUS
 62
     3
 10
-624.43384000000003
 20
190.15166999999991
 30
0.0
 11
-588.83385999999985
 21
190.15166999999991
 31
0.0
  0
LINE
  5
6EA
  8
0
  6
CONTINUOUS
 62
     3
 10
-624.43384000000003
 20
154.54766999999981
 30
0.0
 11
-588.83385999999985
 21
154.54766999999981
 31
0.0
  0
LINE
  5
6EB
  8
0
  6
CONTINUOUS
 62
     3
 10
-588.83385999999985
 20
154.54766999999981
 30
0.0
 11
-588.83385999999985
 21
190.15166999999991
 31
0.0
  0
LINE
  5
6EC
  8
0
  6
CONTINUOUS
 62
     3
 10
-624.43384000000003
 20
154.54766999999981
 30
0.0
 11
-624.43384000000003
 21
190.15166999999991
 31
0.0
  0
LINE
  5
6ED
  8
0
  6
CONTINUOUS
 62
     3
 10
-653.63433999999995
 20
202.34766999999991
 30
0.0
 11
-578.13391000000001
 21
202.34766999999991
 31
0.0
  0
LINE
  5
6EE
  8
0
  6
CONTINUOUS
 62
     3
 10
-653.63433999999995
 20
142.34816000000001
 30
0.0
 11
-653.63433999999995
 21
202.34766999999991
 31
0.0
  0
LINE
  5
6EF
  8
0
  6
CONTINUOUS
 62
     3
 10
-634.63385000000005
 20
205.84765999999999
 30
0.0
 11
-634.63385000000005
 21
202.34766999999991
 31
0.0
  0
LINE
  5
6F0
  8
0
  6
CONTINUOUS
 62
     3
 10
-649.63440000000003
 20
205.84765999999999
 30
0.0
 11
-634.63385000000005
 21
205.84765999999999
 31
0.0
  0
LINE
  5
6F1
  8
0
  6
CONTINUOUS
 62
     3
 10
-649.63440000000003
 20
205.84765999999999
 30
0.0
 11
-649.63440000000003
 21
202.34766999999991
 31
0.0
  0
LINE
  5
6F2
  8
0
  6
CONTINUOUS
 62
     3
 10
-657.13440000000003
 20
179.84766999999991
 30
0.0
 11
-653.63433999999995
 21
179.84766999999991
 31
0.0
  0
LINE
  5
6F3
  8
0
  6
CONTINUOUS
 62
     3
 10
-657.13440000000003
 20
164.84766999999991
 30
0.0
 11
-657.13440000000003
 21
179.84766999999991
 31
0.0
  0
LINE
  5
6F4
  8
0
  6
CONTINUOUS
 62
     7
 10
-575.13391000000001
 20
202.34790000000001
 30
0.0
 11
-565.86382999999978
 21
202.34790000000001
 31
0.0
  0
LINE
  5
6F5
  8
0
  6
CONTINUOUS
 62
     7
 10
-400.63390999999979
 20
187.8479199999999
 30
0.0
 11
-400.63390999999979
 21
170.5479099999998
 31
0.0
  0
LINE
  5
6F6
  8
0
  6
CONTINUOUS
 62
     7
 10
-488.13387999999992
 20
95.847922999999994
 30
0.0
 11
-479.13387999999998
 21
95.847922999999994
 31
0.0
  0
LINE
  5
6F7
  8
0
  6
CONTINUOUS
 62
     7
 10
-525.45074
 20
223.42232000000001
 30
0.0
 11
-488.27895999999993
 21
211.08181999999991
 31
0.0
  0
LINE
  5
6F8
  8
0
  6
CONTINUOUS
 62
     7
 10
-547.63385000000005
 20
228.84792999999999
 30
0.0
 11
-531.49426000000005
 21
228.28432000000001
 31
0.0
  0
LINE
  5
6F9
  8
0
  6
CONTINUOUS
 62
     7
 10
-509.39255000000003
 20
113.1684399999999
 30
0.0
 11
-489.01256999999993
 21
92.788452000000007
 31
0.0
  0
LINE
  5
6FA
  8
0
  6
CONTINUOUS
 62
     7
 10
-479.13387999999998
 20
83.347907999999975
 30
0.0
 11
-479.13387999999998
 21
211.34791999999999
 31
0.0
  0
LINE
  5
6FB
  8
0
  6
CONTINUOUS
 62
     7
 10
-488.13387999999992
 20
207.57776000000001
 30
0.0
 11
-488.13387999999992
 21
86.138320999999962
 31
0.0
  0
LINE
  5
6FC
  8
0
  6
CONTINUOUS
 62
     7
 10
-488.13387999999992
 20
208.13657000000001
 30
0.0
 11
-488.13387999999992
 21
207.57776000000001
 31
0.0
  0
LINE
  5
6FD
  8
0
  6
CONTINUOUS
 62
     7
 10
-520.52917000000002
 20
114.90141
 30
0.0
 11
-512.75360000000001
 21
114.62988
 31
0.0
  0
LINE
  5
6FE
  8
0
  6
CONTINUOUS
 62
     7
 10
-523.49426000000005
 20
204.4115899999999
 30
0.0
 11
-490.06408999999991
 21
205.57899
 31
0.0
  0
LINE
  5
6FF
  8
0
  6
CONTINUOUS
 62
     7
 10
-485.23858999999987
 20
211.13473999999999
 30
0.0
 11
-479.13391000000001
 21
211.34791999999999
 31
0.0
  0
LINE
  5
700
  8
0
  6
CONTINUOUS
 62
     7
 10
-527.63385000000005
 20
224.2867399999999
 30
0.0
 11
-527.63385000000005
 21
169.4079099999999
 31
0.0
  0
LINE
  5
701
  8
0
  6
CONTINUOUS
 62
     7
 10
-547.63385000000005
 20
115.84788999999979
 30
0.0
 11
-547.63385000000005
 21
228.84790000000001
 31
0.0
  0
LINE
  5
702
  8
0
  6
CONTINUOUS
 62
     7
 10
-547.63391000000001
 20
115.84792
 30
0.0
 11
-520.52917000000002
 21
114.90141
 31
0.0
  0
LINE
  5
703
  8
0
  6
CONTINUOUS
 62
     7
 10
-517.63385000000005
 20
91.976685000000003
 30
0.0
 11
-517.63385000000005
 21
111.90322999999979
 31
0.0
  0
LINE
  5
704
  8
0
  6
CONTINUOUS
 62
     7
 10
-485.23858999999987
 20
83.561095999999978
 30
0.0
 11
-479.13391000000001
 21
83.347915999999998
 31
0.0
  0
LINE
  5
705
  8
0
  6
CONTINUOUS
 62
     7
 10
-514.73859000000004
 20
88.978499999999983
 30
0.0
 11
-490.86047000000002
 21
88.144660999999999
 31
0.0
  0
LINE
  5
706
  8
0
  6
CONTINUOUS
 62
     7
 10
-488.13387999999992
 20
198.84792999999999
 30
0.0
 11
-479.13387999999998
 21
198.84792999999999
 31
0.0
  0
LINE
  5
707
  8
0
  6
CONTINUOUS
 62
     7
 10
-488.13387999999992
 20
110.19956999999999
 30
0.0
 11
-479.13387999999998
 21
110.19956999999999
 31
0.0
  0
LINE
  5
708
  8
0
  6
CONTINUOUS
 62
     7
 10
-547.63385000000005
 20
126.34792
 30
0.0
 11
-495.90044999999981
 21
126.34792
 31
0.0
  0
LINE
  5
709
  8
0
  6
CONTINUOUS
 62
     7
 10
-488.13387999999992
 20
184.49626000000001
 30
0.0
 11
-479.13387999999998
 21
184.49626000000001
 31
0.0
  0
LINE
  5
70A
  8
0
  6
CONTINUOUS
 62
     7
 10
-547.63385000000005
 20
140.41092
 30
0.0
 11
-497.89235999999988
 21
140.41092
 31
0.0
  0
LINE
  5
70B
  8
0
  6
CONTINUOUS
 62
     7
 10
-547.63385000000005
 20
204.2849299999998
 30
0.0
 11
-527.63385000000005
 21
204.2849299999998
 31
0.0
  0
LINE
  5
70C
  8
0
  6
CONTINUOUS
 62
     7
 10
-547.63385000000005
 20
218.34792999999999
 30
0.0
 11
-527.63385000000005
 21
218.34792999999999
 31
0.0
  0
LINE
  5
70D
  8
0
  6
CONTINUOUS
 62
     7
 10
-497.89235999999988
 20
140.41092
 30
0.0
 11
-488.13387999999992
 21
159.84792999999991
 31
0.0
  0
LINE
  5
70E
  8
0
  6
CONTINUOUS
 62
     7
 10
-522.63391000000001
 20
164.40792999999999
 30
0.0
 11
-488.13387999999992
 21
164.40792999999999
 31
0.0
  0
LINE
  5
70F
  8
0
  6
CONTINUOUS
 62
     7
 10
-497.89240000000001
 20
140.41093000000001
 30
0.0
 11
-492.36489999999998
 21
134.88343999999981
 31
0.0
  0
LINE
  5
710
  8
0
  6
CONTINUOUS
 62
     7
 10
-510.78524999999991
 20
114.73077000000001
 30
0.0
 11
-504.95278999999999
 21
126.34792
 31
0.0
  0
LINE
  5
711
  8
0
  6
CENTER
 62
     1
 10
-454.12072999999992
 20
172.34790000000001
 30
0.0
 11
-686.80505000000005
 21
172.34790000000001
 31
0.0
  0
LINE
  5
712
  8
0
  6
CONTINUOUS
 62
     3
 10
-179.78093999999999
 20
220.6333299999998
 30
0.0
 11
-179.78093999999999
 21
228.33977999999991
 31
0.0
  0
LINE
  5
713
  8
0
  6
CONTINUOUS
 62
     3
 10
-169.78093000000001
 20
224.55382999999981
 30
0.0
 11
-169.78093000000001
 21
231.41582
 31
0.0
  0
LINE
  5
714
  8
0
  6
CONTINUOUS
 62
     3
 10
-110.7809399999998
 20
220.6333299999998
 30
0.0
 11
-110.7809399999998
 21
228.33977999999991
 31
0.0
  0
LINE
  5
715
  8
0
  6
CONTINUOUS
 62
     3
 10
-120.78093
 20
224.55382999999981
 30
0.0
 11
-120.78093
 21
231.41582
 31
0.0
  0
LINE
  5
716
  8
0
  6
CONTINUOUS
 62
     3
 10
-159.7809399999999
 20
227.0395399999999
 30
0.0
 11
-159.7809399999999
 21
233.39690999999999
 31
0.0
  0
LINE
  5
717
  8
0
  6
CONTINUOUS
 62
     3
 10
-140.78093999999979
 20
228.22282000000001
 30
0.0
 11
-140.78093999999979
 21
234.34789000000001
 31
0.0
  0
LINE
  5
718
  8
0
  6
CONTINUOUS
 62
     3
 10
-130.7809399999999
 20
227.0395399999999
 30
0.0
 11
-130.7809399999999
 21
233.39690999999999
 31
0.0
  0
LINE
  5
719
  8
0
  6
CONTINUOUS
 62
     3
 10
-149.7809399999999
 20
228.22282000000001
 30
0.0
 11
-149.7809399999999
 21
234.34789000000001
 31
0.0
  0
LINE
  5
71A
  8
0
  6
CONTINUOUS
 62
     7
 10
-213.2809299999999
 20
202.81185999999991
 30
0.0
 11
-213.2809299999999
 21
205.84788999999989
 31
0.0
  0
LINE
  5
71B
  8
0
  6
CONTINUOUS
 62
     7
 10
-235.2809399999999
 20
142.34790000000001
 30
0.0
 11
-230.71712999999991
 21
142.34790000000001
 31
0.0
  0
LINE
  5
71C
  8
0
  6
CONTINUOUS
 62
     7
 10
-235.2809399999999
 20
202.34790000000001
 30
0.0
 11
-216.7809399999999
 21
202.34790000000001
 31
0.0
  0
LINE
  5
71D
  8
0
  6
CONTINUOUS
 62
     7
 10
-235.2809399999999
 20
142.34790000000001
 30
0.0
 11
-235.2809399999999
 21
202.34790000000001
 31
0.0
  0
LINE
  5
71E
  8
0
  6
CONTINUOUS
 62
     7
 10
-235.2809399999999
 20
195.34790000000001
 30
0.0
 11
-238.2809399999999
 21
190.15790000000001
 31
0.0
  0
LINE
  5
71F
  8
0
  6
CONTINUOUS
 62
     7
 10
-216.7809399999999
 20
200.93703999999991
 30
0.0
 11
-216.7809399999999
 21
203.84790000000001
 31
0.0
  0
LINE
  5
720
  8
0
  6
CONTINUOUS
 62
     7
 10
-235.2809399999999
 20
149.3479199999999
 30
0.0
 11
-238.2809399999999
 21
154.54793000000001
 31
0.0
  0
LINE
  5
721
  8
0
  6
CONTINUOUS
 62
     7
 10
-238.2809399999999
 20
154.5479
 30
0.0
 11
-238.2809399999999
 21
190.15790000000001
 31
0.0
  0
LINE
  5
722
  8
0
  6
CONTINUOUS
 62
     7
 10
-210.2809299999999
 20
205.84788999999989
 30
0.0
 11
-230.28093999999999
 21
205.84788999999989
 31
0.0
  0
LINE
  5
723
  8
0
  6
CONTINUOUS
 62
     7
 10
-230.28093999999999
 20
202.34790000000001
 30
0.0
 11
-230.28093999999999
 21
205.84788999999989
 31
0.0
  0
LINE
  5
724
  8
0
  6
CONTINUOUS
 62
     7
 10
-205.28093000000001
 20
199.79789999999991
 30
0.0
 11
-205.28093999999999
 21
118.34793000000001
 31
0.0
  0
LINE
  5
725
  8
0
  6
CONTINUOUS
 62
     7
 10
-216.7809399999999
 20
203.84790000000001
 30
0.0
 11
-213.2809299999999
 21
203.84790000000001
 31
0.0
  0
LINE
  5
726
  8
0
  6
CONTINUOUS
 62
     7
 10
-210.2809299999999
 20
204.4188399999999
 30
0.0
 11
-210.2809299999999
 21
205.84788999999989
 31
0.0
  0
LINE
  5
727
  8
0
  6
CONTINUOUS
 62
     7
 10
-488.13387999999992
 20
372.59485000000001
 30
0.0
 11
-488.13387999999992
 21
493.59485000000001
 31
0.0
  0
LINE
  5
728
  8
0
  6
CONTINUOUS
 62
     7
 10
-479.13378999999998
 20
369.59485000000001
 30
0.0
 11
-485.13387999999992
 21
369.59485000000001
 31
0.0
  0
LINE
  5
729
  8
0
  6
CONTINUOUS
 62
     7
 10
-479.13382000000001
 20
496.59485000000001
 30
0.0
 11
-485.13387999999992
 21
496.59485000000001
 31
0.0
  0
LINE
  5
72A
  8
0
  6
CONTINUOUS
 62
     7
 10
-479.13382000000001
 20
381.05486999999999
 30
0.0
 11
-488.13387999999992
 21
381.05486999999999
 31
0.0
  0
LINE
  5
72B
  8
0
  6
CONTINUOUS
 62
     7
 10
-479.13382000000001
 20
395.94690000000003
 30
0.0
 11
-488.13387999999992
 21
395.94690000000003
 31
0.0
  0
LINE
  5
72C
  8
0
  6
CONTINUOUS
 62
     7
 10
-479.13382000000001
 20
470.24279999999999
 30
0.0
 11
-488.13387999999992
 21
470.24279999999999
 31
0.0
  0
LINE
  5
72D
  8
0
  6
CONTINUOUS
 62
     7
 10
-479.13382000000001
 20
485.13482999999968
 30
0.0
 11
-488.13387999999992
 21
485.13482999999968
 31
0.0
  0
LINE
  5
72E
  8
0
  6
CONTINUOUS
 62
     7
 10
-547.63385000000005
 20
377.09485000000001
 30
0.0
 11
-547.63385000000005
 21
489.09485000000001
 31
0.0
  0
LINE
  5
72F
  8
0
  6
CONTINUOUS
 62
     7
 10
-547.63385000000005
 20
377.09485000000001
 30
0.0
 11
-491.01030999999989
 21
375.11752000000001
 31
0.0
  0
LINE
  5
730
  8
0
  6
CONTINUOUS
 62
     7
 10
-491.01030999999989
 20
491.07219999999978
 30
0.0
 11
-547.63385000000005
 21
489.09485000000001
 31
0.0
  0
LINE
  5
731
  8
0
  6
CONTINUOUS
 62
     7
 10
-527.63385000000005
 20
380.53856999999999
 30
0.0
 11
-527.63385000000005
 21
485.6511499999998
 31
0.0
  0
LINE
  5
732
  8
0
  6
CONTINUOUS
 62
     7
 10
-524.63385000000005
 20
430.09485000000001
 30
0.0
 11
-491.13387999999998
 21
430.09485000000001
 31
0.0
  0
LINE
  5
733
  8
0
  6
CONTINUOUS
 62
     7
 10
-524.63385000000005
 20
436.09485000000001
 30
0.0
 11
-491.13387999999998
 21
436.09485000000001
 31
0.0
  0
LINE
  5
734
  8
0
  6
CONTINUOUS
 62
     7
 10
-547.63385000000005
 20
479.09514999999999
 30
0.0
 11
-527.63385000000005
 21
479.09514999999999
 31
0.0
  0
LINE
  5
735
  8
0
  6
CONTINUOUS
 62
     7
 10
-547.63385000000005
 20
387.09453999999999
 30
0.0
 11
-527.63385000000005
 21
387.09453999999999
 31
0.0
  0
LINE
  5
736
  8
0
  6
CONTINUOUS
 62
     3
 10
-655.9067399999999
 20
367.59485000000001
 30
0.0
 11
-575.90686000000005
 21
367.59485000000001
 31
0.0
  0
LINE
  5
737
  8
0
  6
CONTINUOUS
 62
     3
 10
-575.90686000000005
 20
367.59485000000001
 30
0.0
 11
-575.90686000000005
 21
360.59485000000001
 31
0.0
  0
LINE
  5
738
  8
0
  6
CONTINUOUS
 62
     3
 10
-577.40686000000005
 20
344.09485000000001
 30
0.0
 11
-577.40686000000005
 21
360.59485000000001
 31
0.0
  0
LINE
  5
739
  8
0
  6
CONTINUOUS
 62
     3
 10
-635.40686000000005
 20
356.59485000000001
 30
0.0
 11
-635.40686000000005
 21
364.09485000000001
 31
0.0
  0
LINE
  5
73A
  8
0
  6
CONTINUOUS
 62
     3
 10
-650.40674000000001
 20
364.09485000000001
 30
0.0
 11
-650.40674000000001
 21
356.59485000000001
 31
0.0
  0
LINE
  5
73B
  8
0
  6
CONTINUOUS
 62
     3
 10
-654.40674000000001
 20
364.09485000000001
 30
0.0
 11
-654.40674000000001
 21
344.09485000000001
 31
0.0
  0
LINE
  5
73C
  8
0
  6
CONTINUOUS
 62
     3
 10
-625.20685000000003
 20
341.09484999999989
 30
0.0
 11
-589.60686999999984
 21
341.09484999999989
 31
0.0
  0
LINE
  5
73D
  8
0
  6
CONTINUOUS
 62
     3
 10
-654.40674000000001
 20
344.09485000000001
 30
0.0
 11
-577.40686000000005
 21
344.09485000000001
 31
0.0
  0
LINE
  5
73E
  8
0
  6
CONTINUOUS
 62
     3
 10
-654.40674000000001
 20
360.59485000000001
 30
0.0
 11
-650.40674000000001
 21
360.59485000000001
 31
0.0
  0
LINE
  5
73F
  8
0
  6
CONTINUOUS
 62
     3
 10
-584.40679999999998
 20
344.09482000000008
 30
0.0
 11
-589.60686999999984
 21
341.09482000000008
 31
0.0
  0
LINE
  5
740
  8
0
  6
CONTINUOUS
 62
     3
 10
-625.20685000000003
 20
341.09487999999988
 30
0.0
 11
-630.40679999999998
 21
344.09485000000001
 31
0.0
  0
LINE
  5
741
  8
0
  6
CONTINUOUS
 62
     3
 10
-657.90674000000001
 20
364.09485000000001
 30
0.0
 11
-657.90674000000001
 21
349.09582999999992
 31
0.0
  0
LINE
  5
742
  8
0
  6
CONTINUOUS
 62
     3
 10
-654.40674000000001
 20
349.09582999999992
 30
0.0
 11
-657.90674000000001
 21
349.09582999999992
 31
0.0
  0
LINE
  5
743
  8
0
  6
CONTINUOUS
 62
     3
 10
-638.90686000000005
 20
364.09485000000001
 30
0.0
 11
-638.90686000000005
 21
356.59485000000001
 31
0.0
  0
LINE
  5
744
  8
0
  6
CONTINUOUS
 62
     3
 10
-646.90674000000001
 20
364.09485000000001
 30
0.0
 11
-646.90674000000001
 21
356.59485000000001
 31
0.0
  0
LINE
  5
745
  8
0
  6
CONTINUOUS
 62
     3
 10
-635.40686000000005
 20
360.59485000000001
 30
0.0
 11
-575.90686000000005
 21
360.59485000000001
 31
0.0
  0
LINE
  5
746
  8
0
  6
CONTINUOUS
 62
     3
 10
-657.90674000000001
 20
364.09485000000001
 30
0.0
 11
-575.90686000000005
 21
364.09485000000001
 31
0.0
  0
LINE
  5
747
  8
0
  6
CONTINUOUS
 62
     3
 10
-655.9067399999999
 20
367.59485000000001
 30
0.0
 11
-655.9067399999999
 21
364.09485000000001
 31
0.0
  0
LINE
  5
748
  8
0
  6
CONTINUOUS
 62
     7
 10
-577.13385000000005
 20
368.59485000000001
 30
0.0
 11
-577.13385000000005
 21
367.59485000000001
 31
0.0
  0
LINE
  5
749
  8
0
  6
CONTINUOUS
 62
     7
 10
-636.13385000000017
 20
368.59485000000001
 30
0.0
 11
-636.13385000000017
 21
367.59485000000001
 31
0.0
  0
LINE
  5
74A
  8
0
  6
CONTINUOUS
 62
     7
 10
-557.42809999999997
 20
478.02376999999979
 30
0.0
 11
-561.57384999999988
 21
493.50487999999967
 31
0.0
  0
LINE
  5
74B
  8
0
  6
CONTINUOUS
 62
     7
 10
-557.42815999999993
 20
477.11373999999989
 30
0.0
 11
-561.57384999999988
 21
492.59487999999988
 31
0.0
  0
LINE
  5
74C
  8
0
  6
CONTINUOUS
 62
     7
 10
-557.42809999999997
 20
475.2637899999998
 30
0.0
 11
-561.57384999999988
 21
490.74492999999973
 31
0.0
  0
LINE
  5
74D
  8
0
  6
CONTINUOUS
 62
     7
 10
-555.63385000000005
 20
489.09485000000001
 30
0.0
 11
-555.63385000000005
 21
377.09485000000001
 31
0.0
  0
LINE
  5
74E
  8
0
  6
CONTINUOUS
 62
     7
 10
-677.63385000000005
 20
481.11487
 30
0.0
 11
-677.63385000000005
 21
438.09485000000001
 31
0.0
  0
LINE
  5
74F
  8
0
  6
CONTINUOUS
 62
     7
 10
-675.3638900000002
 20
482.84485000000001
 30
0.0
 11
-673.13385000000005
 21
482.84485000000001
 31
0.0
  0
LINE
  5
750
  8
0
  6
CONTINUOUS
 62
     7
 10
-675.43384000000003
 20
468.78478999999999
 30
0.0
 11
-673.33385999999985
 21
468.78478999999999
 31
0.0
  0
LINE
  5
751
  8
0
  6
CONTINUOUS
 62
     7
 10
-675.86383000000001
 20
482.71480999999989
 30
0.0
 11
-677.13385000000005
 21
481.97482000000002
 31
0.0
  0
LINE
  5
752
  8
0
  6
CONTINUOUS
 62
     7
 10
-675.87390000000016
 20
480.59487999999999
 30
0.0
 11
-677.15392999999995
 21
479.82488999999993
 31
0.0
  0
LINE
  5
753
  8
0
  6
CONTINUOUS
 62
     7
 10
-675.88391000000001
 20
476.05484000000001
 30
0.0
 11
-677.18389999999988
 21
475.20485999999988
 31
0.0
  0
LINE
  5
754
  8
0
  6
CONTINUOUS
 62
     7
 10
-675.82384999999999
 20
468.70485999999988
 30
0.0
 11
-677.02385999999979
 21
468.1948499999998
 31
0.0
  0
LINE
  5
755
  8
0
  6
CONTINUOUS
 62
     7
 10
-675.35388
 20
480.73486000000003
 30
0.0
 11
-672.63385000000005
 21
480.73486000000003
 31
0.0
  0
LINE
  5
756
  8
0
  6
CONTINUOUS
 62
     7
 10
-675.33385999999985
 20
476.22485
 30
0.0
 11
-672.63385000000005
 21
476.22485
 31
0.0
  0
LINE
  5
757
  8
0
  6
CONTINUOUS
 62
     7
 10
-675.48389000000009
 20
466.83483999999999
 30
0.0
 11
-673.63385000000017
 21
466.83483999999999
 31
0.0
  0
LINE
  5
758
  8
0
  6
CONTINUOUS
 62
     7
 10
-675.3638900000002
 20
475.08483999999987
 30
0.0
 11
-673.63385000000017
 21
475.08483999999987
 31
0.0
  0
LINE
  5
759
  8
0
  6
CONTINUOUS
 62
     7
 10
-675.38385000000005
 20
479.59485000000001
 30
0.0
 11
-673.63385000000017
 21
479.59485000000001
 31
0.0
  0
LINE
  5
75A
  8
0
  6
CONTINUOUS
 62
     7
 10
-675.39386000000002
 20
481.69481999999988
 30
0.0
 11
-673.13385000000005
 21
481.69481999999988
 31
0.0
  0
LINE
  5
75B
  8
0
  6
CONTINUOUS
 62
     7
 10
-675.8638900000002
 20
474.9448499999998
 30
0.0
 11
-677.14391999999975
 21
474.19488999999987
 31
0.0
  0
LINE
  5
75C
  8
0
  6
CONTINUOUS
 62
     7
 10
-675.77392999999995
 20
466.79485999999991
 30
0.0
 11
-676.92389000000003
 21
466.44488999999999
 31
0.0
  0
LINE
  5
75D
  8
0
  6
CONTINUOUS
 62
     7
 10
-675.84387000000004
 20
481.59485000000001
 30
0.0
 11
-677.08385999999985
 21
480.96483999999992
 31
0.0
  0
LINE
  5
75E
  8
0
  6
CONTINUOUS
 62
     7
 10
-675.85382000000004
 20
479.48485999999991
 30
0.0
 11
-677.10388
 21
478.81484999999998
 31
0.0
  0
LINE
  5
75F
  8
0
  6
CONTINUOUS
 62
     7
 10
-673.63385000000017
 20
459.09485000000001
 30
0.0
 11
-676.63385000000005
 21
459.09485000000001
 31
0.0
  0
LINE
  5
760
  8
0
  6
CONTINUOUS
 62
     7
 10
-673.63385000000017
 20
457.09485000000001
 30
0.0
 11
-676.63385000000005
 21
457.09485000000001
 31
0.0
  0
LINE
  5
761
  8
0
  6
CONTINUOUS
 62
     7
 10
-673.63385000000017
 20
449.09485000000001
 30
0.0
 11
-676.63385000000005
 21
449.09485000000001
 31
0.0
  0
LINE
  5
762
  8
0
  6
CONTINUOUS
 62
     7
 10
-673.63385000000017
 20
447.09485000000001
 30
0.0
 11
-676.63385000000005
 21
447.09485000000001
 31
0.0
  0
LINE
  5
763
  8
0
  6
CONTINUOUS
 62
     7
 10
-673.63385000000017
 20
439.09485000000001
 30
0.0
 11
-676.63385000000005
 21
439.09485000000001
 31
0.0
  0
LINE
  5
764
  8
0
  6
CONTINUOUS
 62
     7
 10
-673.63385000000017
 20
437.09484999999989
 30
0.0
 11
-676.63385000000005
 21
437.09484999999989
 31
0.0
  0
LINE
  5
765
  8
0
  6
CONTINUOUS
 62
     7
 10
-675.63385000000005
 20
448.70482999999962
 30
0.0
 11
-675.63385000000005
 21
447.49486999999988
 31
0.0
  0
LINE
  5
766
  8
0
  6
CONTINUOUS
 62
     7
 10
-675.63385000000005
 20
438.70483000000002
 30
0.0
 11
-675.63385000000005
 21
437.54480000000001
 31
0.0
  0
LINE
  5
767
  8
0
  6
CONTINUOUS
 62
     7
 10
-675.63385000000005
 20
458.72485
 30
0.0
 11
-675.63385000000005
 21
457.35485999999992
 31
0.0
  0
LINE
  5
768
  8
0
  6
CONTINUOUS
 62
     7
 10
-675.63385000000005
 20
468.48485999999991
 30
0.0
 11
-675.63385000000005
 21
467.4248
 31
0.0
  0
LINE
  5
769
  8
0
  6
CONTINUOUS
 62
     7
 10
-675.63385000000005
 20
475.9248
 30
0.0
 11
-675.63385000000005
 21
475.45482999999967
 31
0.0
  0
LINE
  5
76A
  8
0
  6
CONTINUOUS
 62
     7
 10
-675.63385000000005
 20
480.49486999999988
 30
0.0
 11
-675.63385000000005
 21
479.94481999999988
 31
0.0
  0
LINE
  5
76B
  8
0
  6
CONTINUOUS
 62
     7
 10
-675.63385000000005
 20
482.59484999999989
 30
0.0
 11
-675.63385000000005
 21
482.06481999999988
 31
0.0
  0
LINE
  5
76C
  8
0
  6
CONTINUOUS
 62
     7
 10
-679.13385000000005
 20
453.09485000000001
 30
0.0
 11
-679.13385000000005
 21
433.09484999999989
 31
0.0
  0
LINE
  5
76D
  8
0
  6
CONTINUOUS
 62
     7
 10
-679.13385000000005
 20
453.09482000000003
 30
0.0
 11
-677.63385000000005
 21
453.22482000000002
 31
0.0
  0
LINE
  5
76E
  8
0
  6
CONTINUOUS
 62
     7
 10
-679.13385000000005
 20
448.24486999999988
 30
0.0
 11
-677.63385000000005
 21
448.24486999999988
 31
0.0
  0
LINE
  5
76F
  8
0
  6
CONTINUOUS
 62
     7
 10
-679.13385000000005
 20
450.37487999999991
 30
0.0
 11
-677.63385000000005
 21
450.37487999999991
 31
0.0
  0
LINE
  5
770
  8
0
  6
CONTINUOUS
 62
     7
 10
-562.29387999999994
 20
469.09485000000001
 30
0.0
 11
-661.27386000000001
 21
469.09485000000001
 31
0.0
  0
LINE
  5
771
  8
0
  6
CONTINUOUS
 62
     7
 10
-562.29387999999994
 20
467.09485000000001
 30
0.0
 11
-661.27386000000001
 21
467.09485000000001
 31
0.0
  0
LINE
  5
772
  8
0
  6
CONTINUOUS
 62
     7
 10
-594.63385000000017
 20
459.09485000000001
 30
0.0
 11
-661.27386000000001
 21
459.09485000000001
 31
0.0
  0
LINE
  5
773
  8
0
  6
CONTINUOUS
 62
     7
 10
-562.30102999999986
 20
457.09485000000001
 30
0.0
 11
-661.27386000000001
 21
457.09485000000001
 31
0.0
  0
LINE
  5
774
  8
0
  6
CONTINUOUS
 62
     7
 10
-627.19512999999995
 20
449.09485000000001
 30
0.0
 11
-661.27386000000001
 21
449.09485000000001
 31
0.0
  0
LINE
  5
775
  8
0
  6
CONTINUOUS
 62
     7
 10
-627.19512999999995
 20
447.09485000000001
 30
0.0
 11
-661.27386000000001
 21
447.09485000000001
 31
0.0
  0
LINE
  5
776
  8
0
  6
CONTINUOUS
 62
     7
 10
-627.19512999999995
 20
439.09485000000001
 30
0.0
 11
-661.27386000000001
 21
439.09485000000001
 31
0.0
  0
LINE
  5
777
  8
0
  6
CONTINUOUS
 62
     7
 10
-627.19512999999995
 20
437.09484999999989
 30
0.0
 11
-661.27386000000001
 21
437.09484999999989
 31
0.0
  0
LINE
  5
778
  8
0
  6
CONTINUOUS
 62
     7
 10
-661.95385999999985
 20
469.81482
 30
0.0
 11
-558.81384000000003
 21
469.81482
 31
0.0
  0
LINE
  5
779
  8
0
  6
CONTINUOUS
 62
     7
 10
-661.95385999999985
 20
466.46483999999992
 30
0.0
 11
-594.61383000000001
 21
466.46483999999992
 31
0.0
  0
LINE
  5
77A
  8
0
  6
CONTINUOUS
 62
     7
 10
-662.17389000000003
 20
459.58483999999999
 30
0.0
 11
-594.63385000000017
 21
459.58483999999999
 31
0.0
  0
LINE
  5
77B
  8
0
  6
CONTINUOUS
 62
     7
 10
-662.17389000000003
 20
456.65490999999992
 30
0.0
 11
-558.59960999999998
 21
456.65490999999992
 31
0.0
  0
LINE
  5
77C
  8
0
  6
CONTINUOUS
 62
     7
 10
-662.30382999999995
 20
449.4348099999998
 30
0.0
 11
-625.97515999999985
 21
449.4348099999998
 31
0.0
  0
LINE
  5
77D
  8
0
  6
CONTINUOUS
 62
     7
 10
-662.30382999999995
 20
446.7749
 30
0.0
 11
-625.97515999999985
 21
446.7749
 31
0.0
  0
LINE
  5
77E
  8
0
  6
CONTINUOUS
 62
     7
 10
-662.3638900000002
 20
439.36486999999988
 30
0.0
 11
-625.91516000000001
 21
439.36486999999988
 31
0.0
  0
LINE
  5
77F
  8
0
  6
CONTINUOUS
 62
     7
 10
-662.3638900000002
 20
436.83483999999999
 30
0.0
 11
-625.91516000000001
 21
436.83483999999999
 31
0.0
  0
LINE
  5
780
  8
0
  6
CONTINUOUS
 62
     7
 10
-662.3638900000002
 20
429.36487
 30
0.0
 11
-625.91516000000001
 21
429.36487
 31
0.0
  0
LINE
  5
781
  8
0
  6
CONTINUOUS
 62
     7
 10
-627.19512999999995
 20
429.09484999999989
 30
0.0
 11
-661.27386000000001
 21
429.09484999999989
 31
0.0
  0
LINE
  5
782
  8
0
  6
CONTINUOUS
 62
     7
 10
-627.19512999999995
 20
427.09485000000001
 30
0.0
 11
-661.27386000000001
 21
427.09485000000001
 31
0.0
  0
LINE
  5
783
  8
0
  6
CONTINUOUS
 62
     7
 10
-662.3638900000002
 20
426.82482999999968
 30
0.0
 11
-625.91516000000001
 21
426.82482999999968
 31
0.0
  0
LINE
  5
784
  8
0
  6
CONTINUOUS
 62
     7
 10
-662.30382999999995
 20
419.41478999999993
 30
0.0
 11
-625.97515999999985
 21
419.41478999999993
 31
0.0
  0
LINE
  5
785
  8
0
  6
CONTINUOUS
 62
     7
 10
-627.19512999999995
 20
419.09485000000001
 30
0.0
 11
-661.27386000000001
 21
419.09485000000001
 31
0.0
  0
LINE
  5
786
  8
0
  6
CONTINUOUS
 62
     7
 10
-627.19512999999995
 20
417.09484999999989
 30
0.0
 11
-661.27386000000001
 21
417.09484999999989
 31
0.0
  0
LINE
  5
787
  8
0
  6
CONTINUOUS
 62
     7
 10
-662.30382999999995
 20
416.75487999999962
 30
0.0
 11
-625.9625900000002
 21
416.75487999999962
 31
0.0
  0
LINE
  5
788
  8
0
  6
CONTINUOUS
 62
     7
 10
-562.30102999999986
 20
409.09485000000001
 30
0.0
 11
-661.27386000000001
 21
409.09485000000001
 31
0.0
  0
LINE
  5
789
  8
0
  6
CONTINUOUS
 62
     7
 10
-662.17389000000003
 20
409.53478999999999
 30
0.0
 11
-558.59960999999998
 21
409.53478999999999
 31
0.0
  0
LINE
  5
78A
  8
0
  6
CONTINUOUS
 62
     7
 10
-594.63385000000017
 20
407.09485000000001
 30
0.0
 11
-661.27386000000001
 21
407.09485000000001
 31
0.0
  0
LINE
  5
78B
  8
0
  6
CONTINUOUS
 62
     7
 10
-662.17389000000003
 20
406.60485999999997
 30
0.0
 11
-594.63385000000017
 21
406.60485999999997
 31
0.0
  0
LINE
  5
78C
  8
0
  6
CONTINUOUS
 62
     7
 10
-562.29387999999994
 20
399.09485000000001
 30
0.0
 11
-606.63385000000005
 21
399.09485000000001
 31
0.0
  0
LINE
  5
78D
  8
0
  6
CONTINUOUS
 62
     7
 10
-562.29387999999994
 20
397.09485000000001
 30
0.0
 11
-606.63385000000005
 21
397.09485000000001
 31
0.0
  0
LINE
  5
78E
  8
0
  6
CONTINUOUS
 62
     7
 10
-661.95385999999985
 20
396.37487999999991
 30
0.0
 11
-606.63385000000005
 21
396.37487999999991
 31
0.0
  0
LINE
  5
78F
  8
0
  6
CONTINUOUS
 62
     7
 10
-558.81384000000003
 20
399.72484999999989
 30
0.0
 11
-576.65386999999987
 21
399.72484999999989
 31
0.0
  0
LINE
  5
790
  8
0
  6
CONTINUOUS
 62
     7
 10
-675.43384000000003
 20
397.40490999999992
 30
0.0
 11
-673.33385999999985
 21
397.40490999999992
 31
0.0
  0
LINE
  5
791
  8
0
  6
CONTINUOUS
 62
     7
 10
-675.82379000000003
 20
397.48486000000008
 30
0.0
 11
-677.02385999999979
 21
398.00484999999992
 31
0.0
  0
LINE
  5
792
  8
0
  6
CONTINUOUS
 62
     7
 10
-675.48389000000009
 20
399.35485999999997
 30
0.0
 11
-673.63385000000017
 21
399.35485999999997
 31
0.0
  0
LINE
  5
793
  8
0
  6
CONTINUOUS
 62
     7
 10
-675.77386000000001
 20
399.39483999999987
 30
0.0
 11
-676.92382999999995
 21
399.75482
 31
0.0
  0
LINE
  5
794
  8
0
  6
CONTINUOUS
 62
     7
 10
-673.63385000000017
 20
407.09485000000001
 30
0.0
 11
-676.63385000000005
 21
407.09485000000001
 31
0.0
  0
LINE
  5
795
  8
0
  6
CONTINUOUS
 62
     7
 10
-673.63385000000017
 20
409.09485000000001
 30
0.0
 11
-676.63385000000005
 21
409.09485000000001
 31
0.0
  0
LINE
  5
796
  8
0
  6
CONTINUOUS
 62
     7
 10
-673.63385000000017
 20
417.09484999999989
 30
0.0
 11
-676.63385000000005
 21
417.09484999999989
 31
0.0
  0
LINE
  5
797
  8
0
  6
CONTINUOUS
 62
     7
 10
-673.63385000000017
 20
419.09485000000001
 30
0.0
 11
-676.63385000000005
 21
419.09485000000001
 31
0.0
  0
LINE
  5
798
  8
0
  6
CONTINUOUS
 62
     7
 10
-673.63385000000017
 20
427.09485000000001
 30
0.0
 11
-676.63385000000005
 21
427.09485000000001
 31
0.0
  0
LINE
  5
799
  8
0
  6
CONTINUOUS
 62
     7
 10
-673.63385000000017
 20
429.09484999999989
 30
0.0
 11
-676.63385000000005
 21
429.09484999999989
 31
0.0
  0
LINE
  5
79A
  8
0
  6
CONTINUOUS
 62
     7
 10
-675.63385000000005
 20
417.48486000000003
 30
0.0
 11
-675.63385000000005
 21
418.70482999999979
 31
0.0
  0
LINE
  5
79B
  8
0
  6
CONTINUOUS
 62
     7
 10
-675.63385000000005
 20
427.48485999999991
 30
0.0
 11
-675.63385000000005
 21
428.64490000000001
 31
0.0
  0
LINE
  5
79C
  8
0
  6
CONTINUOUS
 62
     7
 10
-675.63385000000005
 20
407.46483999999998
 30
0.0
 11
-675.63385000000005
 21
408.83483999999999
 31
0.0
  0
LINE
  5
79D
  8
0
  6
CONTINUOUS
 62
     7
 10
-675.63385000000005
 20
397.70482999999979
 30
0.0
 11
-675.63385000000005
 21
398.76488999999992
 31
0.0
  0
LINE
  5
79E
  8
0
  6
CONTINUOUS
 62
     7
 10
-679.13385000000005
 20
413.09485000000001
 30
0.0
 11
-679.13385000000005
 21
433.09484999999989
 31
0.0
  0
LINE
  5
79F
  8
0
  6
CONTINUOUS
 62
     7
 10
-679.13385000000005
 20
413.09482000000003
 30
0.0
 11
-677.63385000000005
 21
412.96480999999989
 31
0.0
  0
LINE
  5
7A0
  8
0
  6
CONTINUOUS
 62
     7
 10
-679.13385000000005
 20
417.94481999999999
 30
0.0
 11
-677.63385000000005
 21
417.94481999999999
 31
0.0
  0
LINE
  5
7A1
  8
0
  6
CONTINUOUS
 62
     7
 10
-679.13385000000005
 20
415.81482
 30
0.0
 11
-677.63385000000005
 21
415.81482
 31
0.0
  0
LINE
  5
7A2
  8
0
  6
CONTINUOUS
 62
     7
 10
-661.95385999999985
 20
399.72484999999989
 30
0.0
 11
-594.61383000000001
 21
399.72484999999989
 31
0.0
  0
LINE
  5
7A3
  8
0
  6
CONTINUOUS
 62
     7
 10
-606.63385000000005
 20
399.09485000000001
 30
0.0
 11
-661.27386000000001
 21
399.09485000000001
 31
0.0
  0
LINE
  5
7A4
  8
0
  6
CONTINUOUS
 62
     7
 10
-606.63385000000005
 20
397.09485000000001
 30
0.0
 11
-661.27386000000001
 21
397.09485000000001
 31
0.0
  0
LINE
  5
7A5
  8
0
  6
CONTINUOUS
 62
     7
 10
-606.63385000000005
 20
396.37487999999991
 30
0.0
 11
-558.81384000000003
 21
396.37487999999991
 31
0.0
  0
LINE
  5
7A6
  8
0
  6
CONTINUOUS
 62
     7
 10
-671.63385000000005
 20
486.09485000000001
 30
0.0
 11
-671.63385000000005
 21
380.09485000000001
 31
0.0
  0
LINE
  5
7A7
  8
0
  6
CONTINUOUS
 62
     7
 10
-663.63385000000005
 20
486.09485000000001
 30
0.0
 11
-663.63385000000005
 21
380.09485000000001
 31
0.0
  0
LINE
  5
7A8
  8
0
  6
CONTINUOUS
 62
     7
 10
-677.14386000000002
 20
391.99480999999992
 30
0.0
 11
-677.16387999999995
 21
392.00479000000001
 31
0.0
  0
LINE
  5
7A9
  8
0
  6
CONTINUOUS
 62
     7
 10
-672.63385000000005
 20
483.09484999999989
 30
0.0
 11
-672.63385000000005
 21
383.09485000000001
 31
0.0
  0
LINE
  5
7AA
  8
0
  6
CONTINUOUS
 62
     7
 10
-672.63385000000005
 20
483.09484999999989
 30
0.0
 11
-671.63385000000005
 21
483.09484999999989
 31
0.0
  0
LINE
  5
7AB
  8
0
  6
CONTINUOUS
 62
     7
 10
-671.63385000000005
 20
486.09485000000001
 30
0.0
 11
-663.63385000000005
 21
486.09485000000001
 31
0.0
  0
LINE
  5
7AC
  8
0
  6
CONTINUOUS
 62
     7
 10
-670.93384000000003
 20
476.28478999999987
 30
0.0
 11
-664.70385999999996
 21
476.28478999999987
 31
0.0
  0
LINE
  5
7AD
  8
0
  6
CONTINUOUS
 62
     7
 10
-555.63385000000005
 20
479.09484999999989
 30
0.0
 11
-547.63385000000005
 21
479.09484999999989
 31
0.0
  0
LINE
  5
7AE
  8
0
  6
CONTINUOUS
 62
     7
 10
-555.63385000000005
 20
465.03478999999982
 30
0.0
 11
-547.63385000000005
 21
465.03478999999982
 31
0.0
  0
LINE
  5
7AF
  8
0
  6
CONTINUOUS
 62
     7
 10
-555.63385000000005
 20
489.09485000000001
 30
0.0
 11
-547.63385000000005
 21
489.09485000000001
 31
0.0
  0
LINE
  5
7B0
  8
0
  6
CONTINUOUS
 62
     7
 10
-660.42389000000003
 20
489.37488000000002
 30
0.0
 11
-563.50385000000017
 21
489.37488000000002
 31
0.0
  0
LINE
  5
7B1
  8
0
  6
CONTINUOUS
 62
     7
 10
-663.63385000000005
 20
481.19488999999987
 30
0.0
 11
-662.39380000000006
 21
487.75487999999962
 31
0.0
  0
LINE
  5
7B2
  8
0
  6
CONTINUOUS
 62
     7
 10
-658.27380000000005
 20
469.74486999999988
 30
0.0
 11
-663.63378999999998
 21
481.1948499999998
 31
0.0
  0
LINE
  5
7B3
  8
0
  6
CONTINUOUS
 62
     7
 10
-658.27392999999995
 20
396.44481999999988
 30
0.0
 11
-663.63385000000005
 21
385.00491
 31
0.0
  0
LINE
  5
7B4
  8
0
  6
CONTINUOUS
 62
     7
 10
-660.38385000000005
 20
492.22485
 30
0.0
 11
-563.50385000000017
 21
492.22485
 31
0.0
  0
LINE
  5
7B5
  8
0
  6
CONTINUOUS
 62
     7
 10
-660.36388999999986
 20
494.07483000000002
 30
0.0
 11
-563.50385000000017
 21
494.07483000000002
 31
0.0
  0
LINE
  5
7B6
  8
0
  6
CONTINUOUS
 62
     7
 10
-660.34387000000004
 20
494.98486000000003
 30
0.0
 11
-563.50378000000001
 21
494.98486000000003
 31
0.0
  0
LINE
  5
7B7
  8
0
  6
CONTINUOUS
 62
     7
 10
-663.63378999999998
 20
482.53485000000001
 30
0.0
 11
-662.35382000000004
 21
490.54479999999978
 31
0.0
  0
LINE
  5
7B8
  8
0
  6
CONTINUOUS
 62
     7
 10
-663.63391000000001
 20
483.88482999999991
 30
0.0
 11
-662.34387000000004
 21
492.37490999999989
 31
0.0
  0
LINE
  5
7B9
  8
0
  6
CONTINUOUS
 62
     7
 10
-663.63391000000001
 20
483.88482999999991
 30
0.0
 11
-662.32384999999999
 21
493.26485999999989
 31
0.0
  0
LINE
  5
7BA
  8
0
  6
CONTINUOUS
 62
     7
 10
-557.43384000000003
 20
472.43480999999991
 30
0.0
 11
-561.57384999999988
 21
487.89487000000003
 31
0.0
  0
LINE
  5
7BB
  8
0
  6
CONTINUOUS
 62
     7
 10
-561.09387000000004
 20
486.09485000000001
 30
0.0
 11
-555.63385000000005
 21
486.09485000000001
 31
0.0
  0
LINE
  5
7BC
  8
0
  6
CONTINUOUS
 62
     7
 10
-677.63385000000005
 20
385.07482999999991
 30
0.0
 11
-677.63385000000005
 21
428.09485000000001
 31
0.0
  0
LINE
  5
7BD
  8
0
  6
CONTINUOUS
 62
     7
 10
-675.3638900000002
 20
383.34485000000001
 30
0.0
 11
-673.13385000000005
 21
383.34485000000001
 31
0.0
  0
LINE
  5
7BE
  8
0
  6
CONTINUOUS
 62
     7
 10
-675.86383000000001
 20
383.48480000000001
 30
0.0
 11
-677.13385000000005
 21
384.21481
 31
0.0
  0
LINE
  5
7BF
  8
0
  6
CONTINUOUS
 62
     7
 10
-675.87378000000001
 20
385.59482000000003
 30
0.0
 11
-677.15380999999979
 21
386.36484000000002
 31
0.0
  0
LINE
  5
7C0
  8
0
  6
CONTINUOUS
 62
     7
 10
-675.88391000000001
 20
390.13482999999991
 30
0.0
 11
-677.18389999999988
 21
390.98482999999999
 31
0.0
  0
LINE
  5
7C1
  8
0
  6
CONTINUOUS
 62
     7
 10
-675.35388
 20
385.45482999999979
 30
0.0
 11
-672.63385000000005
 21
385.45482999999979
 31
0.0
  0
LINE
  5
7C2
  8
0
  6
CONTINUOUS
 62
     7
 10
-675.33385999999985
 20
389.97485
 30
0.0
 11
-672.63385000000005
 21
389.97485
 31
0.0
  0
LINE
  5
7C3
  8
0
  6
CONTINUOUS
 62
     7
 10
-675.3638900000002
 20
391.11487
 30
0.0
 11
-673.63385000000017
 21
391.11487
 31
0.0
  0
LINE
  5
7C4
  8
0
  6
CONTINUOUS
 62
     7
 10
-675.38385000000005
 20
386.59485000000001
 30
0.0
 11
-673.63385000000017
 21
386.59485000000001
 31
0.0
  0
LINE
  5
7C5
  8
0
  6
CONTINUOUS
 62
     7
 10
-675.39386000000002
 20
384.49486999999999
 30
0.0
 11
-673.13385000000005
 21
384.49486999999999
 31
0.0
  0
LINE
  5
7C6
  8
0
  6
CONTINUOUS
 62
     7
 10
-675.86383000000001
 20
391.24486999999999
 30
0.0
 11
-677.14380000000006
 21
391.99483999999978
 31
0.0
  0
LINE
  5
7C7
  8
0
  6
CONTINUOUS
 62
     7
 10
-675.84387000000004
 20
384.60480000000001
 30
0.0
 11
-677.08385999999985
 21
385.23480000000001
 31
0.0
  0
LINE
  5
7C8
  8
0
  6
CONTINUOUS
 62
     7
 10
-675.85388
 20
386.71480999999989
 30
0.0
 11
-677.10388
 21
387.37481999999989
 31
0.0
  0
LINE
  5
7C9
  8
0
  6
CONTINUOUS
 62
     7
 10
-675.63385000000005
 20
390.26488999999992
 30
0.0
 11
-675.63385000000005
 21
390.73486000000003
 31
0.0
  0
LINE
  5
7CA
  8
0
  6
CONTINUOUS
 62
     7
 10
-675.63385000000005
 20
385.69481999999999
 30
0.0
 11
-675.63385000000005
 21
386.24486999999988
 31
0.0
  0
LINE
  5
7CB
  8
0
  6
CONTINUOUS
 62
     7
 10
-675.63385000000005
 20
383.59485000000001
 30
0.0
 11
-675.63385000000005
 21
384.12487999999991
 31
0.0
  0
LINE
  5
7CC
  8
0
  6
CONTINUOUS
 62
     7
 10
-672.63385000000005
 20
383.09485000000001
 30
0.0
 11
-671.63385000000005
 21
383.09485000000001
 31
0.0
  0
LINE
  5
7CD
  8
0
  6
CONTINUOUS
 62
     7
 10
-671.63385000000005
 20
380.09485000000001
 30
0.0
 11
-663.63385000000005
 21
380.09485000000001
 31
0.0
  0
LINE
  5
7CE
  8
0
  6
CONTINUOUS
 62
     7
 10
-670.93384000000003
 20
389.90490999999992
 30
0.0
 11
-664.70385999999996
 21
389.90490999999992
 31
0.0
  0
LINE
  5
7CF
  8
0
  6
CONTINUOUS
 62
     7
 10
-555.63385000000005
 20
387.09485000000001
 30
0.0
 11
-547.63385000000005
 21
387.09485000000001
 31
0.0
  0
LINE
  5
7D0
  8
0
  6
CONTINUOUS
 62
     7
 10
-555.63385000000005
 20
377.09485000000001
 30
0.0
 11
-547.63385000000005
 21
377.09485000000001
 31
0.0
  0
LINE
  5
7D1
  8
0
  6
CONTINUOUS
 62
     7
 10
-660.42389000000003
 20
376.81482
 30
0.0
 11
-563.50385000000017
 21
376.81482
 31
0.0
  0
LINE
  5
7D2
  8
0
  6
CONTINUOUS
 62
     7
 10
-663.63385000000005
 20
385.00479000000001
 30
0.0
 11
-662.39386000000002
 21
378.44478999999978
 31
0.0
  0
LINE
  5
7D3
  8
0
  6
CONTINUOUS
 62
     7
 10
-660.72760000000005
 20
373.96483999999998
 30
0.0
 11
-638.23572000000001
 21
373.96483999999998
 31
0.0
  0
LINE
  5
7D4
  8
0
  6
CONTINUOUS
 62
     7
 10
-663.63385000000005
 20
383.65481999999992
 30
0.0
 11
-662.35388
 21
375.65487999999999
 31
0.0
  0
LINE
  5
7D5
  8
0
  6
CONTINUOUS
 62
     7
 10
-663.63391000000001
 20
382.31487999999979
 30
0.0
 11
-662.62463000000002
 21
375.66469999999998
 31
0.0
  0
LINE
  5
7D6
  8
0
  6
CONTINUOUS
 62
     7
 10
-663.63385000000005
 20
382.31487999999979
 30
0.0
 11
-662.70836999999995
 21
375.68826000000001
 31
0.0
  0
LINE
  5
7D7
  8
0
  6
CONTINUOUS
 62
     7
 10
-557.42809999999997
 20
393.77600000000001
 30
0.0
 11
-561.57384999999988
 21
378.29486000000003
 31
0.0
  0
LINE
  5
7D8
  8
0
  6
CONTINUOUS
 62
     7
 10
-561.09185999999966
 20
380.09485000000001
 30
0.0
 11
-555.63385000000005
 21
380.09485000000001
 31
0.0
  0
LINE
  5
7D9
  8
0
  6
CONTINUOUS
 62
     7
 10
-555.63385000000005
 20
401.1549099999998
 30
0.0
 11
-547.63385000000005
 21
401.1549099999998
 31
0.0
  0
LINE
  5
7DA
  8
0
  6
CONTINUOUS
 62
     3
 10
-636.63385000000017
 20
368.59482000000003
 30
0.0
 11
-636.84911999999997
 21
376.81487999999979
 31
0.0
  0
LINE
  5
7DB
  8
0
  6
CONTINUOUS
 62
     3
 10
-576.63378999999986
 20
368.59482000000003
 30
0.0
 11
-576.41857999999979
 21
376.81491
 31
0.0
  0
LINE
  5
7DC
  8
0
  6
CONTINUOUS
 62
     3
 10
-556.63385000000005
 20
380.09482000000003
 30
0.0
 11
-562.35961999999995
 21
371.27791999999988
 31
0.0
  0
LINE
  5
7DD
  8
0
  6
CONTINUOUS
 62
     7
 10
-576.63385000000005
 20
368.59485000000001
 30
0.0
 11
-636.63385000000017
 21
368.59485000000001
 31
0.0
  0
LINE
  5
7DE
  8
0
  6
CONTINUOUS
 62
     7
 10
-575.12024000000019
 20
370.59485000000001
 30
0.0
 11
-563.61767999999995
 21
370.59485000000001
 31
0.0
  0
LINE
  5
7DF
  8
0
  6
CONTINUOUS
 62
     7
 10
-577.65386999999976
 20
460.59485000000001
 30
0.0
 11
-577.65386999999976
 21
465.45483000000002
 31
0.0
  0
LINE
  5
7E0
  8
0
  6
CONTINUOUS
 62
     7
 10
-593.61383000000001
 20
460.59485000000001
 30
0.0
 11
-593.61383000000001
 21
465.45483000000002
 31
0.0
  0
LINE
  5
7E1
  8
0
  6
CONTINUOUS
 62
     7
 10
-578.13385000000017
 20
460.59485000000001
 30
0.0
 11
-578.13385000000017
 21
465.59485000000001
 31
0.0
  0
LINE
  5
7E2
  8
0
  6
CONTINUOUS
 62
     7
 10
-593.13385000000005
 20
460.59485000000001
 30
0.0
 11
-593.13385000000005
 21
465.59485000000001
 31
0.0
  0
LINE
  5
7E3
  8
0
  6
CONTINUOUS
 62
     7
 10
-621.63385000000005
 20
446.09484999999989
 30
0.0
 11
-558.63385000000005
 21
446.09484999999989
 31
0.0
  0
LINE
  5
7E4
  8
0
  6
CONTINUOUS
 62
     7
 10
-621.63385000000005
 20
412.59484999999989
 30
0.0
 11
-558.63385000000005
 21
412.59484999999989
 31
0.0
  0
LINE
  5
7E5
  8
0
  6
CONTINUOUS
 62
     7
 10
-621.63385000000005
 20
453.59484999999989
 30
0.0
 11
-558.63385000000005
 21
453.59484999999989
 31
0.0
  0
LINE
  5
7E6
  8
0
  6
CONTINUOUS
 62
     3
 10
-558.63385000000005
 20
453.59484999999989
 30
0.0
 11
-558.63385000000005
 21
412.59484999999989
 31
0.0
  0
LINE
  5
7E7
  8
0
  6
CONTINUOUS
 62
     3
 10
-621.63385000000005
 20
453.59484999999989
 30
0.0
 11
-621.63385000000005
 21
412.59484999999989
 31
0.0
  0
LINE
  5
7E8
  8
0
  6
CONTINUOUS
 62
     7
 10
-576.63385000000005
 20
459.58483999999999
 30
0.0
 11
-558.58812999999986
 21
459.58483999999999
 31
0.0
  0
LINE
  5
7E9
  8
0
  6
CONTINUOUS
 62
     7
 10
-576.63385000000005
 20
406.61487
 30
0.0
 11
-558.59960999999998
 21
406.61487
 31
0.0
  0
LINE
  5
7EA
  8
0
  6
CONTINUOUS
 62
     7
 10
-577.65386999999976
 20
405.59485000000001
 30
0.0
 11
-577.65386999999976
 21
400.73486000000003
 31
0.0
  0
LINE
  5
7EB
  8
0
  6
CONTINUOUS
 62
     7
 10
-593.61383000000001
 20
405.59485000000001
 30
0.0
 11
-593.61383000000001
 21
400.73486000000003
 31
0.0
  0
LINE
  5
7EC
  8
0
  6
CONTINUOUS
 62
     7
 10
-578.13385000000017
 20
405.59485000000001
 30
0.0
 11
-578.13385000000017
 21
400.59485000000001
 31
0.0
  0
LINE
  5
7ED
  8
0
  6
CONTINUOUS
 62
     7
 10
-593.13385000000005
 20
405.59485000000001
 30
0.0
 11
-593.13385000000005
 21
400.59485000000001
 31
0.0
  0
LINE
  5
7EE
  8
0
  6
CONTINUOUS
 62
     7
 10
-562.30102999999986
 20
407.09485000000001
 30
0.0
 11
-576.63385000000005
 21
407.09485000000001
 31
0.0
  0
LINE
  5
7EF
  8
0
  6
CONTINUOUS
 62
     7
 10
-562.28674000000001
 20
459.09485000000001
 30
0.0
 11
-576.63385000000005
 21
459.09485000000001
 31
0.0
  0
LINE
  5
7F0
  8
0
  6
CONTINUOUS
 62
     3
 10
-576.65386999999987
 20
466.45482999999979
 30
0.0
 11
-558.81384000000003
 21
466.45482999999979
 31
0.0
  0
LINE
  5
7F1
  8
0
  6
CONTINUOUS
 62
     7
 10
-547.63385000000005
 20
401.1549099999998
 30
0.0
 11
-527.63385000000005
 21
401.1549099999998
 31
0.0
  0
LINE
  5
7F2
  8
0
  6
CONTINUOUS
 62
     7
 10
-547.63385000000005
 20
465.03478999999982
 30
0.0
 11
-527.63385000000005
 21
465.03478999999982
 31
0.0
  0
ARC
  5
7F3
  8
0
  6
CONTINUOUS
 62
     7
 10
-361.63382000000001
 20
463.14758
 30
0.0
 40
1.0
 50
180.00001
 51
268.5
  0
ARC
  5
7F4
  8
0
  6
CONTINUOUS
 62
     7
 10
-360.63382000000001
 20
461.1207
 30
0.0
 40
1.0
 50
0.0
 51
88.499996999999965
  0
CIRCLE
  5
7F5
  8
0
  6
CONTINUOUS
 62
     7
 10
-374.63382000000001
 20
508.09484999999989
 30
0.0
 40
6.0
  0
ARC
  5
7F6
  8
0
  6
CONTINUOUS
 62
     7
 10
-466.63382000000001
 20
519.20348999999999
 30
0.0
 40
3.0
 50
91.500000999999969
 51
180.00001
  0
ARC
  5
7F7
  8
0
  6
CONTINUOUS
 62
     7
 10
-362.63382000000001
 20
518.26080000000002
 30
0.0
 40
3.0
 50
0.0
 51
88.499996999999965
  0
ARC
  5
7F8
  8
0
  6
CONTINUOUS
 62
     7
 10
-454.63382000000001
 20
508.09484999999989
 30
0.0
 40
6.0
 50
57.788072
 51
289.47122999999999
  0
ARC
  5
7F9
  8
0
  6
CONTINUOUS
 62
     7
 10
-362.63382000000001
 20
491.09484999999989
 30
0.0
 40
3.0
 50
284.47751
 51
0.0
  0
ARC
  5
7FA
  8
0
  6
CONTINUOUS
 62
     7
 10
-466.63382000000001
 20
500.31094000000002
 30
0.0
 40
3.0
 50
180.00001
 51
254.99998999999991
  0
ARC
  5
7FB
  8
0
  6
CONTINUOUS
 62
     7
 10
-361.63382000000001
 20
403.04210999999981
 30
0.0
 40
1.0
 50
91.500000999999969
 51
180.00001
  0
ARC
  5
7FC
  8
0
  6
CONTINUOUS
 62
     7
 10
-360.63382000000001
 20
405.06900000000002
 30
0.0
 40
1.0
 50
271.49999999999972
 51
0.0
  0
CIRCLE
  5
7FD
  8
0
  6
CONTINUOUS
 62
     7
 10
-374.63382000000001
 20
358.09485000000001
 30
0.0
 40
6.0
  0
ARC
  5
7FE
  8
0
  6
CONTINUOUS
 62
     7
 10
-466.63382000000001
 20
346.98621000000009
 30
0.0
 40
3.0
 50
180.00001
 51
268.5
  0
ARC
  5
7FF
  8
0
  6
CONTINUOUS
 62
     7
 10
-362.63382000000001
 20
347.92888999999991
 30
0.0
 40
3.0
 50
271.49999999999972
 51
0.0
  0
ARC
  5
800
  8
0
  6
CONTINUOUS
 62
     7
 10
-454.63382000000001
 20
358.09485000000001
 30
0.0
 40
6.0
 50
70.528779
 51
302.21188000000001
  0
ARC
  5
801
  8
0
  6
CONTINUOUS
 62
     7
 10
-362.63382000000001
 20
375.09485000000001
 30
0.0
 40
3.0
 50
0.0
 51
75.522487999999981
  0
ARC
  5
802
  8
0
  6
CONTINUOUS
 62
     7
 10
-466.63382000000001
 20
365.87875000000003
 30
0.0
 40
3.0
 50
105.0
 51
180.00001
  0
ARC
  5
803
  8
0
  6
CONTINUOUS
 62
     7
 10
-437.63382000000001
 20
517.96221999999977
 30
0.0
 40
5.0
 50
0.0
 51
91.500000999999969
  0
ARC
  5
804
  8
0
  6
CONTINUOUS
 62
     7
 10
-437.63382000000001
 20
512.96222
 30
0.0
 40
5.0
 50
28.47123899999999
 51
70.528779
  0
ARC
  5
805
  8
0
  6
CONTINUOUS
 62
     7
 10
-435.63382000000001
 20
518.61908000000005
 30
0.0
 40
1.0
 50
180.00001
 51
250.52877000000001
  0
ARC
  5
806
  8
0
  6
CONTINUOUS
 62
     7
 10
-437.63382000000001
 20
521.96221999999977
 30
0.0
 40
1.0
 50
0.0
 51
90.000003000000007
  0
ARC
  5
807
  8
0
  6
CONTINUOUS
 62
     7
 10
-346.63384999999982
 20
433.09484999999989
 30
0.0
 40
3.9999962
 50
90.000003000000007
 51
270.0
  0
ARC
  5
808
  8
0
  6
CONTINUOUS
 62
     7
 10
-361.63382000000001
 20
378.96782999999988
 30
0.0
 40
1.0
 50
180.00001
 51
255.52249
  0
ARC
  5
809
  8
0
  6
CONTINUOUS
 62
     7
 10
-361.63382000000001
 20
487.22185999999988
 30
0.0
 40
1.0
 50
104.47751
 51
180.00001
  0
ARC
  5
80A
  8
0
  6
CONTINUOUS
 62
     7
 10
-365.63382000000001
 20
381.84384
 30
0.0
 40
3.0
 50
275.0
 51
0.0
  0
ARC
  5
80B
  8
0
  6
CONTINUOUS
 62
     7
 10
-365.63382000000001
 20
484.34585999999979
 30
0.0
 40
3.0
 50
0.0
 51
85.000004000000004
  0
ARC
  5
80C
  8
0
  6
CONTINUOUS
 62
     7
 10
-379.63382000000001
 20
488.26641999999993
 30
0.0
 40
5.0
 50
0.0
 51
88.0
  0
ARC
  5
80D
  8
0
  6
CONTINUOUS
 62
     7
 10
-379.63382000000001
 20
377.92327999999992
 30
0.0
 40
5.0
 50
272.0
 51
0.0
  0
ARC
  5
80E
  8
0
  6
CONTINUOUS
 62
     7
 10
-370.73198999999988
 20
492.82244999999989
 30
0.0
 40
5.0
 50
207.1038099999999
 51
265.00000999999992
  0
ARC
  5
80F
  8
0
  6
CONTINUOUS
 62
     7
 10
-370.73198999999988
 20
373.36725000000001
 30
0.0
 40
5.0
 50
95.000001999999995
 51
152.89618999999979
  0
ARC
  5
810
  8
0
  6
CONTINUOUS
 62
     7
 10
-387.63382000000001
 20
349.27492999999993
 30
0.0
 40
5.0
 50
180.00001
 51
271.49999999999972
  0
ARC
  5
811
  8
0
  6
CONTINUOUS
 62
     7
 10
-387.63382000000001
 20
516.91479000000004
 30
0.0
 40
5.0
 50
88.499996999999965
 51
180.00001
  0
ARC
  5
812
  8
0
  6
CONTINUOUS
 62
     7
 10
-384.63382000000001
 20
501.44890999999961
 30
0.0
 40
8.0
 50
180.00001
 51
268.0
  0
ARC
  5
813
  8
0
  6
CONTINUOUS
 62
     7
 10
-384.63382000000001
 20
364.74077999999992
 30
0.0
 40
8.0
 50
91.999998000000005
 51
180.00001
  0
ARC
  5
814
  8
0
  6
CONTINUOUS
 62
     7
 10
-437.63382000000001
 20
348.22747999999979
 30
0.0
 40
5.0
 50
268.5
 51
0.0000006832456
  0
ARC
  5
815
  8
0
  6
CONTINUOUS
 62
     7
 10
-437.63382000000001
 20
353.22747999999979
 30
0.0
 40
5.0
 50
289.47122999999999
 51
331.52875999999998
  0
ARC
  5
816
  8
0
  6
CONTINUOUS
 62
     7
 10
-435.63382000000001
 20
347.57062000000002
 30
0.0
 40
1.0
 50
109.47122
 51
180.00001
  0
ARC
  5
817
  8
0
  6
CONTINUOUS
 62
     7
 10
-437.63382000000001
 20
344.22747999999979
 30
0.0
 40
1.0
 50
270.0
 51
0.0
  0
ARC
  5
818
  8
0
  6
CONTINUOUS
 62
     7
 10
-447.63381999999979
 20
356.26598999999987
 30
0.0
 40
5.0
 50
180.00001
 51
268.0
  0
ARC
  5
819
  8
0
  6
CONTINUOUS
 62
     7
 10
-447.63381999999979
 20
509.9237099999998
 30
0.0
 40
5.0
 50
91.999998000000005
 51
180.00001
  0
ARC
  5
81A
  8
0
  6
CONTINUOUS
 62
     7
 10
-455.63381999999979
 20
365.77237000000002
 30
0.0
 40
3.0
 50
0.0
 51
88.0
  0
ARC
  5
81B
  8
0
  6
CONTINUOUS
 62
     7
 10
-455.63381999999979
 20
500.41730000000001
 30
0.0
 40
3.0
 50
272.0
 51
0.0
  0
ARC
  5
81C
  8
0
  6
DASHED
 62
     7
 10
-454.63382000000001
 20
358.09485000000001
 30
0.0
 40
6.0
 50
302.21188000000001
 51
70.528779
  0
ARC
  5
81D
  8
0
  6
DASHED
 62
     7
 10
-454.63382000000001
 20
508.09484999999989
 30
0.0
 40
6.0
 50
289.47122999999999
 51
57.788072
  0
CIRCLE
  5
81E
  8
0
  6
CONTINUOUS
 62
     7
 10
-145.2809399999999
 20
170.54793000000001
 30
0.0
 40
4.0
  0
ARC
  5
81F
  8
0
  6
CONTINUOUS
 62
     7
 10
-145.2809399999999
 20
170.54793000000001
 30
0.0
 40
14.00000099999999
 50
106.6015399999999
 51
73.398452000000006
  0
CIRCLE
  5
820
  8
0
  6
CONTINUOUS
 62
     7
 10
-145.2809399999999
 20
170.54793000000001
 30
0.0
 40
3.0
  0
ARC
  5
821
  8
0
  6
CONTINUOUS
 62
     7
 10
-379.63387999999998
 20
221.87980999999991
 30
0.0
 40
5.0
 50
0.0
 51
88.499996999999965
  0
ARC
  5
822
  8
0
  6
CONTINUOUS
 62
     7
 10
-90.280936999999994
 20
199.79789999999991
 30
0.0
 40
5.0
 50
0.0
 51
43.64050000000001
  0
ARC
  5
823
  8
0
  6
CONTINUOUS
 62
     7
 10
-145.2809399999999
 20
147.34795
 30
0.0
 40
81.0
 50
7.0485985999999992
 51
172.95139999999981
  0
ARC
  5
824
  8
0
  6
CONTINUOUS
 62
     7
 10
-79.029999000000004
 20
185.5979199999999
 30
0.0
 40
16.0
 50
4.1564915999999981
 51
61.823859999999989
  0
ARC
  5
825
  8
0
  6
CONTINUOUS
 62
     7
 10
-57.280940999999991
 20
77.547927999999999
 30
0.0
 40
2.0
 50
0.0
 51
90.000003000000007
  0
ARC
  5
826
  8
0
  6
CONTINUOUS
 62
     7
 10
-211.53185999999999
 20
185.5979199999999
 30
0.0
 40
16.0
 50
118.1761399999998
 51
175.8435099999999
  0
ARC
  5
827
  8
0
  6
CONTINUOUS
 62
     7
 10
-369.63387999999992
 20
215.17943999999989
 30
0.0
 40
5.0
 50
179.99998999999991
 51
265.0
  0
ARC
  5
828
  8
0
  6
CONTINUOUS
 62
     7
 10
-192.28093000000001
 20
71.547927999999999
 30
0.0
 40
5.0
 50
270.0
 51
0.0
  0
ARC
  5
829
  8
0
  6
CONTINUOUS
 62
     7
 10
-198.28093000000001
 20
64.547934999999995
 30
0.0
 40
2.0
 50
90.000003000000007
 51
180.00001
  0
ARC
  5
82A
  8
0
  6
CONTINUOUS
 62
     7
 10
-202.2809399999999
 20
77.547927999999999
 30
0.0
 40
2.0
 50
0.0
 51
90.000003000000007
  0
ARC
  5
82B
  8
0
  6
CONTINUOUS
 62
     7
 10
-98.280929999999998
 20
71.547927999999999
 30
0.0
 40
5.0
 50
179.99998999999991
 51
270.0
  0
ARC
  5
82C
  8
0
  6
CONTINUOUS
 62
     7
 10
-233.28093000000001
 20
77.547927999999999
 30
0.0
 40
2.0
 50
90.000003000000007
 51
180.00001
  0
ARC
  5
82D
  8
0
  6
CONTINUOUS
 62
     7
 10
-379.63387999999998
 20
97.161224000000004
 30
0.0
 40
5.0
 50
270.0
 51
0.0
  0
ARC
  5
82E
  8
0
  6
CONTINUOUS
 62
     7
 10
-387.63387999999992
 20
84.54791299999998
 30
0.0
 40
5.0
 50
179.99998999999991
 51
270.0
  0
ARC
  5
82F
  8
0
  6
CONTINUOUS
 62
     7
 10
-200.28093000000001
 20
199.79789999999991
 30
0.0
 40
5.0
 50
136.35948999999999
 51
180.00001
  0
ARC
  5
830
  8
0
  6
CONTINUOUS
 62
     7
 10
-145.2809399999999
 20
155.54793000000001
 30
0.0
 40
54.0
 50
0.0
 51
180.00001
  0
ARC
  5
831
  8
0
  6
CONTINUOUS
 62
     7
 10
-365.63384999999988
 20
206.7989199999999
 30
0.0
 40
3.0
 50
0.0
 51
84.999996999999979
  0
ARC
  5
832
  8
0
  6
CONTINUOUS
 62
     7
 10
-441.63387999999998
 20
64.547919999999991
 30
0.0
 40
1.0
 50
90.000003000000007
 51
180.00001
  0
ARC
  5
833
  8
0
  6
CONTINUOUS
 62
     7
 10
-442.11953999999997
 20
82.547920000000005
 30
0.0
 40
3.0
 50
270.0
 51
349.28688
  0
ARC
  5
834
  8
0
  6
CONTINUOUS
 62
     7
 10
-361.63387999999992
 20
77.547927999999999
 30
0.0
 40
2.0
 50
0.0
 51
90.000003000000007
  0
ARC
  5
835
  8
0
  6
CONTINUOUS
 62
     7
 10
-467.63384999999988
 20
77.547927999999999
 30
0.0
 40
2.0
 50
90.000003000000007
 51
180.00001
  0
ARC
  5
836
  8
0
  6
CONTINUOUS
 62
     7
 10
-145.2809399999999
 20
118.34792
 30
0.0
 40
60.0
 50
334.15807000000001
 51
0.0
  0
ARC
  5
837
  8
0
  6
CONTINUOUS
 62
     7
 10
-145.2809399999999
 20
118.34792
 30
0.0
 40
60.0
 50
180.00001
 51
205.84192999999991
  0
ARC
  5
838
  8
0
  6
CONTINUOUS
 62
     7
 10
-382.63387999999992
 20
191.78121999999999
 30
0.0
 40
10.0
 50
90.000003000000007
 51
180.00001
  0
ARC
  5
839
  8
0
  6
CONTINUOUS
 62
     7
 10
-88.28093699999998
 20
77.547927999999999
 30
0.0
 40
2.0
 50
90.000003000000007
 51
180.00001
  0
ARC
  5
83A
  8
0
  6
CONTINUOUS
 62
     7
 10
-92.280929999999984
 20
64.547934999999995
 30
0.0
 40
2.0
 50
0.0
 51
90.000003000000007
  0
ARC
  5
83B
  8
0
  6
CONTINUOUS
 62
     7
 10
-108.2809399999999
 20
72.547934999999981
 30
0.0
 40
5.0
 50
0.0
 51
90.000003000000007
  0
CIRCLE
  5
83C
  8
0
  6
CONTINUOUS
 62
     7
 10
-145.2809399999999
 20
170.54793000000001
 30
0.0
 40
29.0
  0
ARC
  5
83D
  8
0
  6
CONTINUOUS
 62
     7
 10
-182.28093000000001
 20
72.547934999999981
 30
0.0
 40
5.0
 50
90.000003000000007
 51
180.00001
  0
ARC
  5
83E
  8
0
  6
CONTINUOUS
 62
     7
 10
-360.63387999999992
 20
81.420906000000016
 30
0.0
 40
2.0
 50
179.99998999999991
 51
255.52249
  0
ARC
  5
83F
  8
0
  6
CONTINUOUS
 62
     7
 10
-145.2809399999999
 20
147.34791999999979
 30
0.0
 40
81.0
 50
265.97275000000002
 51
274.02724999999992
  0
ARC
  5
840
  8
0
  6
CONTINUOUS
 62
     7
 10
-204.28093000000001
 20
84.547934999999995
 30
0.0
 40
5.0
 50
270.0
 51
0.0
  0
ARC
  5
841
  8
0
  6
CONTINUOUS
 62
     7
 10
-86.280929999999984
 20
84.547934999999995
 30
0.0
 40
5.0
 50
179.99998999999991
 51
270.0
  0
ARC
  5
842
  8
0
  6
CONTINUOUS
 62
     7
 10
-360.63387999999992
 20
142.5220799999999
 30
0.0
 40
1.0
 50
271.49999999999972
 51
0.0
  0
ARC
  5
843
  8
0
  6
CONTINUOUS
 62
     7
 10
-361.63387999999992
 20
200.60063
 30
0.0
 40
1.0
 50
179.99998999999991
 51
268.50000999999992
  0
ARC
  5
844
  8
0
  6
CONTINUOUS
 62
     7
 10
-360.63387999999992
 20
198.57378
 30
0.0
 40
1.0
 50
0.0
 51
88.499996999999965
  0
ARC
  5
845
  8
0
  6
CONTINUOUS
 62
     7
 10
-361.63387999999992
 20
140.49518999999981
 30
0.0
 40
1.0
 50
91.500000999999969
 51
180.00001
  0
ARC
  5
846
  8
0
  6
CONTINUOUS
 62
     7
 10
-437.63385
 20
117.01675
 30
0.0
 40
5.0
 50
349.28688
 51
0.0
  0
ARC
  5
847
  8
0
  6
CONTINUOUS
 62
     7
 10
-387.63387999999992
 20
64.547919999999991
 30
0.0
 40
1.0
 50
0.0
 51
90.000003000000007
  0
ARC
  5
848
  8
0
  6
CONTINUOUS
 62
     7
 10
-447.63387999999992
 20
218.1702699999999
 30
0.0
 40
5.0
 50
91.999998000000005
 51
180.00001
  0
ARC
  5
849
  8
0
  6
CONTINUOUS
 62
     7
 10
-450.63387999999992
 20
83.803955000000002
 30
0.0
 40
2.0
 50
90.000003000000007
 51
180.00001
  0
ARC
  5
84A
  8
0
  6
CONTINUOUS
 62
     7
 10
-455.63384999999988
 20
214.86522999999991
 30
0.0
 40
3.0
 50
280.0
 51
0.0
  0
ARC
  5
84B
  8
0
  6
CONTINUOUS
 62
     7
 10
-444.63387999999992
 20
87.803939999999983
 30
0.0
 40
2.0
 50
270.0
 51
0.0
  0
ARC
  5
84C
  8
0
  6
CONTINUOUS
 62
     7
 10
-440.63385
 20
226.17212000000001
 30
0.0
 40
2.0
 50
91.999998000000005
 51
163.27365
  0
ARC
  5
84D
  8
0
  6
CONTINUOUS
 62
     7
 10
-444.63387999999992
 20
172.0200199999999
 30
0.0
 40
2.0
 50
0.0
 51
90.000003000000007
  0
ARC
  5
84E
  8
0
  6
CONTINUOUS
 62
     7
 10
-447.33770999999962
 20
228.18670999999989
 30
0.0
 40
5.0
 50
272.0
 51
343.27366000000001
  0
ARC
  5
84F
  8
0
  6
CONTINUOUS
 62
     7
 10
-455.63384999999988
 20
79.830635000000001
 30
0.0
 40
3.0
 50
0.0
 51
79.999998000000005
  0
ARC
  5
850
  8
0
  6
CONTINUOUS
 62
     7
 10
-450.63387999999992
 20
199.68201999999991
 30
0.0
 40
2.0
 50
90.000003000000007
 51
180.00001
  0
ARC
  5
851
  8
0
  6
CONTINUOUS
 62
     7
 10
-457.01172000000003
 20
80.073593000000002
 30
0.0
 40
3.0
 50
79.999998000000005
 51
88.0
  0
ARC
  5
852
  8
0
  6
CONTINUOUS
 62
     7
 10
-457.22125
 20
216.6161799999999
 30
0.0
 40
5.0
 50
272.0
 51
280.0
  0
ARC
  5
853
  8
0
  6
CONTINUOUS
 62
     7
 10
-444.63387999999992
 20
178.49713
 30
0.0
 40
2.0
 50
0.0
 51
90.000003000000007
  0
ARC
  5
854
  8
0
  6
CONTINUOUS
 62
     7
 10
-450.63387999999992
 20
182.49712999999991
 30
0.0
 40
2.0
 50
179.99998999999991
 51
270.0
  0
ARC
  5
855
  8
0
  6
CONTINUOUS
 62
     7
 10
-444.63387999999992
 20
203.68200999999991
 30
0.0
 40
2.0
 50
270.0
 51
0.0
  0
ARC
  5
856
  8
0
  6
CONTINUOUS
 62
     3
 10
-629.13391000000001
 20
194.84766999999999
 30
0.0
 40
5.5
 50
264.78411999999992
 51
5.2159094000000001
  0
ARC
  5
857
  8
0
  6
CONTINUOUS
 62
     7
 10
-676.63385000000005
 20
220.36426
 30
0.0
 40
1.0
 50
120.0264
 51
180.00001
  0
ARC
  5
858
  8
0
  6
CONTINUOUS
 62
     7
 10
-676.63385000000005
 20
219.3219599999999
 30
0.0
 40
1.0
 50
116.91126
 51
180.00001
  0
ARC
  5
859
  8
0
  6
CONTINUOUS
 62
     7
 10
-675.36565999999982
 20
221.09730999999991
 30
0.0
 40
1.0
 50
90.000003000000007
 51
120.0264
  0
ARC
  5
85A
  8
0
  6
CONTINUOUS
 62
     7
 10
-675.39458999999965
 20
219.9509899999999
 30
0.0
 40
1.0
 50
90.000003000000007
 51
116.91126
  0
ARC
  5
85B
  8
0
  6
CONTINUOUS
 62
     7
 10
-675.35680999999977
 20
218.98949999999991
 30
0.0
 40
1.0
 50
90.000003000000007
 51
120.9666
  0
ARC
  5
85C
  8
0
  6
CONTINUOUS
 62
     7
 10
-675.38518999999985
 20
217.84956
 30
0.0
 40
1.0
 50
90.000003000000007
 51
117.92659999999979
  0
ARC
  5
85D
  8
0
  6
CONTINUOUS
 62
     7
 10
-675.33520999999985
 20
214.4727799999998
 30
0.0
 40
1.0
 50
90.000003000000007
 51
123.25473
  0
ARC
  5
85E
  8
0
  6
CONTINUOUS
 62
     7
 10
-675.36255000000006
 20
213.33282
 30
0.0
 40
1.0
 50
90.000003000000007
 51
120.3594999999999
  0
ARC
  5
85F
  8
0
  6
CONTINUOUS
 62
     7
 10
-676.63385000000005
 20
212.58812999999981
 30
0.0
 40
1.0
 50
120.3594999999999
 51
180.00001
  0
ARC
  5
860
  8
0
  6
CONTINUOUS
 62
     7
 10
-676.63385000000005
 20
213.62121999999999
 30
0.0
 40
1.0
 50
123.25473
 51
180.00001
  0
ARC
  5
861
  8
0
  6
CONTINUOUS
 62
     7
 10
-676.63385000000005
 20
217.1876399999999
 30
0.0
 40
1.0
 50
117.92659999999979
 51
180.00001
  0
ARC
  5
862
  8
0
  6
CONTINUOUS
 62
     7
 10
-676.63385000000005
 20
218.22320999999991
 30
0.0
 40
1.0
 50
120.9666
 51
180.00001
  0
ARC
  5
863
  8
0
  6
CONTINUOUS
 62
     7
 10
-675.42920000000004
 20
207.03711000000001
 30
0.0
 40
1.0
 50
90.000003000000007
 51
113.12703
  0
ARC
  5
864
  8
0
  6
CONTINUOUS
 62
     7
 10
-675.48352
 20
205.09100000000001
 30
0.0
 40
1.0
 50
90.000003000000007
 51
107.0976299999999
  0
ARC
  5
865
  8
0
  6
CONTINUOUS
 62
     7
 10
-676.63385000000005
 20
204.7372
 30
0.0
 40
1.0
 50
107.0976299999999
 51
180.00001
  0
ARC
  5
866
  8
0
  6
CONTINUOUS
 62
     7
 10
-676.63385000000005
 20
206.52265999999989
 30
0.0
 40
1.0
 50
113.12703
 51
180.00001
  0
ARC
  5
867
  8
0
  6
CONTINUOUS
 62
     7
 10
-676.63385000000005
 20
197.34790000000001
 30
0.0
 40
1.0
 50
90.000003000000007
 51
180.00001
  0
ARC
  5
868
  8
0
  6
CONTINUOUS
 62
     7
 10
-676.63385000000005
 20
197.34790000000001
 30
0.0
 40
1.0
 50
179.99998999999991
 51
270.0
  0
ARC
  5
869
  8
0
  6
CONTINUOUS
 62
     7
 10
-676.63385000000005
 20
187.34790000000001
 30
0.0
 40
1.0
 50
90.000003000000007
 51
180.00001
  0
ARC
  5
86A
  8
0
  6
CONTINUOUS
 62
     7
 10
-676.63385000000005
 20
187.34790000000001
 30
0.0
 40
1.0
 50
179.99998999999991
 51
270.0
  0
ARC
  5
86B
  8
0
  6
CONTINUOUS
 62
     7
 10
-676.63385000000005
 20
177.3479199999999
 30
0.0
 40
1.0
 50
90.000003000000007
 51
180.00001
  0
ARC
  5
86C
  8
0
  6
CONTINUOUS
 62
     7
 10
-676.63385000000005
 20
177.3479199999999
 30
0.0
 40
1.0
 50
179.99998999999991
 51
270.0
  0
ARC
  5
86D
  8
0
  6
CONTINUOUS
 62
     7
 10
-673.63385000000017
 20
175.34790000000001
 30
0.0
 40
1.0
 50
0.0
 51
90.000003000000007
  0
ARC
  5
86E
  8
0
  6
CONTINUOUS
 62
     7
 10
-673.63385000000017
 20
179.34790000000001
 30
0.0
 40
1.0
 50
270.0
 51
0.0
  0
ARC
  5
86F
  8
0
  6
CONTINUOUS
 62
     7
 10
-673.63385000000017
 20
185.34790000000001
 30
0.0
 40
1.0
 50
0.0
 51
90.000003000000007
  0
ARC
  5
870
  8
0
  6
CONTINUOUS
 62
     7
 10
-673.63385000000017
 20
189.3479199999999
 30
0.0
 40
1.0
 50
270.0
 51
0.0
  0
ARC
  5
871
  8
0
  6
CONTINUOUS
 62
     7
 10
-673.63385000000017
 20
195.3479199999999
 30
0.0
 40
1.0
 50
0.0
 51
90.000003000000007
  0
ARC
  5
872
  8
0
  6
CONTINUOUS
 62
     7
 10
-673.63385000000017
 20
199.34790000000001
 30
0.0
 40
1.0
 50
270.0
 51
0.0
  0
ARC
  5
873
  8
0
  6
CONTINUOUS
 62
     7
 10
-673.63385000000017
 20
205.09100000000001
 30
0.0
 40
1.0
 50
0.0
 51
90.000003000000007
  0
ARC
  5
874
  8
0
  6
CONTINUOUS
 62
     7
 10
-673.63385000000017
 20
213.33282
 30
0.0
 40
1.0
 50
0.0
 51
90.000003000000007
  0
ARC
  5
875
  8
0
  6
CONTINUOUS
 62
     7
 10
-673.33385999999985
 20
208.7371399999999
 30
0.0
 40
0.6999999900000004
 50
270.0
 51
0.0
  0
ARC
  5
876
  8
0
  6
CONTINUOUS
 62
     7
 10
-673.63385000000017
 20
217.84956
 30
0.0
 40
1.0
 50
0.0
 51
90.000003000000007
  0
ARC
  5
877
  8
0
  6
CONTINUOUS
 62
     7
 10
-673.13391000000001
 20
220.45098999999999
 30
0.0
 40
0.5
 50
0.0
 51
90.000003000000007
  0
ARC
  5
878
  8
0
  6
CONTINUOUS
 62
     7
 10
-673.13391000000001
 20
222.59730999999999
 30
0.0
 40
0.5
 50
270.0
 51
0.0
  0
ARC
  5
879
  8
0
  6
CONTINUOUS
 62
     7
 10
-661.08447000000001
 20
137.34791999999999
 30
0.0
 40
1.0
 50
90.000003000000007
 51
270.0
  0
ARC
  5
87A
  8
0
  6
CONTINUOUS
 62
     7
 10
-575.33385999999985
 20
204.71509
 30
0.0
 40
1.0
 50
90.000003000000007
 51
180.00001
  0
ARC
  5
87B
  8
0
  6
CONTINUOUS
 62
     7
 10
-575.33385999999985
 20
139.98067
 30
0.0
 40
1.0
 50
179.99998999999991
 51
270.0
  0
ARC
  5
87C
  8
0
  6
CONTINUOUS
 62
     7
 10
-558.81177000000002
 20
207.39301
 30
0.0
 40
1.6779127
 50
270.0
 51
90.000003000000007
  0
ARC
  5
87D
  8
0
  6
CONTINUOUS
 62
     7
 10
-562.28949
 20
207.3479199999999
 30
0.0
 40
1.0
 50
270.0
 51
90.000003000000007
  0
ARC
  5
87E
  8
0
  6
CONTINUOUS
 62
     7
 10
-562.28949
 20
137.34791999999999
 30
0.0
 40
1.0
 50
270.0
 51
90.000003000000007
  0
ARC
  5
87F
  8
0
  6
CONTINUOUS
 62
     7
 10
-558.81177000000002
 20
137.30275
 30
0.0
 40
1.6779127
 50
270.0
 51
90.000003000000007
  0
ARC
  5
880
  8
0
  6
CONTINUOUS
 62
     7
 10
-673.63385000000017
 20
139.60474999999991
 30
0.0
 40
1.0
 50
270.0
 51
0.0
  0
ARC
  5
881
  8
0
  6
CONTINUOUS
 62
     7
 10
-673.63385000000017
 20
149.3479199999999
 30
0.0
 40
1.0
 50
270.0
 51
0.0
  0
ARC
  5
882
  8
0
  6
CONTINUOUS
 62
     7
 10
-673.63385000000017
 20
145.34790000000001
 30
0.0
 40
1.0
 50
0.0
 51
90.000003000000007
  0
ARC
  5
883
  8
0
  6
CONTINUOUS
 62
     7
 10
-673.33385999999985
 20
135.9586899999999
 30
0.0
 40
0.6999999900000004
 50
0.0
 51
90.000003000000007
  0
ARC
  5
884
  8
0
  6
CONTINUOUS
 62
     7
 10
-675.42920000000004
 20
137.65864999999991
 30
0.0
 40
1.0
 50
246.87297000000001
 51
270.0
  0
ARC
  5
885
  8
0
  6
CONTINUOUS
 62
     7
 10
-675.48352
 20
139.60474999999991
 30
0.0
 40
1.0
 50
252.90236999999999
 51
270.0
  0
ARC
  5
886
  8
0
  6
CONTINUOUS
 62
     7
 10
-676.63385000000005
 20
139.95862999999991
 30
0.0
 40
1.0
 50
179.99998999999991
 51
252.90236999999999
  0
ARC
  5
887
  8
0
  6
CONTINUOUS
 62
     7
 10
-676.63385000000005
 20
138.17317
 30
0.0
 40
1.0
 50
179.99998999999991
 51
246.8729799999999
  0
ARC
  5
888
  8
0
  6
CONTINUOUS
 62
     7
 10
-676.63385000000005
 20
147.34791999999979
 30
0.0
 40
1.0
 50
179.99998999999991
 51
270.0
  0
ARC
  5
889
  8
0
  6
CONTINUOUS
 62
     7
 10
-676.63385000000005
 20
147.34791999999979
 30
0.0
 40
1.0
 50
90.000003000000007
 51
180.00001
  0
ARC
  5
88A
  8
0
  6
CONTINUOUS
 62
     7
 10
-676.63385000000005
 20
157.34790000000001
 30
0.0
 40
1.0
 50
179.99998999999991
 51
270.0
  0
ARC
  5
88B
  8
0
  6
CONTINUOUS
 62
     7
 10
-676.63385000000005
 20
157.34790000000001
 30
0.0
 40
1.0
 50
90.000003000000007
 51
180.00001
  0
ARC
  5
88C
  8
0
  6
CONTINUOUS
 62
     7
 10
-676.63385000000005
 20
167.3479199999999
 30
0.0
 40
1.0
 50
179.99998999999991
 51
270.0
  0
ARC
  5
88D
  8
0
  6
CONTINUOUS
 62
     7
 10
-676.63385000000005
 20
167.3479199999999
 30
0.0
 40
1.0
 50
90.000003000000007
 51
180.00001
  0
ARC
  5
88E
  8
0
  6
CONTINUOUS
 62
     7
 10
-673.63385000000017
 20
169.34790000000001
 30
0.0
 40
1.0
 50
270.0
 51
0.0
  0
ARC
  5
88F
  8
0
  6
CONTINUOUS
 62
     7
 10
-673.63385000000017
 20
165.3479199999999
 30
0.0
 40
1.0
 50
0.0
 51
90.000003000000007
  0
ARC
  5
890
  8
0
  6
CONTINUOUS
 62
     7
 10
-673.63385000000017
 20
159.3479199999999
 30
0.0
 40
1.0
 50
270.0
 51
0.0
  0
ARC
  5
891
  8
0
  6
CONTINUOUS
 62
     7
 10
-673.63385000000017
 20
155.3479199999999
 30
0.0
 40
1.0
 50
0.0
 51
90.000003000000007
  0
ARC
  5
892
  8
0
  6
CONTINUOUS
 62
     7
 10
-578.13391000000001
 20
143.84790000000001
 30
0.0
 40
1.5
 50
270.0
 51
0.0
  0
ARC
  5
893
  8
0
  6
CONTINUOUS
 62
     7
 10
-578.13391000000001
 20
200.84790000000001
 30
0.0
 40
1.5
 50
0.0
 51
90.000003000000007
  0
ARC
  5
894
  8
0
  6
CONTINUOUS
 62
     7
 10
-661.95659999999975
 20
207.39301
 30
0.0
 40
1.6779127
 50
90.000003000000007
 51
270.0
  0
ARC
  5
895
  8
0
  6
CONTINUOUS
 62
     7
 10
-661.08447000000001
 20
207.3479199999999
 30
0.0
 40
1.0
 50
90.000003000000007
 51
270.0
  0
ARC
  5
896
  8
0
  6
CONTINUOUS
 62
     7
 10
-661.08447000000001
 20
197.34790000000001
 30
0.0
 40
1.0
 50
90.000003000000007
 51
270.0
  0
ARC
  5
897
  8
0
  6
CONTINUOUS
 62
     7
 10
-661.08447000000001
 20
187.34790000000001
 30
0.0
 40
1.0
 50
90.000003000000007
 51
270.0
  0
ARC
  5
898
  8
0
  6
CONTINUOUS
 62
     7
 10
-661.08447000000001
 20
177.3479199999999
 30
0.0
 40
1.0
 50
90.000003000000007
 51
270.0
  0
ARC
  5
899
  8
0
  6
CONTINUOUS
 62
     7
 10
-661.08447000000001
 20
167.3479199999999
 30
0.0
 40
1.0
 50
90.000003000000007
 51
270.0
  0
ARC
  5
89A
  8
0
  6
CONTINUOUS
 62
     7
 10
-661.08447000000001
 20
157.34790000000001
 30
0.0
 40
1.0
 50
90.000003000000007
 51
270.0
  0
ARC
  5
89B
  8
0
  6
CONTINUOUS
 62
     7
 10
-661.08447000000001
 20
147.34791999999979
 30
0.0
 40
1.0
 50
90.000003000000007
 51
270.0
  0
ARC
  5
89C
  8
0
  6
CONTINUOUS
 62
     7
 10
-662.1723599999998
 20
197.37255999999999
 30
0.0
 40
1.4614868000000001
 50
90.000003000000007
 51
270.0
  0
ARC
  5
89D
  8
0
  6
CONTINUOUS
 62
     7
 10
-662.30291999999963
 20
187.36049
 30
0.0
 40
1.330932599999999
 50
90.000003000000007
 51
270.0
  0
ARC
  5
89E
  8
0
  6
CONTINUOUS
 62
     7
 10
-662.36492999999984
 20
177.35176000000001
 30
0.0
 40
1.268920899999999
 50
90.000003000000007
 51
270.0
  0
ARC
  5
89F
  8
0
  6
CONTINUOUS
 62
     7
 10
-662.36492999999984
 20
167.34398999999991
 30
0.0
 40
1.268920899999999
 50
90.000003000000007
 51
270.0
  0
ARC
  5
8A0
  8
0
  6
CONTINUOUS
 62
     7
 10
-662.30291999999963
 20
157.33534
 30
0.0
 40
1.330932599999999
 50
90.000003000000007
 51
270.0
  0
ARC
  5
8A1
  8
0
  6
CONTINUOUS
 62
     7
 10
-662.17229999999995
 20
147.32320000000001
 30
0.0
 40
1.461502099999997
 50
90.000003000000007
 51
270.0
  0
ARC
  5
8A2
  8
0
  6
CONTINUOUS
 62
     7
 10
-661.95592999999985
 20
137.30275
 30
0.0
 40
1.6779174999999991
 50
90.000003000000007
 51
270.0
  0
ARC
  5
8A3
  8
0
  6
CONTINUOUS
 62
     7
 10
-673.63385000000017
 20
131.36299
 30
0.0
 40
1.0
 50
334.63675999999998
 51
0.0
  0
ARC
  5
8A4
  8
0
  6
CONTINUOUS
 62
     7
 10
-676.63385000000005
 20
132.1076799999999
 30
0.0
 40
1.0
 50
179.99998999999991
 51
239.64048999999989
  0
ARC
  5
8A5
  8
0
  6
CONTINUOUS
 62
     7
 10
-660.42749000000003
 20
226.63115999999991
 30
0.0
 40
2.0
 50
90.000003000000007
 51
169.28431
  0
ARC
  5
8A6
  8
0
  6
CONTINUOUS
 62
     7
 10
-638.1339099999999
 20
209.07093999999981
 30
0.0
 40
1.5
 50
90.000003000000007
 51
180.00001
  0
ARC
  5
8A7
  8
0
  6
CONTINUOUS
 62
     7
 10
-660.37885000000017
 20
229.47754
 30
0.0
 40
2.0
 50
90.000003000000007
 51
170.91503
  0
ARC
  5
8A8
  8
0
  6
CONTINUOUS
 62
     7
 10
-660.36547999999982
 20
231.3252599999999
 30
0.0
 40
2.0
 50
90.000003000000007
 51
171.3566099999999
  0
ARC
  5
8A9
  8
0
  6
CONTINUOUS
 62
     7
 10
-660.34418000000005
 20
232.23578999999989
 30
0.0
 40
2.0
 50
90.000003000000007
 51
172.05596
  0
ARC
  5
8AA
  8
0
  6
CONTINUOUS
 62
     7
 10
-626.63385000000005
 20
229.47754
 30
0.0
 40
2.0
 50
0.0
 51
90.000003000000007
  0
ARC
  5
8AB
  8
0
  6
CONTINUOUS
 62
     7
 10
-626.63385000000005
 20
231.3252599999999
 30
0.0
 40
2.0
 50
0.0
 51
90.000003000000007
  0
ARC
  5
8AC
  8
0
  6
CONTINUOUS
 62
     7
 10
-626.63385000000005
 20
232.23578999999989
 30
0.0
 40
2.0
 50
0.0
 51
90.000003000000007
  0
ARC
  5
8AD
  8
0
  6
CONTINUOUS
 62
     7
 10
-563.50769000000003
 20
226.63115999999991
 30
0.0
 40
2.0
 50
15.0
 51
90.000003000000007
  0
ARC
  5
8AE
  8
0
  6
CONTINUOUS
 62
     7
 10
-555.98290999999995
 20
212.07093999999989
 30
0.0
 40
1.5
 50
195.00001
 51
270.0
  0
ARC
  5
8AF
  8
0
  6
CONTINUOUS
 62
     7
 10
-660.34418000000005
 20
112.45996
 30
0.0
 40
2.0
 50
187.9440399999998
 51
270.0
  0
ARC
  5
8B0
  8
0
  6
CONTINUOUS
 62
     7
 10
-626.63385000000005
 20
112.45996
 30
0.0
 40
2.0
 50
270.0
 51
0.0
  0
ARC
  5
8B1
  8
0
  6
CONTINUOUS
 62
     7
 10
-563.50769000000003
 20
118.06464
 30
0.0
 40
2.0
 50
270.0
 51
345.0
  0
ARC
  5
8B2
  8
0
  6
CONTINUOUS
 62
     7
 10
-626.63385000000005
 20
113.37050000000001
 30
0.0
 40
2.0
 50
270.0
 51
0.0
  0
ARC
  5
8B3
  8
0
  6
CONTINUOUS
 62
     7
 10
-626.63385000000005
 20
115.21826
 30
0.0
 40
2.0
 50
270.0
 51
0.0
  0
ARC
  5
8B4
  8
0
  6
CONTINUOUS
 62
     7
 10
-676.63385000000005
 20
124.3314899999999
 30
0.0
 40
1.0
 50
179.99998999999991
 51
239.97361000000001
  0
ARC
  5
8B5
  8
0
  6
CONTINUOUS
 62
     7
 10
-676.63385000000005
 20
125.3738399999999
 30
0.0
 40
1.0
 50
179.99998999999991
 51
243.08874999999981
  0
ARC
  5
8B6
  8
0
  6
CONTINUOUS
 62
     7
 10
-675.36565999999982
 20
123.59851999999999
 30
0.0
 40
1.0
 50
239.9736
 51
270.0
  0
ARC
  5
8B7
  8
0
  6
CONTINUOUS
 62
     7
 10
-675.39458999999965
 20
124.74482999999999
 30
0.0
 40
1.0
 50
243.08874
 51
270.0
  0
ARC
  5
8B8
  8
0
  6
CONTINUOUS
 62
     7
 10
-675.35680999999977
 20
125.7062499999999
 30
0.0
 40
1.0
 50
239.0334
 51
270.0
  0
ARC
  5
8B9
  8
0
  6
CONTINUOUS
 62
     7
 10
-675.38518999999985
 20
126.84626
 30
0.0
 40
1.0
 50
242.07339999999999
 51
270.0
  0
ARC
  5
8BA
  8
0
  6
CONTINUOUS
 62
     7
 10
-675.33520999999985
 20
130.22298000000001
 30
0.0
 40
1.0
 50
236.74527
 51
270.0
  0
ARC
  5
8BB
  8
0
  6
CONTINUOUS
 62
     7
 10
-675.36255000000006
 20
131.36299
 30
0.0
 40
1.0
 50
239.6405
 51
270.0
  0
ARC
  5
8BC
  8
0
  6
CONTINUOUS
 62
     7
 10
-676.63385000000005
 20
132.1076799999999
 30
0.0
 40
1.0
 50
179.99998999999991
 51
239.64048999999989
  0
ARC
  5
8BD
  8
0
  6
CONTINUOUS
 62
     7
 10
-676.63385000000005
 20
131.07453999999981
 30
0.0
 40
1.0
 50
179.99998999999991
 51
236.74527999999981
  0
ARC
  5
8BE
  8
0
  6
CONTINUOUS
 62
     7
 10
-676.63385000000005
 20
127.50812000000001
 30
0.0
 40
1.0
 50
179.99998999999991
 51
242.07341
  0
ARC
  5
8BF
  8
0
  6
CONTINUOUS
 62
     7
 10
-676.63385000000005
 20
126.4725399999999
 30
0.0
 40
1.0
 50
179.99998999999991
 51
239.0334
  0
ARC
  5
8C0
  8
0
  6
CONTINUOUS
 62
     7
 10
-673.63385000000017
 20
131.36299
 30
0.0
 40
1.0
 50
270.0
 51
0.0
  0
ARC
  5
8C1
  8
0
  6
CONTINUOUS
 62
     7
 10
-673.63385000000017
 20
126.84626
 30
0.0
 40
1.0
 50
270.0
 51
0.0
  0
ARC
  5
8C2
  8
0
  6
CONTINUOUS
 62
     7
 10
-673.13391000000001
 20
124.24481
 30
0.0
 40
0.5
 50
270.0
 51
0.0
  0
ARC
  5
8C3
  8
0
  6
CONTINUOUS
 62
     7
 10
-673.13391000000001
 20
122.09851999999979
 30
0.0
 40
0.5
 50
0.0
 51
90.000003000000007
  0
ARC
  5
8C4
  8
0
  6
CONTINUOUS
 62
     7
 10
-660.42749000000003
 20
118.06464
 30
0.0
 40
2.0
 50
190.71569
 51
270.0
  0
ARC
  5
8C5
  8
0
  6
CONTINUOUS
 62
     7
 10
-660.37885000000017
 20
115.21826
 30
0.0
 40
2.0
 50
189.08497
 51
270.0
  0
ARC
  5
8C6
  8
0
  6
CONTINUOUS
 62
     7
 10
-660.36547999999982
 20
113.37050000000001
 30
0.0
 40
2.0
 50
188.6433899999999
 51
270.0
  0
ARC
  5
8C7
  8
0
  6
CONTINUOUS
 62
     3
 10
-584.1339099999999
 20
149.84816000000001
 30
0.0
 40
5.5
 50
84.784087999999983
 51
185.21596
  0
ARC
  5
8C8
  8
0
  6
CONTINUOUS
 62
     7
 10
-491.13387999999998
 20
90.667136999999997
 30
0.0
 40
3.0
 50
0.0
 51
45.00000099999999
  0
ARC
  5
8C9
  8
0
  6
CONTINUOUS
 62
     7
 10
-490.96514999999988
 20
85.146484000000001
 30
0.0
 40
3.0
 50
13.618925000000001
 51
88.0
  0
ARC
  5
8CA
  8
0
  6
CONTINUOUS
 62
     7
 10
-512.92809999999986
 20
109.63293
 30
0.0
 40
5.0
 50
45.00000099999999
 51
88.0
  0
ARC
  5
8CB
  8
0
  6
CONTINUOUS
 62
     7
 10
-524.19048999999995
 20
227.21857
 30
0.0
 40
4.0
 50
201.49854999999991
 51
251.6345799999998
  0
ARC
  5
8CC
  8
0
  6
CONTINUOUS
 62
     7
 10
-487.01864999999992
 20
214.87804999999989
 30
0.0
 40
4.0
 50
251.6345799999998
 51
285.61970000000002
  0
ARC
  5
8CD
  8
0
  6
CONTINUOUS
 62
     7
 10
-485.13387999999992
 20
208.13657000000001
 30
0.0
 40
3.0
 50
91.999998000000005
 51
180.00001
  0
ARC
  5
8CE
  8
0
  6
CONTINUOUS
 62
     7
 10
-490.13385
 20
207.57776000000001
 30
0.0
 40
2.0
 50
272.0
 51
0.0
  0
ARC
  5
8CF
  8
0
  6
CONTINUOUS
 62
     7
 10
-485.13387999999992
 20
86.559280000000015
 30
0.0
 40
3.0
 50
193.61893000000001
 51
268.0
  0
ARC
  5
8D0
  8
0
  6
CONTINUOUS
 62
     7
 10
-520.63385000000005
 20
111.90322999999979
 30
0.0
 40
3.0
 50
0.0
 51
88.0
  0
ARC
  5
8D1
  8
0
  6
CONTINUOUS
 62
     7
 10
-531.63391000000001
 20
224.2867399999999
 30
0.0
 40
4.0
 50
0.0
 51
88.0
  0
ARC
  5
8D2
  8
0
  6
CONTINUOUS
 62
     7
 10
-514.63385000000005
 20
91.976685000000003
 30
0.0
 40
3.0
 50
179.99998999999991
 51
268.00000999999992
  0
ARC
  5
8D3
  8
0
  6
CONTINUOUS
 62
     7
 10
-523.63385000000005
 20
208.4091499999999
 30
0.0
 40
4.0
 50
179.99998999999991
 51
271.99998999999991
  0
ARC
  5
8D4
  8
0
  6
CONTINUOUS
 62
     7
 10
-495.90044999999981
 20
131.3479199999999
 30
0.0
 40
5.0
 50
270.0
 51
45.00000099999999
  0
ARC
  5
8D5
  8
0
  6
CONTINUOUS
 62
     7
 10
-522.63391000000001
 20
169.4079099999999
 30
0.0
 40
5.0
 50
179.99998999999991
 51
270.0
  0
ARC
  5
8D6
  8
0
  6
CONTINUOUS
 62
     7
 10
-485.13387999999992
 20
372.59485000000001
 30
0.0
 40
3.0
 50
180.00001
 51
270.0
  0
ARC
  5
8D7
  8
0
  6
CONTINUOUS
 62
     7
 10
-485.13387999999992
 20
493.59485000000001
 30
0.0
 40
3.0
 50
90.000003000000007
 51
180.00001
  0
ARC
  5
8D8
  8
0
  6
CONTINUOUS
 62
     7
 10
-491.11498999999981
 20
372.11932000000002
 30
0.0
 40
3.0
 50
4.545488299999997
 51
88.0
  0
ARC
  5
8D9
  8
0
  6
CONTINUOUS
 62
     7
 10
-491.11498999999981
 20
494.07037000000003
 30
0.0
 40
3.0
 50
272.0
 51
355.45442999999977
  0
ARC
  5
8DA
  8
0
  6
CONTINUOUS
 62
     7
 10
-531.63385000000005
 20
380.53856999999999
 30
0.0
 40
4.0
 50
268.0
 51
0.00000068324543
  0
ARC
  5
8DB
  8
0
  6
CONTINUOUS
 62
     7
 10
-531.63385000000005
 20
485.6511499999998
 30
0.0
 40
4.0
 50
0.0
 51
91.999998000000005
  0
ARC
  5
8DC
  8
0
  6
CONTINUOUS
 62
     7
 10
-524.63385000000005
 20
439.09485000000001
 30
0.0
 40
3.0
 50
180.00001
 51
270.0
  0
ARC
  5
8DD
  8
0
  6
CONTINUOUS
 62
     7
 10
-524.63385000000005
 20
427.09485000000001
 30
0.0
 40
3.0
 50
90.000003000000007
 51
180.00001
  0
ARC
  5
8DE
  8
0
  6
CONTINUOUS
 62
     7
 10
-491.13387999999998
 20
427.09485000000001
 30
0.0
 40
3.0
 50
0.0
 51
90.000003000000007
  0
ARC
  5
8DF
  8
0
  6
CONTINUOUS
 62
     7
 10
-491.13387999999998
 20
439.09485000000001
 30
0.0
 40
3.0
 50
270.0
 51
0.0
  0
ARC
  5
8E0
  8
0
  6
CONTINUOUS
 62
     3
 10
-642.90674000000001
 20
356.59485000000001
 30
0.0
 40
7.5
 50
179.99997999999991
 51
0.000010017913
  0
ARC
  5
8E1
  8
0
  6
CONTINUOUS
 62
     3
 10
-642.90674000000001
 20
356.59485000000001
 30
0.0
 40
4.0
 50
179.99997999999991
 51
0.000010017912
  0
ARC
  5
8E2
  8
0
  6
CONTINUOUS
 62
     7
 10
-555.98064999999986
 20
478.42760999999962
 30
0.0
 40
1.502775999999999
 50
194.75642999999991
 51
269.87757999999991
  0
ARC
  5
8E3
  8
0
  6
CONTINUOUS
 62
     7
 10
-555.98064999999986
 20
477.51758000000001
 30
0.0
 40
1.502775999999999
 50
194.75642999999991
 51
269.87757999999991
  0
ARC
  5
8E4
  8
0
  6
CONTINUOUS
 62
     7
 10
-555.98064999999986
 20
475.66759999999988
 30
0.0
 40
1.502775999999999
 50
194.75642999999991
 51
269.87757999999991
  0
ARC
  5
8E5
  8
0
  6
CONTINUOUS
 62
     7
 10
-563.50873000000001
 20
492.98009999999999
 30
0.0
 40
2.0047290000000002
 50
15.173496
 51
89.861677999999998
  0
ARC
  5
8E6
  8
0
  6
CONTINUOUS
 62
     7
 10
-563.50873000000001
 20
492.07006999999999
 30
0.0
 40
2.0047290000000002
 50
15.173496
 51
89.861677999999998
  0
ARC
  5
8E7
  8
0
  6
CONTINUOUS
 62
     7
 10
-563.50873000000001
 20
490.22009000000003
 30
0.0
 40
2.0047290000000002
 50
15.173496
 51
89.861677999999998
  0
ARC
  5
8E8
  8
0
  6
CONTINUOUS
 62
     7
 10
-555.98064999999986
 20
393.37207000000001
 30
0.0
 40
1.502775999999999
 50
90.122413000000037
 51
165.24357000000001
  0
ARC
  5
8E9
  8
0
  6
CONTINUOUS
 62
     7
 10
-676.64068999999995
 20
481.11279000000002
 30
0.0
 40
0.99319202
 50
119.77338
 51
179.87958999999981
  0
ARC
  5
8EA
  8
0
  6
CONTINUOUS
 62
     7
 10
-676.63830999999982
 20
480.07457999999991
 30
0.0
 40
0.995579
 50
116.5870899999999
 51
179.98264
  0
ARC
  5
8EB
  8
0
  6
CONTINUOUS
 62
     7
 10
-675.37182999999982
 20
481.84899999999988
 30
0.0
 40
0.9959030199999999
 50
89.541267000000005
 51
119.60717
  0
ARC
  5
8EC
  8
0
  6
CONTINUOUS
 62
     7
 10
-675.40905999999995
 20
480.70080999999999
 30
0.0
 40
0.99411702
 50
89.122643999999966
 51
115.93498
  0
ARC
  5
8ED
  8
0
  6
CONTINUOUS
 62
     7
 10
-675.36505
 20
479.74059999999992
 30
0.0
 40
0.99427301
 50
89.356065999999984
 51
120.78091000000001
  0
ARC
  5
8EE
  8
0
  6
CONTINUOUS
 62
     7
 10
-675.39880000000005
 20
478.59949
 30
0.0
 40
0.99545902
 50
89.141291000000024
 51
117.20381999999999
  0
ARC
  5
8EF
  8
0
  6
CONTINUOUS
 62
     7
 10
-675.32720999999981
 20
475.22863999999998
 30
0.0
 40
0.99617702
 50
90.381317999999979
 51
123.9704899999999
  0
ARC
  5
8F0
  8
0
  6
CONTINUOUS
 62
     7
 10
-675.35442999999975
 20
474.0883799999998
 30
0.0
 40
0.99648702
 50
90.540720999999976
 51
120.74377
  0
ARC
  5
8F1
  8
0
  6
CONTINUOUS
 62
     7
 10
-676.63982999999985
 20
473.33800999999988
 30
0.0
 40
0.99404597
 50
120.4682
 51
180.18563999999989
  0
ARC
  5
8F2
  8
0
  6
CONTINUOUS
 62
     7
 10
-676.63904000000002
 20
474.37243999999993
 30
0.0
 40
0.9948369899999999
 50
123.20496
 51
180.4378599999998
  0
ARC
  5
8F3
  8
0
  6
CONTINUOUS
 62
     7
 10
-676.64062999999976
 20
477.93627999999961
 30
0.0
 40
0.9932109699999999
 50
117.7993199999999
 51
180.08187000000001
  0
ARC
  5
8F4
  8
0
  6
CONTINUOUS
 62
     7
 10
-676.63940000000002
 20
478.97388000000001
 30
0.0
 40
0.9944329899999999
 50
121.15213
 51
179.9405099999999
  0
ARC
  5
8F5
  8
0
  6
CONTINUOUS
 62
     7
 10
-675.43286000000001
 20
467.78942999999998
 30
0.0
 40
0.9954450099999999
 50
90.056905000000043
 51
113.1274499999999
  0
ARC
  5
8F6
  8
0
  6
CONTINUOUS
 62
     7
 10
-675.49468999999999
 20
465.84215999999992
 30
0.0
 40
0.9927430199999999
 50
89.374555000000001
 51
106.33207
  0
ARC
  5
8F7
  8
0
  6
CONTINUOUS
 62
     7
 10
-676.63756999999998
 20
465.49059999999992
 30
0.0
 40
0.9962710099999999
 50
106.69792
 51
180.3300499999998
  0
ARC
  5
8F8
  8
0
  6
CONTINUOUS
 62
     7
 10
-676.63744999999994
 20
467.27636999999987
 30
0.0
 40
0.9963999999999998
 50
112.81735999999979
 51
180.09041999999991
  0
ARC
  5
8F9
  8
0
  6
CONTINUOUS
 62
     7
 10
-676.63878999999963
 20
458.09972999999991
 30
0.0
 40
0.99507803
 50
89.715886999999981
 51
180.28411
  0
ARC
  5
8FA
  8
0
  6
CONTINUOUS
 62
     7
 10
-676.63367000000005
 20
458.09509000000003
 30
0.0
 40
1.000203
 50
180.01165
 51
269.98835000000003
  0
ARC
  5
8FB
  8
0
  6
CONTINUOUS
 62
     7
 10
-676.63878999999963
 20
448.09972999999991
 30
0.0
 40
0.99508202
 50
89.716099
 51
180.28390999999991
  0
ARC
  5
8FC
  8
0
  6
CONTINUOUS
 62
     7
 10
-676.63367000000005
 20
448.09509000000003
 30
0.0
 40
1.0001999999999991
 50
180.0114299999999
 51
269.98856999999992
  0
ARC
  5
8FD
  8
0
  6
CONTINUOUS
 62
     7
 10
-676.63878999999963
 20
438.09972999999968
 30
0.0
 40
0.9950849999999999
 50
89.716311000000005
 51
180.28368999999981
  0
ARC
  5
8FE
  8
0
  6
CONTINUOUS
 62
     7
 10
-676.63367000000005
 20
438.09509000000003
 30
0.0
 40
1.0001959999999981
 50
180.01122000000001
 51
269.98877999999991
  0
ARC
  5
8FF
  8
0
  6
CONTINUOUS
 62
     7
 10
-673.63367000000005
 20
436.09496999999988
 30
0.0
 40
0.9998249999999999
 50
359.98995000000002
 51
90.010050000000007
  0
ARC
  5
900
  8
0
  6
CONTINUOUS
 62
     7
 10
-673.6387900000002
 20
440.09972999999991
 30
0.0
 40
1.0049469
 50
270.28134999999992
 51
359.71866
  0
ARC
  5
901
  8
0
  6
CONTINUOUS
 62
     7
 10
-673.63367000000005
 20
446.09496999999988
 30
0.0
 40
0.9998210099999999
 50
359.98975000000002
 51
90.010255000000001
  0
ARC
  5
902
  8
0
  6
CONTINUOUS
 62
     7
 10
-673.6387900000002
 20
450.09972999999979
 30
0.0
 40
1.004939
 50
270.28091000000001
 51
359.71910000000008
  0
ARC
  5
903
  8
0
  6
CONTINUOUS
 62
     7
 10
-673.63367000000005
 20
456.09496999999999
 30
0.0
 40
0.9998289899999999
 50
359.99018999999993
 51
90.009810999999985
  0
ARC
  5
904
  8
0
  6
CONTINUOUS
 62
     7
 10
-673.6387900000002
 20
460.09972999999991
 30
0.0
 40
1.004942999999999
 50
270.28111000000001
 51
359.71888999999987
  0
ARC
  5
905
  8
0
  6
CONTINUOUS
 62
     7
 10
-673.63214000000005
 20
465.83654999999999
 30
0.0
 40
0.9982839799999999
 50
359.90141999999992
 51
90.098575999999994
  0
ARC
  5
906
  8
0
  6
CONTINUOUS
 62
     7
 10
-673.63622999999995
 20
474.08251999999987
 30
0.0
 40
1.002353
 50
0.13432682
 51
89.865673000000001
  0
ARC
  5
907
  8
0
  6
CONTINUOUS
 62
     7
 10
-673.33843999999999
 20
469.48937999999998
 30
0.0
 40
0.704566
 50
270.37009999999992
 51
359.62990999999982
  0
ARC
  5
908
  8
0
  6
CONTINUOUS
 62
     7
 10
-673.63287000000003
 20
478.59582999999981
 30
0.0
 40
0.9990100299999999
 50
359.94319000000002
 51
90.056808999999959
  0
ARC
  5
909
  8
0
  6
CONTINUOUS
 62
     7
 10
-673.13214000000005
 20
481.19652999999988
 30
0.0
 40
0.4983060100000002
 50
359.80489
 51
90.195107000000007
  0
ARC
  5
90A
  8
0
  6
CONTINUOUS
 62
     7
 10
-673.13849000000005
 20
483.34949
 30
0.0
 40
0.50463498
 50
270.52382999999992
 51
359.47617000000002
  0
ARC
  5
90B
  8
0
  6
CONTINUOUS
 62
     7
 10
-661.0892299999997
 20
398.09485000000001
 30
0.0
 40
1.000013899999999
 50
89.691659999999985
 51
270.30833999999999
  0
ARC
  5
90C
  8
0
  6
CONTINUOUS
 62
     7
 10
-558.81384000000003
 20
468.13988999999992
 30
0.0
 40
1.6750020000000001
 50
269.99998999999991
 51
90.000003000000007
  0
ARC
  5
90D
  8
0
  6
CONTINUOUS
 62
     7
 10
-562.29387999999994
 20
468.09485000000001
 30
0.0
 40
1.0
 50
269.99998999999991
 51
90.000003000000007
  0
ARC
  5
90E
  8
0
  6
CONTINUOUS
 62
     7
 10
-562.29387999999994
 20
398.09485000000001
 30
0.0
 40
1.0
 50
269.99998999999991
 51
90.000003000000007
  0
ARC
  5
90F
  8
0
  6
CONTINUOUS
 62
     7
 10
-558.81384000000003
 20
398.0498
 30
0.0
 40
1.6750020000000001
 50
269.99998999999991
 51
90.000003000000007
  0
ARC
  5
910
  8
0
  6
CONTINUOUS
 62
     7
 10
-673.63720999999975
 20
400.35815000000002
 30
0.0
 40
1.003352
 50
270.19110999999992
 51
359.80889999999982
  0
ARC
  5
911
  8
0
  6
CONTINUOUS
 62
     7
 10
-673.6387900000002
 20
410.09972999999991
 30
0.0
 40
1.0049469
 50
270.28136999999992
 51
359.71863000000002
  0
ARC
  5
912
  8
0
  6
CONTINUOUS
 62
     7
 10
-673.63367000000005
 20
406.09496999999999
 30
0.0
 40
0.9998239899999999
 50
359.98991999999993
 51
90.010076999999981
  0
ARC
  5
913
  8
0
  6
CONTINUOUS
 62
     7
 10
-673.33330999999998
 20
396.70544000000001
 30
0.0
 40
0.6994530000000001
 50
359.95517000000001
 51
90.044829000000021
  0
ARC
  5
914
  8
0
  6
CONTINUOUS
 62
     7
 10
-675.43084999999985
 20
398.41003000000001
 30
0.0
 40
1.005233
 50
246.98638999999989
 51
269.82924999999989
  0
ARC
  5
915
  8
0
  6
CONTINUOUS
 62
     7
 10
-675.49334999999985
 20
400.35753999999991
 30
0.0
 40
1.002699
 50
253.7527199999999
 51
270.54064
  0
ARC
  5
916
  8
0
  6
CONTINUOUS
 62
     7
 10
-676.63744999999994
 20
400.70922999999999
 30
0.0
 40
0.99638802
 50
180.24991
 51
253.29664
  0
ARC
  5
917
  8
0
  6
CONTINUOUS
 62
     7
 10
-676.63733000000002
 20
398.92334
 30
0.0
 40
0.9965090199999998
 50
179.91374999999999
 51
247.17845
  0
ARC
  5
918
  8
0
  6
CONTINUOUS
 62
     7
 10
-676.63367000000005
 20
408.09508999999991
 30
0.0
 40
1.0001959999999981
 50
180.01124999999999
 51
269.98874999999992
  0
ARC
  5
919
  8
0
  6
CONTINUOUS
 62
     7
 10
-676.63878999999963
 20
408.09972999999991
 30
0.0
 40
0.9950849999999999
 50
89.716282999999976
 51
180.2837199999999
  0
ARC
  5
91A
  8
0
  6
CONTINUOUS
 62
     7
 10
-676.63367000000005
 20
418.09509000000003
 30
0.0
 40
1.0001999999999991
 50
180.01146
 51
269.98853999999972
  0
ARC
  5
91B
  8
0
  6
CONTINUOUS
 62
     7
 10
-676.63878999999963
 20
418.09972999999991
 30
0.0
 40
0.9950810099999999
 50
89.716071999999997
 51
180.28391999999999
  0
ARC
  5
91C
  8
0
  6
CONTINUOUS
 62
     7
 10
-676.63367000000005
 20
428.09509000000003
 30
0.0
 40
1.0002040000000001
 50
180.01166000000001
 51
269.9883200000001
  0
ARC
  5
91D
  8
0
  6
CONTINUOUS
 62
     7
 10
-676.63878999999963
 20
428.09973000000002
 30
0.0
 40
0.9950770099999999
 50
89.715860000000006
 51
180.28413999999989
  0
ARC
  5
91E
  8
0
  6
CONTINUOUS
 62
     7
 10
-673.6387900000002
 20
430.09972999999968
 30
0.0
 40
1.004942999999999
 50
270.28113999999988
 51
359.71886999999992
  0
ARC
  5
91F
  8
0
  6
CONTINUOUS
 62
     7
 10
-673.63367000000005
 20
426.09496999999999
 30
0.0
 40
0.9998279799999998
 50
359.99015999999978
 51
90.009838000000002
  0
ARC
  5
920
  8
0
  6
CONTINUOUS
 62
     7
 10
-673.6387900000002
 20
420.09973000000002
 30
0.0
 40
1.004939
 50
270.28093999999999
 51
359.71906999999999
  0
ARC
  5
921
  8
0
  6
CONTINUOUS
 62
     7
 10
-673.63367000000005
 20
416.09496999999988
 30
0.0
 40
0.9998210099999999
 50
359.98971999999998
 51
90.010281999999961
  0
ARC
  5
922
  8
0
  6
CONTINUOUS
 62
     7
 10
-661.96130000000005
 20
468.13988999999992
 30
0.0
 40
1.6750160000000001
 50
89.746144999999984
 51
270.25387000000001
  0
ARC
  5
923
  8
0
  6
CONTINUOUS
 62
     7
 10
-661.0892299999997
 20
468.09485000000001
 30
0.0
 40
1.000013899999999
 50
89.691659999999985
 51
270.30833999999999
  0
ARC
  5
924
  8
0
  6
CONTINUOUS
 62
     7
 10
-661.0892299999997
 20
458.09484999999989
 30
0.0
 40
1.000013899999999
 50
89.691659999999985
 51
270.30833999999999
  0
ARC
  5
925
  8
0
  6
CONTINUOUS
 62
     7
 10
-661.0892299999997
 20
448.09485000000001
 30
0.0
 40
1.000013899999999
 50
89.691659999999985
 51
270.30833999999999
  0
ARC
  5
926
  8
0
  6
CONTINUOUS
 62
     7
 10
-661.0892299999997
 20
438.09485000000001
 30
0.0
 40
1.000013899999999
 50
89.691659999999985
 51
270.30833999999999
  0
ARC
  5
927
  8
0
  6
CONTINUOUS
 62
     7
 10
-661.0892299999997
 20
428.09485000000001
 30
0.0
 40
1.000013899999999
 50
89.691659999999985
 51
270.30833999999999
  0
ARC
  5
928
  8
0
  6
CONTINUOUS
 62
     7
 10
-661.0892299999997
 20
418.09485000000001
 30
0.0
 40
1.000013899999999
 50
89.691659999999985
 51
270.30833999999999
  0
ARC
  5
929
  8
0
  6
CONTINUOUS
 62
     7
 10
-661.0892299999997
 20
408.09484999999989
 30
0.0
 40
1.000013899999999
 50
89.691659999999985
 51
270.30833999999999
  0
ARC
  5
92A
  8
0
  6
CONTINUOUS
 62
     7
 10
-662.17389000000003
 20
458.11986999999988
 30
0.0
 40
1.465004
 50
90.000003000000007
 51
270.0
  0
ARC
  5
92B
  8
0
  6
CONTINUOUS
 62
     7
 10
-662.30382999999995
 20
448.10485999999997
 30
0.0
 40
1.3300049999999981
 50
90.000003000000007
 51
270.0
  0
ARC
  5
92C
  8
0
  6
CONTINUOUS
 62
     7
 10
-662.36968999999965
 20
438.09985
 30
0.0
 40
1.2650129999999991
 50
89.735579000000016
 51
270.26441
  0
ARC
  5
92D
  8
0
  6
CONTINUOUS
 62
     7
 10
-662.36968999999965
 20
428.09485000000001
 30
0.0
 40
1.2700129999999981
 50
89.736616999999995
 51
270.26337000000001
  0
ARC
  5
92E
  8
0
  6
CONTINUOUS
 62
     7
 10
-662.30382999999995
 20
418.08483999999999
 30
0.0
 40
1.3300049999999981
 50
90.000003000000007
 51
270.0
  0
ARC
  5
92F
  8
0
  6
CONTINUOUS
 62
     7
 10
-662.17389000000003
 20
408.06981999999988
 30
0.0
 40
1.465004
 50
90.000003000000007
 51
270.0
  0
ARC
  5
930
  8
0
  6
CONTINUOUS
 62
     7
 10
-661.96068999999989
 20
398.0498
 30
0.0
 40
1.675014
 50
89.766498999999982
 51
270.23351000000002
  0
ARC
  5
931
  8
0
  6
CONTINUOUS
 62
     7
 10
-673.63715000000002
 20
392.12157999999999
 30
0.0
 40
1.0032760000000001
 50
334.19810000000001
 51
359.61810999999977
  0
ARC
  5
932
  8
0
  6
CONTINUOUS
 62
     7
 10
-676.63538000000005
 20
392.85413
 30
0.0
 40
0.9984580299999999
 50
179.9595799999999
 51
239.38657000000001
  0
ARC
  5
933
  8
0
  6
CONTINUOUS
 62
     7
 10
-660.43517999999995
 20
487.38074
 30
0.0
 40
1.994108999999999
 50
89.675548000000006
 51
169.18777
  0
ARC
  5
934
  8
0
  6
CONTINUOUS
 62
     7
 10
-660.38367000000017
 20
490.22960999999998
 30
0.0
 40
1.995282999999997
 50
90.006203999999983
 51
170.90835000000001
  0
ARC
  5
935
  8
0
  6
CONTINUOUS
 62
     7
 10
-660.36932000000002
 20
492.07812999999987
 30
0.0
 40
1.9967330000000001
 50
89.843967000000006
 51
171.45387999999991
  0
ARC
  5
936
  8
0
  6
CONTINUOUS
 62
     7
 10
-660.34734999999966
 20
492.98925999999989
 30
0.0
 40
1.995633
 50
89.899708000000004
 51
172.06112999999991
  0
ARC
  5
937
  8
0
  6
CONTINUOUS
 62
     7
 10
-563.50378000000001
 20
487.37659000000002
 30
0.0
 40
1.9982919999999991
 50
15.032547999999981
 51
90.002631999999977
  0
ARC
  5
938
  8
0
  6
CONTINUOUS
 62
     7
 10
-555.98064999999986
 20
472.81763000000001
 30
0.0
 40
1.502775999999999
 50
194.75642999999991
 51
269.87757999999991
  0
ARC
  5
939
  8
0
  6
CONTINUOUS
 62
     7
 10
-563.50873000000001
 20
378.81957999999997
 30
0.0
 40
2.0047290000000002
 50
270.13832000000002
 51
344.82650000000001
  0
ARC
  5
93A
  8
0
  6
CONTINUOUS
 62
     7
 10
-676.63622999999995
 20
385.07947000000001
 30
0.0
 40
0.9976310099999999
 50
180.26780999999991
 51
240.07924
  0
ARC
  5
93B
  8
0
  6
CONTINUOUS
 62
     7
 10
-676.63818000000003
 20
386.12523999999991
 30
0.0
 40
0.9956849800000001
 50
180.02112999999991
 51
243.40913999999981
  0
ARC
  5
93C
  8
0
  6
CONTINUOUS
 62
     7
 10
-675.35315000000003
 20
384.34595000000002
 30
0.0
 40
1.001123999999999
 50
239.32782000000009
 51
269.38767999999988
  0
ARC
  5
93D
  8
0
  6
CONTINUOUS
 62
     7
 10
-675.38800000000003
 20
385.49414000000002
 30
0.0
 40
0.9993420200000001
 50
242.86199999999999
 51
269.66546
  0
ARC
  5
93E
  8
0
  6
CONTINUOUS
 62
     7
 10
-675.36249000000009
 20
386.45850000000002
 30
0.0
 40
1.0037439999999991
 50
239.37112999999999
 51
270.49189999999987
  0
ARC
  5
93F
  8
0
  6
CONTINUOUS
 62
     7
 10
-675.37865999999985
 20
387.59546
 30
0.0
 40
1.0006820000000001
 50
241.65062
 51
269.7039299999999
  0
ARC
  5
940
  8
0
  6
CONTINUOUS
 62
     7
 10
-675.34105999999986
 20
390.97533999999979
 30
0.0
 40
1.000521999999999
 50
237.14617999999999
 51
270.41343999999998
  0
ARC
  5
941
  8
0
  6
CONTINUOUS
 62
     7
 10
-675.37047999999982
 20
392.11583999999988
 30
0.0
 40
1.0010449999999991
 50
240.47187
 51
270.37970999999999
  0
ARC
  5
942
  8
0
  6
CONTINUOUS
 62
     7
 10
-676.63538000000005
 20
392.85413
 30
0.0
 40
0.9984580299999999
 50
179.9595799999999
 51
239.38657000000001
  0
ARC
  5
943
  8
0
  6
CONTINUOUS
 62
     7
 10
-676.63476999999978
 20
391.81957999999992
 30
0.0
 40
0.9990889999999998
 50
179.69508999999991
 51
236.66209000000001
  0
ARC
  5
944
  8
0
  6
CONTINUOUS
 62
     7
 10
-676.63616999999999
 20
388.25609999999989
 30
0.0
 40
0.9977070099999998
 50
180.0740199999999
 51
242.04481000000001
  0
ARC
  5
945
  8
0
  6
CONTINUOUS
 62
     7
 10
-676.63507000000004
 20
387.21837999999991
 30
0.0
 40
0.9987969999999998
 50
179.62728000000001
 51
238.70795000000001
  0
ARC
  5
946
  8
0
  6
CONTINUOUS
 62
     7
 10
-673.63634999999999
 20
392.11730999999992
 30
0.0
 40
1.002470999999999
 50
270.14107000000001
 51
359.85892999999987
  0
ARC
  5
947
  8
0
  6
CONTINUOUS
 62
     7
 10
-673.63800000000003
 20
387.59899999999988
 30
0.0
 40
1.004119999999999
 50
270.23460999999992
 51
359.76538999999991
  0
ARC
  5
948
  8
0
  6
CONTINUOUS
 62
     7
 10
-673.13726999999994
 20
384.99829
 30
0.0
 40
0.5033929900000002
 50
270.38490999999982
 51
359.61509999999993
  0
ARC
  5
949
  8
0
  6
CONTINUOUS
 62
     7
 10
-673.13335999999981
 20
382.84533999999991
 30
0.0
 40
0.49952301
 50
359.94522999999992
 51
90.054773999999981
  0
ARC
  5
94A
  8
0
  6
CONTINUOUS
 62
     7
 10
-660.42902000000004
 20
378.81408999999991
 30
0.0
 40
1.9992490000000001
 50
190.64309999999981
 51
270.14742999999999
  0
ARC
  5
94B
  8
0
  6
CONTINUOUS
 62
     7
 10
-660.37769000000003
 20
375.96521000000001
 30
0.0
 40
2.000420099999999
 50
188.92681999999991
 51
269.82270999999992
  0
ARC
  5
94C
  8
0
  6
CONTINUOUS
 62
     7
 10
-575.12024000000019
 20
369.09485000000001
 30
0.0
 40
1.5
 50
90.000003000000007
 51
178.5
  0
ARC
  5
94D
  8
0
  6
CONTINUOUS
 62
     3
 10
-563.61767999999995
 20
372.09484999999989
 30
0.0
 40
1.5
 50
269.99998999999991
 51
327.0
  0
ARC
  5
94E
  8
0
  6
CONTINUOUS
 62
     7
 10
-660.64728000000002
 20
375.96483999999992
 30
0.0
 40
2.0
 50
188.6296199999999
 51
269.99998999999991
  0
ARC
  5
94F
  8
0
  6
CONTINUOUS
 62
     7
 10
-660.72760000000005
 20
375.96483999999992
 30
0.0
 40
2.0
 50
187.9504399999999
 51
269.99998999999991
  0
ARC
  5
950
  8
0
  6
CONTINUOUS
 62
     7
 10
-638.23572000000001
 20
372.46483999999992
 30
0.0
 40
1.5
 50
1.500002699999998
 51
90.000003000000007
  0
ARC
  5
951
  8
0
  6
CONTINUOUS
 62
     7
 10
-627.19512999999995
 20
448.09485000000001
 30
0.0
 40
1.0000056999999991
 50
269.99998999999991
 51
90.000003000000007
  0
ARC
  5
952
  8
0
  6
CONTINUOUS
 62
     7
 10
-627.19512999999995
 20
438.09485000000001
 30
0.0
 40
1.0000056999999991
 50
269.99998999999991
 51
90.000003000000007
  0
ARC
  5
953
  8
0
  6
CONTINUOUS
 62
     7
 10
-627.19512999999995
 20
428.09485000000001
 30
0.0
 40
1.0000056999999991
 50
269.99998999999991
 51
90.000003000000007
  0
ARC
  5
954
  8
0
  6
CONTINUOUS
 62
     7
 10
-627.19512999999995
 20
418.09485000000001
 30
0.0
 40
1.0000056999999991
 50
269.99998999999991
 51
90.000003000000007
  0
ARC
  5
955
  8
0
  6
CONTINUOUS
 62
     7
 10
-576.63385000000005
 20
400.59485000000001
 30
0.0
 40
1.5
 50
179.99998999999991
 51
270.0
  0
ARC
  5
956
  8
0
  6
CONTINUOUS
 62
     7
 10
-594.63385000000017
 20
400.59485000000001
 30
0.0
 40
1.5
 50
269.99998999999991
 51
0.00000068324516
  0
ARC
  5
957
  8
0
  6
CONTINUOUS
 62
     7
 10
-594.61383000000001
 20
400.73486000000003
 30
0.0
 40
1.0
 50
269.99998999999991
 51
0.00000068324625
  0
ARC
  5
958
  8
0
  6
CONTINUOUS
 62
     7
 10
-576.65386999999987
 20
400.73486000000003
 30
0.0
 40
1.0
 50
179.99998999999991
 51
270.0
  0
CIRCLE
  5
959
  8
0
  6
CONTINUOUS
 62
     3
 10
-588.13385000000005
 20
461.59485000000001
 30
0.0
 40
1.1000000000000001
  0
CIRCLE
  5
95A
  8
0
  6
CONTINUOUS
 62
     3
 10
-588.13385000000005
 20
461.59485000000001
 30
0.0
 40
1.149999999999999
  0
CIRCLE
  5
95B
  8
0
  6
CONTINUOUS
 62
     3
 10
-583.13385000000005
 20
461.59485000000001
 30
0.0
 40
1.0
  0
ARC
  5
95C
  8
0
  6
CONTINUOUS
 62
     7
 10
-594.63385000000017
 20
460.59485000000001
 30
0.0
 40
1.02
 50
269.99998999999991
 51
0.00000068324403
  0
ARC
  5
95D
  8
0
  6
CONTINUOUS
 62
     7
 10
-576.63385000000005
 20
460.59485000000001
 30
0.0
 40
1.02
 50
179.99998999999991
 51
270.0
  0
ARC
  5
95E
  8
0
  6
CONTINUOUS
 62
     7
 10
-594.63385000000017
 20
460.59485000000001
 30
0.0
 40
1.5
 50
269.99998999999991
 51
0.00000068324516
  0
ARC
  5
95F
  8
0
  6
CONTINUOUS
 62
     7
 10
-576.63385000000005
 20
460.59485000000001
 30
0.0
 40
1.5
 50
179.99998999999991
 51
270.0
  0
CIRCLE
  5
960
  8
0
  6
CONTINUOUS
 62
     3
 10
-583.13385000000005
 20
404.59484999999989
 30
0.0
 40
1.0
  0
CIRCLE
  5
961
  8
0
  6
CONTINUOUS
 62
     3
 10
-588.13385000000005
 20
404.59484999999989
 30
0.0
 40
1.149999999999999
  0
CIRCLE
  5
962
  8
0
  6
CONTINUOUS
 62
     3
 10
-588.13385000000005
 20
404.59484999999989
 30
0.0
 40
1.1000000000000001
  0
ARC
  5
963
  8
0
  6
CONTINUOUS
 62
     7
 10
-594.63385000000017
 20
405.59485000000001
 30
0.0
 40
1.02
 50
0.0
 51
90.000003000000007
  0
ARC
  5
964
  8
0
  6
CONTINUOUS
 62
     7
 10
-576.63385000000005
 20
405.59485000000001
 30
0.0
 40
1.02
 50
90.000003000000007
 51
180.00001
  0
ARC
  5
965
  8
0
  6
CONTINUOUS
 62
     7
 10
-594.63385000000017
 20
405.59485000000001
 30
0.0
 40
1.5
 50
0.0
 51
90.000003000000007
  0
ARC
  5
966
  8
0
  6
CONTINUOUS
 62
     7
 10
-576.63385000000005
 20
405.59485000000001
 30
0.0
 40
1.5
 50
90.000003000000007
 51
180.00001
  0
ARC
  5
967
  8
0
  6
CONTINUOUS
 62
     7
 10
-625.96887000000004
 20
418.08483999999999
 30
0.0
 40
1.3300148000000001
 50
269.72941999999989
 51
90.270567000000014
  0
ARC
  5
968
  8
0
  6
CONTINUOUS
 62
     7
 10
-625.9069199999999
 20
428.09485000000001
 30
0.0
 40
1.2700266
 50
269.62931999999989
 51
90.370669999999961
  0
ARC
  5
969
  8
0
  6
CONTINUOUS
 62
     7
 10
-625.9069199999999
 20
438.1048599999998
 30
0.0
 40
1.2700266
 50
269.62931999999989
 51
90.370669999999961
  0
ARC
  5
96A
  8
0
  6
CONTINUOUS
 62
     7
 10
-625.96887000000004
 20
448.10986000000003
 30
0.0
 40
1.3350147999999991
 50
269.73043000000001
 51
90.269555999999994
  0
ARC
  5
96B
  8
0
  6
CONTINUOUS
 62
     7
 10
-562.29387999999994
 20
458.09484999999989
 30
0.0
 40
1.0000255999999981
 50
269.58947000000001
 51
90.410531000000006
  0
ARC
  5
96C
  8
0
  6
CONTINUOUS
 62
     7
 10
-558.59387000000004
 20
458.12488000000002
 30
0.0
 40
1.460011199999999
 50
269.77525000000003
 51
90.224749999999986
  0
ARC
  5
96D
  8
0
  6
CONTINUOUS
 62
     7
 10
-562.29387999999994
 20
408.09484999999989
 30
0.0
 40
1.0000255999999981
 50
269.58947000000001
 51
90.410531000000006
  0
ARC
  5
96E
  8
0
  6
CONTINUOUS
 62
     7
 10
-558.59387000000004
 20
408.06481999999988
 30
0.0
 40
1.460011199999999
 50
269.77525000000003
 51
90.224749999999986
  0
ARC
  5
96F
  8
0
  6
CONTINUOUS
 62
     7
 10
-576.65386999999987
 20
465.45483000000002
 30
0.0
 40
1.0
 50
90.000003000000007
 51
180.00001
  0
ARC
  5
970
  8
0
  6
CONTINUOUS
 62
     7
 10
-576.63385000000005
 20
465.59485000000001
 30
0.0
 40
1.5
 50
90.000003000000007
 51
180.00001
  0
ARC
  5
971
  8
0
  6
CONTINUOUS
 62
     7
 10
-594.63385000000017
 20
465.59485000000001
 30
0.0
 40
1.5
 50
0.0
 51
90.000003000000007
  0
ARC
  5
972
  8
0
  6
CONTINUOUS
 62
     7
 10
-594.61383000000001
 20
465.45483000000002
 30
0.0
 40
1.0
 50
0.0
 51
90.000003000000007
  0
POLYLINE
  5
973
  8
0
  6
CONTINUOUS
 62
     7
 66
     1
 10
0.0
 20
0.0
 30
0.0
  0
VERTEX
  5
974
  8
0
  6
CONTINUOUS
 62
     7
 10
-435.63382000000001
 20
394.81975999999992
 30
0.0
 42
-0.05999131
  0
VERTEX
  5
975
  8
0
  6
CONTINUOUS
 62
     7
 10
-410.04500999999988
 20
378.88754
 30
0.0
 42
-0.30883749
  0
VERTEX
  5
976
  8
0
  6
CONTINUOUS
 62
     7
 10
-400.63385
 20
362.94677999999999
 30
0.0
 42
-0.25905868
  0
VERTEX
  5
977
  8
0
  6
CONTINUOUS
 62
     7
 10
-435.08352000000002
 20
343.15875
 30
0.0
  0
SEQEND
  5
978
  8
0
 62
     7
  0
POLYLINE
  5
979
  8
0
  6
CONTINUOUS
 62
     7
 66
     1
 10
0.0
 20
0.0
 30
0.0
  0
VERTEX
  5
97A
  8
0
  6
CONTINUOUS
 62
     7
 10
-434.37027999999992
 20
353.16586999999993
 30
0.0
 42
0.021277527
  0
VERTEX
  5
97B
  8
0
  6
CONTINUOUS
 62
     7
 10
-423.54014999999998
 20
355.22239000000002
 30
0.0
 42
0.020622977
  0
VERTEX
  5
97C
  8
0
  6
CONTINUOUS
 62
     7
 10
-413.41536999999988
 20
358.03942999999998
 30
0.0
 42
0.022707911
  0
VERTEX
  5
97D
  8
0
  6
CONTINUOUS
 62
     7
 10
-402.60845999999992
 20
362.08496000000002
 30
0.0
  0
SEQEND
  5
97E
  8
0
 62
     7
  0
POLYLINE
  5
97F
  8
0
  6
CONTINUOUS
 62
     7
 66
     1
 10
0.0
 20
0.0
 30
0.0
  0
VERTEX
  5
980
  8
0
  6
CONTINUOUS
 62
     7
 10
-435.63382000000001
 20
471.36993000000001
 30
0.0
 42
0.059991292
  0
VERTEX
  5
981
  8
0
  6
CONTINUOUS
 62
     7
 10
-410.04502000000002
 20
487.30215999999962
 30
0.0
 42
0.3088374
  0
VERTEX
  5
982
  8
0
  6
CONTINUOUS
 62
     7
 10
-400.63385
 20
503.24292000000003
 30
0.0
 42
0.25905875
  0
VERTEX
  5
983
  8
0
  6
CONTINUOUS
 62
     7
 10
-435.08350000000002
 20
523.03093999999999
 30
0.0
  0
SEQEND
  5
984
  8
0
 62
     7
  0
POLYLINE
  5
985
  8
0
  6
CONTINUOUS
 62
     7
 66
     1
 10
0.0
 20
0.0
 30
0.0
  0
VERTEX
  5
986
  8
0
  6
CONTINUOUS
 62
     7
 10
-434.37027999999992
 20
513.02382999999998
 30
0.0
 42
-0.021277527
  0
VERTEX
  5
987
  8
0
  6
CONTINUOUS
 62
     7
 10
-423.54014999999998
 20
510.96730999999988
 30
0.0
 42
-0.020622977
  0
VERTEX
  5
988
  8
0
  6
CONTINUOUS
 62
     7
 10
-413.41536999999988
 20
508.15026999999992
 30
0.0
 42
-0.022707911
  0
VERTEX
  5
989
  8
0
  6
CONTINUOUS
 62
     7
 10
-402.60845999999992
 20
504.10472999999979
 30
0.0
  0
SEQEND
  5
98A
  8
0
 62
     7
  0
POLYLINE
  5
98B
  8
0
  6
CONTINUOUS
 62
     7
 66
     1
 10
0.0
 20
0.0
 30
0.0
  0
VERTEX
  5
98C
  8
0
  6
CONTINUOUS
 62
     7
 10
-402.55638999999979
 20
189.72737000000001
 30
0.0
 42
0.032714929
  0
VERTEX
  5
98D
  8
0
  6
CONTINUOUS
 62
     7
 10
-404.5059
 20
190.4767299999998
 30
0.0
 42
0.016800387
  0
VERTEX
  5
98E
  8
0
  6
CONTINUOUS
 62
     7
 10
-406.51823999999999
 20
191.03893999999991
 30
0.0
 42
0.010827969
  0
VERTEX
  5
98F
  8
0
  6
CONTINUOUS
 62
     7
 10
-408.55883
 20
191.4917199999999
 30
0.0
 42
0.0078595289
  0
VERTEX
  5
990
  8
0
  6
CONTINUOUS
 62
     7
 10
-410.61466999999999
 20
191.86883999999981
 30
0.0
 42
0.0061446512
  0
VERTEX
  5
991
  8
0
  6
CONTINUOUS
 62
     7
 10
-412.68079
 20
192.18877000000001
 30
0.0
 42
0.0050517362
  0
VERTEX
  5
992
  8
0
  6
CONTINUOUS
 62
     7
 10
-414.75351999999998
 20
192.46258
 30
0.0
 42
0.0043110143
  0
VERTEX
  5
993
  8
0
  6
CONTINUOUS
 62
     7
 10
-416.83129000000002
 20
192.69771
 30
0.0
 42
0.0037845326
  0
VERTEX
  5
994
  8
0
  6
CONTINUOUS
 62
     7
 10
-418.91215999999997
 20
192.89921000000001
 30
0.0
 42
0.0034013191
  0
VERTEX
  5
995
  8
0
  6
CONTINUOUS
 62
     7
 10
-420.99619999999987
 20
193.07088999999991
 30
0.0
 42
0.003115758
  0
VERTEX
  5
996
  8
0
  6
CONTINUOUS
 62
     7
 10
-423.08271999999999
 20
193.2154699999999
 30
0.0
 42
0.0029006437
  0
VERTEX
  5
997
  8
0
  6
CONTINUOUS
 62
     7
 10
-425.17081000000002
 20
193.33495999999991
 30
0.0
 42
0.0027395374
  0
VERTEX
  5
998
  8
0
  6
CONTINUOUS
 62
     7
 10
-427.26013999999998
 20
193.43091000000001
 30
0.0
 42
0.0026210352
  0
VERTEX
  5
999
  8
0
  6
CONTINUOUS
 62
     7
 10
-429.35043999999988
 20
193.50448
 30
0.0
 42
0.0025375867
  0
VERTEX
  5
99A
  8
0
  6
CONTINUOUS
 62
     7
 10
-431.44144
 20
193.5565
 30
0.0
 42
0.0024842918
  0
VERTEX
  5
99B
  8
0
  6
CONTINUOUS
 62
     7
 10
-433.53285
 20
193.58752999999999
 30
0.0
 42
0.0024582549
  0
VERTEX
  5
99C
  8
0
  6
CONTINUOUS
 62
     7
 10
-435.62445000000002
 20
193.59790000000001
 30
0.0
  0
SEQEND
  5
99D
  8
0
 62
     7
  0
POLYLINE
  5
99E
  8
0
  6
CONTINUOUS
 62
     7
 66
     1
 10
0.0
 20
0.0
 30
0.0
  0
VERTEX
  5
99F
  8
0
  6
CONTINUOUS
 62
     7
 10
-400.63390999999979
 20
187.8479199999999
 30
0.0
 42
0.029628629
  0
VERTEX
  5
9A0
  8
0
  6
CONTINUOUS
 62
     7
 10
-400.82555000000002
 20
191.07721000000001
 30
0.0
 42
0.02936472
  0
VERTEX
  5
9A1
  8
0
  6
CONTINUOUS
 62
     7
 10
-401.39620999999988
 20
194.26217
 30
0.0
 42
0.028846842
  0
VERTEX
  5
9A2
  8
0
  6
CONTINUOUS
 62
     7
 10
-402.33292999999992
 20
197.35888
 30
0.0
 42
0.028138127
  0
VERTEX
  5
9A3
  8
0
  6
CONTINUOUS
 62
     7
 10
-403.61586999999992
 20
200.3291899999999
 30
0.0
 42
0.027295353
  0
VERTEX
  5
9A4
  8
0
  6
CONTINUOUS
 62
     7
 10
-405.21992
 20
203.13992999999991
 30
0.0
 42
0.026361367
  0
VERTEX
  5
9A5
  8
0
  6
CONTINUOUS
 62
     7
 10
-407.11516
 20
205.7618999999998
 30
0.0
 42
0.025425252
  0
VERTEX
  5
9A6
  8
0
  6
CONTINUOUS
 62
     7
 10
-409.27218999999991
 20
208.17497
 30
0.0
 42
0.024501841
  0
VERTEX
  5
9A7
  8
0
  6
CONTINUOUS
 62
     7
 10
-411.65897999999981
 20
210.3610799999999
 30
0.0
 42
0.023637351
  0
VERTEX
  5
9A8
  8
0
  6
CONTINUOUS
 62
     7
 10
-414.24485999999979
 20
212.30774999999991
 30
0.0
 42
0.02285642
  0
VERTEX
  5
9A9
  8
0
  6
CONTINUOUS
 62
     7
 10
-417.00040000000001
 20
214.00611000000001
 30
0.0
 42
0.022174388
  0
VERTEX
  5
9AA
  8
0
  6
CONTINUOUS
 62
     7
 10
-419.89767999999992
 20
215.4499899999999
 30
0.0
 42
0.021600257
  0
VERTEX
  5
9AB
  8
0
  6
CONTINUOUS
 62
     7
 10
-422.91030000000001
 20
216.63522
 30
0.0
 42
0.021138668
  0
VERTEX
  5
9AC
  8
0
  6
CONTINUOUS
 62
     7
 10
-426.01326999999981
 20
217.55911
 30
0.0
 42
0.020791511
  0
VERTEX
  5
9AD
  8
0
  6
CONTINUOUS
 62
     7
 10
-429.18277999999998
 20
218.21999
 30
0.0
 42
0.020559129
  0
VERTEX
  5
9AE
  8
0
  6
CONTINUOUS
 62
     7
 10
-432.39595999999989
 20
218.61691999999999
 30
0.0
 42
0.020441341
  0
VERTEX
  5
9AF
  8
0
  6
CONTINUOUS
 62
     7
 10
-435.63055999999989
 20
218.74943999999991
 30
0.0
  0
SEQEND
  5
9B0
  8
0
 62
     7
  0
POLYLINE
  5
9B1
  8
0
  6
CONTINUOUS
 62
     7
 66
     1
 10
0.0
 20
0.0
 30
0.0
  0
VERTEX
  5
9B2
  8
0
  6
CONTINUOUS
 62
     7
 10
-661.26849000000004
 20
172.34790000000001
 30
0.0
  0
VERTEX
  5
9B3
  8
0
  6
CONTINUOUS
 62
     7
 10
-661.26577999999995
 20
168.61542
 30
0.0
 42
-1.0
  0
SEQEND
  5
9B4
  8
0
 62
     7
  0
POLYLINE
  5
9B5
  8
0
  6
CONTINUOUS
 62
     7
 66
     1
 10
0.0
 20
0.0
 30
0.0
  0
VERTEX
  5
9B6
  8
0
  6
CONTINUOUS
 62
     7
 10
-661.22513000000004
 20
166.07660999999999
 30
0.0
  0
VERTEX
  5
9B7
  8
0
  6
CONTINUOUS
 62
     7
 10
-660.92645999999945
 20
158.66655
 30
0.0
 42
-1.0
  0
SEQEND
  5
9B8
  8
0
 62
     7
  0
POLYLINE
  5
9B9
  8
0
  6
CONTINUOUS
 62
     7
 66
     1
 10
0.0
 20
0.0
 30
0.0
  0
VERTEX
  5
9BA
  8
0
  6
CONTINUOUS
 62
     7
 10
-660.75346999999999
 20
156.00531999999981
 30
0.0
  0
VERTEX
  5
9BB
  8
0
  6
CONTINUOUS
 62
     7
 10
-660.10740999999985
 20
148.78438
 30
0.0
 42
-1.0
  0
SEQEND
  5
9BC
  8
0
 62
     7
  0
POLYLINE
  5
9BD
  8
0
  6
CONTINUOUS
 62
     7
 66
     1
 10
0.0
 20
0.0
 30
0.0
  0
VERTEX
  5
9BE
  8
0
  6
CONTINUOUS
 62
     7
 10
-659.77171999999985
 20
145.86091999999991
 30
0.0
  0
VERTEX
  5
9BF
  8
0
  6
CONTINUOUS
 62
     7
 10
-658.81123000000002
 20
138.97933
 30
0.0
 42
-1.0
  0
SEQEND
  5
9C0
  8
0
 62
     7
  0
POLYLINE
  5
9C1
  8
0
  6
CONTINUOUS
 62
     7
 66
     1
 10
0.0
 20
0.0
 30
0.0
  0
VERTEX
  5
9C2
  8
0
  6
CONTINUOUS
 62
     7
 10
-661.26849000000004
 20
172.34790000000001
 30
0.0
  0
VERTEX
  5
9C3
  8
0
  6
CONTINUOUS
 62
     7
 10
-661.26577999999995
 20
176.08037999999991
 30
0.0
 42
-1.0
  0
SEQEND
  5
9C4
  8
0
 62
     7
  0
POLYLINE
  5
9C5
  8
0
  6
CONTINUOUS
 62
     7
 66
     1
 10
0.0
 20
0.0
 30
0.0
  0
VERTEX
  5
9C6
  8
0
  6
CONTINUOUS
 62
     7
 10
-661.22513000000004
 20
178.61919
 30
0.0
  0
VERTEX
  5
9C7
  8
0
  6
CONTINUOUS
 62
     7
 10
-660.92645999999945
 20
186.02922000000001
 30
0.0
 42
-1.0
  0
SEQEND
  5
9C8
  8
0
 62
     7
  0
POLYLINE
  5
9C9
  8
0
  6
CONTINUOUS
 62
     7
 66
     1
 10
0.0
 20
0.0
 30
0.0
  0
VERTEX
  5
9CA
  8
0
  6
CONTINUOUS
 62
     7
 10
-660.75346999999999
 20
188.69044999999991
 30
0.0
  0
VERTEX
  5
9CB
  8
0
  6
CONTINUOUS
 62
     7
 10
-660.10740999999985
 20
195.91136
 30
0.0
 42
-1.0
  0
SEQEND
  5
9CC
  8
0
 62
     7
  0
POLYLINE
  5
9CD
  8
0
  6
CONTINUOUS
 62
     7
 66
     1
 10
0.0
 20
0.0
 30
0.0
  0
VERTEX
  5
9CE
  8
0
  6
CONTINUOUS
 62
     7
 10
-659.77171999999985
 20
198.83483000000001
 30
0.0
  0
VERTEX
  5
9CF
  8
0
  6
CONTINUOUS
 62
     7
 10
-658.81123000000002
 20
205.71648999999999
 30
0.0
 42
-1.0
  0
SEQEND
  5
9D0
  8
0
 62
     7
  0
POLYLINE
  5
9D1
  8
0
  6
CONTINUOUS
 62
     7
 66
     1
 10
0.0
 20
0.0
 30
0.0
  0
VERTEX
  5
9D2
  8
0
  6
CONTINUOUS
 62
     7
 10
-432.63387999999998
 20
79.547896999999978
 30
0.0
 42
0.12796143
  0
VERTEX
  5
9D3
  8
0
  6
CONTINUOUS
 62
     7
 10
-426.53710999999998
 20
81.214789999999994
 30
0.0
 42
0.075865316
  0
VERTEX
  5
9D4
  8
0
  6
CONTINUOUS
 62
     7
 10
-421.55520000000001
 20
85.175568999999982
 30
0.0
 42
0.043906078
  0
VERTEX
  5
9D5
  8
0
  6
CONTINUOUS
 62
     7
 10
-417.61421999999999
 20
90.194496999999998
 30
0.0
 42
0.028467095
  0
VERTEX
  5
9D6
  8
0
  6
CONTINUOUS
 62
     7
 10
-414.42113000000001
 20
95.724556000000007
 30
0.0
 42
0.020364394
  0
VERTEX
  5
9D7
  8
0
  6
CONTINUOUS
 62
     7
 10
-411.77468999999991
 20
101.53824
 30
0.0
 42
0.015653188
  0
VERTEX
  5
9D8
  8
0
  6
CONTINUOUS
 62
     7
 10
-409.54984000000002
 20
107.52651
 30
0.0
 42
0.0126876
  0
VERTEX
  5
9D9
  8
0
  6
CONTINUOUS
 62
     7
 10
-407.66556999999989
 20
113.6314899999999
 30
0.0
 42
0.010704105
  0
VERTEX
  5
9DA
  8
0
  6
CONTINUOUS
 62
     7
 10
-406.06784999999979
 20
119.81707
 30
0.0
 42
0.0093243003
  0
VERTEX
  5
9DB
  8
0
  6
CONTINUOUS
 62
     7
 10
-404.71809999999999
 20
126.06271
 30
0.0
 42
0.0083328779
  0
VERTEX
  5
9DC
  8
0
  6
CONTINUOUS
 62
     7
 10
-403.58924999999999
 20
132.35181
 30
0.0
 42
0.0076106812
  0
VERTEX
  5
9DD
  8
0
  6
CONTINUOUS
 62
     7
 10
-402.66104999999999
 20
138.67404999999991
 30
0.0
 42
0.0070818481
  0
VERTEX
  5
9DE
  8
0
  6
CONTINUOUS
 62
     7
 10
-401.91873999999979
 20
145.02087
 30
0.0
 42
0.0066999811
  0
VERTEX
  5
9DF
  8
0
  6
CONTINUOUS
 62
     7
 10
-401.35139999999978
 20
151.38595000000001
 30
0.0
 42
0.0064347658
  0
VERTEX
  5
9E0
  8
0
  6
CONTINUOUS
 62
     7
 10
-400.95125000000002
 20
157.7639699999998
 30
0.0
 42
0.0062670429
  0
VERTEX
  5
9E1
  8
0
  6
CONTINUOUS
 62
     7
 10
-400.71308999999991
 20
164.1501299999999
 30
0.0
 42
0.0061855054
  0
VERTEX
  5
9E2
  8
0
  6
CONTINUOUS
 62
     7
 10
-400.63390999999979
 20
170.54001999999991
 30
0.0
  0
SEQEND
  5
9E3
  8
0
 62
     7
  0
POLYLINE
  5
9E4
  8
0
  6
CONTINUOUS
 62
     7
 66
     1
 10
0.0
 20
0.0
 30
0.0
  0
VERTEX
  5
9E5
  8
0
  6
CONTINUOUS
 62
     7
 10
-661.27386000000001
 20
433.09484999999989
 30
0.0
 42
0.00039106592
  0
VERTEX
  5
9E6
  8
0
  6
CONTINUOUS
 62
     7
 10
-661.27621999999985
 20
432.78372000000002
 30
0.0
 42
0.00035488583
  0
VERTEX
  5
9E7
  8
0
  6
CONTINUOUS
 62
     7
 10
-661.27810999999986
 20
432.47260999999992
 30
0.0
 42
0.00039705231
  0
VERTEX
  5
9E8
  8
0
  6
CONTINUOUS
 62
     7
 10
-661.27954
 20
432.16149999999999
 30
0.0
 42
0.00038766493
  0
VERTEX
  5
9E9
  8
0
  6
CONTINUOUS
 62
     7
 10
-661.28047000000004
 20
431.8503599999998
 30
0.0
 42
0.00035527306
  0
VERTEX
  5
9EA
  8
0
  6
CONTINUOUS
 62
     7
 10
-661.28093999999965
 20
431.53924999999992
 30
0.0
 42
0.00039931891
  0
VERTEX
  5
9EB
  8
0
  6
CONTINUOUS
 62
     7
 10
-661.28093999999965
 20
431.22815000000003
 30
0.0
 42
0.00038547361
  0
VERTEX
  5
9EC
  8
0
  6
CONTINUOUS
 62
     7
 10
-661.28044999999997
 20
430.91700999999989
 30
0.0
 42
0.00040585667
  0
VERTEX
  5
9ED
  8
0
  6
CONTINUOUS
 62
     7
 10
-661.27948000000004
 20
430.60590999999988
 30
0.0
 42
0.00035762026
  0
VERTEX
  5
9EE
  8
0
  6
CONTINUOUS
 62
     7
 10
-661.27801999999986
 20
430.29467999999991
 30
0.0
 42
0.00038319869
  0
VERTEX
  5
9EF
  8
0
  6
CONTINUOUS
 62
     7
 10
-661.27610000000004
 20
429.98354
 30
0.0
 42
0.00035656354
  0
VERTEX
  5
9F0
  8
0
  6
CONTINUOUS
 62
     7
 10
-661.27372000000003
 20
429.67230999999998
 30
0.0
 42
0.0004014099
  0
VERTEX
  5
9F1
  8
0
  6
CONTINUOUS
 62
     7
 10
-661.27086999999995
 20
429.3612099999998
 30
0.0
  0
SEQEND
  5
9F2
  8
0
 62
     7
  0
POLYLINE
  5
9F3
  8
0
  6
CONTINUOUS
 62
     7
 66
     1
 10
0.0
 20
0.0
 30
0.0
  0
VERTEX
  5
9F4
  8
0
  6
CONTINUOUS
 62
     7
 10
-661.22979999999995
 20
426.82445999999999
 30
0.0
 42
0.00074501067
  0
VERTEX
  5
9F5
  8
0
  6
CONTINUOUS
 62
     7
 10
-661.21505000000002
 20
426.20670000000001
 30
0.0
 42
0.00078382347
  0
VERTEX
  5
9F6
  8
0
  6
CONTINUOUS
 62
     7
 10
-661.19840999999985
 20
425.58909999999997
 30
0.0
 42
0.00074332124
  0
VERTEX
  5
9F7
  8
0
  6
CONTINUOUS
 62
     7
 10
-661.17987000000005
 20
424.97143999999997
 30
0.0
 42
0.00075144491
  0
VERTEX
  5
9F8
  8
0
  6
CONTINUOUS
 62
     7
 10
-661.15949999999998
 20
424.35382999999979
 30
0.0
 42
0.00076035095
  0
VERTEX
  5
9F9
  8
0
  6
CONTINUOUS
 62
     7
 10
-661.13726999999994
 20
423.7364
 30
0.0
 42
0.00075543153
  0
VERTEX
  5
9FA
  8
0
  6
CONTINUOUS
 62
     7
 10
-661.11315999999999
 20
423.11901999999992
 30
0.0
 42
0.00075773253
  0
VERTEX
  5
9FB
  8
0
  6
CONTINUOUS
 62
     7
 10
-661.08717999999988
 20
422.50161999999989
 30
0.0
 42
0.00076034584
  0
VERTEX
  5
9FC
  8
0
  6
CONTINUOUS
 62
     7
 10
-661.0593299999997
 20
421.88423
 30
0.0
 42
0.00074823141
  0
VERTEX
  5
9FD
  8
0
  6
CONTINUOUS
 62
     7
 10
-661.02959999999985
 20
421.26684999999992
 30
0.0
 42
0.00074896608
  0
VERTEX
  5
9FE
  8
0
  6
CONTINUOUS
 62
     7
 10
-660.99805000000003
 20
420.64970999999991
 30
0.0
 42
0.00076039762
  0
VERTEX
  5
9FF
  8
0
  6
CONTINUOUS
 62
     7
 10
-660.96461999999997
 20
420.03268000000003
 30
0.0
 42
0.00075616125
  0
VERTEX
  5
A00
  8
0
  6
CONTINUOUS
 62
     7
 10
-660.92931999999985
 20
419.41565000000003
 30
0.0
  0
SEQEND
  5
A01
  8
0
 62
     7
  0
POLYLINE
  5
A02
  8
0
  6
CONTINUOUS
 62
     7
 66
     1
 10
0.0
 20
0.0
 30
0.0
  0
VERTEX
  5
A03
  8
0
  6
CONTINUOUS
 62
     7
 10
-660.75562000000002
 20
416.75427000000002
 30
0.0
 42
0.00073721998
  0
VERTEX
  5
A04
  8
0
  6
CONTINUOUS
 62
     7
 10
-660.71145999999999
 20
416.15185999999989
 30
0.0
 42
0.00074398494
  0
VERTEX
  5
A05
  8
0
  6
CONTINUOUS
 62
     7
 10
-660.66552999999988
 20
415.54959000000002
 30
0.0
 42
0.00073322622
  0
VERTEX
  5
A06
  8
0
  6
CONTINUOUS
 62
     7
 10
-660.61779999999976
 20
414.94727
 30
0.0
 42
0.00073594294
  0
VERTEX
  5
A07
  8
0
  6
CONTINUOUS
 62
     7
 10
-660.56831999999963
 20
414.34527000000003
 30
0.0
 42
0.00072133179
  0
VERTEX
  5
A08
  8
0
  6
CONTINUOUS
 62
     7
 10
-660.51706999999999
 20
413.74340999999998
 30
0.0
 42
0.00075453052
  0
VERTEX
  5
A09
  8
0
  6
CONTINUOUS
 62
     7
 10
-660.46405000000004
 20
413.14159999999993
 30
0.0
 42
0.0007418407
  0
VERTEX
  5
A0A
  8
0
  6
CONTINUOUS
 62
     7
 10
-660.40922999999975
 20
412.54007000000001
 30
0.0
 42
0.00074685393
  0
VERTEX
  5
A0B
  8
0
  6
CONTINUOUS
 62
     7
 10
-660.35263999999995
 20
411.93884000000003
 30
0.0
 42
0.00072742995
  0
VERTEX
  5
A0C
  8
0
  6
CONTINUOUS
 62
     7
 10
-660.29425000000003
 20
411.33765
 30
0.0
 42
0.00074288893
  0
VERTEX
  5
A0D
  8
0
  6
CONTINUOUS
 62
     7
 10
-660.23410000000001
 20
410.73662000000002
 30
0.0
 42
0.00072503676
  0
VERTEX
  5
A0E
  8
0
  6
CONTINUOUS
 62
     7
 10
-660.17219
 20
410.13587999999982
 30
0.0
 42
0.00074640581
  0
VERTEX
  5
A0F
  8
0
  6
CONTINUOUS
 62
     7
 10
-660.10851999999988
 20
409.53527999999989
 30
0.0
  0
SEQEND
  5
A10
  8
0
 62
     7
  0
POLYLINE
  5
A11
  8
0
  6
CONTINUOUS
 62
     7
 66
     1
 10
0.0
 20
0.0
 30
0.0
  0
VERTEX
  5
A12
  8
0
  6
CONTINUOUS
 62
     7
 10
-659.77295000000004
 20
406.61182000000002
 30
0.0
 42
0.0006890002
  0
VERTEX
  5
A13
  8
0
  6
CONTINUOUS
 62
     7
 10
-659.70207000000005
 20
406.03705999999988
 30
0.0
 42
0.00067934106
  0
VERTEX
  5
A14
  8
0
  6
CONTINUOUS
 62
     7
 10
-659.62959000000001
 20
405.46237999999988
 30
0.0
 42
0.00071569315
  0
VERTEX
  5
A15
  8
0
  6
CONTINUOUS
 62
     7
 10
-659.55554000000018
 20
404.88806
 30
0.0
 42
0.00071908359
  0
VERTEX
  5
A16
  8
0
  6
CONTINUOUS
 62
     7
 10
-659.47982000000002
 20
404.31392999999991
 30
0.0
 42
0.00066272258
  0
VERTEX
  5
A17
  8
0
  6
CONTINUOUS
 62
     7
 10
-659.40250000000003
 20
403.73991999999998
 30
0.0
 42
0.00072079191
  0
VERTEX
  5
A18
  8
0
  6
CONTINUOUS
 62
     7
 10
-659.3236099999998
 20
403.16613999999993
 30
0.0
 42
0.00071003152
  0
VERTEX
  5
A19
  8
0
  6
CONTINUOUS
 62
     7
 10
-659.24306999999999
 20
402.59266000000002
 30
0.0
 42
0.00069954538
  0
VERTEX
  5
A1A
  8
0
  6
CONTINUOUS
 62
     7
 10
-659.16093000000001
 20
402.01956000000001
 30
0.0
 42
0.00071888515
  0
VERTEX
  5
A1B
  8
0
  6
CONTINUOUS
 62
     7
 10
-659.07714999999985
 20
401.44653
 30
0.0
 42
0.00073581337
  0
VERTEX
  5
A1C
  8
0
  6
CONTINUOUS
 62
     7
 10
-658.99167999999997
 20
400.87376999999998
 30
0.0
 42
0.0006891394
  0
VERTEX
  5
A1D
  8
0
  6
CONTINUOUS
 62
     7
 10
-658.90462999999966
 20
400.30141999999989
 30
0.0
 42
0.00072290801
  0
VERTEX
  5
A1E
  8
0
  6
CONTINUOUS
 62
     7
 10
-658.81591999999966
 20
399.72913
 30
0.0
  0
SEQEND
  5
A1F
  8
0
 62
     7
  0
POLYLINE
  5
A20
  8
0
  6
CONTINUOUS
 62
     7
 66
     1
 10
0.0
 20
0.0
 30
0.0
  0
VERTEX
  5
A21
  8
0
  6
CONTINUOUS
 62
     7
 10
-661.27386000000001
 20
433.09484999999989
 30
0.0
 42
-0.00039106652
  0
VERTEX
  5
A22
  8
0
  6
CONTINUOUS
 62
     7
 10
-661.27621999999985
 20
433.40598
 30
0.0
 42
-0.00035488197
  0
VERTEX
  5
A23
  8
0
  6
CONTINUOUS
 62
     7
 10
-661.27810999999986
 20
433.71708999999998
 30
0.0
 42
-0.00039706112
  0
VERTEX
  5
A24
  8
0
  6
CONTINUOUS
 62
     7
 10
-661.27954
 20
434.02820000000003
 30
0.0
 42
-0.00038765721
  0
VERTEX
  5
A25
  8
0
  6
CONTINUOUS
 62
     7
 10
-661.28047000000004
 20
434.33933999999999
 30
0.0
 42
-0.00035526961
  0
VERTEX
  5
A26
  8
0
  6
CONTINUOUS
 62
     7
 10
-661.28093999999965
 20
434.65044
 30
0.0
 42
-0.0003993348
  0
VERTEX
  5
A27
  8
0
  6
CONTINUOUS
 62
     7
 10
-661.28093999999965
 20
434.96154999999987
 30
0.0
 42
-0.00038545887
  0
VERTEX
  5
A28
  8
0
  6
CONTINUOUS
 62
     7
 10
-661.28044999999997
 20
435.27269000000001
 30
0.0
 42
-0.0004058537
  0
VERTEX
  5
A29
  8
0
  6
CONTINUOUS
 62
     7
 10
-661.27948000000004
 20
435.58379000000002
 30
0.0
 42
-0.00035764179
  0
VERTEX
  5
A2A
  8
0
  6
CONTINUOUS
 62
     7
 10
-661.27801999999986
 20
435.89501999999987
 30
0.0
 42
-0.0003831782
  0
VERTEX
  5
A2B
  8
0
  6
CONTINUOUS
 62
     7
 10
-661.27610000000004
 20
436.20615999999961
 30
0.0
 42
-0.00035656082
  0
VERTEX
  5
A2C
  8
0
  6
CONTINUOUS
 62
     7
 10
-661.27372000000003
 20
436.51738999999998
 30
0.0
 42
-0.00040143614
  0
VERTEX
  5
A2D
  8
0
  6
CONTINUOUS
 62
     7
 10
-661.27086999999995
 20
436.82848999999987
 30
0.0
  0
SEQEND
  5
A2E
  8
0
 62
     7
  0
POLYLINE
  5
A2F
  8
0
  6
CONTINUOUS
 62
     7
 66
     1
 10
0.0
 20
0.0
 30
0.0
  0
VERTEX
  5
A30
  8
0
  6
CONTINUOUS
 62
     7
 10
-661.22979999999995
 20
439.36523
 30
0.0
 42
-0.00074497821
  0
VERTEX
  5
A31
  8
0
  6
CONTINUOUS
 62
     7
 10
-661.21505000000002
 20
439.983
 30
0.0
 42
-0.00078382095
  0
VERTEX
  5
A32
  8
0
  6
CONTINUOUS
 62
     7
 10
-661.19840999999985
 20
440.60059999999987
 30
0.0
 42
-0.00074335669
  0
VERTEX
  5
A33
  8
0
  6
CONTINUOUS
 62
     7
 10
-661.17987000000005
 20
441.21825999999999
 30
0.0
 42
-0.000751411
  0
VERTEX
  5
A34
  8
0
  6
CONTINUOUS
 62
     7
 10
-661.15949999999998
 20
441.83586999999989
 30
0.0
 42
-0.00075841686
  0
VERTEX
  5
A35
  8
0
  6
CONTINUOUS
 62
     7
 10
-661.13726999999994
 20
442.45328999999992
 30
0.0
 42
-0.00075711786
  0
VERTEX
  5
A36
  8
0
  6
CONTINUOUS
 62
     7
 10
-661.11315999999999
 20
443.07080000000002
 30
0.0
 42
-0.00075976006
  0
VERTEX
  5
A37
  8
0
  6
CONTINUOUS
 62
     7
 10
-661.08717999999988
 20
443.68819000000002
 30
0.0
 42
-0.0007579731
  0
VERTEX
  5
A38
  8
0
  6
CONTINUOUS
 62
     7
 10
-661.0593299999997
 20
444.30547000000001
 30
0.0
 42
-0.00074826129
  0
VERTEX
  5
A39
  8
0
  6
CONTINUOUS
 62
     7
 10
-661.02959999999985
 20
444.92284999999998
 30
0.0
 42
-0.00074893564
  0
VERTEX
  5
A3A
  8
0
  6
CONTINUOUS
 62
     7
 10
-660.99805000000003
 20
445.53997999999962
 30
0.0
 42
-0.00076039837
  0
VERTEX
  5
A3B
  8
0
  6
CONTINUOUS
 62
     7
 10
-660.96461999999997
 20
446.15700999999962
 30
0.0
 42
-0.00075618784
  0
VERTEX
  5
A3C
  8
0
  6
CONTINUOUS
 62
     7
 10
-660.92931999999985
 20
446.77404999999987
 30
0.0
  0
SEQEND
  5
A3D
  8
0
 62
     7
  0
POLYLINE
  5
A3E
  8
0
  6
CONTINUOUS
 62
     7
 66
     1
 10
0.0
 20
0.0
 30
0.0
  0
VERTEX
  5
A3F
  8
0
  6
CONTINUOUS
 62
     7
 10
-660.75562000000002
 20
449.43542000000002
 30
0.0
 42
-0.00073370515
  0
VERTEX
  5
A40
  8
0
  6
CONTINUOUS
 62
     7
 10
-660.71146999999985
 20
450.03784000000002
 30
0.0
 42
-0.0007521132
  0
VERTEX
  5
A41
  8
0
  6
CONTINUOUS
 62
     7
 10
-660.66552999999988
 20
450.64022999999992
 30
0.0
 42
-0.00072974907
  0
VERTEX
  5
A42
  8
0
  6
CONTINUOUS
 62
     7
 10
-660.61779999999976
 20
451.24242999999979
 30
0.0
 42
-0.00073593047
  0
VERTEX
  5
A43
  8
0
  6
CONTINUOUS
 62
     7
 10
-660.56831999999963
 20
451.84442999999987
 30
0.0
 42
-0.0007213335
  0
VERTEX
  5
A44
  8
0
  6
CONTINUOUS
 62
     7
 10
-660.51706999999999
 20
452.44628999999992
 30
0.0
 42
-0.00075453664
  0
VERTEX
  5
A45
  8
0
  6
CONTINUOUS
 62
     7
 10
-660.46405000000004
 20
453.04809999999992
 30
0.0
 42
-0.00073754173
  0
VERTEX
  5
A46
  8
0
  6
CONTINUOUS
 62
     7
 10
-660.40923999999995
 20
453.64963
 30
0.0
 42
-0.00075683458
  0
VERTEX
  5
A47
  8
0
  6
CONTINUOUS
 62
     7
 10
-660.35263999999995
 20
454.25099
 30
0.0
 42
-0.00072314512
  0
VERTEX
  5
A48
  8
0
  6
CONTINUOUS
 62
     7
 10
-660.29425000000003
 20
454.85205000000002
 30
0.0
 42
-0.00074288421
  0
VERTEX
  5
A49
  8
0
  6
CONTINUOUS
 62
     7
 10
-660.23410000000001
 20
455.45306999999991
 30
0.0
 42
-0.00072503998
  0
VERTEX
  5
A4A
  8
0
  6
CONTINUOUS
 62
     7
 10
-660.17219
 20
456.0538199999998
 30
0.0
 42
-0.00074640664
  0
VERTEX
  5
A4B
  8
0
  6
CONTINUOUS
 62
     7
 10
-660.10851999999988
 20
456.65442000000002
 30
0.0
  0
SEQEND
  5
A4C
  8
0
 62
     7
  0
POLYLINE
  5
A4D
  8
0
  6
CONTINUOUS
 62
     7
 66
     1
 10
0.0
 20
0.0
 30
0.0
  0
VERTEX
  5
A4E
  8
0
  6
CONTINUOUS
 62
     7
 10
-659.77295000000004
 20
459.57787999999988
 30
0.0
 42
-0.00068898293
  0
VERTEX
  5
A4F
  8
0
  6
CONTINUOUS
 62
     7
 10
-659.70207000000005
 20
460.15262999999987
 30
0.0
 42
-0.00067933813
  0
VERTEX
  5
A50
  8
0
  6
CONTINUOUS
 62
     7
 10
-659.62959000000001
 20
460.72732000000002
 30
0.0
 42
-0.000715718
  0
VERTEX
  5
A51
  8
0
  6
CONTINUOUS
 62
     7
 10
-659.55554000000018
 20
461.30164000000002
 30
0.0
 42
-0.00071906223
  0
VERTEX
  5
A52
  8
0
  6
CONTINUOUS
 62
     7
 10
-659.47982000000002
 20
461.87576999999987
 30
0.0
 42
-0.00066272437
  0
VERTEX
  5
A53
  8
0
  6
CONTINUOUS
 62
     7
 10
-659.40250000000003
 20
462.44977999999992
 30
0.0
 42
-0.00072080101
  0
VERTEX
  5
A54
  8
0
  6
CONTINUOUS
 62
     7
 10
-659.3236099999998
 20
463.0235599999998
 30
0.0
 42
-0.00071002313
  0
VERTEX
  5
A55
  8
0
  6
CONTINUOUS
 62
     7
 10
-659.24306999999999
 20
463.59702999999962
 30
0.0
 42
-0.00069954883
  0
VERTEX
  5
A56
  8
0
  6
CONTINUOUS
 62
     7
 10
-659.16093000000001
 20
464.17012999999997
 30
0.0
 42
-0.00071887942
  0
VERTEX
  5
A57
  8
0
  6
CONTINUOUS
 62
     7
 10
-659.07714999999985
 20
464.74315999999988
 30
0.0
 42
-0.00073582106
  0
VERTEX
  5
A58
  8
0
  6
CONTINUOUS
 62
     7
 10
-658.99167999999997
 20
465.31592000000001
 30
0.0
 42
-0.00068913793
  0
VERTEX
  5
A59
  8
0
  6
CONTINUOUS
 62
     7
 10
-658.90462999999966
 20
465.88826999999992
 30
0.0
 42
-0.00072288972
  0
VERTEX
  5
A5A
  8
0
  6
CONTINUOUS
 62
     7
 10
-658.81591999999966
 20
466.46057000000002
 30
0.0
  0
SEQEND
  5
A5B
  8
0
 62
     7
  0
TEXT
  5
D36
  8
0
  6
CONTINUOUS
 62
     0
 10
-248.75960324564801
 20
415.15542035215122
 30
0.0
 40
10.0
  1
VX01-240M~VX01-600M
  0
ENDSEC
  0
EOF
