  0
SECTION
  2
HEADER
  9
$ACADVER
  1
AC1009
  9
$INSBASE
 10
0.0
 20
0.0
 30
0.0
  9
$EXTMIN
 10
-771.31530999999984
 20
64.492133999999993
 30
0.0
  9
$EXTMAX
 10
-30.280951999999989
 20
612.36664000000019
 30
0.0
  9
$LIMMIN
 10
0.0
 20
0.0
  9
$LIMMAX
 10
12.0
 20
9.0
  9
$ORTHOMODE
 70
     0
  9
$REGENMODE
 70
     1
  9
$FILLMODE
 70
     1
  9
$QTEXTMODE
 70
     0
  9
$MIRRTEXT
 70
     1
  9
$DRAGMODE
 70
     2
  9
$LTSCALE
 40
1.0
  9
$OSMODE
 70
   551
  9
$ATTMODE
 70
     1
  9
$TEXTSIZE
 40
0.2
  9
$TRACEWID
 40
0.05
  9
$TEXTSTYLE
  7
STANDARD
  9
$CLAYER
  8
0
  9
$CELTYPE
  6
CONTINUOUS
  9
$CECOLOR
 62
   256
  9
$DIMSCALE
 40
1.0
  9
$DIMASZ
 40
0.18
  9
$DIMEXO
 40
0.0625
  9
$DIMDLI
 40
0.38
  9
$DIMRND
 40
0.0
  9
$DIMDLE
 40
0.0
  9
$DIMEXE
 40
0.18
  9
$DIMTP
 40
0.0
  9
$DIMTM
 40
0.0
  9
$DIMTXT
 40
0.18
  9
$DIMCEN
 40
0.09
  9
$DIMTSZ
 40
0.0
  9
$DIMTOL
 70
     0
  9
$DIMLIM
 70
     0
  9
$DIMTIH
 70
     1
  9
$DIMTOH
 70
     1
  9
$DIMSE1
 70
     0
  9
$DIMSE2
 70
     0
  9
$DIMTAD
 70
     0
  9
$DIMZIN
 70
     0
  9
$DIMBLK
  1

  9
$DIMASO
 70
     1
  9
$DIMSHO
 70
     1
  9
$DIMPOST
  1

  9
$DIMAPOST
  1

  9
$DIMALT
 70
     0
  9
$DIMALTD
 70
     2
  9
$DIMALTF
 40
25.399999999999999
  9
$DIMLFAC
 40
1.0
  9
$DIMTOFL
 70
     0
  9
$DIMTVP
 40
0.0
  9
$DIMTIX
 70
     0
  9
$DIMSOXD
 70
     0
  9
$DIMSAH
 70
     0
  9
$DIMBLK1
  1

  9
$DIMBLK2
  1

  9
$DIMSTYLE
  2
STANDARD
  9
$DIMCLRD
 70
     0
  9
$DIMCLRE
 70
     0
  9
$DIMCLRT
 70
     0
  9
$DIMTFAC
 40
1.0
  9
$DIMGAP
 40
0.09
  9
$LUNITS
 70
     2
  9
$LUPREC
 70
     4
  9
$SKETCHINC
 40
0.1
  9
$FILLETRAD
 40
0.0
  9
$AUNITS
 70
     0
  9
$AUPREC
 70
     0
  9
$MENU
  1
.
  9
$ELEVATION
 40
0.0
  9
$PELEVATION
 40
0.0
  9
$THICKNESS
 40
0.0
  9
$LIMCHECK
 70
     0
  9
$BLIPMODE
 70
     0
  9
$CHAMFERA
 40
0.0
  9
$CHAMFERB
 40
0.0
  9
$SKPOLY
 70
     0
  9
$TDCREATE
 40
2452300.422685903
  9
$TDUPDATE
 40
2458540.6756664119
  9
$TDINDWG
 40
0.0165786574
  9
$TDUSRTIMER
 40
0.0165784375
  9
$USRTIMER
 70
     1
  9
$ANGBASE
 50
0.0
  9
$ANGDIR
 70
     0
  9
$PDMODE
 70
     0
  9
$PDSIZE
 40
0.0
  9
$PLINEWID
 40
0.0
  9
$COORDS
 70
     1
  9
$SPLFRAME
 70
     0
  9
$SPLINETYPE
 70
     6
  9
$SPLINESEGS
 70
     8
  9
$ATTDIA
 70
     1
  9
$ATTREQ
 70
     1
  9
$HANDLING
 70
     1
  9
$HANDSEED
  5
D7A
  9
$SURFTAB1
 70
     6
  9
$SURFTAB2
 70
     6
  9
$SURFTYPE
 70
     6
  9
$SURFU
 70
     6
  9
$SURFV
 70
     6
  9
$UCSNAME
  2

  9
$UCSORG
 10
0.0
 20
0.0
 30
0.0
  9
$UCSXDIR
 10
1.0
 20
0.0
 30
0.0
  9
$UCSYDIR
 10
0.0
 20
1.0
 30
0.0
  9
$PUCSNAME
  2

  9
$PUCSORG
 10
0.0
 20
0.0
 30
0.0
  9
$PUCSXDIR
 10
1.0
 20
0.0
 30
0.0
  9
$PUCSYDIR
 10
0.0
 20
1.0
 30
0.0
  9
$USERI1
 70
     0
  9
$USERI2
 70
     0
  9
$USERI3
 70
     0
  9
$USERI4
 70
     0
  9
$USERI5
 70
     0
  9
$USERR1
 40
0.0
  9
$USERR2
 40
0.0
  9
$USERR3
 40
0.0
  9
$USERR4
 40
0.0
  9
$USERR5
 40
0.0
  9
$WORLDVIEW
 70
     1
  9
$SHADEDGE
 70
     3
  9
$SHADEDIF
 70
    70
  9
$TILEMODE
 70
     1
  9
$MAXACTVP
 70
    64
  9
$PLIMCHECK
 70
     0
  9
$PEXTMIN
 10
1.0000000000000000E+020
 20
1.0000000000000000E+020
 30
1.0000000000000000E+020
  9
$PEXTMAX
 10
-1.0000000000000000E+020
 20
-1.0000000000000000E+020
 30
-1.0000000000000000E+020
  9
$PLIMMIN
 10
0.0
 20
0.0
  9
$PLIMMAX
 10
12.0
 20
9.0
  9
$UNITMODE
 70
     0
  9
$VISRETAIN
 70
     1
  9
$PLINEGEN
 70
     0
  9
$PSLTSCALE
 70
     1
  0
ENDSEC
  0
SECTION
  2
TABLES
  0
TABLE
  2
VPORT
 70
     1
  0
VPORT
  2
*ACTIVE
 70
     0
 10
0.0
 20
0.0
 11
1.0
 21
1.0
 12
-379.13172835497681
 22
338.42778870787703
 13
0.0
 23
0.0
 14
1.0
 24
1.0
 15
0.0
 25
0.0
 16
0.0
 26
0.0
 36
1.0
 17
0.0
 27
0.0
 37
0.0
 40
551.88982015553393
 41
1.7571592210767459
 42
50.0
 43
0.0
 44
0.0
 50
0.0
 51
0.0
 71
     0
 72
   100
 73
     1
 74
     1
 75
     0
 76
     0
 77
     0
 78
     0
  0
ENDTAB
  0
TABLE
  2
LTYPE
 70
    20
  0
LTYPE
  2
CONTINUOUS
 70
     0
  3
Solid line
 72
    65
 73
     0
 40
0.0
  0
LTYPE
  2
DASHED
 70
     0
  3
__ __ __ __ __ __ __ __ __ __ __ __ __ __ __
 72
    65
 73
     2
 40
3.5
 49
2.0
 49
-1.5
  0
LTYPE
  2
CENTER
 70
     0
  3
____ _ ____ _ ____ _ ____ _ ____ _ ____ _ ____
 72
    65
 73
     4
 40
17.5
 49
13.0
 49
-1.5
 49
1.5
 49
-1.5
  0
LTYPE
  2
PHANTOM
 70
     0
  3
_____ _ _ _____ _ _ _____ _ _ _____ _ _ ____  
 72
    65
 73
     6
 40
15.5
 49
8.0
 49
-1.5
 49
1.5
 49
-1.5
 49
1.5
 49
-1.5
  0
LTYPE
  2
DOT
 70
     0
  3
. . . . . . . . . . . . . . . . . . . . . . . .
 72
    65
 73
     2
 40
0.25
 49
0.0
 49
-0.25
  0
LTYPE
  2
AM_ISO02W050
 70
     0
  3
__ __ __ __ __ __ __ __ __ __ __ __ __ __ __
 72
    65
 73
     2
 40
7.5
 49
6.0
 49
-1.5
  0
LTYPE
  2
AM_ISO08W050
 70
     0
  3
____ . ____ . ____ . ____ . ____ . ____ . ____
 72
    65
 73
     4
 40
18.0
 49
12.0
 49
-1.5
 49
3.0
 49
-1.5
  0
LTYPE
  2
AM_ISO09W050
 70
     0
  3
_____ . . _____ . . _____ . . ____ .. ____
 72
    65
 73
     6
 40
22.5
 49
12.0
 49
-1.5
 49
3.0
 49
-1.5
 49
3.0
 49
-1.5
  0
LTYPE
  2
AMCONSTR
 70
     0
  3
_______________________
 72
    65
 73
     2
 40
9999.0
 49
9999.0
 49
0.0
  0
LTYPE
  2
AM_ISO08W050X2
 70
     0
  3
__ . __ . __ . __ . __ . __
 72
    65
 73
     4
 40
9.0
 49
6.0
 49
-0.75
 49
1.5
 49
-0.75
  0
LTYPE
  2
AM_ISO02W050X2
 70
     0
  3
 _ _ _ _ _ _ _ _ _ _ _ _
 72
    65
 73
     2
 40
3.75
 49
3.0
 49
-0.75
  0
LTYPE
  2
AMZIGZAG
 70
     0
  3
/\/-/\/-/\/-/\/-/\/-/\/
 72
    65
 73
     2
 40
11.000099999999991
 49
0.0001
 49
-11.0
  0
LTYPE
  2
HIDDEN
 70
     0
  3
Hidden __ __ __ __ __ __ __ __ __ __ __ __ __ _
 72
    65
 73
     2
 40
0.375
 49
0.25
 49
-0.125
  0
LTYPE
  2
PHANTOM2
 70
     0
  3
Phantom (.5x) ___ _ _ ___ _ _ ___ _ _ ___ _ _
 72
    65
 73
     6
 40
1.25
 49
0.625
 49
-0.125
 49
0.125
 49
-0.125
 49
0.125
 49
-0.125
  0
LTYPE
  2
CENTER2
 70
     0
  3
Center (.5x) ___ _ ___ _ ___ _ ___ _ ___ _ ___
 72
    65
 73
     4
 40
1.125
 49
0.75
 49
-0.125
 49
0.125
 49
-0.125
  0
LTYPE
  2
HIDDEN2
 70
     0
  3
Hidden (.5x) _ _ _ _ _ _ _ _ _ _ _ _ _ _ _ _ _
 72
    65
 73
     2
 40
0.1875
 49
0.125
 49
-0.0625
  0
LTYPE
  2
AMZIGZAG2
 70
     0
  3
/\/-/\/-/\/-/\/-/\/-/\/
 72
    65
 73
     2
 40
0.4401
 49
0.0001
 49
-0.4400000000000003
  0
LTYPE
  2
ACANSTGB
 70
     0
  3
__ . . __ . .
 72
    65
 73
     6
 40
0.35433070866
 49
0.15748031496
 49
-0.03937007874
 49
0.03937007874
 49
-0.03937007874
 49
0.03937007874
 49
-0.03937007874
  0
LTYPE
  2
ACANSTGL
 70
     0
  3
_ _ _ _ _
 72
    65
 73
     2
 40
0.11811023622
 49
0.07874015748
 49
-0.03937007874
  0
ENDTAB
  0
TABLE
  2
LAYER
 70
     1
  0
LAYER
  2
0
 70
     0
 62
     7
  6
CONTINUOUS
  0
ENDTAB
  0
TABLE
  2
STYLE
 70
     5
  0
STYLE
  2
STANDARD
 70
     0
 40
0.0
 41
1.0
 50
0.0
 71
     0
 42
0.2
  3
txt
  4

  0
STYLE
  2
ANNOTATIVE
 70
     0
 40
0.0
 41
1.0
 50
0.0
 71
     0
 42
0.2
  3
txt
  4

  0
STYLE
  2

 70
     1
 40
0.0
 41
1.0
 50
0.0
 71
     0
 42
0.2
  3
ltypeshp.shx
  4

  0
STYLE
  2
ACANSTS
 70
     0
 40
1.0
 41
1.0
 50
0.0
 71
     0
 42
0.2
  3
romans.shx
  4
extfont.shx
  0
STYLE
  2
ACANSGDT
 70
     0
 40
0.0
 41
1.0
 50
0.0
 71
     0
 42
0.2
  3
amgdt.shx
  4

  0
ENDTAB
  0
TABLE
  2
VIEW
 70
     0
  0
ENDTAB
  0
TABLE
  2
UCS
 70
     0
  0
ENDTAB
  0
TABLE
  2
APPID
 70
    11
  0
APPID
  2
ACAD
 70
     0
  0
APPID
  2
ACADANNOTATIVE
 70
     0
  0
APPID
  2
MCAD_NO_VIS
 70
     0
  0
APPID
  2
ACAD_TEMP_GRAPHIC
 70
     0
  0
APPID
  2
ACATTRIBSERVICES
 70
     0
  0
APPID
  2
DESIGNERASSEMBLIES
 70
     0
  0
APPID
  2
ACAD_DSTYLE_DIMBREAK
 70
     0
  0
APPID
  2
ACAD_DSTYLE_DIMJAG
 70
     0
  0
APPID
  2
ACAD_NAV_VCDISPLAY
 70
     0
  0
APPID
  2
ACAD_EXEMPT_FROM_CAD_STANDARDS
 70
     0
  0
APPID
  2
ACAD_MLEADERVER
 70
     0
  0
ENDTAB
  0
TABLE
  2
DIMSTYLE
 70
     8
  0
DIMSTYLE
  2
STANDARD
 70
     0
  3

  4

  5

  6

  7

 40
1.0
 41
0.18
 42
0.0625
 43
0.38
 44
0.18
 45
0.0
 46
0.0
 47
0.0
 48
0.0
140
0.18
141
0.09
142
0.0
143
25.399999999999999
144
1.0
145
0.0
146
1.0
147
0.09
 71
     0
 72
     0
 73
     1
 74
     1
 75
     0
 76
     0
 77
     0
 78
     0
170
     0
171
     2
172
     0
173
     0
174
     0
175
     0
176
     0
177
     0
178
     0
  0
DIMSTYLE
  2
ANNOTATIVE
 70
     0
  3

  4

  5

  6

  7

 40
1.0
 41
0.18
 42
0.0625
 43
0.38
 44
0.18
 45
0.0
 46
0.0
 47
0.0
 48
0.0
140
0.18
141
0.09
142
0.0
143
25.399999999999999
144
1.0
145
0.0
146
1.0
147
0.09
 71
     0
 72
     0
 73
     1
 74
     1
 75
     0
 76
     0
 77
     0
 78
     0
170
     0
171
     2
172
     0
173
     0
174
     0
175
     0
176
     0
177
     0
178
     0
  0
DIMSTYLE
  2
AM_ANSI
 70
     0
  3

  4
mm
  5

  6

  7

 40
1.0
 41
0.1
 42
0.05
 43
0.5
 44
0.1
 45
0.0
 46
0.0
 47
0.1
 48
0.1
140
0.12
141
0.0
142
0.0
143
25.399999999999999
144
1.0
145
0.0
146
0.71
147
0.06
 71
     0
 72
     0
 73
     1
 74
     1
 75
     0
 76
     0
 77
     0
 78
     7
170
     0
171
     2
172
     0
173
     0
174
     0
175
     0
176
   256
177
   256
178
     2
  0
DIMSTYLE
  2
AM_ANSI$3
 70
     0
  3

  4
mm
  5

  6

  7

 40
1.0
 41
0.1
 42
0.05
 43
0.5
 44
0.1
 45
0.0
 46
0.0
 47
0.1
 48
0.1
140
0.12
141
0.0
142
0.0
143
25.399999999999999
144
1.0
145
0.0
146
0.71
147
0.06
 71
     0
 72
     0
 73
     1
 74
     1
 75
     0
 76
     0
 77
     0
 78
     7
170
     0
171
     2
172
     0
173
     0
174
     0
175
     0
176
   256
177
   256
178
     2
  0
DIMSTYLE
  2
AM_ANSI$4
 70
     0
  3

  4
mm
  5

  6

  7

 40
1.0
 41
0.1
 42
0.05
 43
0.5
 44
0.1
 45
0.0
 46
0.0
 47
0.1
 48
0.1
140
0.12
141
0.0
142
0.0
143
25.399999999999999
144
1.0
145
0.0
146
0.71
147
0.06
 71
     0
 72
     0
 73
     1
 74
     1
 75
     0
 76
     0
 77
     0
 78
     7
170
     0
171
     2
172
     0
173
     0
174
     0
175
     0
176
   256
177
   256
178
     2
  0
DIMSTYLE
  2
AM_ANSI$7
 70
     0
  3

  4
mm
  5

  6

  7

 40
1.0
 41
0.1
 42
0.05
 43
0.5
 44
0.1
 45
0.0
 46
0.0
 47
0.1
 48
0.1
140
0.24
141
0.0
142
0.0
143
25.399999999999999
144
1.0
145
0.0
146
0.71
147
0.06
 71
     0
 72
     0
 73
     1
 74
     1
 75
     0
 76
     0
 77
     0
 78
     7
170
     0
171
     2
172
     0
173
     0
174
     0
175
     0
176
   256
177
   256
178
     2
  0
DIMSTYLE
  2
AM_ANSI$SF
 70
     0
  3

  4
mm
  5

  6

  7

 40
1.0
 41
0.1
 42
0.05
 43
0.5
 44
0.1
 45
0.0
 46
0.0
 47
0.1
 48
0.1
140
0.12
141
0.0
142
0.0
143
25.399999999999999
144
1.0
145
0.0
146
0.71
147
0.06
 71
     0
 72
     0
 73
     1
 74
     1
 75
     1
 76
     1
 77
     0
 78
     7
170
     0
171
     2
172
     0
173
     0
174
     0
175
     0
176
   256
177
   256
178
     2
  0
DIMSTYLE
  2
AM_ANSI$SH
 70
     0
  3

  4
mm
  5

  6

  7

 40
1.0
 41
0.1
 42
0.05
 43
0.5
 44
0.1
 45
0.0
 46
0.0
 47
0.1
 48
0.1
140
0.12
141
0.0
142
0.0
143
25.399999999999999
144
1.0
145
0.0
146
0.71
147
0.06
 71
     0
 72
     0
 73
     1
 74
     1
 75
     1
 76
     1
 77
     0
 78
     7
170
     0
171
     2
172
     0
173
     1
174
     0
175
     0
176
   256
177
   256
178
     2
  0
ENDTAB
  0
ENDSEC
  0
SECTION
  2
BLOCKS
  0
BLOCK
  8
0
  2
$MODEL_SPACE
 70
     0
 10
0.0
 20
0.0
 30
0.0
  3
$MODEL_SPACE
  1

  0
ENDBLK
  5
C86
  8
0
  0
BLOCK
 67
     1
  8
0
  2
$PAPER_SPACE
 70
     0
 10
0.0
 20
0.0
 30
0.0
  3
$PAPER_SPACE
  1

  0
ENDBLK
  5
C82
 67
     1
  8
0
  0
BLOCK
  8
0
  2
GENAXEH
 70
     0
 10
0.0
 20
0.0
 30
0.0
  3
GENAXEH
  1

  0
LINE
  5
59C
  8
0
 10
-1.0
 20
0.0
 30
0.0
 11
1.0
 21
0.0
 31
0.0
  0
ENDBLK
  5
59D
  8
0
  0
BLOCK
  8
0
  2
_ACMFILLEDHALF
 70
     0
 10
0.0
 20
0.0
 30
0.0
  3
_ACMFILLEDHALF
  1

  0
TRACE
  5
B88
  8
0
  6
CONTINUOUS
 62
     0
 10
-0.8
 20
0.0
 30
0.0
 11
-1.0
 21
0.166666666
 31
0.0
 12
0.0
 22
0.0
 32
0.0
 13
0.0
 23
0.0
 33
0.0
  0
LINE
  5
B89
  8
0
  6
CONTINUOUS
 62
     0
 10
-1.0
 20
0.0
 30
0.0
 11
-0.8
 21
0.0
 31
0.0
  0
ENDBLK
  5
B87
  8
0
  0
BLOCK
  8
0
  2
*U4
 70
     1
 10
0.0
 20
0.0
 30
0.0
  3
*U4
  1

  0
TEXT
  5
C0F
  8
0
  6
CONTINUOUS
 62
     0
 10
4.1999993754229852
 20
4.4356759791489822
 30
0.0
 40
10.0
  1
ＶＸ０１－２４０Ｍ～ＶＸ０１－６００Ｍ
  0
ENDBLK
  5
C11
  8
0
  0
BLOCK
  8
0
  2
*U5
 70
     1
 10
0.0
 20
0.0
 30
0.0
  3
*U5
  1

  0
TEXT
  5
C13
  8
0
  6
CONTINUOUS
 62
     0
 10
-303.44149919466162
 20
415.36035073614579
 30
0.0
 40
15.0
  1
ＶＸ０１－８００Ｍ～ＶＸ０１－Ｋ２０Ｍ
  0
ENDBLK
  5
C15
  8
0
  0
ENDSEC
  0
SECTION
  2
ENTITIES
  0
LINE
  5
59E
  8
0
  6
CENTER
 62
     7
 10
-771.31530999999984
 20
497.36660999999992
 30
0.0
 11
-344.97030999999993
 21
497.36660999999992
 31
0.0
  0
LINE
  5
59F
  8
0
  6
CENTER
 62
     1
 10
-184.2809399999999
 20
209.54793000000001
 30
0.0
 11
-106.2809399999999
 21
209.54793000000001
 31
0.0
  0
LINE
  5
5A0
  8
0
  6
CENTER
 62
     1
 10
-145.2809399999999
 20
64.492133999999993
 30
0.0
 11
-145.2809399999999
 21
286.7843299999999
 31
0.0
  0
LINE
  5
5A1
  8
0
  6
CONTINUOUS
 62
     7
 10
-575.88317999999981
 20
579.90515000000005
 30
0.0
 11
-575.88317999999981
 21
603.97686999999985
 31
0.0
  0
LINE
  5
5A2
  8
0
  6
CONTINUOUS
 62
     7
 10
-414.88312000000002
 20
566.36658
 30
0.0
 11
-414.88312000000002
 21
604.76733000000002
 31
0.0
  0
LINE
  5
5A3
  8
0
  6
CONTINUOUS
 62
     7
 10
-527.88317999999981
 20
397.86660999999992
 30
0.0
 11
-527.88317999999981
 21
596.86658
 31
0.0
  0
LINE
  5
5A4
  8
0
  6
CONTINUOUS
 62
     7
 10
-572.23175000000003
 20
607.96167000000003
 30
0.0
 11
-521.88311999999985
 21
612.36664000000019
 31
0.0
  0
LINE
  5
5A5
  8
0
  6
CENTER
 62
     7
 10
-557.88317999999992
 20
578.86658
 30
0.0
 11
-557.88317999999992
 21
605.86657999999989
 31
0.0
  0
LINE
  5
5A6
  8
0
  6
CONTINUOUS
 62
     7
 10
-421.88312000000002
 20
436.26324
 30
0.0
 11
-421.88312000000002
 21
558.46996999999976
 31
0.0
  0
LINE
  5
5A7
  8
0
  6
CENTER
 62
     7
 10
-432.88312000000002
 20
578.86658
 30
0.0
 11
-432.88312000000002
 21
605.86657999999989
 31
0.0
  0
LINE
  5
5A8
  8
0
  6
CENTER
 62
     7
 10
-571.38317999999981
 20
592.36658
 30
0.0
 11
-544.38317999999981
 21
592.36658
 31
0.0
  0
LINE
  5
5A9
  8
0
  6
CENTER
 62
     7
 10
-446.38312000000002
 20
592.36658
 30
0.0
 11
-419.38311999999991
 21
592.36658
 31
0.0
  0
LINE
  5
5AA
  8
0
  6
CONTINUOUS
 62
     7
 10
-521.88311999999985
 20
612.36658
 30
0.0
 11
-418.74352999999968
 21
608.76489000000004
 31
0.0
  0
LINE
  5
5AB
  8
0
  6
CONTINUOUS
 62
     7
 10
-572.91840000000002
 20
576.04144000000008
 30
0.0
 11
-552.70325000000003
 21
570.62482
 31
0.0
  0
LINE
  5
5AC
  8
0
  6
CONTINUOUS
 62
     7
 10
-536.62163999999996
 20
605.05425999999989
 30
0.0
 11
-528.23175000000003
 21
605.78827000000001
 31
0.0
  0
LINE
  5
5AD
  8
0
  6
CONTINUOUS
 62
     7
 10
-572.91832999999986
 20
418.69171
 30
0.0
 11
-552.70318999999995
 21
424.10836999999992
 31
0.0
  0
LINE
  5
5AE
  8
0
  6
CONTINUOUS
 62
     7
 10
-521.88311999999985
 20
382.36660999999998
 30
0.0
 11
-418.74352999999968
 21
385.96832000000001
 31
0.0
  0
LINE
  5
5AF
  8
0
  6
CENTER
 62
     7
 10
-446.38312000000002
 20
402.36660999999981
 30
0.0
 11
-419.38311999999991
 21
402.36660999999981
 31
0.0
  0
LINE
  5
5B0
  8
0
  6
CENTER
 62
     7
 10
-571.38317999999981
 20
402.36660999999981
 30
0.0
 11
-544.38317999999981
 21
402.36660999999981
 31
0.0
  0
LINE
  5
5B1
  8
0
  6
CENTER
 62
     7
 10
-432.88312000000002
 20
415.86660999999992
 30
0.0
 11
-432.88312000000002
 21
388.86660999999998
 31
0.0
  0
LINE
  5
5B2
  8
0
  6
CENTER
 62
     7
 10
-557.88317999999992
 20
415.86660999999992
 30
0.0
 11
-557.88317999999992
 21
388.86660999999998
 31
0.0
  0
LINE
  5
5B3
  8
0
  6
CONTINUOUS
 62
     7
 10
-572.23175000000003
 20
386.77154999999999
 30
0.0
 11
-521.88311999999985
 21
382.36660999999998
 31
0.0
  0
LINE
  5
5B4
  8
0
  6
CONTINUOUS
 62
     7
 10
-414.88312000000002
 20
428.36660999999992
 30
0.0
 11
-414.88312000000002
 21
389.96587999999991
 31
0.0
  0
LINE
  5
5B5
  8
0
  6
CONTINUOUS
 62
     7
 10
-575.88317999999981
 20
414.82805999999988
 30
0.0
 11
-575.88317999999981
 21
390.75632000000002
 31
0.0
  0
LINE
  5
5B6
  8
0
  6
CONTINUOUS
 62
     7
 10
-352.88314999999977
 20
513.36658
 30
0.0
 11
-410.88312000000002
 21
513.36658
 31
0.0
  0
LINE
  5
5B7
  8
0
  6
CONTINUOUS
 62
     7
 10
-565.38317999999981
 20
549.40661999999986
 30
0.0
 11
-552.88317999999981
 21
549.40661999999986
 31
0.0
  0
LINE
  5
5B8
  8
0
  6
CONTINUOUS
 62
     7
 10
-565.38317999999981
 20
534.51660000000004
 30
0.0
 11
-552.88317999999981
 21
534.51660000000004
 31
0.0
  0
LINE
  5
5B9
  8
0
  6
CONTINUOUS
 62
     7
 10
-552.88317999999981
 20
425.43768
 30
0.0
 11
-552.88317999999981
 21
569.29552999999999
 31
0.0
  0
LINE
  5
5BA
  8
0
  6
CONTINUOUS
 62
     7
 10
-537.88317999999992
 20
400.14722
 30
0.0
 11
-537.88317999999992
 21
594.58600000000001
 31
0.0
  0
LINE
  5
5BB
  8
0
  6
CONTINUOUS
 62
     7
 10
-565.38317999999981
 20
460.21660999999989
 30
0.0
 11
-552.88317999999981
 21
460.21660999999989
 31
0.0
  0
LINE
  5
5BC
  8
0
  6
CONTINUOUS
 62
     7
 10
-565.38317999999981
 20
445.32659999999998
 30
0.0
 11
-552.88317999999981
 21
445.32659999999998
 31
0.0
  0
LINE
  5
5BD
  8
0
  6
CONTINUOUS
 62
     7
 10
-565.38317999999981
 20
560.86663999999985
 30
0.0
 11
-557.70867999999996
 21
561.13458000000003
 31
0.0
  0
LINE
  5
5BE
  8
0
  6
CONTINUOUS
 62
     7
 10
-551.41869999999994
 20
421.90215999999992
 30
0.0
 11
-538.76184000000001
 21
409.24529999999987
 31
0.0
  0
LINE
  5
5BF
  8
0
  6
CONTINUOUS
 62
     7
 10
-535.95294000000001
 20
596.58478000000002
 30
0.0
 11
-527.88317999999981
 21
596.86658
 31
0.0
  0
LINE
  5
5C0
  8
0
  6
CONTINUOUS
 62
     7
 10
-551.41869999999994
 20
572.83105
 30
0.0
 11
-538.76184000000001
 21
585.48792000000003
 31
0.0
  0
LINE
  5
5C1
  8
0
  6
CONTINUOUS
 62
     7
 10
-565.38317999999981
 20
560.86657999999977
 30
0.0
 11
-565.38317999999981
 21
433.86655000000002
 31
0.0
  0
LINE
  5
5C2
  8
0
  6
CONTINUOUS
 62
     7
 10
-420.38314999999989
 20
529.54205000000002
 30
0.0
 11
-416.38314999999989
 21
527.23266999999976
 31
0.0
  0
LINE
  5
5C3
  8
0
  6
CONTINUOUS
 62
     7
 10
-420.38317999999992
 20
465.19125000000003
 30
0.0
 11
-416.38317999999992
 21
467.50063999999998
 31
0.0
  0
LINE
  5
5C4
  8
0
  6
CONTINUOUS
 62
     7
 10
-414.88315
 20
470.09868999999998
 30
0.0
 11
-414.88315
 21
497.36660999999992
 31
0.0
  0
LINE
  5
5C5
  8
0
  6
CONTINUOUS
 62
     7
 10
-414.88315
 20
497.36660999999992
 30
0.0
 11
-414.88315
 21
524.63458000000003
 31
0.0
  0
LINE
  5
5C6
  8
0
  6
CONTINUOUS
 62
     7
 10
-410.88312000000002
 20
514.86663999999985
 30
0.0
 11
-414.88315
 21
514.86663999999985
 31
0.0
  0
LINE
  5
5C7
  8
0
  6
CONTINUOUS
 62
     7
 10
-352.88314999999977
 20
481.36664000000002
 30
0.0
 11
-352.88314999999977
 21
513.36658
 31
0.0
  0
LINE
  5
5C8
  8
0
  6
CONTINUOUS
 62
     7
 10
-410.88312000000002
 20
479.86664000000002
 30
0.0
 11
-410.88312000000002
 21
514.86663999999985
 31
0.0
  0
LINE
  5
5C9
  8
0
  6
CONTINUOUS
 62
     7
 10
-397.88312000000002
 20
492.36664000000002
 30
0.0
 11
-397.88312000000002
 21
502.36657999999989
 31
0.0
  0
LINE
  5
5CA
  8
0
  6
CONTINUOUS
 62
     7
 10
-352.88314999999977
 20
481.36664000000002
 30
0.0
 11
-410.88312000000002
 21
481.36664000000002
 31
0.0
  0
LINE
  5
5CB
  8
0
  6
CONTINUOUS
 62
     7
 10
-410.88312000000002
 20
479.86664000000002
 30
0.0
 11
-414.88315
 21
479.86664000000002
 31
0.0
  0
LINE
  5
5CC
  8
0
  6
CONTINUOUS
 62
     7
 10
-397.88315
 20
492.36664000000002
 30
0.0
 11
-352.88314999999977
 21
492.36664000000002
 31
0.0
  0
LINE
  5
5CD
  8
0
  6
CONTINUOUS
 62
     7
 10
-397.88315
 20
502.36657999999989
 30
0.0
 11
-352.88314999999977
 21
502.36657999999989
 31
0.0
  0
LINE
  5
5CE
  8
0
  6
CONTINUOUS
 62
     7
 10
-425.77840999999989
 20
562.46862999999985
 30
0.0
 11
-435.64031999999992
 21
562.72686999999996
 31
0.0
  0
LINE
  5
5CF
  8
0
  6
CONTINUOUS
 62
     7
 10
-425.77840999999989
 20
432.26461999999998
 30
0.0
 11
-435.64028999999988
 21
432.00637999999981
 31
0.0
  0
LINE
  5
5D0
  8
0
  6
CONTINUOUS
 62
     7
 10
-442.88312000000002
 20
428.15985000000001
 30
0.0
 11
-442.88312000000002
 21
566.57335999999998
 31
0.0
  0
LINE
  5
5D1
  8
0
  6
CONTINUOUS
 62
     7
 10
-462.88315
 20
392.71117999999979
 30
0.0
 11
-462.88315
 21
408.15302000000003
 31
0.0
  0
LINE
  5
5D2
  8
0
  6
CONTINUOUS
 62
     7
 10
-450.67370999999991
 20
574.57061999999985
 30
0.0
 11
-451.19724000000002
 21
574.58434999999963
 31
0.0
  0
LINE
  5
5D3
  8
0
  6
CONTINUOUS
 62
     7
 10
-450.67370999999991
 20
420.16262999999998
 30
0.0
 11
-451.19727
 21
420.14893000000001
 31
0.0
  0
LINE
  5
5D4
  8
0
  6
CONTINUOUS
 62
     7
 10
-462.88315
 20
586.58019999999999
 30
0.0
 11
-462.88315
 21
602.02202999999997
 31
0.0
  0
LINE
  5
5D5
  8
0
  6
CONTINUOUS
 62
     7
 10
-527.88317999999981
 20
397.86660999999992
 30
0.0
 11
-523.88317999999981
 21
397.86660999999992
 31
0.0
  0
LINE
  5
5D6
  8
0
  6
CONTINUOUS
 62
     7
 10
-527.88317999999981
 20
596.86658
 30
0.0
 11
-523.88317999999981
 21
596.86658
 31
0.0
  0
LINE
  5
5D7
  8
0
  6
CONTINUOUS
 62
     7
 10
-523.88317999999981
 20
596.86658
 30
0.0
 11
-523.88317999999981
 21
606.73510999999985
 31
0.0
  0
LINE
  5
5D8
  8
0
  6
CONTINUOUS
 62
     7
 10
-536.62163999999996
 20
389.67898999999989
 30
0.0
 11
-528.23168999999984
 21
388.94497999999987
 31
0.0
  0
LINE
  5
5D9
  8
0
  6
CONTINUOUS
 62
     7
 10
-523.88317999999981
 20
397.86660999999992
 30
0.0
 11
-523.88317999999981
 21
387.99811
 31
0.0
  0
LINE
  5
5DA
  8
0
  6
CONTINUOUS
 62
     7
 10
-565.38311999999985
 20
433.86655000000002
 30
0.0
 11
-557.70867999999996
 21
433.59859999999998
 31
0.0
  0
LINE
  5
5DB
  8
0
  6
CONTINUOUS
 62
     7
 10
-535.95299999999986
 20
398.14841000000001
 30
0.0
 11
-527.88317999999981
 21
397.86660999999992
 31
0.0
  0
LINE
  5
5DC
  8
0
  6
CONTINUOUS
 62
     7
 10
-527.88317999999981
 20
402.57641999999998
 30
0.0
 11
-537.88317999999992
 21
402.57641999999998
 31
0.0
  0
LINE
  5
5DD
  8
0
  6
CONTINUOUS
 62
     7
 10
-527.88317999999981
 20
419.94983000000002
 30
0.0
 11
-537.88317999999992
 21
419.94983000000002
 31
0.0
  0
LINE
  5
5DE
  8
0
  6
CONTINUOUS
 62
     7
 10
-527.88317999999981
 20
467.09017999999998
 30
0.0
 11
-537.88317999999992
 21
467.09017999999998
 31
0.0
  0
LINE
  5
5DF
  8
0
  6
CONTINUOUS
 62
     7
 10
-527.88317999999981
 20
527.64306999999985
 30
0.0
 11
-537.88317999999992
 21
527.64306999999985
 31
0.0
  0
LINE
  5
5E0
  8
0
  6
CONTINUOUS
 62
     7
 10
-527.88317999999981
 20
574.78339000000005
 30
0.0
 11
-537.88317999999992
 21
574.78339000000005
 31
0.0
  0
LINE
  5
5E1
  8
0
  6
CONTINUOUS
 62
     7
 10
-527.88317999999981
 20
592.15679999999975
 30
0.0
 11
-537.88317999999992
 21
592.15679999999975
 31
0.0
  0
LINE
  5
5E2
  8
0
  6
CENTER
 62
     7
 10
-232.14350999999991
 20
181.5479399999999
 30
0.0
 11
-58.237056999999993
 21
181.5479399999999
 31
0.0
  0
LINE
  5
5E3
  8
0
  6
CONTINUOUS
 62
     7
 10
-352.88314999999977
 20
225.54792999999981
 30
0.0
 11
-410.88312000000002
 21
225.54792999999981
 31
0.0
  0
LINE
  5
5E4
  8
0
  6
CONTINUOUS
 62
     7
 10
-352.88314999999977
 20
228.54792999999989
 30
0.0
 11
-397.88315
 21
228.54792999999989
 31
0.0
  0
LINE
  5
5E5
  8
0
  6
CONTINUOUS
 62
     7
 10
-410.88312000000002
 20
192.0479399999999
 30
0.0
 11
-414.88315
 21
192.0479399999999
 31
0.0
  0
LINE
  5
5E6
  8
0
  6
CONTINUOUS
 62
     7
 10
-150.28095999999991
 20
220.5479399999999
 30
0.0
 11
-140.28095999999991
 21
220.5479399999999
 31
0.0
  0
LINE
  5
5E7
  8
0
  6
CONTINUOUS
 62
     1
 10
-150.28095999999991
 20
220.5479399999999
 30
0.0
 11
-150.28095999999991
 21
228.54792999999989
 31
0.0
  0
LINE
  5
5E8
  8
0
  6
CONTINUOUS
 62
     7
 10
-352.88314999999977
 20
193.54794000000001
 30
0.0
 11
-410.88312000000002
 21
193.54794000000001
 31
0.0
  0
LINE
  5
5E9
  8
0
  6
CONTINUOUS
 62
     1
 10
-140.28095999999991
 20
220.5479399999999
 30
0.0
 11
-140.28095999999991
 21
228.54792999999989
 31
0.0
  0
LINE
  5
5EA
  8
0
  6
DASHED
 62
     7
 10
-425.38315
 20
87.547934999999981
 30
0.0
 11
-425.38315
 21
69.547943000000004
 31
0.0
  0
LINE
  5
5EB
  8
0
  6
CONTINUOUS
 62
     7
 10
-397.88315
 20
225.54792999999981
 30
0.0
 11
-397.88315
 21
228.54792999999989
 31
0.0
  0
LINE
  5
5EC
  8
0
  6
CENTER
 62
     7
 10
-432.88314999999989
 20
69.547943000000004
 30
0.0
 11
-432.88314999999989
 21
91.076355000000007
 31
0.0
  0
LINE
  5
5ED
  8
0
  6
CENTER
 62
     7
 10
-557.88311999999985
 20
69.547943000000004
 30
0.0
 11
-557.88311999999985
 21
91.076355000000007
 31
0.0
  0
LINE
  5
5EE
  8
0
  6
CONTINUOUS
 62
     7
 10
-527.88311999999985
 20
125.0479399999999
 30
0.0
 11
-527.88311999999985
 21
281.04793999999998
 31
0.0
  0
LINE
  5
5EF
  8
0
  6
CENTER
 62
     1
 10
-593.40881000000002
 20
209.54793000000001
 30
0.0
 11
-350.10397
 21
209.54793000000001
 31
0.0
  0
LINE
  5
5F0
  8
0
  6
CENTER
 62
     7
 10
-50.280956000000003
 20
91.797263999999984
 30
0.0
 11
-50.280956000000003
 21
66.216637000000006
 31
0.0
  0
LINE
  5
5F1
  8
0
  6
CONTINUOUS
 62
     7
 10
-410.88312000000002
 20
192.0479399999999
 30
0.0
 11
-410.88312000000002
 21
227.04792999999981
 31
0.0
  0
LINE
  5
5F2
  8
0
  6
CONTINUOUS
 62
     7
 10
-352.88314999999977
 20
193.54794000000001
 30
0.0
 11
-352.88314999999977
 21
228.54792999999989
 31
0.0
  0
LINE
  5
5F3
  8
0
  6
CENTER
 62
     7
 10
-240.28095999999991
 20
92.559830000000005
 30
0.0
 11
-240.28095999999991
 21
66.216637000000006
 31
0.0
  0
LINE
  5
5F4
  8
0
  6
DASHED
 62
     7
 10
-440.38314999999989
 20
87.547934999999981
 30
0.0
 11
-440.38314999999989
 21
69.547943000000004
 31
0.0
  0
LINE
  5
5F5
  8
0
  6
CONTINUOUS
 62
     7
 10
-150.28095999999991
 20
228.54792999999989
 30
0.0
 11
-140.28095999999991
 21
228.54792999999989
 31
0.0
  0
LINE
  5
5F6
  8
0
  6
CONTINUOUS
 62
     7
 10
-410.88312000000002
 20
227.04792999999981
 30
0.0
 11
-414.88315
 21
227.04792999999981
 31
0.0
  0
LINE
  5
5F7
  8
0
  6
CONTINUOUS
 62
     7
 10
-537.88311999999985
 20
259.68322999999992
 30
0.0
 11
-527.88311999999985
 21
259.68322999999992
 31
0.0
  0
LINE
  5
5F8
  8
0
  6
CONTINUOUS
 62
     7
 10
-210.28095999999999
 20
83.547927999999999
 30
0.0
 11
-210.28095999999999
 21
69.547943000000004
 31
0.0
  0
LINE
  5
5F9
  8
0
  6
DASHED
 62
     7
 10
-57.780944999999988
 20
87.547934999999981
 30
0.0
 11
-57.780944999999988
 21
69.547943000000004
 31
0.0
  0
LINE
  5
5FA
  8
0
  6
DASHED
 62
     7
 10
-42.780956000000003
 20
87.547934999999981
 30
0.0
 11
-42.780956000000003
 21
69.547943000000004
 31
0.0
  0
LINE
  5
5FB
  8
0
  6
CONTINUOUS
 62
     7
 10
-260.28093999999987
 20
69.547943000000004
 30
0.0
 11
-210.28095999999999
 21
69.547943000000004
 31
0.0
  0
LINE
  5
5FC
  8
0
  6
CONTINUOUS
 62
     7
 10
-260.28093999999987
 20
84.547934999999995
 30
0.0
 11
-260.28093999999987
 21
69.547943000000004
 31
0.0
  0
LINE
  5
5FD
  8
0
  6
CONTINUOUS
 62
     7
 10
-80.280944999999988
 20
69.547943000000004
 30
0.0
 11
-30.280951999999999
 21
69.547943000000004
 31
0.0
  0
LINE
  5
5FE
  8
0
  6
CONTINUOUS
 62
     7
 10
-80.280944999999988
 20
83.547927999999999
 30
0.0
 11
-80.280944999999988
 21
69.547943000000004
 31
0.0
  0
LINE
  5
5FF
  8
0
  6
CONTINUOUS
 62
     7
 10
-30.280951999999999
 20
84.547934999999995
 30
0.0
 11
-30.280951999999999
 21
69.547943000000004
 31
0.0
  0
LINE
  5
600
  8
0
  6
CONTINUOUS
 62
     7
 10
-214.28095999999999
 20
87.547934999999981
 30
0.0
 11
-257.28093999999999
 21
87.547934999999981
 31
0.0
  0
LINE
  5
601
  8
0
  6
CONTINUOUS
 62
     7
 10
-76.280945000000003
 20
87.547934999999981
 30
0.0
 11
-33.280951999999992
 21
87.547934999999981
 31
0.0
  0
LINE
  5
602
  8
0
  6
CONTINUOUS
 62
     7
 10
-414.88315
 20
209.54793000000001
 30
0.0
 11
-414.88315
 21
236.8158699999999
 31
0.0
  0
LINE
  5
603
  8
0
  6
CONTINUOUS
 62
     7
 10
-414.88315
 20
182.2799999999998
 30
0.0
 11
-414.88315
 21
209.54793000000001
 31
0.0
  0
LINE
  5
604
  8
0
  6
CONTINUOUS
 62
     7
 10
-420.38314999999989
 20
177.3724999999998
 30
0.0
 11
-416.38312000000002
 21
179.68190000000001
 31
0.0
  0
LINE
  5
605
  8
0
  6
CONTINUOUS
 62
     7
 10
-420.38314999999989
 20
241.72336999999999
 30
0.0
 11
-416.38314999999989
 21
239.41397000000001
 31
0.0
  0
LINE
  5
606
  8
0
  6
CONTINUOUS
 62
     7
 10
-226.9949299999999
 20
252.86989
 30
0.0
 11
-240.0917799999998
 21
211.73327999999981
 31
0.0
  0
LINE
  5
607
  8
0
  6
DASHED
 62
     7
 10
-57.780944999999988
 20
87.547934999999981
 30
0.0
 11
-57.780944999999988
 21
69.547943000000004
 31
0.0
  0
LINE
  5
608
  8
0
  6
DASHED
 62
     7
 10
-42.780956000000003
 20
87.547934999999981
 30
0.0
 11
-42.780956000000003
 21
69.547943000000004
 31
0.0
  0
LINE
  5
609
  8
0
  6
CONTINUOUS
 62
     7
 10
-447.88315
 20
87.547934999999981
 30
0.0
 11
-416.88312000000002
 21
87.547934999999981
 31
0.0
  0
LINE
  5
60A
  8
0
  6
CONTINUOUS
 62
     7
 10
-537.88311999999985
 20
71.547943000000004
 30
0.0
 11
-452.88311999999991
 21
71.547943000000004
 31
0.0
  0
LINE
  5
60B
  8
0
  6
DASHED
 62
     7
 10
-232.78095999999999
 20
87.547934999999981
 30
0.0
 11
-232.78095999999999
 21
69.547943000000004
 31
0.0
  0
LINE
  5
60C
  8
0
  6
DASHED
 62
     7
 10
-550.38311999999985
 20
87.547934999999981
 30
0.0
 11
-550.38311999999985
 21
69.547943000000004
 31
0.0
  0
LINE
  5
60D
  8
0
  6
CONTINUOUS
 62
     7
 10
-421.88315
 20
95.087326000000004
 30
0.0
 11
-421.88315
 21
253.5479399999999
 31
0.0
  0
LINE
  5
60E
  8
0
  6
CONTINUOUS
 62
     7
 10
-462.88315
 20
102.54794
 30
0.0
 11
-462.88315
 21
240.99065999999991
 31
0.0
  0
LINE
  5
60F
  8
0
  6
CONTINUOUS
 62
     7
 10
-573.88311999999985
 20
87.547934999999981
 30
0.0
 11
-542.80297999999993
 21
87.547934999999981
 31
0.0
  0
LINE
  5
610
  8
0
  6
DASHED
 62
     7
 10
-565.38311999999985
 20
87.547934999999981
 30
0.0
 11
-565.38311999999985
 21
69.547943000000004
 31
0.0
  0
LINE
  5
611
  8
0
  6
CONTINUOUS
 62
     7
 10
-575.88311999999985
 20
69.547943000000004
 30
0.0
 11
-539.88311999999996
 21
69.547943000000004
 31
0.0
  0
LINE
  5
612
  8
0
  6
CONTINUOUS
 62
     7
 10
-414.88315
 20
69.547943000000004
 30
0.0
 11
-414.88315
 21
85.547943000000004
 31
0.0
  0
LINE
  5
613
  8
0
  6
CONTINUOUS
 62
     7
 10
-575.88311999999985
 20
69.547943000000004
 30
0.0
 11
-575.88311999999985
 21
85.547943000000004
 31
0.0
  0
LINE
  5
614
  8
0
  6
CONTINUOUS
 62
     7
 10
-538.99322999999993
 20
90.328812000000013
 30
0.0
 11
-524.07343000000003
 21
136.95321999999979
 31
0.0
  0
LINE
  5
615
  8
0
  6
DASHED
 62
     7
 10
-247.78095999999999
 20
87.547934999999981
 30
0.0
 11
-247.78095999999999
 21
69.547943000000004
 31
0.0
  0
LINE
  5
616
  8
0
  6
CONTINUOUS
 62
     7
 10
-442.88315
 20
110.00566000000001
 30
0.0
 11
-442.88315
 21
271.02886999999998
 31
0.0
  0
LINE
  5
617
  8
0
  6
CONTINUOUS
 62
     7
 10
-434.88312000000002
 20
257.54793999999998
 30
0.0
 11
-425.88312000000002
 21
257.54793999999998
 31
0.0
  0
LINE
  5
618
  8
0
  6
CONTINUOUS
 62
     7
 10
-210.28095999999999
 20
192.54794000000001
 30
0.0
 11
-210.28095999999999
 21
102.54794
 31
0.0
  0
LINE
  5
619
  8
0
  6
CONTINUOUS
 62
     7
 10
-216.60291000000001
 20
263.26192999999989
 30
0.0
 11
-175.46628000000001
 21
276.35876000000002
 31
0.0
  0
LINE
  5
61A
  8
0
  6
CONTINUOUS
 62
     7
 10
-523.88311999999985
 20
138.17234999999991
 30
0.0
 11
-523.88311999999985
 21
196.1956899999999
 31
0.0
  0
LINE
  5
61B
  8
0
  6
CONTINUOUS
 62
     7
 10
-63.164988999999998
 20
253.06871000000001
 30
0.0
 11
-50.169066999999991
 21
210.77087
 31
0.0
  0
LINE
  5
61C
  8
0
  6
CONTINUOUS
 62
     7
 10
-73.760231000000005
 20
263.66390999999999
 30
0.0
 11
-116.05803999999991
 21
276.65982000000002
 31
0.0
  0
LINE
  5
61D
  8
0
  6
CONTINUOUS
 62
     7
 10
-80.280944999999988
 20
192.54794000000001
 30
0.0
 11
-80.280944999999988
 21
102.54794
 31
0.0
  0
LINE
  5
61E
  8
0
  6
CONTINUOUS
 62
     7
 10
-68.280944999999974
 20
241.64161999999999
 30
0.0
 11
-68.280944999999974
 21
143.2852
 31
0.0
  0
LINE
  5
61F
  8
0
  6
CONTINUOUS
 62
     7
 10
-222.28095999999999
 20
241.64161999999999
 30
0.0
 11
-222.28095999999999
 21
143.2852
 31
0.0
  0
LINE
  5
620
  8
0
  6
CONTINUOUS
 62
     7
 10
-527.88317999999981
 20
281.04797000000002
 30
0.0
 11
-450.67370999999991
 21
279.0261799999999
 31
0.0
  0
LINE
  5
621
  8
0
  6
CONTINUOUS
 62
     7
 10
-30.313634999999991
 20
84.989570999999998
 30
0.0
 11
-46.865031999999992
 21
196.19570999999999
 31
0.0
  0
LINE
  5
622
  8
0
  6
CONTINUOUS
 62
     7
 10
-260.24826000000002
 20
84.989570999999998
 30
0.0
 11
-243.6968699999999
 21
196.19570999999999
 31
0.0
  0
LINE
  5
623
  8
0
  6
CONTINUOUS
 62
     7
 10
-527.88311999999985
 20
196.1956899999999
 30
0.0
 11
-523.88311999999985
 21
196.1956899999999
 31
0.0
  0
LINE
  5
624
  8
0
  6
CONTINUOUS
 62
     7
 10
-457.80813999999998
 20
102.00566999999999
 30
0.0
 11
-450.88315
 21
102.00566999999999
 31
0.0
  0
LINE
  5
625
  8
0
  6
CONTINUOUS
 62
     7
 10
-450.88315
 20
69.547943000000004
 30
0.0
 11
-414.88315
 21
69.547943000000004
 31
0.0
  0
LINE
  5
626
  8
0
  6
CONTINUOUS
 62
     7
 10
-450.88315
 20
69.547943000000004
 30
0.0
 11
-450.88315
 21
69.547943000000004
 31
0.0
  0
LINE
  5
627
  8
0
  6
CONTINUOUS
 62
     7
 10
-208.28095999999999
 20
71.547943000000004
 30
0.0
 11
-82.280945000000003
 21
71.547943000000004
 31
0.0
  0
LINE
  5
628
  8
0
  6
CONTINUOUS
 62
     7
 10
-454.88312000000002
 20
248.99064999999999
 30
0.0
 11
-446.48363999999998
 21
248.99064999999999
 31
0.0
  0
LINE
  5
629
  8
0
  6
CONTINUOUS
 62
     7
 10
-527.88317999999981
 20
211.73326
 30
0.0
 11
-527.88158999999985
 21
211.73326
 31
0.0
  0
LINE
  5
62A
  8
0
  6
CONTINUOUS
 62
     7
 10
-527.88311999999985
 20
211.7332499999998
 30
0.0
 11
-500.11450000000002
 21
237.01973000000001
 31
0.0
  0
LINE
  5
62B
  8
0
  6
CONTINUOUS
 62
     7
 10
-537.88311999999985
 20
118.48291999999999
 30
0.0
 11
-529.98395000000005
 21
118.48291999999999
 31
0.0
  0
LINE
  5
62C
  8
0
  6
CONTINUOUS
 62
     7
 10
-537.88311999999985
 20
101.13015
 30
0.0
 11
-535.53679999999986
 21
101.13015
 31
0.0
  0
LINE
  5
62D
  8
0
  6
CONTINUOUS
 62
     7
 10
-565.38311999999985
 20
118.04792999999999
 30
0.0
 11
-557.70867999999996
 21
117.77992999999979
 31
0.0
  0
LINE
  5
62E
  8
0
  6
CONTINUOUS
 62
     7
 10
-551.41863999999975
 20
257.01238999999998
 30
0.0
 11
-538.76184000000001
 21
269.66924999999992
 31
0.0
  0
LINE
  5
62F
  8
0
  6
CONTINUOUS
 62
     7
 10
-535.95294000000001
 20
280.76616999999999
 30
0.0
 11
-527.88317999999981
 21
281.04797000000002
 31
0.0
  0
LINE
  5
630
  8
0
  6
CONTINUOUS
 62
     7
 10
-552.88311999999985
 20
109.61901
 30
0.0
 11
-552.88311999999985
 21
253.47686999999991
 31
0.0
  0
LINE
  5
631
  8
0
  6
CONTINUOUS
 62
     7
 10
-565.38311999999985
 20
233.04792999999989
 30
0.0
 11
-552.88311999999985
 21
233.04792999999989
 31
0.0
  0
LINE
  5
632
  8
0
  6
CONTINUOUS
 62
     7
 10
-551.41869999999994
 20
106.0834999999999
 30
0.0
 11
-538.76177999999993
 21
93.426613000000003
 31
0.0
  0
LINE
  5
633
  8
0
  6
CONTINUOUS
 62
     7
 10
-565.38317999999981
 20
245.0479399999999
 30
0.0
 11
-557.70862
 21
245.3159299999999
 31
0.0
  0
LINE
  5
634
  8
0
  6
CONTINUOUS
 62
     7
 10
-565.38311999999985
 20
218.6958799999999
 30
0.0
 11
-552.88311999999985
 21
218.6958799999999
 31
0.0
  0
LINE
  5
635
  8
0
  6
CONTINUOUS
 62
     7
 10
-565.38311999999985
 20
144.40001000000001
 30
0.0
 11
-552.88311999999985
 21
144.40001000000001
 31
0.0
  0
LINE
  5
636
  8
0
  6
CONTINUOUS
 62
     7
 10
-565.38311999999985
 20
130.04793000000001
 30
0.0
 11
-552.88311999999985
 21
130.04793000000001
 31
0.0
  0
LINE
  5
637
  8
0
  6
CONTINUOUS
 62
     7
 10
-537.88311999999985
 20
93.797943000000004
 30
0.0
 11
-537.88311999999985
 21
278.76732999999979
 31
0.0
  0
LINE
  5
638
  8
0
  6
CONTINUOUS
 62
     7
 10
-574.38311999999985
 20
121.3180799999999
 30
0.0
 11
-574.38311999999985
 21
242.7575099999998
 31
0.0
  0
LINE
  5
639
  8
0
  6
CONTINUOUS
 62
     7
 10
-574.38311999999985
 20
120.75928
 30
0.0
 11
-574.38311999999985
 21
121.3180799999999
 31
0.0
  0
LINE
  5
63A
  8
0
  6
CONTINUOUS
 62
     7
 10
-606.77844000000005
 20
213.99446
 30
0.0
 11
-599.00280999999995
 21
214.2659899999999
 31
0.0
  0
LINE
  5
63B
  8
0
  6
CONTINUOUS
 62
     7
 10
-595.64184999999975
 20
215.7273899999999
 30
0.0
 11
-575.26184000000001
 21
236.10739000000001
 31
0.0
  0
LINE
  5
63C
  8
0
  6
CONTINUOUS
 62
     7
 10
-613.88311999999985
 20
104.60908999999999
 30
0.0
 11
-613.88311999999985
 21
159.48793000000001
 31
0.0
  0
LINE
  5
63D
  8
0
  6
CONTINUOUS
 62
     7
 10
-603.88311999999985
 20
236.91917000000001
 30
0.0
 11
-603.88311999999985
 21
216.99260000000001
 31
0.0
  0
LINE
  5
63E
  8
0
  6
CONTINUOUS
 62
     7
 10
-609.74346999999989
 20
124.48425
 30
0.0
 11
-576.31329000000005
 21
123.3168399999998
 31
0.0
  0
LINE
  5
63F
  8
0
  6
CONTINUOUS
 62
     7
 10
-633.88311999999985
 20
188.48493999999999
 30
0.0
 11
-584.14160000000004
 21
188.48493999999999
 31
0.0
  0
LINE
  5
640
  8
0
  6
CONTINUOUS
 62
     7
 10
-608.88311999999985
 20
164.48792
 30
0.0
 11
-574.38311999999985
 21
164.48792
 31
0.0
  0
LINE
  5
641
  8
0
  6
CONTINUOUS
 62
     7
 10
-584.14160000000004
 20
188.48497
 30
0.0
 11
-574.38311999999985
 21
169.0479399999999
 31
0.0
  0
LINE
  5
642
  8
0
  6
CONTINUOUS
 62
     7
 10
-571.48784999999998
 20
117.76111
 30
0.0
 11
-565.38317999999981
 21
117.54792999999989
 31
0.0
  0
LINE
  5
643
  8
0
  6
CONTINUOUS
 62
     7
 10
-633.88311999999985
 20
100.04792999999979
 30
0.0
 11
-633.88311999999985
 21
213.04791
 31
0.0
  0
LINE
  5
644
  8
0
  6
CENTER
 62
     1
 10
-575.26262999999994
 20
156.5479399999999
 30
0.0
 11
-770.84807999999998
 21
156.5479399999999
 31
0.0
  0
LINE
  5
645
  8
0
  6
CONTINUOUS
 62
     7
 10
-571.48784999999998
 20
245.3347599999999
 30
0.0
 11
-565.38317999999981
 21
245.5479399999999
 31
0.0
  0
LINE
  5
646
  8
0
  6
CONTINUOUS
 62
     7
 10
-633.88311999999985
 20
213.04794000000001
 30
0.0
 11
-606.77844000000005
 21
213.99446
 31
0.0
  0
LINE
  5
647
  8
0
  6
CONTINUOUS
 62
     7
 10
-600.98779000000002
 20
239.91734
 30
0.0
 11
-577.10973999999999
 21
240.75117
 31
0.0
  0
LINE
  5
648
  8
0
  6
CONTINUOUS
 62
     7
 10
-574.38311999999985
 20
218.69629
 30
0.0
 11
-565.38311999999985
 21
218.69629
 31
0.0
  0
LINE
  5
649
  8
0
  6
CONTINUOUS
 62
     7
 10
-574.38311999999985
 20
130.04793000000001
 30
0.0
 11
-565.38311999999985
 21
130.04793000000001
 31
0.0
  0
LINE
  5
64A
  8
0
  6
CONTINUOUS
 62
     7
 10
-565.38311999999985
 20
117.5479399999999
 30
0.0
 11
-565.38311999999985
 21
245.54792999999989
 31
0.0
  0
LINE
  5
64B
  8
0
  6
CONTINUOUS
 62
     7
 10
-611.70000999999979
 20
105.47353
 30
0.0
 11
-574.52819999999986
 21
117.81403
 31
0.0
  0
LINE
  5
64C
  8
0
  6
CONTINUOUS
 62
     7
 10
-633.88311999999985
 20
100.0479399999999
 30
0.0
 11
-617.74359000000004
 21
100.61154000000001
 31
0.0
  0
LINE
  5
64D
  8
0
  6
CONTINUOUS
 62
     7
 10
-574.38311999999985
 20
144.3995799999999
 30
0.0
 11
-565.38311999999985
 21
144.3995799999999
 31
0.0
  0
LINE
  5
64E
  8
0
  6
CONTINUOUS
 62
     7
 10
-633.88311999999985
 20
202.54793000000001
 30
0.0
 11
-582.1496599999997
 21
202.54793000000001
 31
0.0
  0
LINE
  5
64F
  8
0
  6
CONTINUOUS
 62
     7
 10
-597.03448000000003
 20
214.16512
 30
0.0
 11
-591.20203000000004
 21
202.5479599999999
 31
0.0
  0
LINE
  5
650
  8
0
  6
CONTINUOUS
 62
     7
 10
-633.88311999999985
 20
110.54792999999999
 30
0.0
 11
-613.88311999999985
 21
110.54792999999999
 31
0.0
  0
LINE
  5
651
  8
0
  6
CONTINUOUS
 62
     7
 10
-633.88311999999985
 20
124.6109099999999
 30
0.0
 11
-613.88311999999985
 21
124.6109099999999
 31
0.0
  0
LINE
  5
652
  8
0
  6
CONTINUOUS
 62
     7
 10
-584.14160000000004
 20
188.48491000000001
 30
0.0
 11
-578.61413999999979
 21
194.01240999999999
 31
0.0
  0
LINE
  5
653
  8
0
  6
CENTER
 62
     7
 10
-692.88311999999985
 20
195.14181999999991
 30
0.0
 11
-692.88311999999985
 21
113.8952299999999
 31
0.0
  0
LINE
  5
654
  8
0
  6
CONTINUOUS
 62
     3
 10
-735.88360999999975
 20
123.04817
 30
0.0
 11
-735.88360999999975
 21
126.54818999999991
 31
0.0
  0
LINE
  5
655
  8
0
  6
CONTINUOUS
 62
     3
 10
-720.88311999999985
 20
123.04817
 30
0.0
 11
-720.88311999999985
 21
126.54818999999991
 31
0.0
  0
LINE
  5
656
  8
0
  6
CONTINUOUS
 62
     3
 10
-720.88311999999985
 20
125.04819000000001
 30
0.0
 11
-661.38311999999985
 21
125.04819000000001
 31
0.0
  0
LINE
  5
657
  8
0
  6
CONTINUOUS
 62
     3
 10
-720.88311999999985
 20
188.04768000000001
 30
0.0
 11
-661.38311999999985
 21
188.04768000000001
 31
0.0
  0
LINE
  5
658
  8
0
  6
CONTINUOUS
 62
     3
 10
-743.38360999999975
 20
149.04768000000001
 30
0.0
 11
-739.88360999999975
 21
149.04768000000001
 31
0.0
  0
LINE
  5
659
  8
0
  6
CONTINUOUS
 62
     3
 10
-720.88311999999985
 20
123.04817
 30
0.0
 11
-735.88360999999975
 21
123.04817
 31
0.0
  0
LINE
  5
65A
  8
0
  6
CONTINUOUS
 62
     7
 10
-662.88311999999985
 20
185.0479399999999
 30
0.0
 11
-662.88311999999985
 21
128.0479399999999
 31
0.0
  0
LINE
  5
65B
  8
0
  6
CONTINUOUS
 62
     7
 10
-641.88311999999985
 20
212.54792999999981
 30
0.0
 11
-641.88311999999985
 21
100.54794
 31
0.0
  0
LINE
  5
65C
  8
0
  6
CONTINUOUS
 62
     7
 10
-652.11310000000003
 20
186.5479399999999
 30
0.0
 11
-652.11310000000003
 21
126.54794
 31
0.0
  0
LINE
  5
65D
  8
0
  6
CONTINUOUS
 62
     7
 10
-763.88311999999985
 20
204.5643
 30
0.0
 11
-763.88311999999985
 21
161.54793000000001
 31
0.0
  0
LINE
  5
65E
  8
0
  6
CONTINUOUS
 62
     7
 10
-761.61492999999984
 20
206.2973299999999
 30
0.0
 11
-759.38311999999985
 21
206.2973299999999
 31
0.0
  0
LINE
  5
65F
  8
0
  6
CONTINUOUS
 62
     7
 10
-761.67846999999983
 20
192.2371399999999
 30
0.0
 11
-759.58312999999998
 21
192.2371399999999
 31
0.0
  0
LINE
  5
660
  8
0
  6
CONTINUOUS
 62
     7
 10
-762.11536000000001
 20
206.16307
 30
0.0
 11
-763.38354000000004
 21
205.43010000000001
 31
0.0
  0
LINE
  5
661
  8
0
  6
CONTINUOUS
 62
     7
 10
-762.12072999999998
 20
204.04706999999991
 30
0.0
 11
-763.39777000000004
 21
203.2807599999999
 31
0.0
  0
LINE
  5
662
  8
0
  6
CONTINUOUS
 62
     7
 10
-762.13287000000003
 20
199.50910999999991
 30
0.0
 11
-763.43146000000002
 21
198.6575499999999
 31
0.0
  0
LINE
  5
663
  8
0
  6
CONTINUOUS
 62
     7
 10
-762.07128999999998
 20
192.15684999999999
 30
0.0
 11
-763.27588000000003
 21
191.64235999999991
 31
0.0
  0
LINE
  5
664
  8
0
  6
CONTINUOUS
 62
     7
 10
-761.60608000000002
 20
204.18952999999991
 30
0.0
 11
-758.88311999999985
 21
204.18952999999991
 31
0.0
  0
LINE
  5
665
  8
0
  6
CONTINUOUS
 62
     7
 10
-761.58447000000001
 20
199.6728199999998
 30
0.0
 11
-758.88311999999985
 21
199.6728199999998
 31
0.0
  0
LINE
  5
666
  8
0
  6
CONTINUOUS
 62
     7
 10
-761.73279000000002
 20
190.29105000000001
 30
0.0
 11
-759.88311999999985
 21
190.29105000000001
 31
0.0
  0
LINE
  5
667
  8
0
  6
CONTINUOUS
 62
     7
 10
-761.61181999999985
 20
198.53284999999991
 30
0.0
 11
-759.88311999999985
 21
198.53284999999991
 31
0.0
  0
LINE
  5
668
  8
0
  6
CONTINUOUS
 62
     7
 10
-761.63445999999988
 20
203.04958999999999
 30
0.0
 11
-759.88311999999985
 21
203.04958999999999
 31
0.0
  0
LINE
  5
669
  8
0
  6
CONTINUOUS
 62
     7
 10
-761.64386000000002
 20
205.15101999999999
 30
0.0
 11
-759.38311999999985
 21
205.15101999999999
 31
0.0
  0
LINE
  5
66A
  8
0
  6
CONTINUOUS
 62
     7
 10
-762.11725000000001
 20
198.39576999999991
 30
0.0
 11
-763.38854999999967
 21
197.6511099999999
 31
0.0
  0
LINE
  5
66B
  8
0
  6
CONTINUOUS
 62
     7
 10
-762.02685999999983
 20
190.24687
 30
0.0
 11
-763.17719
 21
189.8930399999999
 31
0.0
  0
LINE
  5
66C
  8
0
  6
CONTINUOUS
 62
     7
 10
-762.09649999999988
 20
205.0427399999999
 30
0.0
 11
-763.3358199999999
 21
204.4137099999999
 31
0.0
  0
LINE
  5
66D
  8
0
  6
CONTINUOUS
 62
     7
 10
-762.10277999999983
 20
202.93312
 30
0.0
 11
-763.35149999999999
 21
202.27123999999981
 31
0.0
  0
LINE
  5
66E
  8
0
  6
CONTINUOUS
 62
     7
 10
-759.88311999999985
 20
182.54792999999981
 30
0.0
 11
-762.88311999999985
 21
182.54792999999981
 31
0.0
  0
LINE
  5
66F
  8
0
  6
CONTINUOUS
 62
     7
 10
-759.88311999999985
 20
180.5479399999999
 30
0.0
 11
-762.88311999999985
 21
180.5479399999999
 31
0.0
  0
LINE
  5
670
  8
0
  6
CONTINUOUS
 62
     7
 10
-759.88311999999985
 20
172.5479399999999
 30
0.0
 11
-762.88311999999985
 21
172.5479399999999
 31
0.0
  0
LINE
  5
671
  8
0
  6
CONTINUOUS
 62
     7
 10
-759.88311999999985
 20
170.54793000000001
 30
0.0
 11
-762.88311999999985
 21
170.54793000000001
 31
0.0
  0
LINE
  5
672
  8
0
  6
CONTINUOUS
 62
     7
 10
-759.88311999999985
 20
162.54793999999981
 30
0.0
 11
-762.88311999999985
 21
162.54793999999981
 31
0.0
  0
LINE
  5
673
  8
0
  6
CONTINUOUS
 62
     7
 10
-759.88311999999985
 20
160.5479399999999
 30
0.0
 11
-762.88311999999985
 21
160.5479399999999
 31
0.0
  0
LINE
  5
674
  8
0
  6
CONTINUOUS
 62
     7
 10
-761.88311999999985
 20
172.1550399999999
 30
0.0
 11
-761.88311999999985
 21
170.94361999999981
 31
0.0
  0
LINE
  5
675
  8
0
  6
CONTINUOUS
 62
     7
 10
-761.88311999999985
 20
162.16114999999999
 30
0.0
 11
-761.88311999999985
 21
161.00026
 31
0.0
  0
LINE
  5
676
  8
0
  6
CONTINUOUS
 62
     7
 10
-761.88311999999985
 20
182.17410000000001
 30
0.0
 11
-761.88311999999985
 21
180.81130999999991
 31
0.0
  0
LINE
  5
677
  8
0
  6
CONTINUOUS
 62
     7
 10
-761.88311999999985
 20
191.94083000000001
 30
0.0
 11
-761.88311999999985
 21
190.8808699999999
 31
0.0
  0
LINE
  5
678
  8
0
  6
CONTINUOUS
 62
     7
 10
-761.88311999999985
 20
199.37839
 30
0.0
 11
-761.88311999999985
 21
198.90620000000001
 31
0.0
  0
LINE
  5
679
  8
0
  6
CONTINUOUS
 62
     7
 10
-761.88311999999985
 20
203.94448999999989
 30
0.0
 11
-761.88311999999985
 21
203.39841000000001
 31
0.0
  0
LINE
  5
67A
  8
0
  6
CONTINUOUS
 62
     7
 10
-761.88311999999985
 20
206.0440999999999
 30
0.0
 11
-761.88311999999985
 21
205.51832999999991
 31
0.0
  0
LINE
  5
67B
  8
0
  6
CONTINUOUS
 62
     7
 10
-765.38311999999985
 20
176.54793000000001
 30
0.0
 11
-765.38311999999985
 21
156.5479399999999
 31
0.0
  0
LINE
  5
67C
  8
0
  6
CONTINUOUS
 62
     7
 10
-765.38317999999981
 20
176.54793000000001
 30
0.0
 11
-763.88317999999981
 21
176.67916999999991
 31
0.0
  0
LINE
  5
67D
  8
0
  6
CONTINUOUS
 62
     7
 10
-765.38311999999985
 20
171.69796999999991
 30
0.0
 11
-760.70562999999981
 21
171.69796999999991
 31
0.0
  0
LINE
  5
67E
  8
0
  6
CONTINUOUS
 62
     7
 10
-765.38311999999985
 20
173.82991000000001
 30
0.0
 11
-763.88311999999985
 21
173.82991000000001
 31
0.0
  0
LINE
  5
67F
  8
0
  6
CONTINUOUS
 62
     7
 10
-648.5387599999998
 20
192.54794000000001
 30
0.0
 11
-747.51769999999999
 21
192.54794000000001
 31
0.0
  0
LINE
  5
680
  8
0
  6
CONTINUOUS
 62
     7
 10
-648.5387599999998
 20
190.5479399999999
 30
0.0
 11
-747.51769999999999
 21
190.5479399999999
 31
0.0
  0
LINE
  5
681
  8
0
  6
CONTINUOUS
 62
     7
 10
-741.38360999999998
 20
182.54792999999981
 30
0.0
 11
-747.51769999999999
 21
182.54792999999981
 31
0.0
  0
LINE
  5
682
  8
0
  6
CONTINUOUS
 62
     7
 10
-741.38360999999998
 20
180.5479399999999
 30
0.0
 11
-747.51769999999999
 21
180.5479399999999
 31
0.0
  0
LINE
  5
683
  8
0
  6
CONTINUOUS
 62
     7
 10
-741.38360999999998
 20
172.5479399999999
 30
0.0
 11
-747.51769999999999
 21
172.5479399999999
 31
0.0
  0
LINE
  5
684
  8
0
  6
CONTINUOUS
 62
     7
 10
-741.38360999999998
 20
170.54793000000001
 30
0.0
 11
-747.51769999999999
 21
170.54793000000001
 31
0.0
  0
LINE
  5
685
  8
0
  6
CONTINUOUS
 62
     7
 10
-743.38360999999975
 20
162.54793999999981
 30
0.0
 11
-747.51769999999999
 21
162.54793999999981
 31
0.0
  0
LINE
  5
686
  8
0
  6
CONTINUOUS
 62
     7
 10
-743.38360999999975
 20
160.5479399999999
 30
0.0
 11
-747.51769999999999
 21
160.5479399999999
 31
0.0
  0
LINE
  5
687
  8
0
  6
CONTINUOUS
 62
     7
 10
-748.2058099999997
 20
193.27094999999991
 30
0.0
 11
-645.06104000000016
 21
193.27094999999991
 31
0.0
  0
LINE
  5
688
  8
0
  6
CONTINUOUS
 62
     7
 10
-748.2058099999997
 20
189.91512999999981
 30
0.0
 11
-735.88360999999975
 21
189.91512999999981
 31
0.0
  0
LINE
  5
689
  8
0
  6
CONTINUOUS
 62
     7
 10
-748.42162999999982
 20
183.0340699999999
 30
0.0
 11
-741.38360999999998
 21
183.0340699999999
 31
0.0
  0
LINE
  5
68A
  8
0
  6
CONTINUOUS
 62
     7
 10
-748.42162999999982
 20
180.11110999999991
 30
0.0
 11
-741.38360999999998
 21
180.11110999999991
 31
0.0
  0
LINE
  5
68B
  8
0
  6
CONTINUOUS
 62
     7
 10
-748.55219
 20
172.89144999999991
 30
0.0
 11
-741.38360999999998
 21
172.89144999999991
 31
0.0
  0
LINE
  5
68C
  8
0
  6
CONTINUOUS
 62
     7
 10
-748.55219
 20
170.22957999999991
 30
0.0
 11
-741.38360999999998
 21
170.22957999999991
 31
0.0
  0
LINE
  5
68D
  8
0
  6
CONTINUOUS
 62
     7
 10
-748.61419999999998
 20
162.8206899999999
 30
0.0
 11
-743.38360999999975
 21
162.8206899999999
 31
0.0
  0
LINE
  5
68E
  8
0
  6
CONTINUOUS
 62
     7
 10
-748.61419999999998
 20
160.28285
 30
0.0
 11
-743.38360999999975
 21
160.28285
 31
0.0
  0
LINE
  5
68F
  8
0
  6
CONTINUOUS
 62
     7
 10
-645.06104000000016
 20
189.91512999999981
 30
0.0
 11
-661.58312999999987
 21
189.91512999999981
 31
0.0
  0
LINE
  5
690
  8
0
  6
CONTINUOUS
 62
     7
 10
-662.58312999999976
 20
188.91512999999981
 30
0.0
 11
-662.58312999999976
 21
188.04768000000001
 31
0.0
  0
LINE
  5
691
  8
0
  6
CONTINUOUS
 62
     7
 10
-748.61419999999998
 20
152.8129599999998
 30
0.0
 11
-743.38360999999975
 21
152.8129599999998
 31
0.0
  0
LINE
  5
692
  8
0
  6
CONTINUOUS
 62
     7
 10
-743.38360999999975
 20
152.54793000000001
 30
0.0
 11
-747.51769999999999
 21
152.54793000000001
 31
0.0
  0
LINE
  5
693
  8
0
  6
CONTINUOUS
 62
     7
 10
-743.38360999999975
 20
150.54793999999981
 30
0.0
 11
-747.51769999999999
 21
150.54793999999981
 31
0.0
  0
LINE
  5
694
  8
0
  6
CONTINUOUS
 62
     7
 10
-748.61419999999998
 20
150.27511999999979
 30
0.0
 11
-743.38360999999975
 21
150.27511999999979
 31
0.0
  0
LINE
  5
695
  8
0
  6
CONTINUOUS
 62
     7
 10
-748.55219
 20
142.8663
 30
0.0
 11
-741.38360999999998
 21
142.8663
 31
0.0
  0
LINE
  5
696
  8
0
  6
CONTINUOUS
 62
     7
 10
-741.38360999999998
 20
142.5479399999999
 30
0.0
 11
-747.51769999999999
 21
142.5479399999999
 31
0.0
  0
LINE
  5
697
  8
0
  6
CONTINUOUS
 62
     7
 10
-741.38360999999998
 20
140.54793000000001
 30
0.0
 11
-747.51769999999999
 21
140.54793000000001
 31
0.0
  0
LINE
  5
698
  8
0
  6
CONTINUOUS
 62
     7
 10
-748.55219
 20
140.20441999999991
 30
0.0
 11
-741.38360999999998
 21
140.20441999999991
 31
0.0
  0
LINE
  5
699
  8
0
  6
CONTINUOUS
 62
     7
 10
-741.38360999999998
 20
132.54793999999981
 30
0.0
 11
-747.51769999999999
 21
132.54793999999981
 31
0.0
  0
LINE
  5
69A
  8
0
  6
CONTINUOUS
 62
     7
 10
-748.42156999999986
 20
132.98471000000001
 30
0.0
 11
-741.38360999999998
 21
132.98471000000001
 31
0.0
  0
LINE
  5
69B
  8
0
  6
CONTINUOUS
 62
     7
 10
-741.38360999999998
 20
130.54793999999981
 30
0.0
 11
-747.51769999999999
 21
130.54793999999981
 31
0.0
  0
LINE
  5
69C
  8
0
  6
CONTINUOUS
 62
     7
 10
-748.42156999999986
 20
130.0617399999999
 30
0.0
 11
-741.38360999999998
 21
130.0617399999999
 31
0.0
  0
LINE
  5
69D
  8
0
  6
CONTINUOUS
 62
     7
 10
-648.5387599999998
 20
122.54792999999979
 30
0.0
 11
-692.88311999999985
 21
122.54792999999979
 31
0.0
  0
LINE
  5
69E
  8
0
  6
CONTINUOUS
 62
     7
 10
-648.5387599999998
 20
120.5479399999999
 30
0.0
 11
-692.88311999999985
 21
120.5479399999999
 31
0.0
  0
LINE
  5
69F
  8
0
  6
CONTINUOUS
 62
     7
 10
-748.20519999999999
 20
119.82485
 30
0.0
 11
-692.88311999999985
 21
119.82485
 31
0.0
  0
LINE
  5
6A0
  8
0
  6
CONTINUOUS
 62
     7
 10
-661.38311999999985
 20
126.28231
 30
0.0
 11
-652.11315999999999
 21
126.54791999999991
 31
0.0
  0
LINE
  5
6A1
  8
0
  6
CONTINUOUS
 62
     7
 10
-662.58312999999976
 20
124.18068
 30
0.0
 11
-662.58312999999976
 21
125.04819000000001
 31
0.0
  0
LINE
  5
6A2
  8
0
  6
CONTINUOUS
 62
     7
 10
-645.06104000000016
 20
123.1806899999998
 30
0.0
 11
-661.58312999999987
 21
123.1806899999998
 31
0.0
  0
LINE
  5
6A3
  8
0
  6
CONTINUOUS
 62
     7
 10
-761.67846999999983
 20
120.8586699999999
 30
0.0
 11
-759.58312999999998
 21
120.8586699999999
 31
0.0
  0
LINE
  5
6A4
  8
0
  6
CONTINUOUS
 62
     7
 10
-762.07128999999998
 20
120.93903
 30
0.0
 11
-763.27593999999999
 21
121.45353
 31
0.0
  0
LINE
  5
6A5
  8
0
  6
CONTINUOUS
 62
     7
 10
-761.73279000000002
 20
122.80477999999979
 30
0.0
 11
-759.88311999999985
 21
122.80477999999979
 31
0.0
  0
LINE
  5
6A6
  8
0
  6
CONTINUOUS
 62
     7
 10
-762.02678999999989
 20
122.84901000000001
 30
0.0
 11
-763.17719
 21
123.2028499999999
 31
0.0
  0
LINE
  5
6A7
  8
0
  6
CONTINUOUS
 62
     7
 10
-759.88311999999985
 20
130.54793999999981
 30
0.0
 11
-762.88311999999985
 21
130.54793999999981
 31
0.0
  0
LINE
  5
6A8
  8
0
  6
CONTINUOUS
 62
     7
 10
-759.88311999999985
 20
132.54793999999981
 30
0.0
 11
-762.88311999999985
 21
132.54793999999981
 31
0.0
  0
LINE
  5
6A9
  8
0
  6
CONTINUOUS
 62
     7
 10
-759.88311999999985
 20
140.54793000000001
 30
0.0
 11
-762.88311999999985
 21
140.54793000000001
 31
0.0
  0
LINE
  5
6AA
  8
0
  6
CONTINUOUS
 62
     7
 10
-761.88311999999985
 20
150.93466000000001
 30
0.0
 11
-761.88311999999985
 21
152.09555
 31
0.0
  0
LINE
  5
6AB
  8
0
  6
CONTINUOUS
 62
     7
 10
-759.88311999999985
 20
142.5479399999999
 30
0.0
 11
-762.88311999999985
 21
142.5479399999999
 31
0.0
  0
LINE
  5
6AC
  8
0
  6
CONTINUOUS
 62
     7
 10
-759.88311999999985
 20
150.54793999999981
 30
0.0
 11
-762.88311999999985
 21
150.54793999999981
 31
0.0
  0
LINE
  5
6AD
  8
0
  6
CONTINUOUS
 62
     7
 10
-759.88311999999985
 20
152.54793000000001
 30
0.0
 11
-762.88311999999985
 21
152.54793000000001
 31
0.0
  0
LINE
  5
6AE
  8
0
  6
CONTINUOUS
 62
     7
 10
-761.88311999999985
 20
140.94083000000001
 30
0.0
 11
-761.88311999999985
 21
142.15218999999991
 31
0.0
  0
LINE
  5
6AF
  8
0
  6
CONTINUOUS
 62
     7
 10
-761.88311999999985
 20
130.9217099999999
 30
0.0
 11
-761.88311999999985
 21
132.28455999999991
 31
0.0
  0
LINE
  5
6B0
  8
0
  6
CONTINUOUS
 62
     7
 10
-761.88311999999985
 20
121.1550399999999
 30
0.0
 11
-761.88311999999985
 21
122.215
 31
0.0
  0
LINE
  5
6B1
  8
0
  6
CONTINUOUS
 62
     7
 10
-748.20519999999999
 20
123.1806899999998
 30
0.0
 11
-735.88360999999975
 21
123.1806899999998
 31
0.0
  0
LINE
  5
6B2
  8
0
  6
CONTINUOUS
 62
     7
 10
-765.38311999999985
 20
136.5479399999999
 30
0.0
 11
-765.38311999999985
 21
156.5479399999999
 31
0.0
  0
LINE
  5
6B3
  8
0
  6
CONTINUOUS
 62
     7
 10
-765.38306
 20
136.5479399999999
 30
0.0
 11
-763.88306
 21
136.41672
 31
0.0
  0
LINE
  5
6B4
  8
0
  6
CONTINUOUS
 62
     7
 10
-765.38311999999985
 20
141.39789999999991
 30
0.0
 11
-762.08942000000002
 21
141.39789999999991
 31
0.0
  0
LINE
  5
6B5
  8
0
  6
CONTINUOUS
 62
     7
 10
-765.38311999999985
 20
139.26589999999979
 30
0.0
 11
-763.88311999999985
 21
139.26589999999979
 31
0.0
  0
LINE
  5
6B6
  8
0
  6
CONTINUOUS
 62
     7
 10
-692.88311999999985
 20
122.54792999999979
 30
0.0
 11
-747.51769999999999
 21
122.54792999999979
 31
0.0
  0
LINE
  5
6B7
  8
0
  6
CONTINUOUS
 62
     7
 10
-739.88360999999975
 20
126.54794
 30
0.0
 11
-664.38311999999996
 21
126.54794
 31
0.0
  0
LINE
  5
6B8
  8
0
  6
CONTINUOUS
 62
     7
 10
-692.88311999999985
 20
120.5479399999999
 30
0.0
 11
-747.51769999999999
 21
120.5479399999999
 31
0.0
  0
LINE
  5
6B9
  8
0
  6
CONTINUOUS
 62
     7
 10
-692.88311999999985
 20
119.82485
 30
0.0
 11
-645.06104000000016
 21
119.82485
 31
0.0
  0
LINE
  5
6BA
  8
0
  6
CONTINUOUS
 62
     7
 10
-757.88311999999985
 20
209.54793000000001
 30
0.0
 11
-757.88311999999985
 21
103.54794
 31
0.0
  0
LINE
  5
6BB
  8
0
  6
CONTINUOUS
 62
     7
 10
-749.88311999999985
 20
209.54793000000001
 30
0.0
 11
-749.88311999999985
 21
107.10769999999999
 31
0.0
  0
LINE
  5
6BC
  8
0
  6
CONTINUOUS
 62
     7
 10
-763.38854999999967
 20
115.4448
 30
0.0
 11
-763.41223000000002
 21
115.45868
 31
0.0
  0
LINE
  5
6BD
  8
0
  6
CONTINUOUS
 62
     7
 10
-758.88311999999985
 20
206.54793000000001
 30
0.0
 11
-758.88311999999985
 21
105.42470999999991
 31
0.0
  0
LINE
  5
6BE
  8
0
  6
CONTINUOUS
 62
     7
 10
-758.88311999999985
 20
206.54793000000001
 30
0.0
 11
-757.88311999999985
 21
206.54793000000001
 31
0.0
  0
LINE
  5
6BF
  8
0
  6
CONTINUOUS
 62
     7
 10
-757.88311999999985
 20
209.54793000000001
 30
0.0
 11
-749.88311999999985
 21
209.54793000000001
 31
0.0
  0
LINE
  5
6C0
  8
0
  6
CONTINUOUS
 62
     7
 10
-757.18499999999983
 20
199.7393299999998
 30
0.0
 11
-750.95519999999999
 21
199.7393299999998
 31
0.0
  0
LINE
  5
6C1
  8
0
  6
CONTINUOUS
 62
     7
 10
-641.88311999999985
 20
202.54794000000001
 30
0.0
 11
-633.88311999999985
 21
202.54794000000001
 31
0.0
  0
LINE
  5
6C2
  8
0
  6
CONTINUOUS
 62
     7
 10
-641.88311999999985
 20
188.48537999999991
 30
0.0
 11
-633.88311999999985
 21
188.48537999999991
 31
0.0
  0
LINE
  5
6C3
  8
0
  6
CONTINUOUS
 62
     7
 10
-574.38311999999985
 20
233.04792999999989
 30
0.0
 11
-565.38311999999985
 21
233.04792999999989
 31
0.0
  0
LINE
  5
6C4
  8
0
  6
CONTINUOUS
 62
     7
 10
-641.88311999999985
 20
212.54792999999981
 30
0.0
 11
-633.88311999999985
 21
212.54792999999981
 31
0.0
  0
LINE
  5
6C5
  8
0
  6
CONTINUOUS
 62
     7
 10
-725.88311999999985
 20
193.27094999999991
 30
0.0
 11
-725.88311999999985
 21
193.27094999999991
 31
0.0
  0
LINE
  5
6C6
  8
0
  6
CONTINUOUS
 62
     7
 10
-725.88311999999985
 20
119.82485
 30
0.0
 11
-725.88311999999985
 21
118.3248499999999
 31
0.0
  0
LINE
  5
6C7
  8
0
  6
CONTINUOUS
 62
     7
 10
-746.67669999999987
 20
212.83118999999991
 30
0.0
 11
-649.75696000000016
 21
212.83118999999991
 31
0.0
  0
LINE
  5
6C8
  8
0
  6
CONTINUOUS
 62
     7
 10
-749.88311999999985
 20
204.6436299999998
 30
0.0
 11
-748.64184999999998
 21
211.20305999999991
 31
0.0
  0
LINE
  5
6C9
  8
0
  6
CONTINUOUS
 62
     7
 10
-744.51764000000003
 20
193.19910999999991
 30
0.0
 11
-749.88305999999989
 21
204.64358999999999
 31
0.0
  0
LINE
  5
6CA
  8
0
  6
CONTINUOUS
 62
     7
 10
-744.51764000000003
 20
119.8966799999999
 30
0.0
 11
-749.88311999999985
 21
108.45219999999991
 31
0.0
  0
LINE
  5
6CB
  8
0
  6
CONTINUOUS
 62
     7
 10
-724.38311999999985
 20
194.77095
 30
0.0
 11
-641.88311999999985
 21
194.77095
 31
0.0
  0
LINE
  5
6CC
  8
0
  6
CONTINUOUS
 62
     7
 10
-746.62810999999988
 20
215.67757
 30
0.0
 11
-712.88311999999985
 21
215.67757
 31
0.0
  0
LINE
  5
6CD
  8
0
  6
CONTINUOUS
 62
     7
 10
-746.61474999999984
 20
217.5252799999999
 30
0.0
 11
-712.88311999999985
 21
217.5252799999999
 31
0.0
  0
LINE
  5
6CE
  8
0
  6
CONTINUOUS
 62
     7
 10
-746.59343999999999
 20
218.43582000000001
 30
0.0
 11
-712.88311999999985
 21
218.43582000000001
 31
0.0
  0
LINE
  5
6CF
  8
0
  6
CONTINUOUS
 62
     7
 10
-749.88317999999958
 20
205.98819999999989
 30
0.0
 11
-748.60308999999984
 21
213.99335999999991
 31
0.0
  0
LINE
  5
6D0
  8
0
  6
CONTINUOUS
 62
     7
 10
-749.88311999999985
 20
207.3327899999999
 30
0.0
 11
-748.59209999999985
 21
215.82587000000001
 31
0.0
  0
LINE
  5
6D1
  8
0
  6
CONTINUOUS
 62
     7
 10
-749.88311999999985
 20
207.3327899999999
 30
0.0
 11
-748.5742799999997
 21
216.71225000000001
 31
0.0
  0
LINE
  5
6D2
  8
0
  6
CONTINUOUS
 62
     7
 10
-710.88311999999996
 20
216.43581
 30
0.0
 11
-710.88311999999996
 21
212.83118999999991
 31
0.0
  0
LINE
  5
6D3
  8
0
  6
CONTINUOUS
 62
     7
 10
-643.68102999999985
 20
195.8827499999999
 30
0.0
 11
-647.82512999999994
 21
211.34882999999991
 31
0.0
  0
LINE
  5
6D4
  8
0
  6
CONTINUOUS
 62
     7
 10
-647.3425900000002
 20
209.54793000000001
 30
0.0
 11
-641.88311999999985
 21
209.54793000000001
 31
0.0
  0
LINE
  5
6D5
  8
0
  6
CONTINUOUS
 62
     7
 10
-763.88311999999985
 20
108.5315199999999
 30
0.0
 11
-763.88311999999985
 21
151.54793999999981
 31
0.0
  0
LINE
  5
6D6
  8
0
  6
CONTINUOUS
 62
     7
 10
-761.61492999999984
 20
106.79855000000001
 30
0.0
 11
-759.38311999999985
 21
106.79855000000001
 31
0.0
  0
LINE
  5
6D7
  8
0
  6
CONTINUOUS
 62
     7
 10
-762.11536000000001
 20
106.93276
 30
0.0
 11
-763.38360999999986
 21
107.6657699999999
 31
0.0
  0
LINE
  5
6D8
  8
0
  6
CONTINUOUS
 62
     7
 10
-762.12072999999998
 20
109.04883
 30
0.0
 11
-763.39770999999985
 21
109.81511
 31
0.0
  0
LINE
  5
6D9
  8
0
  6
CONTINUOUS
 62
     7
 10
-762.13292999999999
 20
113.58677
 30
0.0
 11
-763.43151999999975
 21
114.43832999999979
 31
0.0
  0
LINE
  5
6DA
  8
0
  6
CONTINUOUS
 62
     7
 10
-761.60608000000002
 20
108.90626999999991
 30
0.0
 11
-758.88311999999985
 21
108.90626999999991
 31
0.0
  0
LINE
  5
6DB
  8
0
  6
CONTINUOUS
 62
     7
 10
-761.58447000000001
 20
113.4229999999998
 30
0.0
 11
-758.88311999999985
 21
113.4229999999998
 31
0.0
  0
LINE
  5
6DC
  8
0
  6
CONTINUOUS
 62
     7
 10
-761.61181999999985
 20
114.56301999999999
 30
0.0
 11
-759.88311999999985
 21
114.56301999999999
 31
0.0
  0
LINE
  5
6DD
  8
0
  6
CONTINUOUS
 62
     7
 10
-761.63445999999988
 20
110.0462899999999
 30
0.0
 11
-759.88311999999985
 21
110.0462899999999
 31
0.0
  0
LINE
  5
6DE
  8
0
  6
CONTINUOUS
 62
     7
 10
-761.64386000000002
 20
107.94485
 30
0.0
 11
-759.38311999999985
 21
107.94485
 31
0.0
  0
LINE
  5
6DF
  8
0
  6
CONTINUOUS
 62
     7
 10
-762.11730999999986
 20
114.70014999999999
 30
0.0
 11
-763.38854999999967
 21
115.44476999999991
 31
0.0
  0
LINE
  5
6E0
  8
0
  6
CONTINUOUS
 62
     7
 10
-762.09655999999984
 20
108.0532299999999
 30
0.0
 11
-763.33587999999986
 21
108.68226
 31
0.0
  0
LINE
  5
6E1
  8
0
  6
CONTINUOUS
 62
     7
 10
-762.10277999999983
 20
110.1627
 30
0.0
 11
-763.35137999999984
 21
110.82456000000001
 31
0.0
  0
LINE
  5
6E2
  8
0
  6
CONTINUOUS
 62
     7
 10
-761.88311999999985
 20
113.7174799999999
 30
0.0
 11
-761.88311999999985
 21
114.1896
 31
0.0
  0
LINE
  5
6E3
  8
0
  6
CONTINUOUS
 62
     7
 10
-761.88311999999985
 20
109.1513799999999
 30
0.0
 11
-761.88311999999985
 21
109.6974
 31
0.0
  0
LINE
  5
6E4
  8
0
  6
CONTINUOUS
 62
     7
 10
-761.88311999999985
 20
107.05177999999979
 30
0.0
 11
-761.88311999999985
 21
107.5775499999999
 31
0.0
  0
LINE
  5
6E5
  8
0
  6
CONTINUOUS
 62
     7
 10
-758.88311999999985
 20
106.54794
 30
0.0
 11
-757.88311999999985
 21
106.54794
 31
0.0
  0
LINE
  5
6E6
  8
0
  6
CONTINUOUS
 62
     7
 10
-757.88311999999985
 20
103.54794
 30
0.0
 11
-749.88311999999985
 21
103.54794
 31
0.0
  0
LINE
  5
6E7
  8
0
  6
CONTINUOUS
 62
     7
 10
-757.18499999999983
 20
113.3564699999999
 30
0.0
 11
-750.95519999999999
 21
113.3564699999999
 31
0.0
  0
LINE
  5
6E8
  8
0
  6
CONTINUOUS
 62
     7
 10
-641.88311999999985
 20
110.54792999999999
 30
0.0
 11
-633.88311999999985
 21
110.54792999999999
 31
0.0
  0
LINE
  5
6E9
  8
0
  6
CONTINUOUS
 62
     7
 10
-641.88311999999985
 20
100.54794
 30
0.0
 11
-633.88311999999985
 21
100.54794
 31
0.0
  0
LINE
  5
6EA
  8
0
  6
CONTINUOUS
 62
     7
 10
-746.67669999999987
 20
100.2646799999999
 30
0.0
 11
-649.75696000000016
 21
100.2646799999999
 31
0.0
  0
LINE
  5
6EB
  8
0
  6
CONTINUOUS
 62
     7
 10
-749.88317999999958
 20
108.4521899999999
 30
0.0
 11
-748.64190999999983
 21
101.8928099999999
 31
0.0
  0
LINE
  5
6EC
  8
0
  6
CONTINUOUS
 62
     7
 10
-746.62810999999988
 20
97.418304000000006
 30
0.0
 11
-712.88311999999985
 21
97.418304000000006
 31
0.0
  0
LINE
  5
6ED
  8
0
  6
CONTINUOUS
 62
     7
 10
-746.61474999999984
 20
95.570518000000007
 30
0.0
 11
-712.88311999999985
 21
95.570518000000007
 31
0.0
  0
LINE
  5
6EE
  8
0
  6
CONTINUOUS
 62
     7
 10
-746.59343999999999
 20
94.660004000000001
 30
0.0
 11
-712.88311999999985
 21
94.660004000000001
 31
0.0
  0
LINE
  5
6EF
  8
0
  6
CONTINUOUS
 62
     7
 10
-749.88311999999985
 20
107.10766
 30
0.0
 11
-748.60308999999984
 21
99.102463
 31
0.0
  0
LINE
  5
6F0
  8
0
  6
CONTINUOUS
 62
     7
 10
-749.88311999999985
 20
105.76308999999991
 30
0.0
 11
-748.59209999999985
 21
97.269974000000005
 31
0.0
  0
LINE
  5
6F1
  8
0
  6
CONTINUOUS
 62
     7
 10
-749.88317999999958
 20
105.76306
 30
0.0
 11
-748.5742799999997
 21
96.383606
 31
0.0
  0
LINE
  5
6F2
  8
0
  6
CONTINUOUS
 62
     7
 10
-710.88311999999996
 20
96.659996000000007
 30
0.0
 11
-710.88311999999996
 21
100.2646799999999
 31
0.0
  0
LINE
  5
6F3
  8
0
  6
CONTINUOUS
 62
     7
 10
-643.38317999999981
 20
118.32491
 30
0.0
 11
-647.8252
 21
101.74706
 31
0.0
  0
LINE
  5
6F4
  8
0
  6
CONTINUOUS
 62
     7
 10
-647.3425900000002
 20
103.54794
 30
0.0
 11
-641.88311999999985
 21
103.54794
 31
0.0
  0
LINE
  5
6F5
  8
0
  6
CONTINUOUS
 62
     7
 10
-641.88311999999985
 20
124.6105
 30
0.0
 11
-633.88311999999985
 21
124.6105
 31
0.0
  0
LINE
  5
6F6
  8
0
  6
CONTINUOUS
 62
     7
 10
-725.88311999999985
 20
119.82485
 30
0.0
 11
-725.88311999999985
 21
119.82485
 31
0.0
  0
LINE
  5
6F7
  8
0
  6
CONTINUOUS
 62
     7
 10
-724.38311999999985
 20
118.3248499999999
 30
0.0
 11
-641.88311999999985
 21
118.3248499999999
 31
0.0
  0
LINE
  5
6F8
  8
0
  6
CONTINUOUS
 62
     7
 10
-661.38311999999985
 20
126.54794
 30
0.0
 11
-652.11310000000003
 21
126.54794
 31
0.0
  0
LINE
  5
6F9
  8
0
  6
CONTINUOUS
 62
     3
 10
-717.51110999999958
 20
179.04768000000001
 30
0.0
 11
-713.30609000000004
 21
179.04768000000001
 31
0.0
  0
LINE
  5
6FA
  8
0
  6
CONTINUOUS
 62
     3
 10
-715.38311999999985
 20
176.98568999999981
 30
0.0
 11
-715.38311999999985
 21
181.01167000000001
 31
0.0
  0
LINE
  5
6FB
  8
0
  6
CONTINUOUS
 62
     3
 10
-741.38360999999998
 20
164.04768000000001
 30
0.0
 11
-741.38360999999998
 21
188.04768000000001
 31
0.0
  0
LINE
  5
6FC
  8
0
  6
CONTINUOUS
 62
     3
 10
-741.38360999999998
 20
125.04819000000001
 30
0.0
 11
-741.38360999999998
 21
149.04768000000001
 31
0.0
  0
LINE
  5
6FD
  8
0
  6
CONTINUOUS
 62
     3
 10
-715.88311999999985
 20
133.54817
 30
0.0
 11
-715.88311999999985
 21
173.57070999999991
 31
0.0
  0
LINE
  5
6FE
  8
0
  6
CONTINUOUS
 62
     3
 10
-669.88311999999985
 20
139.52565000000001
 30
0.0
 11
-669.88311999999985
 21
179.54769999999991
 31
0.0
  0
LINE
  5
6FF
  8
0
  6
CONTINUOUS
 62
     3
 10
-661.38311999999985
 20
125.04819000000001
 30
0.0
 11
-661.38311999999985
 21
188.04768000000001
 31
0.0
  0
LINE
  5
700
  8
0
  6
CONTINUOUS
 62
     3
 10
-709.90612999999985
 20
179.54769999999991
 30
0.0
 11
-669.88311999999985
 21
179.54769999999991
 31
0.0
  0
LINE
  5
701
  8
0
  6
CONTINUOUS
 62
     3
 10
-715.88311999999985
 20
133.54817
 30
0.0
 11
-675.86114999999995
 21
133.54817
 31
0.0
  0
LINE
  5
702
  8
0
  6
CONTINUOUS
 62
     3
 10
-741.38360999999998
 20
188.04768000000001
 30
0.0
 11
-735.88360999999975
 21
188.04768000000001
 31
0.0
  0
LINE
  5
703
  8
0
  6
CONTINUOUS
 62
     3
 10
-741.38360999999998
 20
125.04819000000001
 30
0.0
 11
-735.88360999999975
 21
125.04819000000001
 31
0.0
  0
LINE
  5
704
  8
0
  6
CONTINUOUS
 62
     3
 10
-670.38311999999985
 20
131.98617999999991
 30
0.0
 11
-670.38311999999985
 21
136.01211999999981
 31
0.0
  0
LINE
  5
705
  8
0
  6
CONTINUOUS
 62
     3
 10
-672.5111099999998
 20
134.04818999999981
 30
0.0
 11
-668.30609000000004
 21
134.04818999999981
 31
0.0
  0
LINE
  5
706
  8
0
  6
CONTINUOUS
 62
     3
 10
-710.68311000000006
 20
174.35172
 30
0.0
 11
-675.08312999999976
 21
174.35172
 31
0.0
  0
LINE
  5
707
  8
0
  6
CONTINUOUS
 62
     3
 10
-710.68311000000006
 20
138.74771000000001
 30
0.0
 11
-675.08312999999976
 21
138.74771000000001
 31
0.0
  0
LINE
  5
708
  8
0
  6
CONTINUOUS
 62
     3
 10
-675.08312999999976
 20
138.74771000000001
 30
0.0
 11
-675.08312999999976
 21
174.35172
 31
0.0
  0
LINE
  5
709
  8
0
  6
CONTINUOUS
 62
     3
 10
-710.68311000000006
 20
138.74771000000001
 30
0.0
 11
-710.68311000000006
 21
174.35172
 31
0.0
  0
LINE
  5
70A
  8
0
  6
CONTINUOUS
 62
     3
 10
-739.88360999999975
 20
186.54768000000001
 30
0.0
 11
-664.38311999999996
 21
186.54768000000001
 31
0.0
  0
LINE
  5
70B
  8
0
  6
CONTINUOUS
 62
     3
 10
-739.88360999999975
 20
126.54818999999991
 30
0.0
 11
-739.88360999999975
 21
186.54768000000001
 31
0.0
  0
LINE
  5
70C
  8
0
  6
CONTINUOUS
 62
     3
 10
-720.88311999999985
 20
190.04769999999999
 30
0.0
 11
-720.88311999999985
 21
186.54768000000001
 31
0.0
  0
LINE
  5
70D
  8
0
  6
CONTINUOUS
 62
     3
 10
-735.88360999999975
 20
190.04769999999999
 30
0.0
 11
-720.88311999999985
 21
190.04769999999999
 31
0.0
  0
LINE
  5
70E
  8
0
  6
CONTINUOUS
 62
     3
 10
-735.88360999999975
 20
190.04769999999999
 30
0.0
 11
-735.88360999999975
 21
186.54768000000001
 31
0.0
  0
LINE
  5
70F
  8
0
  6
CONTINUOUS
 62
     3
 10
-743.38360999999975
 20
164.04768000000001
 30
0.0
 11
-739.88360999999975
 21
164.04768000000001
 31
0.0
  0
LINE
  5
710
  8
0
  6
CONTINUOUS
 62
     3
 10
-743.38360999999975
 20
149.04768000000001
 30
0.0
 11
-743.38360999999975
 21
164.04768000000001
 31
0.0
  0
LINE
  5
711
  8
0
  6
CONTINUOUS
 62
     7
 10
-661.38311999999985
 20
186.5479399999999
 30
0.0
 11
-652.11310000000003
 21
186.5479399999999
 31
0.0
  0
LINE
  5
712
  8
0
  6
CONTINUOUS
 62
     3
 10
-662.90319999999986
 20
530.72655999999995
 30
0.0
 11
-645.06322999999975
 21
530.72655999999995
 31
0.0
  0
LINE
  5
713
  8
0
  6
CONTINUOUS
 62
     7
 10
-648.53612999999996
 20
523.36657999999977
 30
0.0
 11
-662.88317999999981
 21
523.36657999999977
 31
0.0
  0
LINE
  5
714
  8
0
  6
CONTINUOUS
 62
     7
 10
-648.55042000000003
 20
471.36660999999998
 30
0.0
 11
-662.88317999999981
 21
471.36660999999998
 31
0.0
  0
LINE
  5
715
  8
0
  6
CONTINUOUS
 62
     7
 10
-679.38317999999981
 20
469.86660999999992
 30
0.0
 11
-679.38317999999981
 21
464.86660999999981
 31
0.0
  0
LINE
  5
716
  8
0
  6
CONTINUOUS
 62
     7
 10
-664.38317999999981
 20
469.86660999999992
 30
0.0
 11
-664.38317999999981
 21
464.86660999999981
 31
0.0
  0
LINE
  5
717
  8
0
  6
CONTINUOUS
 62
     7
 10
-679.86315999999999
 20
469.86660999999992
 30
0.0
 11
-679.86315999999999
 21
465.00662
 31
0.0
  0
LINE
  5
718
  8
0
  6
CONTINUOUS
 62
     7
 10
-663.90319999999997
 20
469.86660999999992
 30
0.0
 11
-663.90319999999997
 21
465.00662
 31
0.0
  0
LINE
  5
719
  8
0
  6
CONTINUOUS
 62
     7
 10
-662.88317999999981
 20
470.88662999999991
 30
0.0
 11
-644.84900000000005
 21
470.88662999999991
 31
0.0
  0
LINE
  5
71A
  8
0
  6
CONTINUOUS
 62
     7
 10
-662.88317999999981
 20
523.85657000000003
 30
0.0
 11
-644.83752000000004
 21
523.85657000000003
 31
0.0
  0
LINE
  5
71B
  8
0
  6
CONTINUOUS
 62
     3
 10
-707.8831799999997
 20
517.86658
 30
0.0
 11
-707.8831799999997
 21
476.86660999999992
 31
0.0
  0
LINE
  5
71C
  8
0
  6
CONTINUOUS
 62
     3
 10
-644.88317999999981
 20
517.86658
 30
0.0
 11
-644.88317999999981
 21
476.86660999999992
 31
0.0
  0
LINE
  5
71D
  8
0
  6
CONTINUOUS
 62
     7
 10
-707.8831799999997
 20
517.86658
 30
0.0
 11
-644.88317999999981
 21
517.86658
 31
0.0
  0
LINE
  5
71E
  8
0
  6
CONTINUOUS
 62
     7
 10
-707.8831799999997
 20
476.86660999999992
 30
0.0
 11
-644.88317999999981
 21
476.86660999999992
 31
0.0
  0
LINE
  5
71F
  8
0
  6
CONTINUOUS
 62
     7
 10
-707.8831799999997
 20
510.36660999999981
 30
0.0
 11
-644.88317999999981
 21
510.36660999999981
 31
0.0
  0
LINE
  5
720
  8
0
  6
CONTINUOUS
 62
     7
 10
-679.38317999999981
 20
524.86658
 30
0.0
 11
-679.38317999999981
 21
529.86658
 31
0.0
  0
LINE
  5
721
  8
0
  6
CONTINUOUS
 62
     7
 10
-664.38317999999981
 20
524.86658
 30
0.0
 11
-664.38317999999981
 21
529.86658
 31
0.0
  0
LINE
  5
722
  8
0
  6
CONTINUOUS
 62
     7
 10
-679.86315999999999
 20
524.86658
 30
0.0
 11
-679.86315999999999
 21
529.72655999999995
 31
0.0
  0
LINE
  5
723
  8
0
  6
CONTINUOUS
 62
     7
 10
-663.90319999999997
 20
524.86658
 30
0.0
 11
-663.90319999999997
 21
529.72655999999995
 31
0.0
  0
LINE
  5
724
  8
0
  6
CONTINUOUS
 62
     7
 10
-661.36963000000003
 20
434.86660999999992
 30
0.0
 11
-649.8670699999999
 21
434.86660999999992
 31
0.0
  0
LINE
  5
725
  8
0
  6
CONTINUOUS
 62
     7
 10
-662.88317999999981
 20
432.86660999999992
 30
0.0
 11
-722.88317999999981
 21
432.86660999999992
 31
0.0
  0
LINE
  5
726
  8
0
  6
CONTINUOUS
 62
     3
 10
-642.88317999999981
 20
444.36660999999992
 30
0.0
 11
-648.60895000000016
 21
435.54971
 31
0.0
  0
LINE
  5
727
  8
0
  6
CONTINUOUS
 62
     3
 10
-662.88317999999981
 20
432.86658
 30
0.0
 11
-662.66791000000001
 21
441.08667000000003
 31
0.0
  0
LINE
  5
728
  8
0
  6
CONTINUOUS
 62
     3
 10
-722.88323999999989
 20
432.86658
 30
0.0
 11
-723.09844999999984
 21
441.08663999999987
 31
0.0
  0
LINE
  5
729
  8
0
  6
CONTINUOUS
 62
     7
 10
-641.88317999999981
 20
465.42666999999989
 30
0.0
 11
-633.88317999999981
 21
465.42666999999989
 31
0.0
  0
LINE
  5
72A
  8
0
  6
CONTINUOUS
 62
     7
 10
-647.34118999999998
 20
444.36660999999992
 30
0.0
 11
-641.88317999999981
 21
444.36660999999992
 31
0.0
  0
LINE
  5
72B
  8
0
  6
CONTINUOUS
 62
     7
 10
-643.67742999999984
 20
458.04775999999998
 30
0.0
 11
-647.82317999999975
 21
442.56662
 31
0.0
  0
LINE
  5
72C
  8
0
  6
CONTINUOUS
 62
     7
 10
-749.88317999999958
 20
446.58663999999999
 30
0.0
 11
-748.95770000000005
 21
439.96001999999999
 31
0.0
  0
LINE
  5
72D
  8
0
  6
CONTINUOUS
 62
     7
 10
-749.88324
 20
446.58663999999999
 30
0.0
 11
-748.87396000000001
 21
439.93649000000011
 31
0.0
  0
LINE
  5
72E
  8
0
  6
CONTINUOUS
 62
     7
 10
-749.88317999999958
 20
447.92657000000003
 30
0.0
 11
-748.60315000000003
 21
439.92667
 31
0.0
  0
LINE
  5
72F
  8
0
  6
CONTINUOUS
 62
     7
 10
-746.97692999999981
 20
438.23660000000001
 30
0.0
 11
-724.48510999999985
 21
438.23660000000001
 31
0.0
  0
LINE
  5
730
  8
0
  6
CONTINUOUS
 62
     7
 10
-749.88317999999958
 20
449.27657999999991
 30
0.0
 11
-748.64319
 21
442.71660999999989
 31
0.0
  0
LINE
  5
731
  8
0
  6
CONTINUOUS
 62
     7
 10
-746.67322000000001
 20
441.0865799999998
 30
0.0
 11
-649.75316999999995
 21
441.0865799999998
 31
0.0
  0
LINE
  5
732
  8
0
  6
CONTINUOUS
 62
     7
 10
-641.88317999999981
 20
441.36660999999992
 30
0.0
 11
-633.88317999999981
 21
441.36660999999992
 31
0.0
  0
LINE
  5
733
  8
0
  6
CONTINUOUS
 62
     7
 10
-641.88317999999981
 20
451.36660999999998
 30
0.0
 11
-633.88317999999981
 21
451.36660999999998
 31
0.0
  0
LINE
  5
734
  8
0
  6
CONTINUOUS
 62
     7
 10
-757.18322999999964
 20
454.17667
 30
0.0
 11
-750.95325000000003
 21
454.17667
 31
0.0
  0
LINE
  5
735
  8
0
  6
CONTINUOUS
 62
     7
 10
-757.8831799999997
 20
444.36660999999992
 30
0.0
 11
-749.88317999999958
 21
444.36660999999992
 31
0.0
  0
LINE
  5
736
  8
0
  6
CONTINUOUS
 62
     7
 10
-758.88317999999981
 20
447.36660999999992
 30
0.0
 11
-757.8831799999997
 21
447.36660999999992
 31
0.0
  0
LINE
  5
737
  8
0
  6
CONTINUOUS
 62
     7
 10
-761.8831799999997
 20
447.86660999999981
 30
0.0
 11
-761.8831799999997
 21
448.39663999999988
 31
0.0
  0
LINE
  5
738
  8
0
  6
CONTINUOUS
 62
     7
 10
-761.8831799999997
 20
449.96657999999979
 30
0.0
 11
-761.8831799999997
 21
450.51662999999991
 31
0.0
  0
LINE
  5
739
  8
0
  6
CONTINUOUS
 62
     7
 10
-761.8831799999997
 20
454.53665000000001
 30
0.0
 11
-761.8831799999997
 21
455.00661999999988
 31
0.0
  0
LINE
  5
73A
  8
0
  6
CONTINUOUS
 62
     7
 10
-762.10320999999988
 20
450.9865699999998
 30
0.0
 11
-763.35326999999984
 21
451.64660999999973
 31
0.0
  0
LINE
  5
73B
  8
0
  6
CONTINUOUS
 62
     7
 10
-762.09320000000002
 20
448.87659000000002
 30
0.0
 11
-763.33318999999983
 21
449.50659000000002
 31
0.0
  0
LINE
  5
73C
  8
0
  6
CONTINUOUS
 62
     7
 10
-762.11321999999984
 20
455.51662999999979
 30
0.0
 11
-763.39319
 21
456.26663000000002
 31
0.0
  0
LINE
  5
73D
  8
0
  6
CONTINUOUS
 62
     7
 10
-761.64319
 20
448.76662999999979
 30
0.0
 11
-759.38317999999981
 21
448.76662999999979
 31
0.0
  0
LINE
  5
73E
  8
0
  6
CONTINUOUS
 62
     7
 10
-761.63317999999981
 20
450.86660999999998
 30
0.0
 11
-759.88317999999981
 21
450.86660999999998
 31
0.0
  0
LINE
  5
73F
  8
0
  6
CONTINUOUS
 62
     7
 10
-761.61328000000003
 20
455.38663000000003
 30
0.0
 11
-759.88317999999981
 21
455.38663000000003
 31
0.0
  0
LINE
  5
740
  8
0
  6
CONTINUOUS
 62
     7
 10
-761.58325000000002
 20
454.24660999999992
 30
0.0
 11
-758.88317999999981
 21
454.24660999999992
 31
0.0
  0
LINE
  5
741
  8
0
  6
CONTINUOUS
 62
     7
 10
-761.60326999999984
 20
449.72658999999999
 30
0.0
 11
-758.88317999999981
 21
449.72658999999999
 31
0.0
  0
LINE
  5
742
  8
0
  6
CONTINUOUS
 62
     7
 10
-762.13324
 20
454.40658999999988
 30
0.0
 11
-763.43322999999964
 21
455.25659000000002
 31
0.0
  0
LINE
  5
743
  8
0
  6
CONTINUOUS
 62
     7
 10
-762.12311
 20
449.86664000000002
 30
0.0
 11
-763.40314000000001
 21
450.6366299999998
 31
0.0
  0
LINE
  5
744
  8
0
  6
CONTINUOUS
 62
     7
 10
-762.11315999999999
 20
447.75653
 30
0.0
 11
-763.38317999999981
 21
448.48650999999961
 31
0.0
  0
LINE
  5
745
  8
0
  6
CONTINUOUS
 62
     7
 10
-761.61328000000003
 20
447.61660999999992
 30
0.0
 11
-759.38317999999981
 21
447.61660999999992
 31
0.0
  0
LINE
  5
746
  8
0
  6
CONTINUOUS
 62
     7
 10
-763.88317999999981
 20
449.34658999999999
 30
0.0
 11
-763.88317999999981
 21
492.36660999999998
 31
0.0
  0
LINE
  5
747
  8
0
  6
CONTINUOUS
 62
     7
 10
-647.34325999999965
 20
550.36658
 30
0.0
 11
-641.88317999999981
 21
550.36658
 31
0.0
  0
LINE
  5
748
  8
0
  6
CONTINUOUS
 62
     7
 10
-643.68316999999979
 20
536.70654000000002
 30
0.0
 11
-647.82317999999975
 21
552.16656
 31
0.0
  0
LINE
  5
749
  8
0
  6
CONTINUOUS
 62
     7
 10
-749.88317999999958
 20
548.15661999999986
 30
0.0
 11
-748.57317999999987
 21
557.53661999999986
 31
0.0
  0
LINE
  5
74A
  8
0
  6
CONTINUOUS
 62
     7
 10
-749.88324
 20
548.15661999999986
 30
0.0
 11
-748.59320000000002
 21
556.64666999999986
 31
0.0
  0
LINE
  5
74B
  8
0
  6
CONTINUOUS
 62
     7
 10
-749.88317999999958
 20
546.80664000000002
 30
0.0
 11
-748.60315000000003
 21
554.81658999999979
 31
0.0
  0
LINE
  5
74C
  8
0
  6
CONTINUOUS
 62
     7
 10
-746.59325999999999
 20
559.25659000000007
 30
0.0
 11
-649.75316999999995
 21
559.25659000000007
 31
0.0
  0
LINE
  5
74D
  8
0
  6
CONTINUOUS
 62
     7
 10
-746.61328000000003
 20
558.34655999999995
 30
0.0
 11
-649.75316999999995
 21
558.34655999999995
 31
0.0
  0
LINE
  5
74E
  8
0
  6
CONTINUOUS
 62
     7
 10
-746.63317999999981
 20
556.49657999999999
 30
0.0
 11
-649.75316999999995
 21
556.49657999999999
 31
0.0
  0
LINE
  5
74F
  8
0
  6
CONTINUOUS
 62
     7
 10
-744.52319
 20
460.71654999999993
 30
0.0
 11
-749.88317999999958
 21
449.27667000000002
 31
0.0
  0
LINE
  5
750
  8
0
  6
CONTINUOUS
 62
     7
 10
-744.52313000000004
 20
534.01660000000004
 30
0.0
 11
-749.88311999999985
 21
545.46654999999987
 31
0.0
  0
LINE
  5
751
  8
0
  6
CONTINUOUS
 62
     7
 10
-749.88317999999958
 20
545.46667000000002
 30
0.0
 11
-748.64319
 21
552.02666999999985
 31
0.0
  0
LINE
  5
752
  8
0
  6
CONTINUOUS
 62
     7
 10
-746.67322000000001
 20
553.64661000000001
 30
0.0
 11
-649.75316999999995
 21
553.64661000000001
 31
0.0
  0
LINE
  5
753
  8
0
  6
CONTINUOUS
 62
     7
 10
-641.88317999999981
 20
553.36658
 30
0.0
 11
-633.88317999999981
 21
553.36658
 31
0.0
  0
LINE
  5
754
  8
0
  6
CONTINUOUS
 62
     7
 10
-641.88317999999981
 20
529.30651999999998
 30
0.0
 11
-633.88317999999981
 21
529.30651999999998
 31
0.0
  0
LINE
  5
755
  8
0
  6
CONTINUOUS
 62
     7
 10
-641.88317999999981
 20
543.36657999999989
 30
0.0
 11
-633.88317999999981
 21
543.36657999999989
 31
0.0
  0
LINE
  5
756
  8
0
  6
CONTINUOUS
 62
     7
 10
-757.18322999999964
 20
540.55651999999986
 30
0.0
 11
-750.95325000000003
 21
540.55651999999986
 31
0.0
  0
LINE
  5
757
  8
0
  6
CONTINUOUS
 62
     7
 10
-757.8831799999997
 20
550.36658
 30
0.0
 11
-749.88317999999958
 21
550.36658
 31
0.0
  0
LINE
  5
758
  8
0
  6
CONTINUOUS
 62
     7
 10
-758.88317999999981
 20
547.36658
 30
0.0
 11
-757.8831799999997
 21
547.36658
 31
0.0
  0
LINE
  5
759
  8
0
  6
CONTINUOUS
 62
     7
 10
-758.88317999999981
 20
547.36658
 30
0.0
 11
-758.88317999999981
 21
447.36660999999992
 31
0.0
  0
LINE
  5
75A
  8
0
  6
CONTINUOUS
 62
     7
 10
-763.39330999999981
 20
456.26657
 30
0.0
 11
-763.41327000000001
 21
456.27654999999999
 31
0.0
  0
LINE
  5
75B
  8
0
  6
CONTINUOUS
 62
     7
 10
-749.88317999999958
 20
550.36658
 30
0.0
 11
-749.88317999999958
 21
444.36660999999992
 31
0.0
  0
LINE
  5
75C
  8
0
  6
CONTINUOUS
 62
     7
 10
-757.8831799999997
 20
550.36658
 30
0.0
 11
-757.8831799999997
 21
444.36660999999992
 31
0.0
  0
LINE
  5
75D
  8
0
  6
CONTINUOUS
 62
     7
 10
-692.88317999999981
 20
460.64663999999999
 30
0.0
 11
-645.06322999999975
 21
460.64663999999999
 31
0.0
  0
LINE
  5
75E
  8
0
  6
CONTINUOUS
 62
     7
 10
-692.88317999999981
 20
461.36660999999992
 30
0.0
 11
-747.52318999999989
 21
461.36660999999992
 31
0.0
  0
LINE
  5
75F
  8
0
  6
CONTINUOUS
 62
     7
 10
-692.88317999999981
 20
463.36660999999998
 30
0.0
 11
-747.52318999999989
 21
463.36660999999998
 31
0.0
  0
LINE
  5
760
  8
0
  6
CONTINUOUS
 62
     7
 10
-748.20325000000003
 20
463.99660999999992
 30
0.0
 11
-680.86315999999999
 21
463.99660999999992
 31
0.0
  0
LINE
  5
761
  8
0
  6
CONTINUOUS
 62
     7
 10
-765.38317999999981
 20
480.08657999999991
 30
0.0
 11
-763.88317999999981
 21
480.08657999999991
 31
0.0
  0
LINE
  5
762
  8
0
  6
CONTINUOUS
 62
     7
 10
-765.38317999999981
 20
482.21657999999991
 30
0.0
 11
-763.88317999999981
 21
482.21657999999991
 31
0.0
  0
LINE
  5
763
  8
0
  6
CONTINUOUS
 62
     7
 10
-765.38317999999981
 20
477.36657999999989
 30
0.0
 11
-763.88324
 21
477.23656999999992
 31
0.0
  0
LINE
  5
764
  8
0
  6
CONTINUOUS
 62
     7
 10
-765.38317999999981
 20
477.36660999999981
 30
0.0
 11
-765.38317999999981
 21
497.36660999999992
 31
0.0
  0
LINE
  5
765
  8
0
  6
CONTINUOUS
 62
     7
 10
-761.8831799999997
 20
461.97658999999987
 30
0.0
 11
-761.8831799999997
 21
463.03665000000001
 31
0.0
  0
LINE
  5
766
  8
0
  6
CONTINUOUS
 62
     7
 10
-761.8831799999997
 20
471.73660000000001
 30
0.0
 11
-761.8831799999997
 21
473.10660000000001
 31
0.0
  0
LINE
  5
767
  8
0
  6
CONTINUOUS
 62
     7
 10
-761.8831799999997
 20
491.75662
 30
0.0
 11
-761.8831799999997
 21
492.91665999999998
 31
0.0
  0
LINE
  5
768
  8
0
  6
CONTINUOUS
 62
     7
 10
-761.8831799999997
 20
481.75661999999988
 30
0.0
 11
-761.8831799999997
 21
482.97658999999987
 31
0.0
  0
LINE
  5
769
  8
0
  6
CONTINUOUS
 62
     7
 10
-759.88317999999981
 20
493.36660999999992
 30
0.0
 11
-762.88317999999981
 21
493.36660999999992
 31
0.0
  0
LINE
  5
76A
  8
0
  6
CONTINUOUS
 62
     7
 10
-759.88317999999981
 20
491.36660999999992
 30
0.0
 11
-762.88317999999981
 21
491.36660999999992
 31
0.0
  0
LINE
  5
76B
  8
0
  6
CONTINUOUS
 62
     7
 10
-759.88317999999981
 20
483.36660999999998
 30
0.0
 11
-762.88317999999981
 21
483.36660999999998
 31
0.0
  0
LINE
  5
76C
  8
0
  6
CONTINUOUS
 62
     7
 10
-759.88317999999981
 20
481.36660999999981
 30
0.0
 11
-762.88317999999981
 21
481.36660999999981
 31
0.0
  0
LINE
  5
76D
  8
0
  6
CONTINUOUS
 62
     7
 10
-759.88317999999981
 20
473.36660999999992
 30
0.0
 11
-762.88317999999981
 21
473.36660999999992
 31
0.0
  0
LINE
  5
76E
  8
0
  6
CONTINUOUS
 62
     7
 10
-759.88317999999981
 20
471.36660999999998
 30
0.0
 11
-762.88317999999981
 21
471.36660999999998
 31
0.0
  0
LINE
  5
76F
  8
0
  6
CONTINUOUS
 62
     7
 10
-762.02319
 20
463.66659999999979
 30
0.0
 11
-763.17315999999983
 21
464.0265799999998
 31
0.0
  0
LINE
  5
770
  8
0
  6
CONTINUOUS
 62
     7
 10
-761.73328000000004
 20
463.62662
 30
0.0
 11
-759.88317999999981
 21
463.62662
 31
0.0
  0
LINE
  5
771
  8
0
  6
CONTINUOUS
 62
     7
 10
-762.07312000000002
 20
461.75661999999988
 30
0.0
 11
-763.27313000000004
 21
462.27663999999987
 31
0.0
  0
LINE
  5
772
  8
0
  6
CONTINUOUS
 62
     7
 10
-761.68322999999964
 20
461.67667
 30
0.0
 11
-759.58325000000002
 21
461.67667
 31
0.0
  0
LINE
  5
773
  8
0
  6
CONTINUOUS
 62
     7
 10
-645.06322999999975
 20
463.99660999999992
 30
0.0
 11
-662.90319999999986
 21
463.99660999999992
 31
0.0
  0
LINE
  5
774
  8
0
  6
CONTINUOUS
 62
     7
 10
-748.20325000000003
 20
460.64663999999999
 30
0.0
 11
-692.88317999999981
 21
460.64663999999999
 31
0.0
  0
LINE
  5
775
  8
0
  6
CONTINUOUS
 62
     7
 10
-648.5432099999997
 20
461.36660999999992
 30
0.0
 11
-692.88317999999981
 21
461.36660999999992
 31
0.0
  0
LINE
  5
776
  8
0
  6
CONTINUOUS
 62
     7
 10
-648.5432099999997
 20
463.36660999999998
 30
0.0
 11
-692.88317999999981
 21
463.36660999999998
 31
0.0
  0
LINE
  5
777
  8
0
  6
CONTINUOUS
 62
     7
 10
-748.42322000000001
 20
470.87662
 30
0.0
 11
-680.88317999999981
 21
470.87662
 31
0.0
  0
LINE
  5
778
  8
0
  6
CONTINUOUS
 62
     7
 10
-680.88317999999981
 20
471.36660999999998
 30
0.0
 11
-747.52318999999989
 21
471.36660999999998
 31
0.0
  0
LINE
  5
779
  8
0
  6
CONTINUOUS
 62
     7
 10
-748.42322000000001
 20
473.80655000000002
 30
0.0
 11
-644.84900000000005
 21
473.80655000000002
 31
0.0
  0
LINE
  5
77A
  8
0
  6
CONTINUOUS
 62
     7
 10
-648.55042000000003
 20
473.36660999999992
 30
0.0
 11
-747.52318999999989
 21
473.36660999999992
 31
0.0
  0
LINE
  5
77B
  8
0
  6
CONTINUOUS
 62
     7
 10
-748.55322000000001
 20
481.02663999999987
 30
0.0
 11
-712.21190999999988
 21
481.02663999999987
 31
0.0
  0
LINE
  5
77C
  8
0
  6
CONTINUOUS
 62
     7
 10
-713.44446000000005
 20
481.36660999999981
 30
0.0
 11
-747.52318999999989
 21
481.36660999999981
 31
0.0
  0
LINE
  5
77D
  8
0
  6
CONTINUOUS
 62
     7
 10
-713.44446000000005
 20
483.36660999999998
 30
0.0
 11
-747.52318999999989
 21
483.36660999999998
 31
0.0
  0
LINE
  5
77E
  8
0
  6
CONTINUOUS
 62
     7
 10
-748.55322000000001
 20
483.68655000000001
 30
0.0
 11
-712.22448999999995
 21
483.68655000000001
 31
0.0
  0
LINE
  5
77F
  8
0
  6
CONTINUOUS
 62
     7
 10
-748.61328000000003
 20
491.09658999999988
 30
0.0
 11
-712.16454999999985
 21
491.09658999999988
 31
0.0
  0
LINE
  5
780
  8
0
  6
CONTINUOUS
 62
     7
 10
-713.44446000000005
 20
491.36660999999992
 30
0.0
 11
-747.52318999999989
 21
491.36660999999992
 31
0.0
  0
LINE
  5
781
  8
0
  6
CONTINUOUS
 62
     7
 10
-713.44446000000005
 20
493.36660999999992
 30
0.0
 11
-747.52318999999989
 21
493.36660999999992
 31
0.0
  0
LINE
  5
782
  8
0
  6
CONTINUOUS
 62
     7
 10
-748.61328000000003
 20
493.63662999999991
 30
0.0
 11
-712.16454999999985
 21
493.63662999999991
 31
0.0
  0
LINE
  5
783
  8
0
  6
CONTINUOUS
 62
     7
 10
-748.61328000000003
 20
501.10660000000001
 30
0.0
 11
-712.16454999999985
 21
501.10660000000001
 31
0.0
  0
LINE
  5
784
  8
0
  6
CONTINUOUS
 62
     7
 10
-748.61328000000003
 20
503.63663000000003
 30
0.0
 11
-712.16454999999985
 21
503.63663000000003
 31
0.0
  0
LINE
  5
785
  8
0
  6
CONTINUOUS
 62
     7
 10
-748.55322000000001
 20
511.04665999999992
 30
0.0
 11
-712.22448999999995
 21
511.04665999999992
 31
0.0
  0
LINE
  5
786
  8
0
  6
CONTINUOUS
 62
     7
 10
-748.55322000000001
 20
513.70654000000002
 30
0.0
 11
-712.22448999999995
 21
513.70654000000002
 31
0.0
  0
LINE
  5
787
  8
0
  6
CONTINUOUS
 62
     7
 10
-748.42322000000001
 20
520.92664000000002
 30
0.0
 11
-644.84900000000005
 21
520.92664000000002
 31
0.0
  0
LINE
  5
788
  8
0
  6
CONTINUOUS
 62
     7
 10
-748.42322000000001
 20
523.85657000000003
 30
0.0
 11
-680.88317999999981
 21
523.85657000000003
 31
0.0
  0
LINE
  5
789
  8
0
  6
CONTINUOUS
 62
     7
 10
-748.20325000000003
 20
530.73657000000003
 30
0.0
 11
-680.86315999999999
 21
530.73657000000003
 31
0.0
  0
LINE
  5
78A
  8
0
  6
CONTINUOUS
 62
     7
 10
-748.20325000000003
 20
534.08654999999965
 30
0.0
 11
-645.06322999999975
 21
534.08654999999965
 31
0.0
  0
LINE
  5
78B
  8
0
  6
CONTINUOUS
 62
     7
 10
-713.44446000000005
 20
501.36660999999998
 30
0.0
 11
-747.52318999999989
 21
501.36660999999998
 31
0.0
  0
LINE
  5
78C
  8
0
  6
CONTINUOUS
 62
     7
 10
-713.44446000000005
 20
503.36660999999992
 30
0.0
 11
-747.52318999999989
 21
503.36660999999992
 31
0.0
  0
LINE
  5
78D
  8
0
  6
CONTINUOUS
 62
     7
 10
-713.44446000000005
 20
511.36660999999992
 30
0.0
 11
-747.52318999999989
 21
511.36660999999992
 31
0.0
  0
LINE
  5
78E
  8
0
  6
CONTINUOUS
 62
     7
 10
-713.44446000000005
 20
513.36658
 30
0.0
 11
-747.52318999999989
 21
513.36658
 31
0.0
  0
LINE
  5
78F
  8
0
  6
CONTINUOUS
 62
     7
 10
-648.55042000000003
 20
521.36658
 30
0.0
 11
-747.52318999999989
 21
521.36658
 31
0.0
  0
LINE
  5
790
  8
0
  6
CONTINUOUS
 62
     7
 10
-680.88317999999981
 20
523.36657999999977
 30
0.0
 11
-747.52318999999989
 21
523.36657999999977
 31
0.0
  0
LINE
  5
791
  8
0
  6
CONTINUOUS
 62
     7
 10
-648.5432099999997
 20
531.36657999999977
 30
0.0
 11
-747.52318999999989
 21
531.36657999999977
 31
0.0
  0
LINE
  5
792
  8
0
  6
CONTINUOUS
 62
     7
 10
-648.5432099999997
 20
533.36658
 30
0.0
 11
-747.52318999999989
 21
533.36658
 31
0.0
  0
LINE
  5
793
  8
0
  6
CONTINUOUS
 62
     7
 10
-765.38317999999981
 20
514.64661000000001
 30
0.0
 11
-763.88317999999981
 21
514.64661000000001
 31
0.0
  0
LINE
  5
794
  8
0
  6
CONTINUOUS
 62
     7
 10
-765.38317999999981
 20
512.51660000000004
 30
0.0
 11
-763.88317999999981
 21
512.51660000000004
 31
0.0
  0
LINE
  5
795
  8
0
  6
CONTINUOUS
 62
     7
 10
-765.38317999999981
 20
517.36652000000004
 30
0.0
 11
-763.88317999999981
 21
517.49652000000003
 31
0.0
  0
LINE
  5
796
  8
0
  6
CONTINUOUS
 62
     7
 10
-765.38317999999981
 20
517.36658
 30
0.0
 11
-765.38317999999981
 21
497.36660999999992
 31
0.0
  0
LINE
  5
797
  8
0
  6
CONTINUOUS
 62
     7
 10
-761.8831799999997
 20
546.86658
 30
0.0
 11
-761.8831799999997
 21
546.33654999999999
 31
0.0
  0
LINE
  5
798
  8
0
  6
CONTINUOUS
 62
     7
 10
-761.8831799999997
 20
544.76660000000004
 30
0.0
 11
-761.8831799999997
 21
544.21654999999976
 31
0.0
  0
LINE
  5
799
  8
0
  6
CONTINUOUS
 62
     7
 10
-761.8831799999997
 20
540.19653000000005
 30
0.0
 11
-761.8831799999997
 21
539.72655999999995
 31
0.0
  0
LINE
  5
79A
  8
0
  6
CONTINUOUS
 62
     7
 10
-761.8831799999997
 20
532.75658999999985
 30
0.0
 11
-761.8831799999997
 21
531.69653000000005
 31
0.0
  0
LINE
  5
79B
  8
0
  6
CONTINUOUS
 62
     7
 10
-761.8831799999997
 20
522.99657999999999
 30
0.0
 11
-761.8831799999997
 21
521.62658999999985
 31
0.0
  0
LINE
  5
79C
  8
0
  6
CONTINUOUS
 62
     7
 10
-761.8831799999997
 20
502.97658999999999
 30
0.0
 11
-761.8831799999997
 21
501.81655999999992
 31
0.0
  0
LINE
  5
79D
  8
0
  6
CONTINUOUS
 62
     7
 10
-761.8831799999997
 20
512.97655999999995
 30
0.0
 11
-761.8831799999997
 21
511.76662999999979
 31
0.0
  0
LINE
  5
79E
  8
0
  6
CONTINUOUS
 62
     7
 10
-759.88317999999981
 20
501.36660999999998
 30
0.0
 11
-762.88317999999981
 21
501.36660999999998
 31
0.0
  0
LINE
  5
79F
  8
0
  6
CONTINUOUS
 62
     7
 10
-759.88317999999981
 20
503.36660999999992
 30
0.0
 11
-762.88317999999981
 21
503.36660999999992
 31
0.0
  0
LINE
  5
7A0
  8
0
  6
CONTINUOUS
 62
     7
 10
-759.88317999999981
 20
511.36660999999992
 30
0.0
 11
-762.88317999999981
 21
511.36660999999992
 31
0.0
  0
LINE
  5
7A1
  8
0
  6
CONTINUOUS
 62
     7
 10
-759.88317999999981
 20
513.36658
 30
0.0
 11
-762.88317999999981
 21
513.36658
 31
0.0
  0
LINE
  5
7A2
  8
0
  6
CONTINUOUS
 62
     7
 10
-759.88317999999981
 20
521.36658
 30
0.0
 11
-762.88317999999981
 21
521.36658
 31
0.0
  0
LINE
  5
7A3
  8
0
  6
CONTINUOUS
 62
     7
 10
-759.88317999999981
 20
523.36657999999977
 30
0.0
 11
-762.88317999999981
 21
523.36657999999977
 31
0.0
  0
LINE
  5
7A4
  8
0
  6
CONTINUOUS
 62
     7
 10
-762.10315000000003
 20
543.75665000000004
 30
0.0
 11
-763.35320999999999
 21
543.08660999999995
 31
0.0
  0
LINE
  5
7A5
  8
0
  6
CONTINUOUS
 62
     7
 10
-762.09320000000002
 20
545.86658
 30
0.0
 11
-763.33318999999983
 21
545.23657000000003
 31
0.0
  0
LINE
  5
7A6
  8
0
  6
CONTINUOUS
 62
     7
 10
-762.02319
 20
531.06664999999987
 30
0.0
 11
-763.17322000000001
 21
530.71660999999995
 31
0.0
  0
LINE
  5
7A7
  8
0
  6
CONTINUOUS
 62
     7
 10
-762.11321999999984
 20
539.21660999999995
 30
0.0
 11
-763.39319
 21
538.46660999999995
 31
0.0
  0
LINE
  5
7A8
  8
0
  6
CONTINUOUS
 62
     7
 10
-761.64319
 20
545.96654999999976
 30
0.0
 11
-759.38317999999981
 21
545.96654999999976
 31
0.0
  0
LINE
  5
7A9
  8
0
  6
CONTINUOUS
 62
     7
 10
-761.63317999999981
 20
543.86657999999977
 30
0.0
 11
-759.88317999999981
 21
543.86657999999977
 31
0.0
  0
LINE
  5
7AA
  8
0
  6
CONTINUOUS
 62
     7
 10
-761.61328000000003
 20
539.35657000000003
 30
0.0
 11
-759.88317999999981
 21
539.35657000000003
 31
0.0
  0
LINE
  5
7AB
  8
0
  6
CONTINUOUS
 62
     7
 10
-761.73328000000004
 20
531.10657000000003
 30
0.0
 11
-759.88317999999981
 21
531.10657000000003
 31
0.0
  0
LINE
  5
7AC
  8
0
  6
CONTINUOUS
 62
     7
 10
-761.58325000000002
 20
540.49657999999999
 30
0.0
 11
-758.88317999999981
 21
540.49657999999999
 31
0.0
  0
LINE
  5
7AD
  8
0
  6
CONTINUOUS
 62
     7
 10
-761.60326999999984
 20
545.00659000000007
 30
0.0
 11
-758.88317999999981
 21
545.00659000000007
 31
0.0
  0
LINE
  5
7AE
  8
0
  6
CONTINUOUS
 62
     7
 10
-762.07317999999964
 20
532.97662000000003
 30
0.0
 11
-763.27319
 21
532.46660999999995
 31
0.0
  0
LINE
  5
7AF
  8
0
  6
CONTINUOUS
 62
     7
 10
-762.13324
 20
540.32659999999998
 30
0.0
 11
-763.43322999999964
 21
539.47662000000003
 31
0.0
  0
LINE
  5
7B0
  8
0
  6
CONTINUOUS
 62
     7
 10
-762.12323000000004
 20
544.86663999999985
 30
0.0
 11
-763.40325999999982
 21
544.09662000000003
 31
0.0
  0
LINE
  5
7B1
  8
0
  6
CONTINUOUS
 62
     7
 10
-762.11315999999999
 20
546.98657000000003
 30
0.0
 11
-763.38311999999985
 21
546.24657999999999
 31
0.0
  0
LINE
  5
7B2
  8
0
  6
CONTINUOUS
 62
     7
 10
-761.68322999999964
 20
533.05651999999986
 30
0.0
 11
-759.58325000000002
 21
533.05651999999986
 31
0.0
  0
LINE
  5
7B3
  8
0
  6
CONTINUOUS
 62
     7
 10
-761.61328000000003
 20
547.11658
 30
0.0
 11
-759.38317999999981
 21
547.11658
 31
0.0
  0
LINE
  5
7B4
  8
0
  6
CONTINUOUS
 62
     7
 10
-763.88317999999981
 20
545.38660000000004
 30
0.0
 11
-763.88317999999981
 21
502.36660999999981
 31
0.0
  0
LINE
  5
7B5
  8
0
  6
CONTINUOUS
 62
     7
 10
-641.88317999999981
 20
553.36658
 30
0.0
 11
-641.88317999999981
 21
441.36660999999992
 31
0.0
  0
LINE
  5
7B6
  8
0
  6
CONTINUOUS
 62
     7
 10
-565.38317999999981
 20
433.86660999999998
 30
0.0
 11
-565.38317999999981
 21
560.86657999999977
 31
0.0
  0
LINE
  5
7B7
  8
0
  6
CONTINUOUS
 62
     7
 10
-565.38317999999981
 20
445.32659999999998
 30
0.0
 11
-574.3831799999997
 21
445.32659999999998
 31
0.0
  0
LINE
  5
7B8
  8
0
  6
CONTINUOUS
 62
     7
 10
-565.38317999999981
 20
560.86657999999977
 30
0.0
 11
-571.38317999999981
 21
560.86657999999977
 31
0.0
  0
LINE
  5
7B9
  8
0
  6
CONTINUOUS
 62
     7
 10
-565.38317999999981
 20
433.86660999999998
 30
0.0
 11
-571.38317999999981
 21
433.86660999999998
 31
0.0
  0
LINE
  5
7BA
  8
0
  6
CONTINUOUS
 62
     7
 10
-574.3831799999997
 20
436.86660999999992
 30
0.0
 11
-574.3831799999997
 21
557.86658
 31
0.0
  0
LINE
  5
7BB
  8
0
  6
CONTINUOUS
 62
     7
 10
-633.88317999999981
 20
441.36660999999992
 30
0.0
 11
-633.88317999999981
 21
553.36658
 31
0.0
  0
LINE
  5
7BC
  8
0
  6
CONTINUOUS
 62
     7
 10
-633.88317999999981
 20
465.40493999999978
 30
0.0
 11
-588.06421
 21
465.40493999999978
 31
0.0
  0
LINE
  5
7BD
  8
0
  6
CONTINUOUS
 62
     7
 10
-633.88317999999981
 20
451.36630000000002
 30
0.0
 11
-583.59411999999975
 21
451.36630000000002
 31
0.0
  0
LINE
  5
7BE
  8
0
  6
CONTINUOUS
 62
     7
 10
-565.38317999999981
 20
460.21868999999992
 30
0.0
 11
-574.3831799999997
 21
460.21868999999992
 31
0.0
  0
LINE
  5
7BF
  8
0
  6
CONTINUOUS
 62
     7
 10
-565.38317999999981
 20
534.51453000000004
 30
0.0
 11
-574.3831799999997
 21
534.51453000000004
 31
0.0
  0
LINE
  5
7C0
  8
0
  6
CONTINUOUS
 62
     7
 10
-565.38317999999981
 20
549.40661999999986
 30
0.0
 11
-574.3831799999997
 21
549.40661999999986
 31
0.0
  0
LINE
  5
7C1
  8
0
  6
CONTINUOUS
 62
     7
 10
-633.88317999999981
 20
441.36660999999992
 30
0.0
 11
-577.25963999999999
 21
439.38924999999989
 31
0.0
  0
LINE
  5
7C2
  8
0
  6
CONTINUOUS
 62
     7
 10
-577.25958000000003
 20
555.34398999999985
 30
0.0
 11
-633.88317999999981
 21
553.36663999999985
 31
0.0
  0
LINE
  5
7C3
  8
0
  6
CONTINUOUS
 62
     7
 10
-643.67749000000003
 20
539.53552000000002
 30
0.0
 11
-647.82317999999975
 21
555.01665999999977
 31
0.0
  0
LINE
  5
7C4
  8
0
  6
CONTINUOUS
 62
     7
 10
-643.67749000000003
 20
541.38549999999987
 30
0.0
 11
-647.82324000000017
 21
556.86663999999985
 31
0.0
  0
LINE
  5
7C5
  8
0
  6
CONTINUOUS
 62
     7
 10
-643.67749000000003
 20
542.29547000000002
 30
0.0
 11
-647.82324000000017
 21
557.77660999999978
 31
0.0
  0
LINE
  5
7C6
  8
0
  6
CONTINUOUS
 62
     7
 10
-722.38317999999981
 20
432.86660999999992
 30
0.0
 11
-722.38317999999981
 21
431.86660999999992
 31
0.0
  0
LINE
  5
7C7
  8
0
  6
CONTINUOUS
 62
     7
 10
-663.38317999999981
 20
432.86660999999992
 30
0.0
 11
-663.38317999999981
 21
431.86660999999992
 31
0.0
  0
LINE
  5
7C8
  8
0
  6
CONTINUOUS
 62
     3
 10
-742.15612999999985
 20
431.86660999999992
 30
0.0
 11
-742.15612999999985
 21
428.36660999999992
 31
0.0
  0
LINE
  5
7C9
  8
0
  6
CONTINUOUS
 62
     3
 10
-744.15612999999985
 20
428.36660999999992
 30
0.0
 11
-662.15625
 21
428.36660999999992
 31
0.0
  0
LINE
  5
7CA
  8
0
  6
CONTINUOUS
 62
     3
 10
-721.65625
 20
424.86660999999992
 30
0.0
 11
-662.15625
 21
424.86660999999992
 31
0.0
  0
LINE
  5
7CB
  8
0
  6
CONTINUOUS
 62
     3
 10
-733.15612999999985
 20
428.36660999999992
 30
0.0
 11
-733.15612999999985
 21
420.86660999999998
 31
0.0
  0
LINE
  5
7CC
  8
0
  6
CONTINUOUS
 62
     3
 10
-725.15625
 20
428.36660999999992
 30
0.0
 11
-725.15625
 21
420.86660999999998
 31
0.0
  0
LINE
  5
7CD
  8
0
  6
CONTINUOUS
 62
     3
 10
-740.65612999999985
 20
413.3675799999998
 30
0.0
 11
-744.15612999999985
 21
413.3675799999998
 31
0.0
  0
LINE
  5
7CE
  8
0
  6
CONTINUOUS
 62
     3
 10
-744.15612999999985
 20
428.36660999999992
 30
0.0
 11
-744.15612999999985
 21
413.3675799999998
 31
0.0
  0
LINE
  5
7CF
  8
0
  6
CONTINUOUS
 62
     3
 10
-711.45618000000002
 20
405.36664000000002
 30
0.0
 11
-716.65619000000004
 21
408.36660999999998
 31
0.0
  0
LINE
  5
7D0
  8
0
  6
CONTINUOUS
 62
     3
 10
-670.65619000000004
 20
408.36655000000002
 30
0.0
 11
-675.85619999999994
 21
405.36655000000002
 31
0.0
  0
LINE
  5
7D1
  8
0
  6
CONTINUOUS
 62
     3
 10
-740.65612999999985
 20
424.86660999999992
 30
0.0
 11
-736.65612999999985
 21
424.86660999999992
 31
0.0
  0
LINE
  5
7D2
  8
0
  6
CONTINUOUS
 62
     3
 10
-740.65612999999985
 20
408.36660999999998
 30
0.0
 11
-663.65625
 21
408.36660999999998
 31
0.0
  0
LINE
  5
7D3
  8
0
  6
CONTINUOUS
 62
     3
 10
-711.45618000000002
 20
405.36660999999998
 30
0.0
 11
-675.85619999999994
 21
405.36660999999998
 31
0.0
  0
LINE
  5
7D4
  8
0
  6
CONTINUOUS
 62
     3
 10
-740.65612999999985
 20
428.36660999999992
 30
0.0
 11
-740.65612999999985
 21
408.36660999999998
 31
0.0
  0
LINE
  5
7D5
  8
0
  6
CONTINUOUS
 62
     3
 10
-736.65612999999985
 20
428.36660999999992
 30
0.0
 11
-736.65612999999985
 21
420.86660999999998
 31
0.0
  0
LINE
  5
7D6
  8
0
  6
CONTINUOUS
 62
     3
 10
-721.65625
 20
420.86660999999998
 30
0.0
 11
-721.65625
 21
428.36660999999992
 31
0.0
  0
LINE
  5
7D7
  8
0
  6
CONTINUOUS
 62
     3
 10
-663.65625
 20
408.36660999999998
 30
0.0
 11
-663.65625
 21
424.86660999999992
 31
0.0
  0
LINE
  5
7D8
  8
0
  6
CONTINUOUS
 62
     3
 10
-662.15625
 20
431.86660999999992
 30
0.0
 11
-662.15625
 21
424.86660999999992
 31
0.0
  0
LINE
  5
7D9
  8
0
  6
CONTINUOUS
 62
     3
 10
-742.15612999999985
 20
431.86660999999992
 30
0.0
 11
-662.15625
 21
431.86660999999992
 31
0.0
  0
LINE
  5
7DA
  8
0
  6
CONTINUOUS
 62
     7
 10
-603.8831799999997
 20
487.36660999999998
 30
0.0
 11
-603.8831799999997
 21
507.36660999999992
 31
0.0
  0
LINE
  5
7DB
  8
0
  6
CONTINUOUS
 62
     7
 10
-600.88317999999981
 20
484.36660999999998
 30
0.0
 11
-577.38317999999981
 21
484.36660999999998
 31
0.0
  0
LINE
  5
7DC
  8
0
  6
CONTINUOUS
 62
     7
 10
-600.88317999999981
 20
510.36660999999981
 30
0.0
 11
-577.38317999999981
 21
510.36660999999981
 31
0.0
  0
LINE
  5
7DD
  8
0
  6
CONTINUOUS
 62
     7
 10
-633.88317999999981
 20
543.36694
 30
0.0
 11
-583.59411999999975
 21
543.36694
 31
0.0
  0
LINE
  5
7DE
  8
0
  6
CONTINUOUS
 62
     7
 10
-633.88317999999981
 20
529.32825000000003
 30
0.0
 11
-588.06421
 21
529.32825000000003
 31
0.0
  0
LINE
  5
7DF
  8
0
  6
CONTINUOUS
 62
     7
 10
-527.88311999999985
 20
211.7332499999998
 30
0.0
 11
-537.88311999999985
 21
211.7332499999998
 31
0.0
  0
LINE
  5
7E0
  8
0
  6
CONTINUOUS
 62
     7
 10
-537.88311999999985
 20
276.35876000000002
 30
0.0
 11
-527.88311999999985
 21
276.35876000000002
 31
0.0
  0
ARC
  5
7E1
  8
0
  6
CONTINUOUS
 62
     7
 10
-418.88312000000002
 20
604.76733000000002
 30
0.0
 40
4.0
 50
0.0
 51
88.0
  0
CIRCLE
  5
7E2
  8
0
  6
CONTINUOUS
 62
     7
 10
-557.88317999999992
 20
592.36658
 30
0.0
 40
7.5
  0
CIRCLE
  5
7E3
  8
0
  6
CONTINUOUS
 62
     7
 10
-432.88312000000002
 20
592.36658
 30
0.0
 40
7.5
  0
ARC
  5
7E4
  8
0
  6
CONTINUOUS
 62
     7
 10
-571.88317999999981
 20
603.97686999999985
 30
0.0
 40
4.0
 50
95.000001999999995
 51
180.00001
  0
ARC
  5
7E5
  8
0
  6
CONTINUOUS
 62
     7
 10
-417.88312000000002
 20
558.42932000000008
 30
0.0
 40
4.0
 50
97.180758000000012
 51
180.00001
  0
ARC
  5
7E6
  8
0
  6
CONTINUOUS
 62
     7
 10
-418.88312000000002
 20
566.36658
 30
0.0
 40
4.0
 50
277.18074999999988
 51
0.0
  0
ARC
  5
7E7
  8
0
  6
CONTINUOUS
 62
     7
 10
-571.88317999999981
 20
579.90515000000005
 30
0.0
 40
4.0
 50
180.00001
 51
254.99998999999991
  0
ARC
  5
7E8
  8
0
  6
CONTINUOUS
 62
     7
 10
-536.88317999999992
 20
608.04285000000004
 30
0.0
 40
3.0
 50
95.000001999999995
 51
275.0
  0
ARC
  5
7E9
  8
0
  6
CONTINUOUS
 62
     7
 10
-527.88317999999981
 20
601.80347000000017
 30
0.0
 40
4.0
 50
0.0
 51
95.000001999999995
  0
ARC
  5
7EA
  8
0
  6
CONTINUOUS
 62
     7
 10
-571.88317999999981
 20
414.82805999999988
 30
0.0
 40
4.0
 50
105.0
 51
180.00001
  0
ARC
  5
7EB
  8
0
  6
CONTINUOUS
 62
     7
 10
-418.88312000000002
 20
428.36660999999992
 30
0.0
 40
4.0
 50
0.0
 51
82.819247000000004
  0
ARC
  5
7EC
  8
0
  6
CONTINUOUS
 62
     7
 10
-417.88312000000002
 20
436.30385999999999
 30
0.0
 40
4.0
 50
180.00001
 51
262.81925000000001
  0
ARC
  5
7ED
  8
0
  6
CONTINUOUS
 62
     7
 10
-571.88317999999981
 20
390.75632000000002
 30
0.0
 40
4.0
 50
180.00001
 51
265.00000999999992
  0
CIRCLE
  5
7EE
  8
0
  6
CONTINUOUS
 62
     7
 10
-432.88312000000002
 20
402.36660999999981
 30
0.0
 40
7.5
  0
CIRCLE
  5
7EF
  8
0
  6
CONTINUOUS
 62
     7
 10
-557.88317999999992
 20
402.36660999999981
 30
0.0
 40
7.5
  0
ARC
  5
7F0
  8
0
  6
CONTINUOUS
 62
     7
 10
-418.88312000000002
 20
389.96587999999991
 30
0.0
 40
4.0
 50
272.0
 51
0.0
  0
ARC
  5
7F1
  8
0
  6
CONTINUOUS
 62
     7
 10
-540.88317999999992
 20
587.60924999999975
 30
0.0
 40
3.0
 50
315.0
 51
0.0
  0
ARC
  5
7F2
  8
0
  6
CONTINUOUS
 62
     7
 10
-557.88317999999992
 20
428.60165000000001
 30
0.0
 40
5.0
 50
0.0
 51
88.0
  0
ARC
  5
7F3
  8
0
  6
CONTINUOUS
 62
     7
 10
-535.88317999999992
 20
594.58600000000001
 30
0.0
 40
2.0
 50
91.999998000000005
 51
180.00001
  0
ARC
  5
7F4
  8
0
  6
CONTINUOUS
 62
     7
 10
-547.88317999999992
 20
569.29552999999999
 30
0.0
 40
5.0
 50
135.0
 51
180.00001
  0
ARC
  5
7F5
  8
0
  6
CONTINUOUS
 62
     7
 10
-557.88317999999992
 20
566.13158999999985
 30
0.0
 40
5.0
 50
272.0
 51
0.0
  0
ARC
  5
7F6
  8
0
  6
CONTINUOUS
 62
     7
 10
-547.88317999999992
 20
425.43768
 30
0.0
 40
5.0
 50
179.99998999999991
 51
225.0
  0
ARC
  5
7F7
  8
0
  6
CONTINUOUS
 62
     7
 10
-417.88315
 20
470.09868999999998
 30
0.0
 40
3.0
 50
300.00000999999997
 51
0.0
  0
ARC
  5
7F8
  8
0
  6
CONTINUOUS
 62
     7
 10
-417.88315
 20
524.63458000000003
 30
0.0
 40
3.0
 50
0.0
 51
60.000002000000002
  0
ARC
  5
7F9
  8
0
  6
CONTINUOUS
 62
     7
 10
-418.88312000000002
 20
532.14013999999997
 30
0.0
 40
3.0
 50
179.99998999999991
 51
240.00001
  0
ARC
  5
7FA
  8
0
  6
CONTINUOUS
 62
     7
 10
-418.88312000000002
 20
462.59313999999989
 30
0.0
 40
3.0
 50
119.9999999999999
 51
180.00001
  0
ARC
  5
7FB
  8
0
  6
CONTINUOUS
 62
     7
 10
-397.88315
 20
497.36660999999992
 30
0.0
 40
4.9999924
 50
90.000003000000007
 51
270.0
  0
ARC
  5
7FC
  8
0
  6
CONTINUOUS
 62
     7
 10
-425.88312000000002
 20
436.26324
 30
0.0
 40
4.0
 50
271.49999999999972
 51
0.0
  0
ARC
  5
7FD
  8
0
  6
CONTINUOUS
 62
     7
 10
-425.88312000000002
 20
558.46996999999976
 30
0.0
 40
4.0
 50
0.0
 51
88.499996999999965
  0
ARC
  5
7FE
  8
0
  6
CONTINUOUS
 62
     7
 10
-450.88312000000002
 20
566.57335999999998
 30
0.0
 40
8.0
 50
0.0
 51
88.499996999999965
  0
ARC
  5
7FF
  8
0
  6
CONTINUOUS
 62
     7
 10
-450.88312000000002
 20
428.15985000000001
 30
0.0
 40
8.0
 50
271.49999999999972
 51
0.0
  0
ARC
  5
800
  8
0
  6
CONTINUOUS
 62
     7
 10
-435.43090999999998
 20
424.00909000000001
 30
0.0
 40
8.0
 50
91.500000999999969
 51
164.96420000000001
  0
ARC
  5
801
  8
0
  6
CONTINUOUS
 62
     7
 10
-435.43090999999998
 20
570.72411999999963
 30
0.0
 40
8.0
 50
195.03579999999991
 51
268.5
  0
ARC
  5
802
  8
0
  6
CONTINUOUS
 62
     7
 10
-450.88315
 20
586.58019999999999
 30
0.0
 40
12.0
 50
180.00001
 51
268.5
  0
ARC
  5
803
  8
0
  6
CONTINUOUS
 62
     7
 10
-450.88315
 20
408.15302000000003
 30
0.0
 40
12.0
 50
91.500000999999969
 51
180.00001
  0
ARC
  5
804
  8
0
  6
CONTINUOUS
 62
     7
 10
-454.88315
 20
602.02202999999997
 30
0.0
 40
8.0
 50
88.0
 51
180.00001
  0
ARC
  5
805
  8
0
  6
CONTINUOUS
 62
     7
 10
-454.88315
 20
392.71117999999979
 30
0.0
 40
8.0
 50
180.00001
 51
271.99998999999991
  0
ARC
  5
806
  8
0
  6
CONTINUOUS
 62
     7
 10
-527.88317999999981
 20
392.92975000000001
 30
0.0
 40
4.0
 50
265.00000999999992
 51
0.00000068324543
  0
ARC
  5
807
  8
0
  6
CONTINUOUS
 62
     7
 10
-536.88317999999992
 20
386.69040000000001
 30
0.0
 40
3.0
 50
85.000004000000004
 51
265.0
  0
ARC
  5
808
  8
0
  6
CONTINUOUS
 62
     7
 10
-535.88317999999992
 20
400.14722
 30
0.0
 40
2.0
 50
179.99998999999991
 51
268.00000999999992
  0
ARC
  5
809
  8
0
  6
CONTINUOUS
 62
     7
 10
-540.88317999999992
 20
407.12396000000001
 30
0.0
 40
3.0
 50
0.0
 51
44.999997999999998
  0
ARC
  5
80A
  8
0
  6
CONTINUOUS
 62
     7
 10
-528.88317999999992
 20
606.73510999999985
 30
0.0
 40
5.0
 50
0.0
 51
95.000001999999995
  0
ARC
  5
80B
  8
0
  6
CONTINUOUS
 62
     7
 10
-528.88317999999992
 20
387.99811
 30
0.0
 40
5.0
 50
265.00000999999992
 51
0.0000006832456
  0
ARC
  5
80C
  8
0
  6
CONTINUOUS
 62
     7
 10
-145.2809399999999
 20
209.54793000000001
 30
0.0
 40
16.0
 50
108.20996
 51
71.790052000000003
  0
CIRCLE
  5
80D
  8
0
  6
CONTINUOUS
 62
     7
 10
-145.2809399999999
 20
209.54793000000001
 30
0.0
 40
4.0
  0
CIRCLE
  5
80E
  8
0
  6
CONTINUOUS
 62
     7
 10
-145.2809399999999
 20
209.54793000000001
 30
0.0
 40
2.75
  0
ARC
  5
80F
  8
0
  6
CONTINUOUS
 62
     7
 10
-537.88311999999985
 20
69.547943000000004
 30
0.0
 40
2.0
 50
90.000003000000007
 51
180.00001
  0
ARC
  5
810
  8
0
  6
CONTINUOUS
 62
     7
 10
-214.28095999999999
 20
83.547927999999999
 30
0.0
 40
4.0
 50
0.0
 51
90.000003000000007
  0
ARC
  5
811
  8
0
  6
CONTINUOUS
 62
     7
 10
-542.80297999999993
 20
91.547943000000004
 30
0.0
 40
4.0
 50
270.0
 51
342.2553299999999
  0
ARC
  5
812
  8
0
  6
CONTINUOUS
 62
     7
 10
-527.88311999999985
 20
138.17234999999991
 30
0.0
 40
4.0
 50
342.2553299999999
 51
0.0
  0
ARC
  5
813
  8
0
  6
CONTINUOUS
 62
     7
 10
-447.88315
 20
102.54794
 30
0.0
 40
15.0
 50
179.99998999999991
 51
270.0
  0
ARC
  5
814
  8
0
  6
CONTINUOUS
 62
     7
 10
-454.88312000000002
 20
240.99065999999991
 30
0.0
 40
8.0
 50
90.000003000000007
 51
180.00001
  0
ARC
  5
815
  8
0
  6
CONTINUOUS
 62
     7
 10
-257.28093999999999
 20
84.547934999999995
 30
0.0
 40
3.0
 50
90.000003000000007
 51
180.00001
  0
ARC
  5
816
  8
0
  6
CONTINUOUS
 62
     7
 10
-33.280951999999992
 20
84.547934999999995
 30
0.0
 40
3.0
 50
0.0
 51
90.000003000000007
  0
ARC
  5
817
  8
0
  6
CONTINUOUS
 62
     7
 10
-76.280945000000003
 20
83.547927999999999
 30
0.0
 40
4.0
 50
90.000003000000007
 51
180.00001
  0
ARC
  5
818
  8
0
  6
CONTINUOUS
 62
     7
 10
-145.2809399999999
 20
143.2852
 30
0.0
 40
77.0
 50
179.99998999999991
 51
212.4183899999997
  0
ARC
  5
819
  8
0
  6
CONTINUOUS
 62
     7
 10
-418.88315
 20
174.77444
 30
0.0
 40
3.0
 50
119.9999999999999
 51
180.00001
  0
ARC
  5
81A
  8
0
  6
CONTINUOUS
 62
     7
 10
-418.88315
 20
244.32144
 30
0.0
 40
3.0
 50
179.99998999999991
 51
240.00001
  0
ARC
  5
81B
  8
0
  6
CONTINUOUS
 62
     7
 10
-417.88315
 20
236.8158699999999
 30
0.0
 40
3.0
 50
0.0
 51
60.000002000000002
  0
ARC
  5
81C
  8
0
  6
CONTINUOUS
 62
     7
 10
-417.88315
 20
182.2799999999998
 30
0.0
 40
3.0
 50
300.0
 51
0.0
  0
ARC
  5
81D
  8
0
  6
CONTINUOUS
 62
     7
 10
-450.88315
 20
271.02886999999998
 30
0.0
 40
8.0
 50
0.0
 51
88.499996999999965
  0
ARC
  5
81E
  8
0
  6
CONTINUOUS
 62
     7
 10
-225.28095999999991
 20
102.54794
 30
0.0
 40
15.0
 50
270.0
 51
0.0
  0
ARC
  5
81F
  8
0
  6
CONTINUOUS
 62
     7
 10
-573.88311999999985
 20
85.547943000000004
 30
0.0
 40
2.0
 50
90.000003000000007
 51
180.00001
  0
ARC
  5
820
  8
0
  6
CONTINUOUS
 62
     7
 10
-416.88312000000002
 20
85.547943000000004
 30
0.0
 40
2.0
 50
0.0
 51
90.000003000000007
  0
ARC
  5
821
  8
0
  6
CONTINUOUS
 62
     7
 10
-450.88315
 20
110.00566000000001
 30
0.0
 40
8.0
 50
270.0
 51
0.0
  0
ARC
  5
822
  8
0
  6
CONTINUOUS
 62
     7
 10
-82.280945000000003
 20
69.547943000000004
 30
0.0
 40
2.0
 50
0.0
 51
90.000003000000007
  0
ARC
  5
823
  8
0
  6
CONTINUOUS
 62
     7
 10
-208.28095999999999
 20
69.547943000000004
 30
0.0
 40
2.0
 50
90.000003000000007
 51
180.00001
  0
ARC
  5
824
  8
0
  6
CONTINUOUS
 62
     7
 10
-434.88312000000002
 20
265.54793999999998
 30
0.0
 40
8.0
 50
179.99998999999991
 51
270.0
  0
ARC
  5
825
  8
0
  6
CONTINUOUS
 62
     7
 10
-145.2809399999999
 20
192.54794000000001
 30
0.0
 40
65.0
 50
0.0
 51
180.00001
  0
ARC
  5
826
  8
0
  6
CONTINUOUS
 62
     7
 10
-145.2809399999999
 20
181.5479399999999
 30
0.0
 40
99.500000000000014
 50
8.4654901000000002
 51
171.53450000000001
  0
ARC
  5
827
  8
0
  6
CONTINUOUS
 62
     7
 10
-413.88312000000002
 20
95.087326000000004
 30
0.0
 40
8.0
 50
179.99998999999991
 51
252.54239000000001
  0
ARC
  5
828
  8
0
  6
CONTINUOUS
 62
     7
 10
-78.459350999999998
 20
248.36954
 30
0.0
 40
16.0
 50
17.079463000000001
 51
72.920534000000004
  0
ARC
  5
829
  8
0
  6
CONTINUOUS
 62
     7
 10
-65.280944999999988
 20
102.54794
 30
0.0
 40
15.0
 50
179.99998999999991
 51
270.0
  0
ARC
  5
82A
  8
0
  6
CONTINUOUS
 62
     7
 10
-145.2809399999999
 20
143.2852
 30
0.0
 40
77.0
 50
327.58159999999992
 51
0.0
  0
ARC
  5
82B
  8
0
  6
CONTINUOUS
 62
     7
 10
-211.74900999999991
 20
248.01598000000001
 30
0.0
 40
16.0
 50
107.07946
 51
162.92053000000001
  0
ARC
  5
82C
  8
0
  6
CONTINUOUS
 62
     7
 10
-452.88311999999991
 20
69.547943000000004
 30
0.0
 40
2.0
 50
0.0
 51
90.000003000000007
  0
ARC
  5
82D
  8
0
  6
CONTINUOUS
 62
     7
 10
-76.280945000000003
 20
241.64161999999999
 30
0.0
 40
8.0
 50
0.0
 51
41.053350999999999
  0
ARC
  5
82E
  8
0
  6
CONTINUOUS
 62
     7
 10
-214.28095999999999
 20
241.64161999999999
 30
0.0
 40
8.0
 50
138.94665000000001
 51
180.00001
  0
ARC
  5
82F
  8
0
  6
CONTINUOUS
 62
     7
 10
-425.88312000000002
 20
253.5479399999999
 30
0.0
 40
4.0
 50
0.0
 51
90.000003000000007
  0
CIRCLE
  5
830
  8
0
  6
CONTINUOUS
 62
     7
 10
-145.2809399999999
 20
209.54793000000001
 30
0.0
 40
29.0
  0
ARC
  5
831
  8
0
  6
CONTINUOUS
 62
     7
 10
-547.88311999999996
 20
109.61901
 30
0.0
 40
5.0
 50
179.99998999999991
 51
225.0
  0
ARC
  5
832
  8
0
  6
CONTINUOUS
 62
     7
 10
-557.88311999999985
 20
250.31290000000001
 30
0.0
 40
5.0
 50
272.0
 51
0.0
  0
ARC
  5
833
  8
0
  6
CONTINUOUS
 62
     7
 10
-547.88311999999996
 20
253.47686999999991
 30
0.0
 40
5.0
 50
135.0
 51
180.00001
  0
ARC
  5
834
  8
0
  6
CONTINUOUS
 62
     7
 10
-535.88311999999996
 20
278.76732999999979
 30
0.0
 40
2.0
 50
91.999998000000005
 51
180.00001
  0
ARC
  5
835
  8
0
  6
CONTINUOUS
 62
     7
 10
-540.88311999999985
 20
91.305305000000004
 30
0.0
 40
3.0
 50
27.893113
 51
45.00000099999999
  0
ARC
  5
836
  8
0
  6
CONTINUOUS
 62
     7
 10
-557.88311999999985
 20
112.7829799999999
 30
0.0
 40
5.0
 50
0.0
 51
88.0
  0
ARC
  5
837
  8
0
  6
CONTINUOUS
 62
     7
 10
-540.88311999999985
 20
271.79059000000001
 30
0.0
 40
3.0
 50
315.0
 51
0.0
  0
ARC
  5
838
  8
0
  6
CONTINUOUS
 62
     7
 10
-573.26787999999999
 20
114.01778
 30
0.0
 40
4.0
 50
74.380296000000001
 51
108.3654199999999
  0
ARC
  5
839
  8
0
  6
CONTINUOUS
 62
     7
 10
-576.38311999999985
 20
121.3180799999999
 30
0.0
 40
2.0
 50
0.0
 51
88.0
  0
ARC
  5
83A
  8
0
  6
CONTINUOUS
 62
     7
 10
-609.88311999999985
 20
120.48671
 30
0.0
 40
4.0
 50
88.0
 51
180.00001
  0
ARC
  5
83B
  8
0
  6
CONTINUOUS
 62
     7
 10
-600.88311999999985
 20
236.91917000000001
 30
0.0
 40
3.0
 50
91.999998000000005
 51
180.00001
  0
ARC
  5
83C
  8
0
  6
CONTINUOUS
 62
     7
 10
-608.88311999999985
 20
159.48793000000001
 30
0.0
 40
5.0
 50
90.000003000000007
 51
180.00001
  0
ARC
  5
83D
  8
0
  6
CONTINUOUS
 62
     7
 10
-582.1496599999997
 20
197.54793000000001
 30
0.0
 40
5.0
 50
315.0
 51
90.000003000000007
  0
ARC
  5
83E
  8
0
  6
CONTINUOUS
 62
     7
 10
-606.88311999999985
 20
216.99260000000001
 30
0.0
 40
3.0
 50
272.0
 51
0.0
  0
ARC
  5
83F
  8
0
  6
CONTINUOUS
 62
     7
 10
-571.38311999999985
 20
120.75928
 30
0.0
 40
3.0
 50
179.99998999999991
 51
268.00000999999992
  0
ARC
  5
840
  8
0
  6
CONTINUOUS
 62
     7
 10
-577.21442000000002
 20
243.74933999999999
 30
0.0
 40
3.0
 50
272.0
 51
346.38107000000002
  0
ARC
  5
841
  8
0
  6
CONTINUOUS
 62
     7
 10
-610.43975999999975
 20
101.67726999999979
 30
0.0
 40
4.0
 50
108.3654199999999
 51
158.50144999999981
  0
ARC
  5
842
  8
0
  6
CONTINUOUS
 62
     7
 10
-577.38311999999996
 20
238.22871000000001
 30
0.0
 40
3.0
 50
315.0
 51
0.0
  0
ARC
  5
843
  8
0
  6
CONTINUOUS
 62
     7
 10
-599.17730999999958
 20
219.26292000000001
 30
0.0
 40
5.0
 50
272.0
 51
315.0
  0
ARC
  5
844
  8
0
  6
CONTINUOUS
 62
     7
 10
-617.88311999999985
 20
104.60908999999999
 30
0.0
 40
4.0
 50
272.0
 51
0.0
  0
ARC
  5
845
  8
0
  6
CONTINUOUS
 62
     7
 10
-571.38311999999985
 20
242.33657999999991
 30
0.0
 40
3.0
 50
91.999998000000005
 51
166.38106999999991
  0
ARC
  5
846
  8
0
  6
CONTINUOUS
 62
     3
 10
-715.38311999999985
 20
179.04768000000001
 30
0.0
 40
5.5
 50
264.78411999999992
 51
5.2159094000000001
  0
ARC
  5
847
  8
0
  6
CONTINUOUS
 62
     7
 10
-762.88311999999985
 20
204.5643
 30
0.0
 40
1.0
 50
120.0264
 51
180.00001
  0
ARC
  5
848
  8
0
  6
CONTINUOUS
 62
     7
 10
-762.88311999999985
 20
203.52199999999991
 30
0.0
 40
1.0
 50
116.91126
 51
180.00001
  0
ARC
  5
849
  8
0
  6
CONTINUOUS
 62
     7
 10
-761.61492999999984
 20
205.2973199999999
 30
0.0
 40
1.0
 50
90.000003000000007
 51
120.0264
  0
ARC
  5
84A
  8
0
  6
CONTINUOUS
 62
     7
 10
-761.64386000000002
 20
204.15102999999999
 30
0.0
 40
1.0
 50
90.000003000000007
 51
116.91126
  0
ARC
  5
84B
  8
0
  6
CONTINUOUS
 62
     7
 10
-761.60608000000002
 20
203.18953999999991
 30
0.0
 40
1.0
 50
90.000003000000007
 51
120.9666
  0
ARC
  5
84C
  8
0
  6
CONTINUOUS
 62
     7
 10
-761.63445999999988
 20
202.04957999999991
 30
0.0
 40
1.0
 50
90.000003000000007
 51
117.92659999999979
  0
ARC
  5
84D
  8
0
  6
CONTINUOUS
 62
     7
 10
-761.58447000000001
 20
198.67282
 30
0.0
 40
1.0
 50
90.000003000000007
 51
123.25473
  0
ARC
  5
84E
  8
0
  6
CONTINUOUS
 62
     7
 10
-761.61181999999985
 20
197.53287
 30
0.0
 40
1.0
 50
90.000003000000007
 51
120.3594999999999
  0
ARC
  5
84F
  8
0
  6
CONTINUOUS
 62
     7
 10
-762.88311999999985
 20
196.78818000000001
 30
0.0
 40
1.0
 50
120.3594999999999
 51
180.00001
  0
ARC
  5
850
  8
0
  6
CONTINUOUS
 62
     7
 10
-762.88311999999985
 20
197.82125999999991
 30
0.0
 40
1.0
 50
123.25473
 51
180.00001
  0
ARC
  5
851
  8
0
  6
CONTINUOUS
 62
     7
 10
-762.88311999999985
 20
201.38765000000001
 30
0.0
 40
1.0
 50
117.92659999999979
 51
180.00001
  0
ARC
  5
852
  8
0
  6
CONTINUOUS
 62
     7
 10
-762.88311999999985
 20
202.42325
 30
0.0
 40
1.0
 50
120.9666
 51
180.00001
  0
ARC
  5
853
  8
0
  6
CONTINUOUS
 62
     7
 10
-761.67846999999983
 20
191.23715000000001
 30
0.0
 40
1.0
 50
90.000003000000007
 51
113.12703
  0
ARC
  5
854
  8
0
  6
CONTINUOUS
 62
     7
 10
-761.73279000000002
 20
189.29105000000001
 30
0.0
 40
1.0
 50
90.000003000000007
 51
107.0976299999999
  0
ARC
  5
855
  8
0
  6
CONTINUOUS
 62
     7
 10
-762.88311999999985
 20
188.93720999999991
 30
0.0
 40
1.0
 50
107.0976299999999
 51
180.00001
  0
ARC
  5
856
  8
0
  6
CONTINUOUS
 62
     7
 10
-762.88311999999985
 20
190.72266999999999
 30
0.0
 40
1.0
 50
113.12703
 51
180.00001
  0
ARC
  5
857
  8
0
  6
CONTINUOUS
 62
     7
 10
-762.88311999999985
 20
181.5479399999999
 30
0.0
 40
1.0
 50
90.000003000000007
 51
180.00001
  0
ARC
  5
858
  8
0
  6
CONTINUOUS
 62
     7
 10
-762.88311999999985
 20
181.5479399999999
 30
0.0
 40
1.0
 50
179.99998999999991
 51
270.0
  0
ARC
  5
859
  8
0
  6
CONTINUOUS
 62
     7
 10
-762.88311999999985
 20
171.5479399999999
 30
0.0
 40
1.0
 50
90.000003000000007
 51
180.00001
  0
ARC
  5
85A
  8
0
  6
CONTINUOUS
 62
     7
 10
-762.88311999999985
 20
171.5479399999999
 30
0.0
 40
1.0
 50
179.99998999999991
 51
270.0
  0
ARC
  5
85B
  8
0
  6
CONTINUOUS
 62
     7
 10
-762.88311999999985
 20
161.54793000000001
 30
0.0
 40
1.0
 50
90.000003000000007
 51
180.00001
  0
ARC
  5
85C
  8
0
  6
CONTINUOUS
 62
     7
 10
-762.88311999999985
 20
161.54793000000001
 30
0.0
 40
1.0
 50
179.99998999999991
 51
270.0
  0
ARC
  5
85D
  8
0
  6
CONTINUOUS
 62
     7
 10
-759.88311999999985
 20
159.54793999999981
 30
0.0
 40
1.0
 50
0.0
 51
90.000003000000007
  0
ARC
  5
85E
  8
0
  6
CONTINUOUS
 62
     7
 10
-759.88311999999985
 20
163.5479399999999
 30
0.0
 40
1.0
 50
270.0
 51
0.0
  0
ARC
  5
85F
  8
0
  6
CONTINUOUS
 62
     7
 10
-759.88311999999985
 20
169.5479399999999
 30
0.0
 40
1.0
 50
0.0
 51
90.000003000000007
  0
ARC
  5
860
  8
0
  6
CONTINUOUS
 62
     7
 10
-759.88311999999985
 20
173.54793000000001
 30
0.0
 40
1.0
 50
270.0
 51
0.0
  0
ARC
  5
861
  8
0
  6
CONTINUOUS
 62
     7
 10
-759.88311999999985
 20
179.54793000000001
 30
0.0
 40
1.0
 50
0.0
 51
90.000003000000007
  0
ARC
  5
862
  8
0
  6
CONTINUOUS
 62
     7
 10
-759.88311999999985
 20
183.5479399999999
 30
0.0
 40
1.0
 50
270.0
 51
0.0
  0
ARC
  5
863
  8
0
  6
CONTINUOUS
 62
     7
 10
-759.88311999999985
 20
189.29105000000001
 30
0.0
 40
1.0
 50
0.0
 51
90.000003000000007
  0
ARC
  5
864
  8
0
  6
CONTINUOUS
 62
     7
 10
-759.88311999999985
 20
197.53287
 30
0.0
 40
1.0
 50
0.0
 51
90.000003000000007
  0
ARC
  5
865
  8
0
  6
CONTINUOUS
 62
     7
 10
-759.58312999999998
 20
192.93715
 30
0.0
 40
0.6999999900000004
 50
270.0
 51
0.0
  0
ARC
  5
866
  8
0
  6
CONTINUOUS
 62
     7
 10
-759.88311999999985
 20
202.04957999999991
 30
0.0
 40
1.0
 50
0.0
 51
90.000003000000007
  0
ARC
  5
867
  8
0
  6
CONTINUOUS
 62
     7
 10
-759.38311999999985
 20
204.65102999999999
 30
0.0
 40
0.5
 50
0.0
 51
90.000003000000007
  0
ARC
  5
868
  8
0
  6
CONTINUOUS
 62
     7
 10
-759.38311999999985
 20
206.7973199999999
 30
0.0
 40
0.5
 50
270.0
 51
0.0
  0
ARC
  5
869
  8
0
  6
CONTINUOUS
 62
     7
 10
-747.33374000000003
 20
121.5479399999999
 30
0.0
 40
1.0
 50
90.000003000000007
 51
270.0
  0
ARC
  5
86A
  8
0
  6
CONTINUOUS
 62
     7
 10
-661.58312999999987
 20
188.91512999999981
 30
0.0
 40
1.0
 50
90.000003000000007
 51
180.00001
  0
ARC
  5
86B
  8
0
  6
CONTINUOUS
 62
     7
 10
-661.58312999999987
 20
124.18068
 30
0.0
 40
1.0
 50
179.99998999999991
 51
270.0
  0
ARC
  5
86C
  8
0
  6
CONTINUOUS
 62
     7
 10
-645.06104000000016
 20
191.59304999999981
 30
0.0
 40
1.6779127
 50
270.0
 51
90.000003000000007
  0
ARC
  5
86D
  8
0
  6
CONTINUOUS
 62
     7
 10
-648.5387599999998
 20
191.54793000000001
 30
0.0
 40
1.0
 50
270.0
 51
90.000003000000007
  0
ARC
  5
86E
  8
0
  6
CONTINUOUS
 62
     7
 10
-648.5387599999998
 20
121.5479399999999
 30
0.0
 40
1.0
 50
270.0
 51
90.000003000000007
  0
ARC
  5
86F
  8
0
  6
CONTINUOUS
 62
     7
 10
-645.06104000000016
 20
121.5027599999999
 30
0.0
 40
1.6779127
 50
270.0
 51
90.000003000000007
  0
ARC
  5
870
  8
0
  6
CONTINUOUS
 62
     7
 10
-759.88311999999985
 20
123.80476
 30
0.0
 40
1.0
 50
270.0
 51
0.0
  0
ARC
  5
871
  8
0
  6
CONTINUOUS
 62
     7
 10
-759.88311999999985
 20
133.54793999999981
 30
0.0
 40
1.0
 50
270.0
 51
0.0
  0
ARC
  5
872
  8
0
  6
CONTINUOUS
 62
     7
 10
-759.88311999999985
 20
129.54793999999981
 30
0.0
 40
1.0
 50
0.0
 51
90.000003000000007
  0
ARC
  5
873
  8
0
  6
CONTINUOUS
 62
     7
 10
-759.58312999999998
 20
120.15872
 30
0.0
 40
0.6999999900000004
 50
0.0
 51
90.000003000000007
  0
ARC
  5
874
  8
0
  6
CONTINUOUS
 62
     7
 10
-761.67846999999983
 20
121.8586699999999
 30
0.0
 40
1.0
 50
246.87297000000001
 51
270.0
  0
ARC
  5
875
  8
0
  6
CONTINUOUS
 62
     7
 10
-761.73279000000002
 20
123.80476
 30
0.0
 40
1.0
 50
252.90236999999999
 51
270.0
  0
ARC
  5
876
  8
0
  6
CONTINUOUS
 62
     7
 10
-762.88311999999985
 20
124.15866
 30
0.0
 40
1.0
 50
179.99998999999991
 51
252.90236999999999
  0
ARC
  5
877
  8
0
  6
CONTINUOUS
 62
     7
 10
-762.88311999999985
 20
122.3732
 30
0.0
 40
1.0
 50
179.99998999999991
 51
246.8729799999999
  0
ARC
  5
878
  8
0
  6
CONTINUOUS
 62
     7
 10
-762.88311999999985
 20
131.54793000000001
 30
0.0
 40
1.0
 50
179.99998999999991
 51
270.0
  0
ARC
  5
879
  8
0
  6
CONTINUOUS
 62
     7
 10
-762.88311999999985
 20
131.54793000000001
 30
0.0
 40
1.0
 50
90.000003000000007
 51
180.00001
  0
ARC
  5
87A
  8
0
  6
CONTINUOUS
 62
     7
 10
-762.88311999999985
 20
141.5479399999999
 30
0.0
 40
1.0
 50
179.99998999999991
 51
270.0
  0
ARC
  5
87B
  8
0
  6
CONTINUOUS
 62
     7
 10
-762.88311999999985
 20
141.5479399999999
 30
0.0
 40
1.0
 50
90.000003000000007
 51
180.00001
  0
ARC
  5
87C
  8
0
  6
CONTINUOUS
 62
     7
 10
-762.88311999999985
 20
151.54793999999981
 30
0.0
 40
1.0
 50
179.99998999999991
 51
270.0
  0
ARC
  5
87D
  8
0
  6
CONTINUOUS
 62
     7
 10
-762.88311999999985
 20
151.54793999999981
 30
0.0
 40
1.0
 50
90.000003000000007
 51
180.00001
  0
ARC
  5
87E
  8
0
  6
CONTINUOUS
 62
     7
 10
-759.88311999999985
 20
153.54793999999981
 30
0.0
 40
1.0
 50
270.0
 51
0.0
  0
ARC
  5
87F
  8
0
  6
CONTINUOUS
 62
     7
 10
-759.88311999999985
 20
149.54793000000001
 30
0.0
 40
1.0
 50
0.0
 51
90.000003000000007
  0
ARC
  5
880
  8
0
  6
CONTINUOUS
 62
     7
 10
-759.88311999999985
 20
143.54793000000001
 30
0.0
 40
1.0
 50
270.0
 51
0.0
  0
ARC
  5
881
  8
0
  6
CONTINUOUS
 62
     7
 10
-759.88311999999985
 20
139.5479399999999
 30
0.0
 40
1.0
 50
0.0
 51
90.000003000000007
  0
ARC
  5
882
  8
0
  6
CONTINUOUS
 62
     7
 10
-664.38311999999996
 20
128.0479399999999
 30
0.0
 40
1.5
 50
270.0
 51
0.0
  0
ARC
  5
883
  8
0
  6
CONTINUOUS
 62
     7
 10
-664.38311999999996
 20
185.0479399999999
 30
0.0
 40
1.5
 50
0.0
 51
90.000003000000007
  0
ARC
  5
884
  8
0
  6
CONTINUOUS
 62
     7
 10
-748.2058099999997
 20
191.59304999999981
 30
0.0
 40
1.6779127
 50
90.000003000000007
 51
270.0
  0
ARC
  5
885
  8
0
  6
CONTINUOUS
 62
     7
 10
-747.33374000000003
 20
191.54793000000001
 30
0.0
 40
1.0
 50
90.000003000000007
 51
270.0
  0
ARC
  5
886
  8
0
  6
CONTINUOUS
 62
     7
 10
-747.33374000000003
 20
181.5479399999999
 30
0.0
 40
1.0
 50
90.000003000000007
 51
270.0
  0
ARC
  5
887
  8
0
  6
CONTINUOUS
 62
     7
 10
-747.33374000000003
 20
171.5479399999999
 30
0.0
 40
1.0
 50
90.000003000000007
 51
270.0
  0
ARC
  5
888
  8
0
  6
CONTINUOUS
 62
     7
 10
-747.33374000000003
 20
161.54793000000001
 30
0.0
 40
1.0
 50
90.000003000000007
 51
270.0
  0
ARC
  5
889
  8
0
  6
CONTINUOUS
 62
     7
 10
-747.33374000000003
 20
151.54793999999981
 30
0.0
 40
1.0
 50
90.000003000000007
 51
270.0
  0
ARC
  5
88A
  8
0
  6
CONTINUOUS
 62
     7
 10
-747.33374000000003
 20
141.5479399999999
 30
0.0
 40
1.0
 50
90.000003000000007
 51
270.0
  0
ARC
  5
88B
  8
0
  6
CONTINUOUS
 62
     7
 10
-747.33374000000003
 20
131.54793000000001
 30
0.0
 40
1.0
 50
90.000003000000007
 51
270.0
  0
ARC
  5
88C
  8
0
  6
CONTINUOUS
 62
     7
 10
-748.42162999999982
 20
181.57259999999991
 30
0.0
 40
1.4614868000000001
 50
90.000003000000007
 51
270.0
  0
ARC
  5
88D
  8
0
  6
CONTINUOUS
 62
     7
 10
-748.55219
 20
171.56049999999999
 30
0.0
 40
1.330932599999999
 50
90.000003000000007
 51
270.0
  0
ARC
  5
88E
  8
0
  6
CONTINUOUS
 62
     7
 10
-748.61419999999998
 20
161.55177
 30
0.0
 40
1.268920899999999
 50
90.000003000000007
 51
270.0
  0
ARC
  5
88F
  8
0
  6
CONTINUOUS
 62
     7
 10
-748.61419999999998
 20
151.54403999999991
 30
0.0
 40
1.268920899999999
 50
90.000003000000007
 51
270.0
  0
ARC
  5
890
  8
0
  6
CONTINUOUS
 62
     7
 10
-748.55219
 20
141.53537
 30
0.0
 40
1.330932599999999
 50
90.000003000000007
 51
270.0
  0
ARC
  5
891
  8
0
  6
CONTINUOUS
 62
     7
 10
-748.42156999999986
 20
131.52321000000001
 30
0.0
 40
1.461502099999997
 50
90.000003000000007
 51
270.0
  0
ARC
  5
892
  8
0
  6
CONTINUOUS
 62
     7
 10
-748.20519999999999
 20
121.5027599999999
 30
0.0
 40
1.6779174999999991
 50
90.000003000000007
 51
270.0
  0
ARC
  5
893
  8
0
  6
CONTINUOUS
 62
     7
 10
-759.88311999999985
 20
115.5629999999999
 30
0.0
 40
1.0
 50
334.63675999999998
 51
0.0
  0
ARC
  5
894
  8
0
  6
CONTINUOUS
 62
     7
 10
-762.88311999999985
 20
116.30768999999979
 30
0.0
 40
1.0
 50
179.99998999999991
 51
239.64048999999989
  0
ARC
  5
895
  8
0
  6
CONTINUOUS
 62
     7
 10
-746.67669999999987
 20
210.83118999999991
 30
0.0
 40
2.0
 50
90.000003000000007
 51
169.28431
  0
ARC
  5
896
  8
0
  6
CONTINUOUS
 62
     7
 10
-724.38311999999985
 20
193.27094999999991
 30
0.0
 40
1.5
 50
90.000003000000007
 51
180.00001
  0
ARC
  5
897
  8
0
  6
CONTINUOUS
 62
     7
 10
-746.62810999999988
 20
213.67757
 30
0.0
 40
2.0
 50
90.000003000000007
 51
170.91503
  0
ARC
  5
898
  8
0
  6
CONTINUOUS
 62
     7
 10
-746.61474999999984
 20
215.5252799999999
 30
0.0
 40
2.0
 50
90.000003000000007
 51
171.3566099999999
  0
ARC
  5
899
  8
0
  6
CONTINUOUS
 62
     7
 10
-746.59343999999999
 20
216.43581
 30
0.0
 40
2.0
 50
90.000003000000007
 51
172.05596
  0
ARC
  5
89A
  8
0
  6
CONTINUOUS
 62
     7
 10
-712.88311999999985
 20
213.67757
 30
0.0
 40
2.0
 50
0.0
 51
90.000003000000007
  0
ARC
  5
89B
  8
0
  6
CONTINUOUS
 62
     7
 10
-712.88311999999985
 20
215.5252799999999
 30
0.0
 40
2.0
 50
0.0
 51
90.000003000000007
  0
ARC
  5
89C
  8
0
  6
CONTINUOUS
 62
     7
 10
-712.88311999999985
 20
216.43581
 30
0.0
 40
2.0
 50
0.0
 51
90.000003000000007
  0
ARC
  5
89D
  8
0
  6
CONTINUOUS
 62
     7
 10
-649.75696000000016
 20
210.83118999999991
 30
0.0
 40
2.0
 50
15.0
 51
90.000003000000007
  0
ARC
  5
89E
  8
0
  6
CONTINUOUS
 62
     7
 10
-642.23211999999978
 20
196.27095
 30
0.0
 40
1.5
 50
195.00001
 51
270.0
  0
ARC
  5
89F
  8
0
  6
CONTINUOUS
 62
     7
 10
-746.59343999999999
 20
96.659996000000007
 30
0.0
 40
2.0
 50
187.9440399999998
 51
270.0
  0
ARC
  5
8A0
  8
0
  6
CONTINUOUS
 62
     7
 10
-712.88311999999985
 20
96.659996000000007
 30
0.0
 40
2.0
 50
270.0
 51
0.0
  0
ARC
  5
8A1
  8
0
  6
CONTINUOUS
 62
     7
 10
-649.75696000000016
 20
102.2646699999999
 30
0.0
 40
2.0
 50
270.0
 51
345.0
  0
ARC
  5
8A2
  8
0
  6
CONTINUOUS
 62
     7
 10
-712.88311999999985
 20
97.570510999999996
 30
0.0
 40
2.0
 50
270.0
 51
0.0
  0
ARC
  5
8A3
  8
0
  6
CONTINUOUS
 62
     7
 10
-712.88311999999985
 20
99.418296999999995
 30
0.0
 40
2.0
 50
270.0
 51
0.0
  0
ARC
  5
8A4
  8
0
  6
CONTINUOUS
 62
     7
 10
-762.88311999999985
 20
108.5315199999999
 30
0.0
 40
1.0
 50
179.99998999999991
 51
239.97361000000001
  0
ARC
  5
8A5
  8
0
  6
CONTINUOUS
 62
     7
 10
-762.88311999999985
 20
109.57388
 30
0.0
 40
1.0
 50
179.99998999999991
 51
243.08874999999981
  0
ARC
  5
8A6
  8
0
  6
CONTINUOUS
 62
     7
 10
-761.61492999999984
 20
107.79855000000001
 30
0.0
 40
1.0
 50
239.9736
 51
270.0
  0
ARC
  5
8A7
  8
0
  6
CONTINUOUS
 62
     7
 10
-761.64386000000002
 20
108.9448399999999
 30
0.0
 40
1.0
 50
243.08874
 51
270.0
  0
ARC
  5
8A8
  8
0
  6
CONTINUOUS
 62
     7
 10
-761.60608000000002
 20
109.90628
 30
0.0
 40
1.0
 50
239.0334
 51
270.0
  0
ARC
  5
8A9
  8
0
  6
CONTINUOUS
 62
     7
 10
-761.63445999999988
 20
111.0462999999999
 30
0.0
 40
1.0
 50
242.07339999999999
 51
270.0
  0
ARC
  5
8AA
  8
0
  6
CONTINUOUS
 62
     7
 10
-761.58447000000001
 20
114.4229899999998
 30
0.0
 40
1.0
 50
236.74527
 51
270.0
  0
ARC
  5
8AB
  8
0
  6
CONTINUOUS
 62
     7
 10
-761.61181999999985
 20
115.5629999999999
 30
0.0
 40
1.0
 50
239.6405
 51
270.0
  0
ARC
  5
8AC
  8
0
  6
CONTINUOUS
 62
     7
 10
-762.88311999999985
 20
116.30768999999979
 30
0.0
 40
1.0
 50
179.99998999999991
 51
239.64048999999989
  0
ARC
  5
8AD
  8
0
  6
CONTINUOUS
 62
     7
 10
-762.88311999999985
 20
115.27457
 30
0.0
 40
1.0
 50
179.99998999999991
 51
236.74527999999981
  0
ARC
  5
8AE
  8
0
  6
CONTINUOUS
 62
     7
 10
-762.88311999999985
 20
111.70815
 30
0.0
 40
1.0
 50
179.99998999999991
 51
242.07341
  0
ARC
  5
8AF
  8
0
  6
CONTINUOUS
 62
     7
 10
-762.88311999999985
 20
110.67258
 30
0.0
 40
1.0
 50
179.99998999999991
 51
239.0334
  0
ARC
  5
8B0
  8
0
  6
CONTINUOUS
 62
     7
 10
-759.88311999999985
 20
115.5629999999999
 30
0.0
 40
1.0
 50
270.0
 51
0.0
  0
ARC
  5
8B1
  8
0
  6
CONTINUOUS
 62
     7
 10
-759.88311999999985
 20
111.0462999999999
 30
0.0
 40
1.0
 50
270.0
 51
0.0
  0
ARC
  5
8B2
  8
0
  6
CONTINUOUS
 62
     7
 10
-759.38311999999985
 20
108.44485
 30
0.0
 40
0.5
 50
270.0
 51
0.0
  0
ARC
  5
8B3
  8
0
  6
CONTINUOUS
 62
     7
 10
-759.38311999999985
 20
106.29855000000001
 30
0.0
 40
0.5
 50
0.0
 51
90.000003000000007
  0
ARC
  5
8B4
  8
0
  6
CONTINUOUS
 62
     7
 10
-746.67669999999987
 20
102.2646699999999
 30
0.0
 40
2.0
 50
190.71569
 51
270.0
  0
ARC
  5
8B5
  8
0
  6
CONTINUOUS
 62
     7
 10
-746.62810999999988
 20
99.418296999999995
 30
0.0
 40
2.0
 50
189.08497
 51
270.0
  0
ARC
  5
8B6
  8
0
  6
CONTINUOUS
 62
     7
 10
-746.61474999999984
 20
97.570510999999996
 30
0.0
 40
2.0
 50
188.6433899999999
 51
270.0
  0
ARC
  5
8B7
  8
0
  6
CONTINUOUS
 62
     3
 10
-670.38311999999985
 20
134.04818999999981
 30
0.0
 40
5.5
 50
84.784087999999983
 51
185.21596
  0
ARC
  5
8B8
  8
0
  6
CONTINUOUS
 62
     7
 10
-680.86315999999999
 20
529.72655999999995
 30
0.0
 40
1.0
 50
0.0
 51
90.000003000000007
  0
ARC
  5
8B9
  8
0
  6
CONTINUOUS
 62
     7
 10
-680.88317999999981
 20
529.86658
 30
0.0
 40
1.5
 50
0.0
 51
90.000003000000007
  0
ARC
  5
8BA
  8
0
  6
CONTINUOUS
 62
     7
 10
-662.88317999999981
 20
529.86658
 30
0.0
 40
1.5
 50
90.000003000000007
 51
180.00001
  0
ARC
  5
8BB
  8
0
  6
CONTINUOUS
 62
     7
 10
-662.90319999999986
 20
529.72655999999995
 30
0.0
 40
1.0
 50
90.000003000000007
 51
180.00001
  0
ARC
  5
8BC
  8
0
  6
CONTINUOUS
 62
     7
 10
-644.84325999999999
 20
472.3365799999998
 30
0.0
 40
1.460011199999999
 50
269.77525000000003
 51
90.224749999999986
  0
ARC
  5
8BD
  8
0
  6
CONTINUOUS
 62
     7
 10
-648.5432099999997
 20
472.36660999999992
 30
0.0
 40
1.0000255999999981
 50
269.58947000000001
 51
90.410531000000006
  0
ARC
  5
8BE
  8
0
  6
CONTINUOUS
 62
     7
 10
-644.84325999999999
 20
522.39661000000001
 30
0.0
 40
1.460011199999999
 50
269.77525000000003
 51
90.224749999999986
  0
ARC
  5
8BF
  8
0
  6
CONTINUOUS
 62
     7
 10
-648.5432099999997
 20
522.36658
 30
0.0
 40
1.0000255999999981
 50
269.58947000000001
 51
90.410531000000006
  0
ARC
  5
8C0
  8
0
  6
CONTINUOUS
 62
     7
 10
-712.21825999999999
 20
512.38159000000007
 30
0.0
 40
1.3350147999999991
 50
269.73043000000001
 51
90.269555999999994
  0
ARC
  5
8C1
  8
0
  6
CONTINUOUS
 62
     7
 10
-712.15625
 20
502.37661999999989
 30
0.0
 40
1.2700266
 50
269.62931999999989
 51
90.370669999999961
  0
ARC
  5
8C2
  8
0
  6
CONTINUOUS
 62
     7
 10
-712.15625
 20
492.36660999999998
 30
0.0
 40
1.2700266
 50
269.62931999999989
 51
90.370669999999961
  0
ARC
  5
8C3
  8
0
  6
CONTINUOUS
 62
     7
 10
-712.21825999999999
 20
482.35660000000001
 30
0.0
 40
1.3300148000000001
 50
269.72941999999989
 51
90.270567000000014
  0
ARC
  5
8C4
  8
0
  6
CONTINUOUS
 62
     7
 10
-662.88317999999981
 20
469.86660999999992
 30
0.0
 40
1.5
 50
90.000003000000007
 51
180.00001
  0
ARC
  5
8C5
  8
0
  6
CONTINUOUS
 62
     7
 10
-680.88317999999981
 20
469.86660999999992
 30
0.0
 40
1.5
 50
0.0
 51
90.000003000000007
  0
ARC
  5
8C6
  8
0
  6
CONTINUOUS
 62
     7
 10
-662.88317999999981
 20
469.86660999999992
 30
0.0
 40
1.02
 50
90.000003000000007
 51
180.00001
  0
ARC
  5
8C7
  8
0
  6
CONTINUOUS
 62
     7
 10
-680.88317999999981
 20
469.86660999999992
 30
0.0
 40
1.02
 50
0.0
 51
90.000003000000007
  0
CIRCLE
  5
8C8
  8
0
  6
CONTINUOUS
 62
     3
 10
-674.3831799999997
 20
468.86660999999981
 30
0.0
 40
1.1000000000000001
  0
CIRCLE
  5
8C9
  8
0
  6
CONTINUOUS
 62
     3
 10
-674.3831799999997
 20
468.86660999999981
 30
0.0
 40
1.149999999999999
  0
CIRCLE
  5
8CA
  8
0
  6
CONTINUOUS
 62
     3
 10
-669.38317999999981
 20
468.86660999999981
 30
0.0
 40
1.0
  0
ARC
  5
8CB
  8
0
  6
CONTINUOUS
 62
     7
 10
-662.88317999999981
 20
524.86658
 30
0.0
 40
1.5
 50
179.99998999999991
 51
270.0
  0
ARC
  5
8CC
  8
0
  6
CONTINUOUS
 62
     7
 10
-680.88317999999981
 20
524.86658
 30
0.0
 40
1.5
 50
269.99998999999991
 51
0.00000068324733
  0
ARC
  5
8CD
  8
0
  6
CONTINUOUS
 62
     7
 10
-662.88317999999981
 20
524.86658
 30
0.0
 40
1.02
 50
179.99998999999991
 51
270.0
  0
ARC
  5
8CE
  8
0
  6
CONTINUOUS
 62
     7
 10
-680.88317999999981
 20
524.86658
 30
0.0
 40
1.02
 50
269.99998999999991
 51
0.00000068324403
  0
CIRCLE
  5
8CF
  8
0
  6
CONTINUOUS
 62
     3
 10
-669.38317999999981
 20
525.86658
 30
0.0
 40
1.0
  0
CIRCLE
  5
8D0
  8
0
  6
CONTINUOUS
 62
     3
 10
-674.3831799999997
 20
525.86658
 30
0.0
 40
1.149999999999999
  0
CIRCLE
  5
8D1
  8
0
  6
CONTINUOUS
 62
     3
 10
-674.3831799999997
 20
525.86658
 30
0.0
 40
1.1000000000000001
  0
ARC
  5
8D2
  8
0
  6
CONTINUOUS
 62
     7
 10
-662.90319999999986
 20
465.00662
 30
0.0
 40
1.0
 50
179.99998999999991
 51
270.0
  0
ARC
  5
8D3
  8
0
  6
CONTINUOUS
 62
     7
 10
-680.86315999999999
 20
465.00662
 30
0.0
 40
1.0
 50
269.99998999999991
 51
0.00000068324625
  0
ARC
  5
8D4
  8
0
  6
CONTINUOUS
 62
     7
 10
-680.88317999999981
 20
464.86660999999981
 30
0.0
 40
1.5
 50
269.99998999999991
 51
0.00000068324516
  0
ARC
  5
8D5
  8
0
  6
CONTINUOUS
 62
     7
 10
-662.88317999999981
 20
464.86660999999981
 30
0.0
 40
1.5
 50
179.99998999999991
 51
270.0
  0
ARC
  5
8D6
  8
0
  6
CONTINUOUS
 62
     7
 10
-713.44446000000005
 20
482.36660999999992
 30
0.0
 40
1.0000056999999991
 50
269.99998999999991
 51
90.000003000000007
  0
ARC
  5
8D7
  8
0
  6
CONTINUOUS
 62
     7
 10
-713.44446000000005
 20
492.36660999999998
 30
0.0
 40
1.0000056999999991
 50
269.99998999999991
 51
90.000003000000007
  0
ARC
  5
8D8
  8
0
  6
CONTINUOUS
 62
     7
 10
-713.44446000000005
 20
502.36660999999981
 30
0.0
 40
1.0000056999999991
 50
269.99998999999991
 51
90.000003000000007
  0
ARC
  5
8D9
  8
0
  6
CONTINUOUS
 62
     7
 10
-713.44446000000005
 20
512.36658
 30
0.0
 40
1.0000056999999991
 50
269.99998999999991
 51
90.000003000000007
  0
ARC
  5
8DA
  8
0
  6
CONTINUOUS
 62
     7
 10
-724.48510999999985
 20
436.73660000000001
 30
0.0
 40
1.5
 50
1.500002699999998
 51
90.000003000000007
  0
ARC
  5
8DB
  8
0
  6
CONTINUOUS
 62
     7
 10
-746.97692999999981
 20
440.23659999999978
 30
0.0
 40
2.0
 50
187.9504399999999
 51
269.99998999999991
  0
ARC
  5
8DC
  8
0
  6
CONTINUOUS
 62
     7
 10
-746.89661000000001
 20
440.23659999999978
 30
0.0
 40
2.0
 50
188.6296199999999
 51
269.99998999999991
  0
ARC
  5
8DD
  8
0
  6
CONTINUOUS
 62
     3
 10
-649.8670699999999
 20
436.36660999999992
 30
0.0
 40
1.5
 50
269.99998999999991
 51
327.0
  0
ARC
  5
8DE
  8
0
  6
CONTINUOUS
 62
     7
 10
-661.36963000000003
 20
433.36660999999998
 30
0.0
 40
1.5
 50
90.000003000000007
 51
178.5
  0
ARC
  5
8DF
  8
0
  6
CONTINUOUS
 62
     7
 10
-746.62707999999998
 20
440.23696999999999
 30
0.0
 40
2.000420099999999
 50
188.92681999999991
 51
269.82270999999992
  0
ARC
  5
8E0
  8
0
  6
CONTINUOUS
 62
     7
 10
-746.67834000000005
 20
443.08584999999999
 30
0.0
 40
1.9992490000000001
 50
190.64309999999981
 51
270.14742999999999
  0
ARC
  5
8E1
  8
0
  6
CONTINUOUS
 62
     7
 10
-759.38269000000003
 20
447.11709999999999
 30
0.0
 40
0.49952301
 50
359.94522999999992
 51
90.054773999999981
  0
ARC
  5
8E2
  8
0
  6
CONTINUOUS
 62
     7
 10
-759.38660000000004
 20
449.27005000000003
 30
0.0
 40
0.5033929900000002
 50
270.38490999999982
 51
359.61509999999993
  0
ARC
  5
8E3
  8
0
  6
CONTINUOUS
 62
     7
 10
-759.88733000000002
 20
451.87075999999979
 30
0.0
 40
1.004119999999999
 50
270.23460999999992
 51
359.76538999999991
  0
ARC
  5
8E4
  8
0
  6
CONTINUOUS
 62
     7
 10
-759.88574000000006
 20
456.38906999999989
 30
0.0
 40
1.002470999999999
 50
270.14107000000001
 51
359.85892999999987
  0
ARC
  5
8E5
  8
0
  6
CONTINUOUS
 62
     7
 10
-762.88440000000003
 20
451.49014
 30
0.0
 40
0.9987969999999998
 50
179.62728000000001
 51
238.70795000000001
  0
ARC
  5
8E6
  8
0
  6
CONTINUOUS
 62
     7
 10
-762.88549999999964
 20
452.52785999999998
 30
0.0
 40
0.9977070099999998
 50
180.0740199999999
 51
242.04481000000001
  0
ARC
  5
8E7
  8
0
  6
CONTINUOUS
 62
     7
 10
-762.88415999999984
 20
456.09134
 30
0.0
 40
0.9990889999999998
 50
179.69508999999991
 51
236.66209000000001
  0
ARC
  5
8E8
  8
0
  6
CONTINUOUS
 62
     7
 10
-762.88477
 20
457.12589000000003
 30
0.0
 40
0.9984580299999999
 50
179.9595799999999
 51
239.38657000000001
  0
ARC
  5
8E9
  8
0
  6
CONTINUOUS
 62
     7
 10
-761.61986999999988
 20
456.38760000000002
 30
0.0
 40
1.0010449999999991
 50
240.47187
 51
270.37970999999999
  0
ARC
  5
8EA
  8
0
  6
CONTINUOUS
 62
     7
 10
-761.59045000000003
 20
455.24709999999988
 30
0.0
 40
1.000521999999999
 50
237.14617999999999
 51
270.41343999999998
  0
ARC
  5
8EB
  8
0
  6
CONTINUOUS
 62
     7
 10
-761.62805000000003
 20
451.86721999999997
 30
0.0
 40
1.0006820000000001
 50
241.65062
 51
269.7039299999999
  0
ARC
  5
8EC
  8
0
  6
CONTINUOUS
 62
     7
 10
-761.61181999999985
 20
450.73025999999999
 30
0.0
 40
1.0037439999999991
 50
239.37112999999999
 51
270.49189999999987
  0
ARC
  5
8ED
  8
0
  6
CONTINUOUS
 62
     7
 10
-761.63733000000002
 20
449.76589999999987
 30
0.0
 40
0.9993420200000001
 50
242.86199999999999
 51
269.66546
  0
ARC
  5
8EE
  8
0
  6
CONTINUOUS
 62
     7
 10
-761.60253999999975
 20
448.61770999999987
 30
0.0
 40
1.001123999999999
 50
239.32782000000009
 51
269.38767999999988
  0
ARC
  5
8EF
  8
0
  6
CONTINUOUS
 62
     7
 10
-762.88756999999998
 20
450.39699999999988
 30
0.0
 40
0.9956849800000001
 50
180.02112999999991
 51
243.40913999999981
  0
ARC
  5
8F0
  8
0
  6
CONTINUOUS
 62
     7
 10
-762.88562000000002
 20
449.35122999999987
 30
0.0
 40
0.9976310099999999
 50
180.26780999999991
 51
240.07924
  0
ARC
  5
8F1
  8
0
  6
CONTINUOUS
 62
     7
 10
-649.75806
 20
443.09134
 30
0.0
 40
2.0047290000000002
 50
270.13832000000002
 51
344.82650000000001
  0
ARC
  5
8F2
  8
0
  6
CONTINUOUS
 62
     7
 10
-642.22997999999995
 20
537.08936000000006
 30
0.0
 40
1.502775999999999
 50
194.75642999999991
 51
269.87757999999991
  0
ARC
  5
8F3
  8
0
  6
CONTINUOUS
 62
     7
 10
-649.75316999999995
 20
551.64832000000001
 30
0.0
 40
1.9982919999999991
 50
15.032547999999981
 51
90.002631999999977
  0
ARC
  5
8F4
  8
0
  6
CONTINUOUS
 62
     7
 10
-746.59667999999999
 20
557.26098999999977
 30
0.0
 40
1.995633
 50
89.899708000000004
 51
172.06112999999991
  0
ARC
  5
8F5
  8
0
  6
CONTINUOUS
 62
     7
 10
-746.61865
 20
556.34984999999995
 30
0.0
 40
1.9967330000000001
 50
89.843967000000006
 51
171.45387999999991
  0
ARC
  5
8F6
  8
0
  6
CONTINUOUS
 62
     7
 10
-746.63306
 20
554.50134000000003
 30
0.0
 40
1.995282999999997
 50
90.006203999999983
 51
170.90835000000001
  0
ARC
  5
8F7
  8
0
  6
CONTINUOUS
 62
     7
 10
-746.68457000000001
 20
551.65246999999965
 30
0.0
 40
1.994108999999999
 50
89.675548000000006
 51
169.18777
  0
ARC
  5
8F8
  8
0
  6
CONTINUOUS
 62
     7
 10
-762.88477
 20
457.12589000000003
 30
0.0
 40
0.9984580299999999
 50
179.9595799999999
 51
239.38657000000001
  0
ARC
  5
8F9
  8
0
  6
CONTINUOUS
 62
     7
 10
-759.88647000000003
 20
456.39334000000002
 30
0.0
 40
1.0032760000000001
 50
334.19810000000001
 51
359.61810999999977
  0
ARC
  5
8FA
  8
0
  6
CONTINUOUS
 62
     7
 10
-748.21007999999983
 20
462.32155999999992
 30
0.0
 40
1.675014
 50
89.766498999999982
 51
270.23351000000002
  0
ARC
  5
8FB
  8
0
  6
CONTINUOUS
 62
     7
 10
-748.42322000000001
 20
472.34157999999968
 30
0.0
 40
1.465004
 50
90.000003000000007
 51
270.0
  0
ARC
  5
8FC
  8
0
  6
CONTINUOUS
 62
     7
 10
-748.55322000000001
 20
482.35660000000001
 30
0.0
 40
1.3300049999999981
 50
90.000003000000007
 51
270.0
  0
ARC
  5
8FD
  8
0
  6
CONTINUOUS
 62
     7
 10
-748.61901999999998
 20
492.36660999999998
 30
0.0
 40
1.2700129999999981
 50
89.736616999999995
 51
270.26337000000001
  0
ARC
  5
8FE
  8
0
  6
CONTINUOUS
 62
     7
 10
-748.61901999999998
 20
502.37160999999992
 30
0.0
 40
1.2650129999999991
 50
89.735579000000016
 51
270.26441
  0
ARC
  5
8FF
  8
0
  6
CONTINUOUS
 62
     7
 10
-748.55322000000001
 20
512.37659000000008
 30
0.0
 40
1.3300049999999981
 50
90.000003000000007
 51
270.0
  0
ARC
  5
900
  8
0
  6
CONTINUOUS
 62
     7
 10
-748.42322000000001
 20
522.39160000000004
 30
0.0
 40
1.465004
 50
90.000003000000007
 51
270.0
  0
ARC
  5
901
  8
0
  6
CONTINUOUS
 62
     7
 10
-747.33861999999999
 20
472.36660999999992
 30
0.0
 40
1.000013899999999
 50
89.691659999999985
 51
270.30833999999999
  0
ARC
  5
902
  8
0
  6
CONTINUOUS
 62
     7
 10
-747.33861999999999
 20
482.36660999999992
 30
0.0
 40
1.000013899999999
 50
89.691659999999985
 51
270.30833999999999
  0
ARC
  5
903
  8
0
  6
CONTINUOUS
 62
     7
 10
-747.33861999999999
 20
492.36660999999998
 30
0.0
 40
1.000013899999999
 50
89.691659999999985
 51
270.30833999999999
  0
ARC
  5
904
  8
0
  6
CONTINUOUS
 62
     7
 10
-747.33861999999999
 20
502.36660999999981
 30
0.0
 40
1.000013899999999
 50
89.691659999999985
 51
270.30833999999999
  0
ARC
  5
905
  8
0
  6
CONTINUOUS
 62
     7
 10
-747.33861999999999
 20
512.36658
 30
0.0
 40
1.000013899999999
 50
89.691659999999985
 51
270.30833999999999
  0
ARC
  5
906
  8
0
  6
CONTINUOUS
 62
     7
 10
-747.33861999999999
 20
522.36658
 30
0.0
 40
1.000013899999999
 50
89.691659999999985
 51
270.30833999999999
  0
ARC
  5
907
  8
0
  6
CONTINUOUS
 62
     7
 10
-747.33861999999999
 20
532.36657999999966
 30
0.0
 40
1.000013899999999
 50
89.691659999999985
 51
270.30833999999999
  0
ARC
  5
908
  8
0
  6
CONTINUOUS
 62
     7
 10
-748.21068999999989
 20
532.41161999999986
 30
0.0
 40
1.6750160000000001
 50
89.746144999999984
 51
270.25387000000001
  0
ARC
  5
909
  8
0
  6
CONTINUOUS
 62
     7
 10
-759.88306
 20
480.36672999999979
 30
0.0
 40
0.9998210099999999
 50
359.98971999999998
 51
90.010281999999961
  0
ARC
  5
90A
  8
0
  6
CONTINUOUS
 62
     7
 10
-759.88818000000003
 20
484.37149000000011
 30
0.0
 40
1.004939
 50
270.28093999999999
 51
359.71906999999999
  0
ARC
  5
90B
  8
0
  6
CONTINUOUS
 62
     7
 10
-759.88306
 20
490.36672999999962
 30
0.0
 40
0.9998279799999998
 50
359.99015999999978
 51
90.009838000000002
  0
ARC
  5
90C
  8
0
  6
CONTINUOUS
 62
     7
 10
-759.88818000000003
 20
494.37148999999988
 30
0.0
 40
1.004942999999999
 50
270.28113999999988
 51
359.71886999999992
  0
ARC
  5
90D
  8
0
  6
CONTINUOUS
 62
     7
 10
-762.88818000000003
 20
492.37148999999999
 30
0.0
 40
0.9950770099999999
 50
89.715860000000006
 51
180.28413999999989
  0
ARC
  5
90E
  8
0
  6
CONTINUOUS
 62
     7
 10
-762.88306
 20
492.36684999999989
 30
0.0
 40
1.0002040000000001
 50
180.01166000000001
 51
269.9883200000001
  0
ARC
  5
90F
  8
0
  6
CONTINUOUS
 62
     7
 10
-762.88818000000003
 20
482.37148999999988
 30
0.0
 40
0.9950810099999999
 50
89.716071999999997
 51
180.28391999999999
  0
ARC
  5
910
  8
0
  6
CONTINUOUS
 62
     7
 10
-762.88306
 20
482.36685
 30
0.0
 40
1.0001999999999991
 50
180.01146
 51
269.98853999999972
  0
ARC
  5
911
  8
0
  6
CONTINUOUS
 62
     7
 10
-762.88818000000003
 20
472.37148999999999
 30
0.0
 40
0.9950849999999999
 50
89.716282999999976
 51
180.2837199999999
  0
ARC
  5
912
  8
0
  6
CONTINUOUS
 62
     7
 10
-762.88306
 20
472.36685
 30
0.0
 40
1.0001959999999981
 50
180.01124999999999
 51
269.98874999999992
  0
ARC
  5
913
  8
0
  6
CONTINUOUS
 62
     7
 10
-762.88671999999985
 20
463.19509999999991
 30
0.0
 40
0.9965090199999998
 50
179.91374999999999
 51
247.17845
  0
ARC
  5
914
  8
0
  6
CONTINUOUS
 62
     7
 10
-762.88683999999989
 20
464.98099000000002
 30
0.0
 40
0.99638802
 50
180.24991
 51
253.29664
  0
ARC
  5
915
  8
0
  6
CONTINUOUS
 62
     7
 10
-761.74267999999984
 20
464.6293
 30
0.0
 40
1.002699
 50
253.7527199999999
 51
270.54064
  0
ARC
  5
916
  8
0
  6
CONTINUOUS
 62
     7
 10
-761.68017999999984
 20
462.68178999999981
 30
0.0
 40
1.005233
 50
246.98638999999989
 51
269.82924999999989
  0
ARC
  5
917
  8
0
  6
CONTINUOUS
 62
     7
 10
-759.58263999999986
 20
460.97719999999993
 30
0.0
 40
0.6994530000000001
 50
359.95517000000001
 51
90.044829000000021
  0
ARC
  5
918
  8
0
  6
CONTINUOUS
 62
     7
 10
-759.88306
 20
470.36672999999979
 30
0.0
 40
0.9998239899999999
 50
359.98991999999993
 51
90.010076999999981
  0
ARC
  5
919
  8
0
  6
CONTINUOUS
 62
     7
 10
-759.88818000000003
 20
474.37148999999988
 30
0.0
 40
1.0049469
 50
270.28136999999992
 51
359.71863000000002
  0
ARC
  5
91A
  8
0
  6
CONTINUOUS
 62
     7
 10
-759.88660000000004
 20
464.62990999999988
 30
0.0
 40
1.003352
 50
270.19110999999992
 51
359.80889999999982
  0
ARC
  5
91B
  8
0
  6
CONTINUOUS
 62
     7
 10
-645.06322999999975
 20
462.32155999999992
 30
0.0
 40
1.6750020000000001
 50
269.99998999999991
 51
90.000003000000007
  0
ARC
  5
91C
  8
0
  6
CONTINUOUS
 62
     7
 10
-648.5432099999997
 20
462.36660999999998
 30
0.0
 40
1.0
 50
269.99998999999991
 51
90.000003000000007
  0
ARC
  5
91D
  8
0
  6
CONTINUOUS
 62
     7
 10
-648.5432099999997
 20
532.36657999999966
 30
0.0
 40
1.0
 50
269.99998999999991
 51
90.000003000000007
  0
ARC
  5
91E
  8
0
  6
CONTINUOUS
 62
     7
 10
-645.06322999999975
 20
532.41161999999986
 30
0.0
 40
1.6750020000000001
 50
269.99998999999991
 51
90.000003000000007
  0
ARC
  5
91F
  8
0
  6
CONTINUOUS
 62
     7
 10
-747.33861999999999
 20
462.36660999999998
 30
0.0
 40
1.000013899999999
 50
89.691659999999985
 51
270.30833999999999
  0
ARC
  5
920
  8
0
  6
CONTINUOUS
 62
     7
 10
-759.38782000000003
 20
547.62121999999988
 30
0.0
 40
0.50463498
 50
270.52382999999992
 51
359.47617000000002
  0
ARC
  5
921
  8
0
  6
CONTINUOUS
 62
     7
 10
-759.38147000000004
 20
545.46825999999987
 30
0.0
 40
0.4983060100000002
 50
359.80489
 51
90.195107000000007
  0
ARC
  5
922
  8
0
  6
CONTINUOUS
 62
     7
 10
-759.88220000000001
 20
542.86755000000005
 30
0.0
 40
0.9990100299999999
 50
359.94319000000002
 51
90.056808999999959
  0
ARC
  5
923
  8
0
  6
CONTINUOUS
 62
     7
 10
-759.58776999999986
 20
533.76110999999992
 30
0.0
 40
0.704566
 50
270.37009999999992
 51
359.62990999999982
  0
ARC
  5
924
  8
0
  6
CONTINUOUS
 62
     7
 10
-759.88562000000002
 20
538.35424999999987
 30
0.0
 40
1.002353
 50
0.13432682
 51
89.865673000000001
  0
ARC
  5
925
  8
0
  6
CONTINUOUS
 62
     7
 10
-759.88147000000004
 20
530.10828000000004
 30
0.0
 40
0.9982839799999999
 50
359.90141999999992
 51
90.098575999999994
  0
ARC
  5
926
  8
0
  6
CONTINUOUS
 62
     7
 10
-759.88818000000003
 20
524.37145999999996
 30
0.0
 40
1.004942999999999
 50
270.28111000000001
 51
359.71888999999987
  0
ARC
  5
927
  8
0
  6
CONTINUOUS
 62
     7
 10
-759.88306
 20
520.36670000000004
 30
0.0
 40
0.9998289899999999
 50
359.99018999999993
 51
90.009810999999985
  0
ARC
  5
928
  8
0
  6
CONTINUOUS
 62
     7
 10
-759.88818000000003
 20
514.37145999999996
 30
0.0
 40
1.004939
 50
270.28091000000001
 51
359.71910000000008
  0
ARC
  5
929
  8
0
  6
CONTINUOUS
 62
     7
 10
-759.88306
 20
510.36672999999968
 30
0.0
 40
0.9998210099999999
 50
359.98975000000002
 51
90.010255000000001
  0
ARC
  5
92A
  8
0
  6
CONTINUOUS
 62
     7
 10
-571.38317999999981
 20
557.86658
 30
0.0
 40
3.0
 50
90.000003000000007
 51
180.00001
  0
ARC
  5
92B
  8
0
  6
CONTINUOUS
 62
     7
 10
-577.36437999999998
 20
436.39111000000003
 30
0.0
 40
3.0
 50
4.545488299999997
 51
88.0
  0
ARC
  5
92C
  8
0
  6
CONTINUOUS
 62
     7
 10
-571.38317999999981
 20
436.86660999999992
 30
0.0
 40
3.0
 50
180.00001
 51
270.0
  0
ARC
  5
92D
  8
0
  6
CONTINUOUS
 62
     7
 10
-759.88818000000003
 20
504.37148999999999
 30
0.0
 40
1.0049469
 50
270.28134999999992
 51
359.71866
  0
ARC
  5
92E
  8
0
  6
CONTINUOUS
 62
     7
 10
-759.88306
 20
500.36673000000002
 30
0.0
 40
0.9998249999999999
 50
359.98995000000002
 51
90.010050000000007
  0
ARC
  5
92F
  8
0
  6
CONTINUOUS
 62
     7
 10
-577.36437999999998
 20
558.34209999999985
 30
0.0
 40
3.0
 50
272.0
 51
355.45442999999977
  0
ARC
  5
930
  8
0
  6
CONTINUOUS
 62
     7
 10
-762.88306
 20
502.36685
 30
0.0
 40
1.0001959999999981
 50
180.01122000000001
 51
269.98877999999991
  0
ARC
  5
931
  8
0
  6
CONTINUOUS
 62
     7
 10
-762.88818000000003
 20
502.37148999999988
 30
0.0
 40
0.9950849999999999
 50
89.716311000000005
 51
180.28368999999981
  0
ARC
  5
932
  8
0
  6
CONTINUOUS
 62
     7
 10
-762.88306
 20
512.36681999999996
 30
0.0
 40
1.0001999999999991
 50
180.0114299999999
 51
269.98856999999992
  0
ARC
  5
933
  8
0
  6
CONTINUOUS
 62
     7
 10
-762.88818000000003
 20
512.37145999999996
 30
0.0
 40
0.99508202
 50
89.716099
 51
180.28390999999991
  0
ARC
  5
934
  8
0
  6
CONTINUOUS
 62
     7
 10
-762.88306
 20
522.36681999999985
 30
0.0
 40
1.000203
 50
180.01165
 51
269.98835000000003
  0
ARC
  5
935
  8
0
  6
CONTINUOUS
 62
     7
 10
-762.88818000000003
 20
522.37145999999996
 30
0.0
 40
0.99507803
 50
89.715886999999981
 51
180.28411
  0
ARC
  5
936
  8
0
  6
CONTINUOUS
 62
     7
 10
-762.88683999999989
 20
531.54809999999998
 30
0.0
 40
0.9963999999999998
 50
112.81735999999979
 51
180.09041999999991
  0
ARC
  5
937
  8
0
  6
CONTINUOUS
 62
     7
 10
-762.88695999999982
 20
529.76233000000002
 30
0.0
 40
0.9962710099999999
 50
106.69792
 51
180.3300499999998
  0
ARC
  5
938
  8
0
  6
CONTINUOUS
 62
     7
 10
-761.74401999999975
 20
530.11388999999986
 30
0.0
 40
0.9927430199999999
 50
89.374555000000001
 51
106.33207
  0
ARC
  5
939
  8
0
  6
CONTINUOUS
 62
     7
 10
-761.68224999999984
 20
532.06115999999986
 30
0.0
 40
0.9954450099999999
 50
90.056905000000043
 51
113.1274499999999
  0
ARC
  5
93A
  8
0
  6
CONTINUOUS
 62
     7
 10
-762.88879000000031
 20
543.24561000000006
 30
0.0
 40
0.9944329899999999
 50
121.15213
 51
179.9405099999999
  0
ARC
  5
93B
  8
0
  6
CONTINUOUS
 62
     7
 10
-762.89000999999985
 20
542.20800999999994
 30
0.0
 40
0.9932109699999999
 50
117.7993199999999
 51
180.08187000000001
  0
ARC
  5
93C
  8
0
  6
CONTINUOUS
 62
     7
 10
-762.88842999999974
 20
538.64417000000003
 30
0.0
 40
0.9948369899999999
 50
123.20496
 51
180.4378599999998
  0
ARC
  5
93D
  8
0
  6
CONTINUOUS
 62
     7
 10
-762.88915999999983
 20
537.60973999999987
 30
0.0
 40
0.99404597
 50
120.4682
 51
180.18563999999989
  0
ARC
  5
93E
  8
0
  6
CONTINUOUS
 62
     7
 10
-761.60375999999985
 20
538.36010999999985
 30
0.0
 40
0.99648702
 50
90.540720999999976
 51
120.74377
  0
ARC
  5
93F
  8
0
  6
CONTINUOUS
 62
     7
 10
-761.57654000000002
 20
539.50036999999998
 30
0.0
 40
0.99617702
 50
90.381317999999979
 51
123.9704899999999
  0
ARC
  5
940
  8
0
  6
CONTINUOUS
 62
     7
 10
-761.64819
 20
542.87121999999965
 30
0.0
 40
0.99545902
 50
89.141291000000024
 51
117.20381999999999
  0
ARC
  5
941
  8
0
  6
CONTINUOUS
 62
     7
 10
-761.61437999999964
 20
544.01233000000002
 30
0.0
 40
0.99427301
 50
89.356065999999984
 51
120.78091000000001
  0
ARC
  5
942
  8
0
  6
CONTINUOUS
 62
     7
 10
-761.65845000000002
 20
544.97252999999978
 30
0.0
 40
0.99411702
 50
89.122643999999966
 51
115.93498
  0
ARC
  5
943
  8
0
  6
CONTINUOUS
 62
     7
 10
-761.62121999999988
 20
546.12072999999987
 30
0.0
 40
0.9959030199999999
 50
89.541267000000005
 51
119.60717
  0
ARC
  5
944
  8
0
  6
CONTINUOUS
 62
     7
 10
-762.8877
 20
544.34631000000002
 30
0.0
 40
0.995579
 50
116.5870899999999
 51
179.98264
  0
ARC
  5
945
  8
0
  6
CONTINUOUS
 62
     7
 10
-762.89000999999985
 20
545.38451999999995
 30
0.0
 40
0.99319202
 50
119.77338
 51
179.87958999999981
  0
ARC
  5
946
  8
0
  6
CONTINUOUS
 62
     7
 10
-642.22997999999995
 20
457.64382999999992
 30
0.0
 40
1.502775999999999
 50
90.122413000000037
 51
165.24357000000001
  0
ARC
  5
947
  8
0
  6
CONTINUOUS
 62
     7
 10
-649.75806
 20
554.49181999999985
 30
0.0
 40
2.0047290000000002
 50
15.173496
 51
89.861677999999998
  0
ARC
  5
948
  8
0
  6
CONTINUOUS
 62
     7
 10
-649.75806
 20
556.34180000000003
 30
0.0
 40
2.0047290000000002
 50
15.173496
 51
89.861677999999998
  0
ARC
  5
949
  8
0
  6
CONTINUOUS
 62
     7
 10
-649.75806
 20
557.25182999999993
 30
0.0
 40
2.0047290000000002
 50
15.173496
 51
89.861677999999998
  0
ARC
  5
94A
  8
0
  6
CONTINUOUS
 62
     7
 10
-642.22997999999995
 20
539.93932999999981
 30
0.0
 40
1.502775999999999
 50
194.75642999999991
 51
269.87757999999991
  0
ARC
  5
94B
  8
0
  6
CONTINUOUS
 62
     7
 10
-642.22997999999995
 20
541.78930999999966
 30
0.0
 40
1.502775999999999
 50
194.75642999999991
 51
269.87757999999991
  0
ARC
  5
94C
  8
0
  6
CONTINUOUS
 62
     7
 10
-642.22997999999995
 20
542.69933999999967
 30
0.0
 40
1.502775999999999
 50
194.75642999999991
 51
269.87757999999991
  0
ARC
  5
94D
  8
0
  6
CONTINUOUS
 62
     3
 10
-729.15612999999985
 20
420.86660999999998
 30
0.0
 40
4.0
 50
179.99997999999991
 51
0.000010017912
  0
ARC
  5
94E
  8
0
  6
CONTINUOUS
 62
     3
 10
-729.15612999999985
 20
420.86660999999998
 30
0.0
 40
7.5
 50
179.99997999999991
 51
0.000010017913
  0
ARC
  5
94F
  8
0
  6
CONTINUOUS
 62
     7
 10
-584.38317999999981
 20
437.89550999999989
 30
0.0
 40
10.0
 50
0.0
 51
37.523536
  0
ARC
  5
950
  8
0
  6
CONTINUOUS
 62
     7
 10
-584.38317999999981
 20
556.83771000000002
 30
0.0
 40
10.0
 50
322.47645999999992
 51
0.0
  0
ARC
  5
951
  8
0
  6
CONTINUOUS
 62
     7
 10
-600.88317999999981
 20
487.36660999999998
 30
0.0
 40
3.0
 50
180.00001
 51
270.0
  0
ARC
  5
952
  8
0
  6
CONTINUOUS
 62
     7
 10
-600.88317999999981
 20
507.36660999999992
 30
0.0
 40
3.0
 50
90.000003000000007
 51
180.00001
  0
ARC
  5
953
  8
0
  6
CONTINUOUS
 62
     7
 10
-577.38317999999981
 20
481.36660999999981
 30
0.0
 40
3.0
 50
0.0
 51
90.000003000000007
  0
ARC
  5
954
  8
0
  6
CONTINUOUS
 62
     7
 10
-577.38317999999981
 20
513.36658
 30
0.0
 40
3.0
 50
270.0
 51
0.0
  0
ARC
  5
955
  8
0
  6
CONTINUOUS
 62
     7
 10
-583.59411999999975
 20
454.36630000000002
 30
0.0
 40
3.0
 50
270.0
 51
31.460203
  0
ARC
  5
956
  8
0
  6
CONTINUOUS
 62
     7
 10
-588.06421
 20
462.40494000000001
 30
0.0
 40
3.0
 50
26.614998
 51
90.000003000000007
  0
ARC
  5
957
  8
0
  6
CONTINUOUS
 62
     7
 10
-583.59411999999975
 20
540.36694
 30
0.0
 40
3.0
 50
328.53980000000001
 51
90.000003000000007
  0
ARC
  5
958
  8
0
  6
CONTINUOUS
 62
     7
 10
-588.06421
 20
532.32825000000003
 30
0.0
 40
3.0
 50
270.0
 51
333.38499999999982
  0
POLYLINE
  5
959
  8
0
  6
CONTINUOUS
 62
     7
 66
     1
 10
0.0
 20
0.0
 30
0.0
  0
VERTEX
  5
95A
  8
0
  6
CONTINUOUS
 62
     7
 10
-527.88317999999981
 20
467.09017999999998
 30
0.0
 42
-0.070055462
  0
VERTEX
  5
95B
  8
0
  6
CONTINUOUS
 62
     7
 10
-501.52250999999961
 20
446.89283999999998
 30
0.0
 42
-0.27110597
  0
VERTEX
  5
95C
  8
0
  6
CONTINUOUS
 62
     7
 10
-492.88315
 20
427.00949000000003
 30
0.0
 42
-0.2130317
  0
VERTEX
  5
95D
  8
0
  6
CONTINUOUS
 62
     7
 10
-512.47360999999978
 20
408.87468000000001
 30
0.0
  0
VERTEX
  5
95E
  8
0
  6
CONTINUOUS
 62
     7
 10
-527.88317999999981
 20
402.57641999999998
 30
0.0
 42
-1.0
  0
SEQEND
  5
95F
  8
0
 62
     7
  0
POLYLINE
  5
960
  8
0
  6
CONTINUOUS
 62
     7
 66
     1
 10
0.0
 20
0.0
 30
0.0
  0
VERTEX
  5
961
  8
0
  6
CONTINUOUS
 62
     7
 10
-527.88317999999981
 20
419.94983000000002
 30
0.0
 42
0.040442845
  0
VERTEX
  5
962
  8
0
  6
CONTINUOUS
 62
     7
 10
-516.35499000000004
 20
420.17317000000003
 30
0.0
 42
0.04246989
  0
VERTEX
  5
963
  8
0
  6
CONTINUOUS
 62
     7
 10
-505.02127999999988
 20
422.28665000000001
 30
0.0
 42
0.022672802
  0
VERTEX
  5
964
  8
0
  6
CONTINUOUS
 62
     7
 10
-499.53677999999991
 20
424.07760000000002
 30
0.0
  0
VERTEX
  5
965
  8
0
  6
CONTINUOUS
 62
     7
 10
-494.23117000000002
 20
426.34645999999981
 30
0.0
 42
-1.0
  0
SEQEND
  5
966
  8
0
 62
     7
  0
POLYLINE
  5
967
  8
0
  6
CONTINUOUS
 62
     7
 66
     1
 10
0.0
 20
0.0
 30
0.0
  0
VERTEX
  5
968
  8
0
  6
CONTINUOUS
 62
     7
 10
-527.88317999999981
 20
574.78339000000005
 30
0.0
 42
-0.040442832
  0
VERTEX
  5
969
  8
0
  6
CONTINUOUS
 62
     7
 10
-516.35499999999979
 20
574.56003999999984
 30
0.0
 42
-0.042469875
  0
VERTEX
  5
96A
  8
0
  6
CONTINUOUS
 62
     7
 10
-505.02127999999988
 20
572.44655999999998
 30
0.0
 42
-0.022671837
  0
VERTEX
  5
96B
  8
0
  6
CONTINUOUS
 62
     7
 10
-499.53679
 20
570.65562
 30
0.0
  0
VERTEX
  5
96C
  8
0
  6
CONTINUOUS
 62
     7
 10
-494.23117000000002
 20
568.38679000000002
 30
0.0
 42
-1.0
  0
SEQEND
  5
96D
  8
0
 62
     7
  0
POLYLINE
  5
96E
  8
0
  6
CONTINUOUS
 62
     7
 66
     1
 10
0.0
 20
0.0
 30
0.0
  0
VERTEX
  5
96F
  8
0
  6
CONTINUOUS
 62
     7
 10
-527.88317999999981
 20
527.64306999999985
 30
0.0
 42
0.070055443
  0
VERTEX
  5
970
  8
0
  6
CONTINUOUS
 62
     7
 10
-501.52250999999961
 20
547.84040999999968
 30
0.0
 42
0.27110593
  0
VERTEX
  5
971
  8
0
  6
CONTINUOUS
 62
     7
 10
-492.88315
 20
567.72375
 30
0.0
 42
0.21303199
  0
VERTEX
  5
972
  8
0
  6
CONTINUOUS
 62
     7
 10
-512.47360999999978
 20
585.85853999999995
 30
0.0
  0
VERTEX
  5
973
  8
0
  6
CONTINUOUS
 62
     7
 10
-527.88317999999981
 20
592.15679999999975
 30
0.0
 42
-1.0
  0
SEQEND
  5
974
  8
0
 62
     7
  0
POLYLINE
  5
975
  8
0
  6
CONTINUOUS
 62
     7
 66
     1
 10
0.0
 20
0.0
 30
0.0
  0
VERTEX
  5
976
  8
0
  6
CONTINUOUS
 62
     7
 10
-500.11516999999998
 20
237.01912999999999
 30
0.0
 42
0.038756923
  0
VERTEX
  5
977
  8
0
  6
CONTINUOUS
 62
     7
 10
-497.36716999999987
 20
239.92982000000001
 30
0.0
 42
0.045303537
  0
VERTEX
  5
978
  8
0
  6
CONTINUOUS
 62
     7
 10
-495.14472999999981
 20
243.25736000000001
 30
0.0
 42
0.052102721
  0
VERTEX
  5
979
  8
0
  6
CONTINUOUS
 62
     7
 10
-493.60908000000001
 20
246.95045999999999
 30
0.0
 42
0.057245123
  0
VERTEX
  5
97A
  8
0
  6
CONTINUOUS
 62
     7
 10
-492.91343999999992
 20
250.8878999999998
 30
0.0
 42
0.058435545
  0
VERTEX
  5
97B
  8
0
  6
CONTINUOUS
 62
     7
 10
-493.14281999999997
 20
254.87832
 30
0.0
 42
0.055063666
  0
VERTEX
  5
97C
  8
0
  6
CONTINUOUS
 62
     7
 10
-494.26754
 20
258.71462000000002
 30
0.0
 42
0.048817071
  0
VERTEX
  5
97D
  8
0
  6
CONTINUOUS
 62
     7
 10
-496.16117000000003
 20
262.23786000000001
 30
0.0
 42
0.041970357
  0
VERTEX
  5
97E
  8
0
  6
CONTINUOUS
 62
     7
 10
-498.66007000000002
 20
265.36277000000001
 30
0.0
 42
0.035917002
  0
VERTEX
  5
97F
  8
0
  6
CONTINUOUS
 62
     7
 10
-501.61364999999989
 20
268.06423000000001
 30
0.0
 42
0.031073452
  0
VERTEX
  5
980
  8
0
  6
CONTINUOUS
 62
     7
 10
-504.90187999999989
 20
270.34885000000003
 30
0.0
 42
0.027379113
  0
VERTEX
  5
981
  8
0
  6
CONTINUOUS
 62
     7
 10
-508.43397999999991
 20
272.23561999999998
 30
0.0
 42
0.024645384
  0
VERTEX
  5
982
  8
0
  6
CONTINUOUS
 62
     7
 10
-512.14310999999987
 20
273.74642999999992
 30
0.0
 42
0.022676135
  0
VERTEX
  5
983
  8
0
  6
CONTINUOUS
 62
     7
 10
-515.97857999999985
 20
274.90079999999989
 30
0.0
 42
0.021320556
  0
VERTEX
  5
984
  8
0
  6
CONTINUOUS
 62
     7
 10
-519.90105999999992
 20
275.71435000000002
 30
0.0
 42
0.020470534
  0
VERTEX
  5
985
  8
0
  6
CONTINUOUS
 62
     7
 10
-523.87797999999987
 20
276.19812999999982
 30
0.0
 42
0.02005884
  0
VERTEX
  5
986
  8
0
  6
CONTINUOUS
 62
     7
 10
-527.88070000000005
 20
276.35876000000002
 30
0.0
  0
SEQEND
  5
987
  8
0
 62
     7
  0
POLYLINE
  5
988
  8
0
  6
CONTINUOUS
 62
     7
 66
     1
 10
0.0
 20
0.0
 30
0.0
  0
VERTEX
  5
989
  8
0
  6
CONTINUOUS
 62
     7
 10
-494.42714999999998
 20
254.1898299999998
 30
0.0
 42
0.046361966
  0
VERTEX
  5
98A
  8
0
  6
CONTINUOUS
 62
     7
 10
-496.28160000000003
 20
255.24851000000001
 30
0.0
 42
0.024111994
  0
VERTEX
  5
98B
  8
0
  6
CONTINUOUS
 62
     7
 10
-498.26353999999992
 20
256.04887000000002
 30
0.0
 42
0.015472906
  0
VERTEX
  5
98C
  8
0
  6
CONTINUOUS
 62
     7
 10
-500.30187999999993
 20
256.69353999999998
 30
0.0
 42
0.011171192
  0
VERTEX
  5
98D
  8
0
  6
CONTINUOUS
 62
     7
 10
-502.37220999999988
 20
257.2303
 30
0.0
 42
0.0086838962
  0
VERTEX
  5
98E
  8
0
  6
CONTINUOUS
 62
     7
 10
-504.46188999999993
 20
257.68504000000001
 30
0.0
 42
0.0071076667
  0
VERTEX
  5
98F
  8
0
  6
CONTINUOUS
 62
     7
 10
-506.56485999999961
 20
258.07391999999999
 30
0.0
 42
0.0060432581
  0
VERTEX
  5
990
  8
0
  6
CONTINUOUS
 62
     7
 10
-508.67762999999991
 20
258.40762000000001
 30
0.0
 42
0.0052890212
  0
VERTEX
  5
991
  8
0
  6
CONTINUOUS
 62
     7
 10
-510.79692
 20
258.69341999999989
 30
0.0
 42
0.0047417436
  0
VERTEX
  5
992
  8
0
  6
CONTINUOUS
 62
     7
 10
-512.92206999999985
 20
258.93679999999989
 30
0.0
 42
0.00433496
  0
VERTEX
  5
993
  8
0
  6
CONTINUOUS
 62
     7
 10
-515.05178000000001
 20
259.14166999999992
 30
0.0
 42
0.0040290458
  0
VERTEX
  5
994
  8
0
  6
CONTINUOUS
 62
     7
 10
-517.18458999999996
 20
259.31094000000002
 30
0.0
 42
0.0038003144
  0
VERTEX
  5
995
  8
0
  6
CONTINUOUS
 62
     7
 10
-519.31983000000002
 20
259.44682999999992
 30
0.0
 42
0.003632296
  0
VERTEX
  5
996
  8
0
  6
CONTINUOUS
 62
     7
 10
-521.45691999999985
 20
259.55099999999987
 30
0.0
 42
0.0035140999
  0
VERTEX
  5
997
  8
0
  6
CONTINUOUS
 62
     7
 10
-523.59532999999999
 20
259.62464
 30
0.0
 42
0.0034386687
  0
VERTEX
  5
998
  8
0
  6
CONTINUOUS
 62
     7
 10
-525.73455000000001
 20
259.66856000000001
 30
0.0
 42
0.0034018291
  0
VERTEX
  5
999
  8
0
  6
CONTINUOUS
 62
     7
 10
-527.87414999999964
 20
259.68322999999992
 30
0.0
  0
SEQEND
  5
99A
  8
0
 62
     7
  0
POLYLINE
  5
99B
  8
0
  6
CONTINUOUS
 62
     7
 66
     1
 10
0.0
 20
0.0
 30
0.0
  0
VERTEX
  5
99C
  8
0
  6
CONTINUOUS
 62
     7
 10
-747.51769999999999
 20
156.5479399999999
 30
0.0
  0
VERTEX
  5
99D
  8
0
  6
CONTINUOUS
 62
     7
 10
-747.51498000000004
 20
152.81546999999981
 30
0.0
 42
-1.0
  0
SEQEND
  5
99E
  8
0
 62
     7
  0
POLYLINE
  5
99F
  8
0
  6
CONTINUOUS
 62
     7
 66
     1
 10
0.0
 20
0.0
 30
0.0
  0
VERTEX
  5
9A0
  8
0
  6
CONTINUOUS
 62
     7
 10
-747.47433999999998
 20
150.2766499999999
 30
0.0
  0
VERTEX
  5
9A1
  8
0
  6
CONTINUOUS
 62
     7
 10
-747.17566999999985
 20
142.86659
 30
0.0
 42
-1.0
  0
SEQEND
  5
9A2
  8
0
 62
     7
  0
POLYLINE
  5
9A3
  8
0
  6
CONTINUOUS
 62
     7
 66
     1
 10
0.0
 20
0.0
 30
0.0
  0
VERTEX
  5
9A4
  8
0
  6
CONTINUOUS
 62
     7
 10
-747.00266999999985
 20
140.20535000000001
 30
0.0
  0
VERTEX
  5
9A5
  8
0
  6
CONTINUOUS
 62
     7
 10
-746.35662000000002
 20
132.98441
 30
0.0
 42
-1.0
  0
SEQEND
  5
9A6
  8
0
 62
     7
  0
POLYLINE
  5
9A7
  8
0
  6
CONTINUOUS
 62
     7
 66
     1
 10
0.0
 20
0.0
 30
0.0
  0
VERTEX
  5
9A8
  8
0
  6
CONTINUOUS
 62
     7
 10
-746.02092000000005
 20
130.06094999999991
 30
0.0
  0
VERTEX
  5
9A9
  8
0
  6
CONTINUOUS
 62
     7
 10
-745.06044000000031
 20
123.17936
 30
0.0
 42
-1.0
  0
SEQEND
  5
9AA
  8
0
 62
     7
  0
POLYLINE
  5
9AB
  8
0
  6
CONTINUOUS
 62
     7
 66
     1
 10
0.0
 20
0.0
 30
0.0
  0
VERTEX
  5
9AC
  8
0
  6
CONTINUOUS
 62
     7
 10
-747.51769999999999
 20
156.5479399999999
 30
0.0
  0
VERTEX
  5
9AD
  8
0
  6
CONTINUOUS
 62
     7
 10
-747.51498000000004
 20
160.28041999999999
 30
0.0
 42
-1.0
  0
SEQEND
  5
9AE
  8
0
 62
     7
  0
POLYLINE
  5
9AF
  8
0
  6
CONTINUOUS
 62
     7
 66
     1
 10
0.0
 20
0.0
 30
0.0
  0
VERTEX
  5
9B0
  8
0
  6
CONTINUOUS
 62
     7
 10
-747.47433999999998
 20
162.81923
 30
0.0
  0
VERTEX
  5
9B1
  8
0
  6
CONTINUOUS
 62
     7
 10
-747.17566999999985
 20
170.22926000000001
 30
0.0
 42
-1.0
  0
SEQEND
  5
9B2
  8
0
 62
     7
  0
POLYLINE
  5
9B3
  8
0
  6
CONTINUOUS
 62
     7
 66
     1
 10
0.0
 20
0.0
 30
0.0
  0
VERTEX
  5
9B4
  8
0
  6
CONTINUOUS
 62
     7
 10
-747.00266999999985
 20
172.89049
 30
0.0
  0
VERTEX
  5
9B5
  8
0
  6
CONTINUOUS
 62
     7
 10
-746.35662000000002
 20
180.11141000000001
 30
0.0
 42
-1.0
  0
SEQEND
  5
9B6
  8
0
 62
     7
  0
POLYLINE
  5
9B7
  8
0
  6
CONTINUOUS
 62
     7
 66
     1
 10
0.0
 20
0.0
 30
0.0
  0
VERTEX
  5
9B8
  8
0
  6
CONTINUOUS
 62
     7
 10
-746.02092000000005
 20
183.0348699999999
 30
0.0
  0
VERTEX
  5
9B9
  8
0
  6
CONTINUOUS
 62
     7
 10
-745.06044000000031
 20
189.9165099999999
 30
0.0
 42
-1.0
  0
SEQEND
  5
9BA
  8
0
 62
     7
  0
POLYLINE
  5
9BB
  8
0
  6
CONTINUOUS
 62
     7
 66
     1
 10
0.0
 20
0.0
 30
0.0
  0
VERTEX
  5
9BC
  8
0
  6
CONTINUOUS
 62
     7
 10
-746.02233999999999
 20
523.84960999999976
 30
0.0
 42
-0.00068898288
  0
VERTEX
  5
9BD
  8
0
  6
CONTINUOUS
 62
     7
 10
-745.95146
 20
524.42435999999987
 30
0.0
 42
-0.00067933815
  0
VERTEX
  5
9BE
  8
0
  6
CONTINUOUS
 62
     7
 10
-745.87897999999984
 20
524.99905000000001
 30
0.0
 42
-0.00071571802
  0
VERTEX
  5
9BF
  8
0
  6
CONTINUOUS
 62
     7
 10
-745.80492999999979
 20
525.57335999999998
 30
0.0
 42
-0.00074226718
  0
VERTEX
  5
9C0
  8
0
  6
CONTINUOUS
 62
     7
 10
-745.72915999999975
 20
526.14748999999995
 30
0.0
 42
-0.0006085755
  0
VERTEX
  5
9C1
  8
0
  6
CONTINUOUS
 62
     7
 10
-745.65184999999985
 20
526.72150999999985
 30
0.0
 42
-0.00074400356
  0
VERTEX
  5
9C2
  8
0
  6
CONTINUOUS
 62
     7
 10
-745.57299999999987
 20
527.29528999999991
 30
0.0
 42
-0.0007332036
  0
VERTEX
  5
9C3
  8
0
  6
CONTINUOUS
 62
     7
 10
-745.49240999999984
 20
527.86874999999998
 30
0.0
 42
-0.00064546482
  0
VERTEX
  5
9C4
  8
0
  6
CONTINUOUS
 62
     7
 10
-745.41026999999985
 20
528.44185999999991
 30
0.0
 42
-0.00074205585
  0
VERTEX
  5
9C5
  8
0
  6
CONTINUOUS
 62
     7
 10
-745.32654000000002
 20
529.01489000000004
 30
0.0
 42
-0.00073582101
  0
VERTEX
  5
9C6
  8
0
  6
CONTINUOUS
 62
     7
 10
-745.24107000000004
 20
529.58765000000005
 30
0.0
 42
-0.00068913795
  0
VERTEX
  5
9C7
  8
0
  6
CONTINUOUS
 62
     7
 10
-745.15401999999983
 20
530.15999999999985
 30
0.0
 42
-0.00072288975
  0
VERTEX
  5
9C8
  8
0
  6
CONTINUOUS
 62
     7
 10
-745.06530999999984
 20
530.73230000000001
 30
0.0
  0
SEQEND
  5
9C9
  8
0
 62
     7
  0
POLYLINE
  5
9CA
  8
0
  6
CONTINUOUS
 62
     7
 66
     1
 10
0.0
 20
0.0
 30
0.0
  0
VERTEX
  5
9CB
  8
0
  6
CONTINUOUS
 62
     7
 10
-747.005
 20
513.70714999999996
 30
0.0
 42
-0.00073370504
  0
VERTEX
  5
9CC
  8
0
  6
CONTINUOUS
 62
     7
 10
-746.96085999999968
 20
514.30956999999989
 30
0.0
 42
-0.00075211326
  0
VERTEX
  5
9CD
  8
0
  6
CONTINUOUS
 62
     7
 10
-746.91492000000005
 20
514.91195999999968
 30
0.0
 42
-0.00072974913
  0
VERTEX
  5
9CE
  8
0
  6
CONTINUOUS
 62
     7
 10
-746.86719000000005
 20
515.51415999999995
 30
0.0
 42
-0.00075830266
  0
VERTEX
  5
9CF
  8
0
  6
CONTINUOUS
 62
     7
 10
-746.81765999999982
 20
516.11614999999995
 30
0.0
 42
-0.00069523362
  0
VERTEX
  5
9D0
  8
0
  6
CONTINUOUS
 62
     7
 10
-746.76638999999989
 20
516.71802000000002
 30
0.0
 42
-0.00075453669
  0
VERTEX
  5
9D1
  8
0
  6
CONTINUOUS
 62
     7
 10
-746.71338000000003
 20
517.31982000000005
 30
0.0
 42
-0.00073754162
  0
VERTEX
  5
9D2
  8
0
  6
CONTINUOUS
 62
     7
 10
-746.65855999999985
 20
517.92136000000005
 30
0.0
 42
-0.00075683463
  0
VERTEX
  5
9D3
  8
0
  6
CONTINUOUS
 62
     7
 10
-746.60195999999985
 20
518.52270999999985
 30
0.0
 42
-0.00072314518
  0
VERTEX
  5
9D4
  8
0
  6
CONTINUOUS
 62
     7
 10
-746.54358000000002
 20
519.12378000000001
 30
0.0
 42
-0.00072055031
  0
VERTEX
  5
9D5
  8
0
  6
CONTINUOUS
 62
     7
 10
-746.4834699999999
 20
519.72480999999993
 30
0.0
 42
-0.00075109448
  0
VERTEX
  5
9D6
  8
0
  6
CONTINUOUS
 62
     7
 10
-746.42157999999984
 20
520.32555000000002
 30
0.0
 42
-0.00074640669
  0
VERTEX
  5
9D7
  8
0
  6
CONTINUOUS
 62
     7
 10
-746.35790999999983
 20
520.92615000000001
 30
0.0
  0
SEQEND
  5
9D8
  8
0
 62
     7
  0
POLYLINE
  5
9D9
  8
0
  6
CONTINUOUS
 62
     7
 66
     1
 10
0.0
 20
0.0
 30
0.0
  0
VERTEX
  5
9DA
  8
0
  6
CONTINUOUS
 62
     7
 10
-747.47912999999983
 20
503.63699000000003
 30
0.0
 42
-0.00074497794
  0
VERTEX
  5
9DB
  8
0
  6
CONTINUOUS
 62
     7
 10
-747.46437999999989
 20
504.25475999999981
 30
0.0
 42
-0.00078382109
  0
VERTEX
  5
9DC
  8
0
  6
CONTINUOUS
 62
     7
 10
-747.44773999999984
 20
504.87234999999998
 30
0.0
 42
-0.00074335683
  0
VERTEX
  5
9DD
  8
0
  6
CONTINUOUS
 62
     7
 10
-747.42920000000004
 20
505.49002000000002
 30
0.0
 42
-0.00075141073
  0
VERTEX
  5
9DE
  8
0
  6
CONTINUOUS
 62
     7
 10
-747.40882999999985
 20
506.10762
 30
0.0
 42
-0.00073282878
  0
VERTEX
  5
9DF
  8
0
  6
CONTINUOUS
 62
     7
 10
-747.38661000000002
 20
506.72505000000001
 30
0.0
 42
-0.00077904704
  0
VERTEX
  5
9E0
  8
0
  6
CONTINUOUS
 62
     7
 10
-747.36255000000006
 20
507.34255999999988
 30
0.0
 42
-0.00075975979
  0
VERTEX
  5
9E1
  8
0
  6
CONTINUOUS
 62
     7
 10
-747.33655999999985
 20
507.95994999999988
 30
0.0
 42
-0.00078354578
  0
VERTEX
  5
9E2
  8
0
  6
CONTINUOUS
 62
     7
 10
-747.30870000000004
 20
508.57722000000001
 30
0.0
 42
-0.00072634782
  0
VERTEX
  5
9E3
  8
0
  6
CONTINUOUS
 62
     7
 10
-747.27892999999983
 20
509.19460999999961
 30
0.0
 42
-0.00072701816
  0
VERTEX
  5
9E4
  8
0
  6
CONTINUOUS
 62
     7
 10
-747.24742000000003
 20
509.81174999999979
 30
0.0
 42
-0.00078596601
  0
VERTEX
  5
9E5
  8
0
  6
CONTINUOUS
 62
     7
 10
-747.21400999999969
 20
510.42876999999987
 30
0.0
 42
-0.00075618798
  0
VERTEX
  5
9E6
  8
0
  6
CONTINUOUS
 62
     7
 10
-747.17870999999946
 20
511.04580999999979
 30
0.0
  0
SEQEND
  5
9E7
  8
0
 62
     7
  0
POLYLINE
  5
9E8
  8
0
  6
CONTINUOUS
 62
     7
 66
     1
 10
0.0
 20
0.0
 30
0.0
  0
VERTEX
  5
9E9
  8
0
  6
CONTINUOUS
 62
     7
 10
-747.52318999999989
 20
497.36660999999992
 30
0.0
 42
-0.00034747668
  0
VERTEX
  5
9EA
  8
0
  6
CONTINUOUS
 62
     7
 10
-747.52558999999985
 20
497.67773999999991
 30
0.0
 42
-0.00040573841
  0
VERTEX
  5
9EB
  8
0
  6
CONTINUOUS
 62
     7
 10
-747.52750000000003
 20
497.98885000000001
 30
0.0
 42
-0.00039706112
  0
VERTEX
  5
9EC
  8
0
  6
CONTINUOUS
 62
     7
 10
-747.52892999999983
 20
498.29995999999988
 30
0.0
 42
-0.00038765721
  0
VERTEX
  5
9ED
  8
0
  6
CONTINUOUS
 62
     7
 10
-747.52985999999999
 20
498.61110000000002
 30
0.0
 42
-0.00040613431
  0
VERTEX
  5
9EE
  8
0
  6
CONTINUOUS
 62
     7
 10
-747.53030999999964
 20
498.9221999999998
 30
0.0
 42
-0.00035573432
  0
VERTEX
  5
9EF
  8
0
  6
CONTINUOUS
 62
     7
 10
-747.53026999999975
 20
499.23330999999968
 30
0.0
 42
-0.00034185751
  0
VERTEX
  5
9F0
  8
0
  6
CONTINUOUS
 62
     7
 10
-747.52982999999983
 20
499.54444000000012
 30
0.0
 42
-0.00050754827
  0
VERTEX
  5
9F1
  8
0
  6
CONTINUOUS
 62
     7
 10
-747.52885000000003
 20
499.85554999999999
 30
0.0
 42
-0.00031407598
  0
VERTEX
  5
9F2
  8
0
  6
CONTINUOUS
 62
     7
 10
-747.52733999999964
 20
500.16677999999979
 30
0.0
 42
-0.0003831782
  0
VERTEX
  5
9F3
  8
0
  6
CONTINUOUS
 62
     7
 10
-747.52543000000003
 20
500.47791999999993
 30
0.0
 42
-0.00030570285
  0
VERTEX
  5
9F4
  8
0
  6
CONTINUOUS
 62
     7
 10
-747.52305999999965
 20
500.78915000000001
 30
0.0
 42
-0.00044503941
  0
VERTEX
  5
9F5
  8
0
  6
CONTINUOUS
 62
     7
 10
-747.52026000000001
 20
501.10025000000002
 30
0.0
  0
SEQEND
  5
9F6
  8
0
 62
     7
  0
POLYLINE
  5
9F7
  8
0
  6
CONTINUOUS
 62
     7
 66
     1
 10
0.0
 20
0.0
 30
0.0
  0
VERTEX
  5
9F8
  8
0
  6
CONTINUOUS
 62
     7
 10
-746.02233999999999
 20
470.88357999999999
 30
0.0
 42
0.00068900015
  0
VERTEX
  5
9F9
  8
0
  6
CONTINUOUS
 62
     7
 10
-745.95146
 20
470.30882000000003
 30
0.0
 42
0.00067934109
  0
VERTEX
  5
9FA
  8
0
  6
CONTINUOUS
 62
     7
 10
-745.87897999999984
 20
469.73414000000002
 30
0.0
 42
0.00071569317
  0
VERTEX
  5
9FB
  8
0
  6
CONTINUOUS
 62
     7
 10
-745.80492999999979
 20
469.15982000000002
 30
0.0
 42
0.00074228853
  0
VERTEX
  5
9FC
  8
0
  6
CONTINUOUS
 62
     7
 10
-745.72915999999975
 20
468.58569
 30
0.0
 42
0.0006085737
  0
VERTEX
  5
9FD
  8
0
  6
CONTINUOUS
 62
     7
 10
-745.65184999999985
 20
468.01167999999961
 30
0.0
 42
0.00074399443
  0
VERTEX
  5
9FE
  8
0
  6
CONTINUOUS
 62
     7
 10
-745.57299999999987
 20
467.43790000000001
 30
0.0
 42
0.00073321195
  0
VERTEX
  5
9FF
  8
0
  6
CONTINUOUS
 62
     7
 10
-745.49240999999984
 20
466.86442999999991
 30
0.0
 42
0.00064546135
  0
VERTEX
  5
A00
  8
0
  6
CONTINUOUS
 62
     7
 10
-745.41026999999985
 20
466.29131999999998
 30
0.0
 42
0.00074206153
  0
VERTEX
  5
A01
  8
0
  6
CONTINUOUS
 62
     7
 10
-745.32654000000002
 20
465.71829000000002
 30
0.0
 42
0.00073581332
  0
VERTEX
  5
A02
  8
0
  6
CONTINUOUS
 62
     7
 10
-745.24107000000004
 20
465.14553000000001
 30
0.0
 42
0.00068913942
  0
VERTEX
  5
A03
  8
0
  6
CONTINUOUS
 62
     7
 10
-745.15401999999983
 20
464.57317999999998
 30
0.0
 42
0.00072290803
  0
VERTEX
  5
A04
  8
0
  6
CONTINUOUS
 62
     7
 10
-745.06530999999984
 20
464.00089000000003
 30
0.0
  0
SEQEND
  5
A05
  8
0
 62
     7
  0
POLYLINE
  5
A06
  8
0
  6
CONTINUOUS
 62
     7
 66
     1
 10
0.0
 20
0.0
 30
0.0
  0
VERTEX
  5
A07
  8
0
  6
CONTINUOUS
 62
     7
 10
-747.005
 20
481.02602999999999
 30
0.0
 42
0.00073721987
  0
VERTEX
  5
A08
  8
0
  6
CONTINUOUS
 62
     7
 10
-746.96085000000005
 20
480.42362000000003
 30
0.0
 42
0.00074398499
  0
VERTEX
  5
A09
  8
0
  6
CONTINUOUS
 62
     7
 10
-746.91492000000005
 20
479.82135
 30
0.0
 42
0.00073322628
  0
VERTEX
  5
A0A
  8
0
  6
CONTINUOUS
 62
     7
 10
-746.86719000000005
 20
479.21902
 30
0.0
 42
0.00075831517
  0
VERTEX
  5
A0B
  8
0
  6
CONTINUOUS
 62
     7
 10
-746.81765999999982
 20
478.61703
 30
0.0
 42
0.00069523192
  0
VERTEX
  5
A0C
  8
0
  6
CONTINUOUS
 62
     7
 10
-746.76638999999989
 20
478.01517000000001
 30
0.0
 42
0.00075453057
  0
VERTEX
  5
A0D
  8
0
  6
CONTINUOUS
 62
     7
 10
-746.71338000000003
 20
477.41335999999978
 30
0.0
 42
0.00074184059
  0
VERTEX
  5
A0E
  8
0
  6
CONTINUOUS
 62
     7
 10
-746.65855999999985
 20
476.81182999999999
 30
0.0
 42
0.00074685399
  0
VERTEX
  5
A0F
  8
0
  6
CONTINUOUS
 62
     7
 10
-746.60197000000005
 20
476.2106
 30
0.0
 42
0.00072743001
  0
VERTEX
  5
A10
  8
0
  6
CONTINUOUS
 62
     7
 10
-746.54358000000002
 20
475.60940999999991
 30
0.0
 42
0.00072055497
  0
VERTEX
  5
A11
  8
0
  6
CONTINUOUS
 62
     7
 10
-746.4834699999999
 20
475.00837999999987
 30
0.0
 42
0.00075109124
  0
VERTEX
  5
A12
  8
0
  6
CONTINUOUS
 62
     7
 10
-746.42157999999984
 20
474.40763999999979
 30
0.0
 42
0.00074640586
  0
VERTEX
  5
A13
  8
0
  6
CONTINUOUS
 62
     7
 10
-746.35790999999983
 20
473.8070399999998
 30
0.0
  0
SEQEND
  5
A14
  8
0
 62
     7
  0
POLYLINE
  5
A15
  8
0
  6
CONTINUOUS
 62
     7
 66
     1
 10
0.0
 20
0.0
 30
0.0
  0
VERTEX
  5
A16
  8
0
  6
CONTINUOUS
 62
     7
 10
-747.47912999999983
 20
491.09622000000002
 30
0.0
 42
0.0007450104
  0
VERTEX
  5
A17
  8
0
  6
CONTINUOUS
 62
     7
 10
-747.46437999999989
 20
490.47845999999998
 30
0.0
 42
0.00078382361
  0
VERTEX
  5
A18
  8
0
  6
CONTINUOUS
 62
     7
 10
-747.44773999999984
 20
489.86085999999989
 30
0.0
 42
0.00074332138
  0
VERTEX
  5
A19
  8
0
  6
CONTINUOUS
 62
     7
 10
-747.42920000000004
 20
489.24319000000003
 30
0.0
 42
0.00075144464
  0
VERTEX
  5
A1A
  8
0
  6
CONTINUOUS
 62
     7
 10
-747.40882999999985
 20
488.62558999999999
 30
0.0
 42
0.00073475784
  0
VERTEX
  5
A1B
  8
0
  6
CONTINUOUS
 62
     7
 10
-747.38661000000002
 20
488.00815999999992
 30
0.0
 42
0.00077737161
  0
VERTEX
  5
A1C
  8
0
  6
CONTINUOUS
 62
     7
 10
-747.36255000000006
 20
487.39078000000001
 30
0.0
 42
0.00075773226
  0
VERTEX
  5
A1D
  8
0
  6
CONTINUOUS
 62
     7
 10
-747.33657000000005
 20
486.77337999999992
 30
0.0
 42
0.00078591853
  0
VERTEX
  5
A1E
  8
0
  6
CONTINUOUS
 62
     7
 10
-747.30870000000004
 20
486.15598999999992
 30
0.0
 42
0.00072631796
  0
VERTEX
  5
A1F
  8
0
  6
CONTINUOUS
 62
     7
 10
-747.27892999999983
 20
485.53859999999997
 30
0.0
 42
0.00072704863
  0
VERTEX
  5
A20
  8
0
  6
CONTINUOUS
 62
     7
 10
-747.24742000000003
 20
484.92147
 30
0.0
 42
0.00078596526
  0
VERTEX
  5
A21
  8
0
  6
CONTINUOUS
 62
     7
 10
-747.21400999999969
 20
484.30444000000011
 30
0.0
 42
0.00075616139
  0
VERTEX
  5
A22
  8
0
  6
CONTINUOUS
 62
     7
 10
-747.17870999999946
 20
483.68740999999989
 30
0.0
  0
SEQEND
  5
A23
  8
0
 62
     7
  0
POLYLINE
  5
A24
  8
0
  6
CONTINUOUS
 62
     7
 66
     1
 10
0.0
 20
0.0
 30
0.0
  0
VERTEX
  5
A25
  8
0
  6
CONTINUOUS
 62
     7
 10
-747.52318999999989
 20
497.36660999999992
 30
0.0
 42
0.00034747618
  0
VERTEX
  5
A26
  8
0
  6
CONTINUOUS
 62
     7
 10
-747.52558999999985
 20
497.05547000000001
 30
0.0
 42
0.0004057423
  0
VERTEX
  5
A27
  8
0
  6
CONTINUOUS
 62
     7
 10
-747.52750000000003
 20
496.74437
 30
0.0
 42
0.0003970523
  0
VERTEX
  5
A28
  8
0
  6
CONTINUOUS
 62
     7
 10
-747.52892999999983
 20
496.43325999999962
 30
0.0
 42
0.00038766493
  0
VERTEX
  5
A29
  8
0
  6
CONTINUOUS
 62
     7
 10
-747.52985999999999
 20
496.12211999999988
 30
0.0
 42
0.00040613777
  0
VERTEX
  5
A2A
  8
0
  6
CONTINUOUS
 62
     7
 10
-747.53030999999964
 20
495.81100999999978
 30
0.0
 42
0.00035571853
  0
VERTEX
  5
A2B
  8
0
  6
CONTINUOUS
 62
     7
 10
-747.53026999999975
 20
495.49990999999989
 30
0.0
 42
0.00034187235
  0
VERTEX
  5
A2C
  8
0
  6
CONTINUOUS
 62
     7
 10
-747.52982999999983
 20
495.18876999999992
 30
0.0
 42
0.00050755129
  0
VERTEX
  5
A2D
  8
0
  6
CONTINUOUS
 62
     7
 10
-747.52885000000003
 20
494.87767000000002
 30
0.0
 42
0.00031405455
  0
VERTEX
  5
A2E
  8
0
  6
CONTINUOUS
 62
     7
 10
-747.52733999999964
 20
494.56644
 30
0.0
 42
0.0003831987
  0
VERTEX
  5
A2F
  8
0
  6
CONTINUOUS
 62
     7
 10
-747.52543000000003
 20
494.25529999999998
 30
0.0
 42
0.00030570555
  0
VERTEX
  5
A30
  8
0
  6
CONTINUOUS
 62
     7
 10
-747.52305999999965
 20
493.94407000000001
 30
0.0
 42
0.00044501308
  0
VERTEX
  5
A31
  8
0
  6
CONTINUOUS
 62
     7
 10
-747.52026000000001
 20
493.63296999999989
 30
0.0
  0
SEQEND
  5
A32
  8
0
 62
     7
  0
POLYLINE
  5
A33
  8
0
  6
CONTINUOUS
 62
     7
 66
     1
 10
0.0
 20
0.0
 30
0.0
  0
VERTEX
  5
A34
  8
0
  6
CONTINUOUS
 62
     7
 10
-576.45185000000004
 20
443.98597999999993
 30
0.0
  0
VERTEX
  5
A35
  8
0
  6
CONTINUOUS
 62
     7
 10
-581.99527999999998
 20
451.82818999999989
 30
0.0
 42
-1.0
  0
SEQEND
  5
A36
  8
0
 62
     7
  0
POLYLINE
  5
A37
  8
0
  6
CONTINUOUS
 62
     7
 66
     1
 10
0.0
 20
0.0
 30
0.0
  0
VERTEX
  5
A38
  8
0
  6
CONTINUOUS
 62
     7
 10
-581.03506999999979
 20
455.93202000000002
 30
0.0
 42
-0.0050917014
  0
VERTEX
  5
A39
  8
0
  6
CONTINUOUS
 62
     7
 10
-582.18299000000002
 20
457.85167000000001
 30
0.0
 42
-0.0052112711
  0
VERTEX
  5
A3A
  8
0
  6
CONTINUOUS
 62
     7
 10
-583.29112999999995
 20
459.79455999999999
 30
0.0
 42
-0.0053447966
  0
VERTEX
  5
A3B
  8
0
  6
CONTINUOUS
 62
     7
 10
-584.35800999999958
 20
461.76040999999998
 30
0.0
 42
-0.0054924736
  0
VERTEX
  5
A3C
  8
0
  6
CONTINUOUS
 62
     7
 10
-585.38205000000016
 20
463.74892999999992
 30
0.0
  0
SEQEND
  5
A3D
  8
0
 62
     7
  0
POLYLINE
  5
A3E
  8
0
  6
CONTINUOUS
 62
     7
 66
     1
 10
0.0
 20
0.0
 30
0.0
  0
VERTEX
  5
A3F
  8
0
  6
CONTINUOUS
 62
     7
 10
-576.45185000000004
 20
550.74721
 30
0.0
  0
VERTEX
  5
A40
  8
0
  6
CONTINUOUS
 62
     7
 10
-581.99527999999998
 20
542.90498999999977
 30
0.0
 42
-1.0
  0
SEQEND
  5
A41
  8
0
 62
     7
  0
POLYLINE
  5
A42
  8
0
  6
CONTINUOUS
 62
     7
 66
     1
 10
0.0
 20
0.0
 30
0.0
  0
VERTEX
  5
A43
  8
0
  6
CONTINUOUS
 62
     7
 10
-581.03506999999979
 20
538.80116999999996
 30
0.0
 42
0.0050916976
  0
VERTEX
  5
A44
  8
0
  6
CONTINUOUS
 62
     7
 10
-582.18299000000002
 20
536.88152000000002
 30
0.0
 42
0.005211269
  0
VERTEX
  5
A45
  8
0
  6
CONTINUOUS
 62
     7
 10
-583.29112999999995
 20
534.93862999999988
 30
0.0
 42
0.005344796
  0
VERTEX
  5
A46
  8
0
  6
CONTINUOUS
 62
     7
 10
-584.35800999999958
 20
532.97277999999994
 30
0.0
 42
0.0054924746
  0
VERTEX
  5
A47
  8
0
  6
CONTINUOUS
 62
     7
 10
-585.38205000000016
 20
530.98427000000004
 30
0.0
  0
SEQEND
  5
A48
  8
0
 62
     7
  0
POLYLINE
  5
A49
  8
0
  6
CONTINUOUS
 62
     7
 66
     1
 10
0.0
 20
0.0
 30
0.0
  0
VERTEX
  5
A4A
  8
0
  6
CONTINUOUS
 62
     7
 10
-589.50626999999952
 20
465.40413999999993
 30
0.0
  0
VERTEX
  5
A4B
  8
0
  6
CONTINUOUS
 62
     7
 10
-595.79381999999998
 20
484.36607999999961
 30
0.0
 42
-1.0
  0
SEQEND
  5
A4C
  8
0
 62
     7
  0
POLYLINE
  5
A4D
  8
0
  6
CONTINUOUS
 62
     7
 66
     1
 10
0.0
 20
0.0
 30
0.0
  0
VERTEX
  5
A4E
  8
0
  6
CONTINUOUS
 62
     7
 10
-589.50626999999952
 20
529.32905000000005
 30
0.0
  0
VERTEX
  5
A4F
  8
0
  6
CONTINUOUS
 62
     7
 10
-595.79381999999998
 20
510.36712999999997
 30
0.0
 42
-1.0
  0
SEQEND
  5
A50
  8
0
 62
     7
  0
TEXT
  5
D28
  8
0
  6
CONTINUOUS
 62
     0
 10
-266.67767186876961
 20
488.39784823022029
 30
0.0
 40
10.0
  1
VX01-800M~VX01-K20M
  0
ENDSEC
  0
EOF
