  0
SECTION
  2
HEADER
  9
$ACADVER
  1
AC1009
  9
$INSBASE
 10
0.0
 20
0.0
 30
0.0
  9
$EXTMIN
 10
-618.88865086823944
 20
60.977230667216077
 30
-0.0000000000112498
  9
$EXTMAX
 10
-55.273737069858498
 20
503.12547794905441
 30
0.0000000000002956
  9
$LIMMIN
 10
0.0
 20
0.0
  9
$LIMMAX
 10
12.0
 20
9.0
  9
$ORTHOMODE
 70
     0
  9
$REGENMODE
 70
     1
  9
$FILLMODE
 70
     1
  9
$QTEXTMODE
 70
     0
  9
$MIRRTEXT
 70
     1
  9
$DRAGMODE
 70
     2
  9
$LTSCALE
 40
1.0
  9
$OSMODE
 70
   551
  9
$ATTMODE
 70
     1
  9
$TEXTSIZE
 40
0.2
  9
$TRACEWID
 40
0.05
  9
$TEXTSTYLE
  7
STANDARD
  9
$CLAYER
  8
0
  9
$CELTYPE
  6
CONTINUOUS
  9
$CECOLOR
 62
   256
  9
$DIMSCALE
 40
1.0
  9
$DIMASZ
 40
0.18
  9
$DIMEXO
 40
0.0625
  9
$DIMDLI
 40
0.38
  9
$DIMRND
 40
0.0
  9
$DIMDLE
 40
0.0
  9
$DIMEXE
 40
0.18
  9
$DIMTP
 40
0.0
  9
$DIMTM
 40
0.0
  9
$DIMTXT
 40
0.18
  9
$DIMCEN
 40
0.09
  9
$DIMTSZ
 40
0.0
  9
$DIMTOL
 70
     0
  9
$DIMLIM
 70
     0
  9
$DIMTIH
 70
     1
  9
$DIMTOH
 70
     1
  9
$DIMSE1
 70
     0
  9
$DIMSE2
 70
     0
  9
$DIMTAD
 70
     0
  9
$DIMZIN
 70
     0
  9
$DIMBLK
  1

  9
$DIMASO
 70
     1
  9
$DIMSHO
 70
     1
  9
$DIMPOST
  1

  9
$DIMAPOST
  1

  9
$DIMALT
 70
     0
  9
$DIMALTD
 70
     2
  9
$DIMALTF
 40
25.399999999999999
  9
$DIMLFAC
 40
1.0
  9
$DIMTOFL
 70
     0
  9
$DIMTVP
 40
0.0
  9
$DIMTIX
 70
     0
  9
$DIMSOXD
 70
     0
  9
$DIMSAH
 70
     0
  9
$DIMBLK1
  1

  9
$DIMBLK2
  1

  9
$DIMSTYLE
  2
STANDARD
  9
$DIMCLRD
 70
     0
  9
$DIMCLRE
 70
     0
  9
$DIMCLRT
 70
     0
  9
$DIMTFAC
 40
1.0
  9
$DIMGAP
 40
0.09
  9
$LUNITS
 70
     2
  9
$LUPREC
 70
     4
  9
$SKETCHINC
 40
0.1
  9
$FILLETRAD
 40
0.0
  9
$AUNITS
 70
     0
  9
$AUPREC
 70
     0
  9
$MENU
  1
.
  9
$ELEVATION
 40
0.0
  9
$PELEVATION
 40
0.0
  9
$THICKNESS
 40
0.0
  9
$LIMCHECK
 70
     0
  9
$BLIPMODE
 70
     0
  9
$CHAMFERA
 40
0.0
  9
$CHAMFERB
 40
0.0
  9
$SKPOLY
 70
     0
  9
$TDCREATE
 40
2452300.4264002782
  9
$TDUPDATE
 40
2458540.677271829
  9
$TDINDWG
 40
0.0285404514
  9
$TDUSRTIMER
 40
0.0285404167
  9
$USRTIMER
 70
     1
  9
$ANGBASE
 50
0.0
  9
$ANGDIR
 70
     0
  9
$PDMODE
 70
     0
  9
$PDSIZE
 40
0.0
  9
$PLINEWID
 40
0.0
  9
$COORDS
 70
     1
  9
$SPLFRAME
 70
     0
  9
$SPLINETYPE
 70
     6
  9
$SPLINESEGS
 70
     8
  9
$ATTDIA
 70
     1
  9
$ATTREQ
 70
     1
  9
$HANDLING
 70
     1
  9
$HANDSEED
  5
D0A
  9
$SURFTAB1
 70
     6
  9
$SURFTAB2
 70
     6
  9
$SURFTYPE
 70
     6
  9
$SURFU
 70
     6
  9
$SURFV
 70
     6
  9
$UCSNAME
  2

  9
$UCSORG
 10
0.0
 20
0.0
 30
0.0
  9
$UCSXDIR
 10
1.0
 20
0.0
 30
0.0
  9
$UCSYDIR
 10
0.0
 20
1.0
 30
0.0
  9
$PUCSNAME
  2

  9
$PUCSORG
 10
0.0
 20
0.0
 30
0.0
  9
$PUCSXDIR
 10
1.0
 20
0.0
 30
0.0
  9
$PUCSYDIR
 10
0.0
 20
1.0
 30
0.0
  9
$USERI1
 70
     0
  9
$USERI2
 70
     0
  9
$USERI3
 70
     0
  9
$USERI4
 70
     0
  9
$USERI5
 70
     0
  9
$USERR1
 40
0.0
  9
$USERR2
 40
0.0
  9
$USERR3
 40
0.0
  9
$USERR4
 40
0.0
  9
$USERR5
 40
0.0
  9
$WORLDVIEW
 70
     1
  9
$SHADEDGE
 70
     3
  9
$SHADEDIF
 70
    70
  9
$TILEMODE
 70
     1
  9
$MAXACTVP
 70
    64
  9
$PLIMCHECK
 70
     0
  9
$PEXTMIN
 10
1.0000000000000000E+020
 20
1.0000000000000000E+020
 30
1.0000000000000000E+020
  9
$PEXTMAX
 10
-1.0000000000000000E+020
 20
-1.0000000000000000E+020
 30
-1.0000000000000000E+020
  9
$PLIMMIN
 10
0.0
 20
0.0
  9
$PLIMMAX
 10
12.0
 20
9.0
  9
$UNITMODE
 70
     0
  9
$VISRETAIN
 70
     1
  9
$PLINEGEN
 70
     0
  9
$PSLTSCALE
 70
     1
  0
ENDSEC
  0
SECTION
  2
TABLES
  0
TABLE
  2
VPORT
 70
     1
  0
VPORT
  2
*ACTIVE
 70
     0
 10
0.0
 20
0.0
 11
1.0
 21
1.0
 12
-337.08119396904902
 22
282.05135430813527
 13
0.0
 23
0.0
 14
1.0
 24
1.0
 15
0.0
 25
0.0
 16
0.0
 26
0.0
 36
1.0
 17
0.0
 27
0.0
 37
0.0
 40
445.1835899405238
 41
1.7571592210767459
 42
50.0
 43
0.0
 44
0.0
 50
0.0
 51
0.0
 71
     0
 72
   100
 73
     1
 74
     1
 75
     0
 76
     0
 77
     0
 78
     0
  0
ENDTAB
  0
TABLE
  2
LTYPE
 70
    20
  0
LTYPE
  2
CONTINUOUS
 70
     0
  3
Solid line
 72
    65
 73
     0
 40
0.0
  0
LTYPE
  2
DASHED
 70
     0
  3
__ __ __ __ __ __ __ __ __ __ __ __ __ __ __
 72
    65
 73
     2
 40
3.5
 49
2.0
 49
-1.5
  0
LTYPE
  2
CENTER
 70
     0
  3
____ _ ____ _ ____ _ ____ _ ____ _ ____ _ ____
 72
    65
 73
     4
 40
17.5
 49
13.0
 49
-1.5
 49
1.5
 49
-1.5
  0
LTYPE
  2
PHANTOM
 70
     0
  3
_____ _ _ _____ _ _ _____ _ _ _____ _ _ ____  
 72
    65
 73
     6
 40
15.5
 49
8.0
 49
-1.5
 49
1.5
 49
-1.5
 49
1.5
 49
-1.5
  0
LTYPE
  2
DOT
 70
     0
  3
. . . . . . . . . . . . . . . . . . . . . . . .
 72
    65
 73
     2
 40
0.25
 49
0.0
 49
-0.25
  0
LTYPE
  2
AM_ISO02W050
 70
     0
  3
__ __ __ __ __ __ __ __ __ __ __ __ __ __ __
 72
    65
 73
     2
 40
7.5
 49
6.0
 49
-1.5
  0
LTYPE
  2
AM_ISO08W050
 70
     0
  3
____ . ____ . ____ . ____ . ____ . ____ . ____
 72
    65
 73
     4
 40
18.0
 49
12.0
 49
-1.5
 49
3.0
 49
-1.5
  0
LTYPE
  2
AM_ISO09W050
 70
     0
  3
_____ . . _____ . . _____ . . ____ .. ____
 72
    65
 73
     6
 40
22.5
 49
12.0
 49
-1.5
 49
3.0
 49
-1.5
 49
3.0
 49
-1.5
  0
LTYPE
  2
AMCONSTR
 70
     0
  3
_______________________
 72
    65
 73
     2
 40
9999.0
 49
9999.0
 49
0.0
  0
LTYPE
  2
AM_ISO08W050X2
 70
     0
  3
__ . __ . __ . __ . __ . __
 72
    65
 73
     4
 40
9.0
 49
6.0
 49
-0.75
 49
1.5
 49
-0.75
  0
LTYPE
  2
AM_ISO02W050X2
 70
     0
  3
 _ _ _ _ _ _ _ _ _ _ _ _
 72
    65
 73
     2
 40
3.75
 49
3.0
 49
-0.75
  0
LTYPE
  2
AMZIGZAG
 70
     0
  3
/\/-/\/-/\/-/\/-/\/-/\/
 72
    65
 73
     2
 40
11.000099999999991
 49
0.0001
 49
-11.0
  0
LTYPE
  2
HIDDEN
 70
     0
  3
Hidden __ __ __ __ __ __ __ __ __ __ __ __ __ _
 72
    65
 73
     2
 40
0.375
 49
0.25
 49
-0.125
  0
LTYPE
  2
PHANTOM2
 70
     0
  3
Phantom (.5x) ___ _ _ ___ _ _ ___ _ _ ___ _ _
 72
    65
 73
     6
 40
1.25
 49
0.625
 49
-0.125
 49
0.125
 49
-0.125
 49
0.125
 49
-0.125
  0
LTYPE
  2
CENTER2
 70
     0
  3
Center (.5x) ___ _ ___ _ ___ _ ___ _ ___ _ ___
 72
    65
 73
     4
 40
1.125
 49
0.75
 49
-0.125
 49
0.125
 49
-0.125
  0
LTYPE
  2
HIDDEN2
 70
     0
  3
Hidden (.5x) _ _ _ _ _ _ _ _ _ _ _ _ _ _ _ _ _
 72
    65
 73
     2
 40
0.1875
 49
0.125
 49
-0.0625
  0
LTYPE
  2
AMZIGZAG2
 70
     0
  3
/\/-/\/-/\/-/\/-/\/-/\/
 72
    65
 73
     2
 40
0.4401
 49
0.0001
 49
-0.4400000000000003
  0
LTYPE
  2
ACANSTGB
 70
     0
  3
__ . . __ . .
 72
    65
 73
     6
 40
0.35433070866
 49
0.15748031496
 49
-0.03937007874
 49
0.03937007874
 49
-0.03937007874
 49
0.03937007874
 49
-0.03937007874
  0
LTYPE
  2
ACANSTGL
 70
     0
  3
_ _ _ _ _
 72
    65
 73
     2
 40
0.11811023622
 49
0.07874015748
 49
-0.03937007874
  0
ENDTAB
  0
TABLE
  2
LAYER
 70
     1
  0
LAYER
  2
0
 70
     0
 62
     7
  6
CONTINUOUS
  0
ENDTAB
  0
TABLE
  2
STYLE
 70
     5
  0
STYLE
  2
STANDARD
 70
     0
 40
0.0
 41
1.0
 50
0.0
 71
     0
 42
0.2
  3
txt
  4
BIGFONT
  0
STYLE
  2
ANNOTATIVE
 70
     0
 40
0.0
 41
1.0
 50
0.0
 71
     0
 42
0.2
  3
txt
  4

  0
STYLE
  2

 70
     1
 40
0.0
 41
1.0
 50
0.0
 71
     0
 42
0.2
  3
ltypeshp.shx
  4

  0
STYLE
  2
ACANSTS
 70
     0
 40
1.0
 41
1.0
 50
0.0
 71
     0
 42
0.2
  3
romans.shx
  4
extfont.shx
  0
STYLE
  2
ACANSGDT
 70
     0
 40
0.0
 41
1.0
 50
0.0
 71
     0
 42
0.2
  3
amgdt.shx
  4

  0
ENDTAB
  0
TABLE
  2
VIEW
 70
     0
  0
ENDTAB
  0
TABLE
  2
UCS
 70
     0
  0
ENDTAB
  0
TABLE
  2
APPID
 70
    11
  0
APPID
  2
ACAD
 70
     0
  0
APPID
  2
ACADANNOTATIVE
 70
     0
  0
APPID
  2
MCAD_NO_VIS
 70
     0
  0
APPID
  2
ACAD_TEMP_GRAPHIC
 70
     0
  0
APPID
  2
ACATTRIBSERVICES
 70
     0
  0
APPID
  2
DESIGNERASSEMBLIES
 70
     0
  0
APPID
  2
ACAD_DSTYLE_DIMBREAK
 70
     0
  0
APPID
  2
ACAD_DSTYLE_DIMJAG
 70
     0
  0
APPID
  2
ACAD_NAV_VCDISPLAY
 70
     0
  0
APPID
  2
ACAD_EXEMPT_FROM_CAD_STANDARDS
 70
     0
  0
APPID
  2
ACAD_MLEADERVER
 70
     0
  0
ENDTAB
  0
TABLE
  2
DIMSTYLE
 70
     8
  0
DIMSTYLE
  2
STANDARD
 70
     0
  3

  4

  5

  6

  7

 40
1.0
 41
0.18
 42
0.0625
 43
0.38
 44
0.18
 45
0.0
 46
0.0
 47
0.0
 48
0.0
140
0.18
141
0.09
142
0.0
143
25.399999999999999
144
1.0
145
0.0
146
1.0
147
0.09
 71
     0
 72
     0
 73
     1
 74
     1
 75
     0
 76
     0
 77
     0
 78
     0
170
     0
171
     2
172
     0
173
     0
174
     0
175
     0
176
     0
177
     0
178
     0
  0
DIMSTYLE
  2
ANNOTATIVE
 70
     0
  3

  4

  5

  6

  7

 40
1.0
 41
0.18
 42
0.0625
 43
0.38
 44
0.18
 45
0.0
 46
0.0
 47
0.0
 48
0.0
140
0.18
141
0.09
142
0.0
143
25.399999999999999
144
1.0
145
0.0
146
1.0
147
0.09
 71
     0
 72
     0
 73
     1
 74
     1
 75
     0
 76
     0
 77
     0
 78
     0
170
     0
171
     2
172
     0
173
     0
174
     0
175
     0
176
     0
177
     0
178
     0
  0
DIMSTYLE
  2
AM_ANSI
 70
     0
  3

  4
mm
  5

  6

  7

 40
1.0
 41
0.1
 42
0.05
 43
0.5
 44
0.1
 45
0.0
 46
0.0
 47
0.1
 48
0.1
140
0.12
141
0.0
142
0.0
143
25.399999999999999
144
1.0
145
0.0
146
0.71
147
0.06
 71
     0
 72
     0
 73
     1
 74
     1
 75
     0
 76
     0
 77
     0
 78
     7
170
     0
171
     2
172
     0
173
     0
174
     0
175
     0
176
   256
177
   256
178
     2
  0
DIMSTYLE
  2
AM_ANSI$3
 70
     0
  3

  4
mm
  5

  6

  7

 40
1.0
 41
0.1
 42
0.05
 43
0.5
 44
0.1
 45
0.0
 46
0.0
 47
0.1
 48
0.1
140
0.12
141
0.0
142
0.0
143
25.399999999999999
144
1.0
145
0.0
146
0.71
147
0.06
 71
     0
 72
     0
 73
     1
 74
     1
 75
     0
 76
     0
 77
     0
 78
     7
170
     0
171
     2
172
     0
173
     0
174
     0
175
     0
176
   256
177
   256
178
     2
  0
DIMSTYLE
  2
AM_ANSI$4
 70
     0
  3

  4
mm
  5

  6

  7

 40
1.0
 41
0.1
 42
0.05
 43
0.5
 44
0.1
 45
0.0
 46
0.0
 47
0.1
 48
0.1
140
0.12
141
0.0
142
0.0
143
25.399999999999999
144
1.0
145
0.0
146
0.71
147
0.06
 71
     0
 72
     0
 73
     1
 74
     1
 75
     0
 76
     0
 77
     0
 78
     7
170
     0
171
     2
172
     0
173
     0
174
     0
175
     0
176
   256
177
   256
178
     2
  0
DIMSTYLE
  2
AM_ANSI$7
 70
     0
  3

  4
mm
  5

  6

  7

 40
1.0
 41
0.1
 42
0.05
 43
0.5
 44
0.1
 45
0.0
 46
0.0
 47
0.1
 48
0.1
140
0.24
141
0.0
142
0.0
143
25.399999999999999
144
1.0
145
0.0
146
0.71
147
0.06
 71
     0
 72
     0
 73
     1
 74
     1
 75
     0
 76
     0
 77
     0
 78
     7
170
     0
171
     2
172
     0
173
     0
174
     0
175
     0
176
   256
177
   256
178
     2
  0
DIMSTYLE
  2
AM_ANSI$SF
 70
     0
  3

  4
mm
  5

  6

  7

 40
1.0
 41
0.1
 42
0.05
 43
0.5
 44
0.1
 45
0.0
 46
0.0
 47
0.1
 48
0.1
140
0.12
141
0.0
142
0.0
143
25.399999999999999
144
1.0
145
0.0
146
0.71
147
0.06
 71
     0
 72
     0
 73
     1
 74
     1
 75
     1
 76
     1
 77
     0
 78
     7
170
     0
171
     2
172
     0
173
     0
174
     0
175
     0
176
   256
177
   256
178
     2
  0
DIMSTYLE
  2
AM_ANSI$SH
 70
     0
  3

  4
mm
  5

  6

  7

 40
1.0
 41
0.1
 42
0.05
 43
0.5
 44
0.1
 45
0.0
 46
0.0
 47
0.1
 48
0.1
140
0.12
141
0.0
142
0.0
143
25.399999999999999
144
1.0
145
0.0
146
0.71
147
0.06
 71
     0
 72
     0
 73
     1
 74
     1
 75
     1
 76
     1
 77
     0
 78
     7
170
     0
171
     2
172
     0
173
     1
174
     0
175
     0
176
   256
177
   256
178
     2
  0
ENDTAB
  0
ENDSEC
  0
SECTION
  2
BLOCKS
  0
BLOCK
  8
0
  2
$MODEL_SPACE
 70
     0
 10
0.0
 20
0.0
 30
0.0
  3
$MODEL_SPACE
  1

  0
ENDBLK
  5
C15
  8
0
  0
BLOCK
 67
     1
  8
0
  2
$PAPER_SPACE
 70
     0
 10
0.0
 20
0.0
 30
0.0
  3
$PAPER_SPACE
  1

  0
ENDBLK
  5
C11
 67
     1
  8
0
  0
BLOCK
  8
0
  2
GENAXEH
 70
     0
 10
0.0
 20
0.0
 30
0.0
  3
GENAXEH
  1

  0
LINE
  5
56A
  8
0
 10
-1.0
 20
0.0
 30
0.0
 11
1.0
 21
0.0
 31
0.0
  0
ENDBLK
  5
56B
  8
0
  0
BLOCK
  8
0
  2
_ACMFILLEDHALF
 70
     0
 10
0.0
 20
0.0
 30
0.0
  3
_ACMFILLEDHALF
  1

  0
TRACE
  5
B17
  8
0
  6
CONTINUOUS
 62
     0
 10
-0.8
 20
0.0
 30
0.0
 11
-1.0
 21
0.166666666
 31
0.0
 12
0.0
 22
0.0
 32
0.0
 13
0.0
 23
0.0
 33
0.0
  0
LINE
  5
B18
  8
0
  6
CONTINUOUS
 62
     0
 10
-1.0
 20
0.0
 30
0.0
 11
-0.8
 21
0.0
 31
0.0
  0
ENDBLK
  5
B16
  8
0
  0
BLOCK
  8
0
  2
*U4
 70
     1
 10
0.0
 20
0.0
 30
0.0
  3
*U4
  1

  0
TEXT
  5
B9E
  8
0
  6
CONTINUOUS
 62
     0
 10
4.1999993754229852
 20
4.4356759791489822
 30
0.0
 40
10.0
  1
ＶＸ０１－２４０Ｍ～ＶＸ０１－６００Ｍ
  0
ENDBLK
  5
BA0
  8
0
  0
BLOCK
  8
0
  2
*U5
 70
     1
 10
0.0
 20
0.0
 30
0.0
  3
*U5
  1

  0
TEXT
  5
BA2
  8
0
  6
CONTINUOUS
 62
     0
 10
-260.87793027172398
 20
329.97737334216117
 30
0.0
 40
10.0
  1
ＶＸ０２－１２０Ｍ～ＶＸ０２－２００Ｍ
  0
ENDBLK
  5
BA4
  8
0
  0
ENDSEC
  0
SECTION
  2
ENTITIES
  0
LINE
  5
56C
  8
0
  6
CENTER
 62
     7
 10
-614.65930000000003
 20
413.09487999999988
 30
0.0
 11
-309.92684999999989
 21
413.09487999999988
 31
0.0
  0
LINE
  5
56D
  8
0
  6
CONTINUOUS
 62
     7
 10
-149.28093999999979
 20
187.5479399999999
 30
0.0
 11
-141.28095999999991
 21
187.5479399999999
 31
0.0
  0
LINE
  5
56E
  8
0
  6
CONTINUOUS
 62
     7
 10
-149.28093999999979
 20
180.5479399999999
 30
0.0
 11
-141.28095999999991
 21
180.5479399999999
 31
0.0
  0
LINE
  5
56F
  8
0
  6
CONTINUOUS
 62
     7
 10
-141.28095999999991
 20
180.5479399999999
 30
0.0
 11
-141.28095999999991
 21
187.5479399999999
 31
0.0
  0
LINE
  5
570
  8
0
  6
CONTINUOUS
 62
     7
 10
-359.63387999999992
 20
185.54793000000001
 30
0.0
 11
-356.63387999999998
 21
185.54793000000001
 31
0.0
  0
LINE
  5
571
  8
0
  6
CONTINUOUS
 62
     7
 10
-346.63391000000001
 20
187.5479399999999
 30
0.0
 11
-346.63391000000001
 21
184.5479399999999
 31
0.0
  0
LINE
  5
572
  8
0
  6
CONTINUOUS
 62
     7
 10
-346.63391000000001
 20
187.5479399999999
 30
0.0
 11
-314.63387999999992
 21
187.5479399999999
 31
0.0
  0
LINE
  5
573
  8
0
  6
CENTER
 62
     7
 10
-465.05007999999992
 20
170.54793000000001
 30
0.0
 11
-309.68610000000001
 21
170.54793000000001
 31
0.0
  0
LINE
  5
574
  8
0
  6
CONTINUOUS
 62
     7
 10
-356.63387999999998
 20
156.5479399999999
 30
0.0
 11
-314.63387999999992
 21
156.5479399999999
 31
0.0
  0
LINE
  5
575
  8
0
  6
CONTINUOUS
 62
     7
 10
-356.63387999999998
 20
185.54793000000001
 30
0.0
 11
-356.63387999999998
 21
155.54793000000001
 31
0.0
  0
LINE
  5
576
  8
0
  6
CONTINUOUS
 62
     7
 10
-356.63387999999998
 20
184.5479399999999
 30
0.0
 11
-314.63387999999992
 21
184.5479399999999
 31
0.0
  0
LINE
  5
577
  8
0
  6
CONTINUOUS
 62
     7
 10
-149.28093999999979
 20
180.5479399999999
 30
0.0
 11
-149.28093999999979
 21
187.5479399999999
 31
0.0
  0
LINE
  5
578
  8
0
  6
CONTINUOUS
 62
     7
 10
-314.63387999999992
 20
187.5479399999999
 30
0.0
 11
-314.63387999999992
 21
156.5479399999999
 31
0.0
  0
LINE
  5
579
  8
0
  6
CONTINUOUS
 62
     7
 10
-359.63387999999992
 20
155.54793000000001
 30
0.0
 11
-356.63387999999998
 21
155.54793000000001
 31
0.0
  0
LINE
  5
57A
  8
0
  6
CONTINUOUS
 62
     7
 10
-362.63387999999992
 20
81.420913999999982
 30
0.0
 11
-362.63387999999992
 21
206.7989199999999
 31
0.0
  0
LINE
  5
57B
  8
0
  6
CONTINUOUS
 62
     7
 10
-88.280944999999974
 20
79.547927999999985
 30
0.0
 11
-57.280940999999991
 21
79.547927999999985
 31
0.0
  0
LINE
  5
57C
  8
0
  6
CONTINUOUS
 62
     7
 10
-71.475066999999996
 20
199.70193
 30
0.0
 11
-107.03408
 21
218.74945
 31
0.0
  0
LINE
  5
57D
  8
0
  6
CONTINUOUS
 62
     7
 10
-235.2809399999999
 20
64.547943000000004
 30
0.0
 11
-235.2809399999999
 21
79.547927999999985
 31
0.0
  0
LINE
  5
57E
  8
0
  6
CONTINUOUS
 62
     7
 10
-92.280945000000003
 20
66.547934999999995
 30
0.0
 11
-198.28093000000001
 21
66.547934999999995
 31
0.0
  0
LINE
  5
57F
  8
0
  6
DASHED
 62
     7
 10
-214.2809399999999
 20
79.547927999999985
 30
0.0
 11
-214.2809399999999
 21
64.547943000000004
 31
0.0
  0
LINE
  5
580
  8
0
  6
DASHED
 62
     7
 10
-226.28093999999999
 20
79.547927999999985
 30
0.0
 11
-226.28093999999999
 21
64.547943000000004
 31
0.0
  0
LINE
  5
581
  8
0
  6
CONTINUOUS
 62
     7
 10
-55.280949
 20
79.547934999999981
 30
0.0
 11
-63.072090000000003
 21
186.7576399999999
 31
0.0
  0
LINE
  5
582
  8
0
  6
CONTINUOUS
 62
     7
 10
-386.63387999999992
 20
64.547927999999985
 30
0.0
 11
-386.63387999999992
 21
64.547927999999985
 31
0.0
  0
LINE
  5
583
  8
0
  6
CONTINUOUS
 62
     7
 10
-441.63385
 20
65.547927999999999
 30
0.0
 11
-387.63387999999992
 21
65.547927999999999
 31
0.0
  0
LINE
  5
584
  8
0
  6
CONTINUOUS
 62
     7
 10
-467.63387999999992
 20
79.547927999999985
 30
0.0
 11
-442.11953999999997
 21
79.547927999999985
 31
0.0
  0
LINE
  5
585
  8
0
  6
CONTINUOUS
 62
     7
 10
-359.63387999999992
 20
77.547934999999981
 30
0.0
 11
-359.63387999999992
 21
64.547927999999985
 31
0.0
  0
LINE
  5
586
  8
0
  6
CONTINUOUS
 62
     7
 10
-469.63387999999992
 20
64.547927999999985
 30
0.0
 11
-442.63387999999992
 21
64.547927999999985
 31
0.0
  0
LINE
  5
587
  8
0
  6
CONTINUOUS
 62
     7
 10
-387.63387999999992
 20
79.547927999999985
 30
0.0
 11
-361.63391000000001
 21
79.547927999999985
 31
0.0
  0
LINE
  5
588
  8
0
  6
CENTER
 62
     7
 10
-70.280959999999993
 20
62.232948
 30
0.0
 11
-70.280959999999993
 21
82.271132999999963
 31
0.0
  0
LINE
  5
589
  8
0
  6
CENTER
 62
     7
 10
-220.28093999999999
 20
62.042110000000001
 30
0.0
 11
-220.28093999999999
 21
82.080292
 31
0.0
  0
LINE
  5
58A
  8
0
  6
DASHED
 62
     7
 10
-76.280945000000003
 20
79.547927999999985
 30
0.0
 11
-76.280945000000003
 21
64.547943000000004
 31
0.0
  0
LINE
  5
58B
  8
0
  6
DASHED
 62
     7
 10
-64.280944999999988
 20
79.547927999999985
 30
0.0
 11
-64.280944999999988
 21
64.547943000000004
 31
0.0
  0
LINE
  5
58C
  8
0
  6
CONTINUOUS
 62
     7
 10
-55.280940999999999
 20
79.547927999999985
 30
0.0
 11
-64.893105000000006
 21
157.28755000000001
 31
0.0
  0
LINE
  5
58D
  8
0
  6
CONTINUOUS
 62
     7
 10
-235.28095999999999
 20
79.547934999999981
 30
0.0
 11
-225.66879
 21
157.28755000000001
 31
0.0
  0
LINE
  5
58E
  8
0
  6
CONTINUOUS
 62
     7
 10
-382.63391000000001
 20
201.78121999999991
 30
0.0
 11
-374.63387999999992
 21
201.78121999999991
 31
0.0
  0
LINE
  5
58F
  8
0
  6
CONTINUOUS
 62
     7
 10
-392.63387999999992
 20
92.161216999999994
 30
0.0
 11
-379.63391000000001
 21
92.161216999999994
 31
0.0
  0
LINE
  5
590
  8
0
  6
CONTINUOUS
 62
     7
 10
-103.28094
 20
71.547934999999995
 30
0.0
 11
-103.28094
 21
72.547943000000004
 31
0.0
  0
LINE
  5
591
  8
0
  6
CONTINUOUS
 62
     7
 10
-91.280945000000017
 20
84.547943000000004
 30
0.0
 11
-91.280945000000017
 21
155.54793000000001
 31
0.0
  0
LINE
  5
592
  8
0
  6
CONTINUOUS
 62
     7
 10
-187.2809399999999
 20
71.547934999999995
 30
0.0
 11
-187.2809399999999
 21
72.547943000000004
 31
0.0
  0
LINE
  5
593
  8
0
  6
CONTINUOUS
 62
     7
 10
-392.63387999999992
 20
84.547919999999976
 30
0.0
 11
-392.63387999999992
 21
191.78122999999991
 31
0.0
  0
LINE
  5
594
  8
0
  6
CONTINUOUS
 62
     7
 10
-386.63387999999992
 20
64.547927999999985
 30
0.0
 11
-359.63387999999992
 21
64.547927999999985
 31
0.0
  0
LINE
  5
595
  8
0
  6
DASHED
 62
     7
 10
-368.63387999999992
 20
79.547927999999985
 30
0.0
 11
-368.63387999999992
 21
64.547927999999985
 31
0.0
  0
LINE
  5
596
  8
0
  6
DASHED
 62
     7
 10
-460.63387999999992
 20
79.547927999999985
 30
0.0
 11
-460.63387999999992
 21
64.547927999999985
 31
0.0
  0
LINE
  5
597
  8
0
  6
DASHED
 62
     7
 10
-448.63387999999992
 20
79.547927999999985
 30
0.0
 11
-448.63387999999992
 21
64.547927999999985
 31
0.0
  0
LINE
  5
598
  8
0
  6
DASHED
 62
     7
 10
-380.63387999999992
 20
79.547927999999985
 30
0.0
 11
-380.63387999999992
 21
64.547927999999985
 31
0.0
  0
LINE
  5
599
  8
0
  6
CONTINUOUS
 62
     7
 10
-432.63385
 20
117.01675
 30
0.0
 11
-432.63385
 21
152.33658
 31
0.0
  0
LINE
  5
59A
  8
0
  6
CONTINUOUS
 62
     7
 10
-370.06966999999992
 20
210.19846999999999
 30
0.0
 11
-365.37243999999993
 21
209.78752
 31
0.0
  0
LINE
  5
59B
  8
0
  6
CONTINUOUS
 62
     7
 10
-205.28093999999999
 20
118.34793000000001
 30
0.0
 11
-205.28093999999999
 21
199.79791
 31
0.0
  0
LINE
  5
59C
  8
0
  6
CONTINUOUS
 62
     7
 10
-85.280944999999988
 20
118.34793000000001
 30
0.0
 11
-85.280944999999988
 21
199.79791
 31
0.0
  0
LINE
  5
59D
  8
0
  6
CONTINUOUS
 62
     7
 10
-199.2809399999999
 20
84.547943000000004
 30
0.0
 11
-199.2809399999999
 21
155.54793000000001
 31
0.0
  0
LINE
  5
59E
  8
0
  6
CONTINUOUS
 62
     7
 10
-182.2809399999999
 20
77.547934999999981
 30
0.0
 11
-108.2809399999999
 21
77.547934999999981
 31
0.0
  0
LINE
  5
59F
  8
0
  6
CONTINUOUS
 62
     7
 10
-200.2809399999999
 20
64.547943000000004
 30
0.0
 11
-200.2809399999999
 21
77.547934999999981
 31
0.0
  0
LINE
  5
5A0
  8
0
  6
CONTINUOUS
 62
     7
 10
-200.2809399999999
 20
64.547943000000004
 30
0.0
 11
-235.2809399999999
 21
64.547943000000004
 31
0.0
  0
LINE
  5
5A1
  8
0
  6
CONTINUOUS
 62
     7
 10
-90.280951999999999
 20
64.547943000000004
 30
0.0
 11
-55.280949
 21
64.547943000000004
 31
0.0
  0
LINE
  5
5A2
  8
0
  6
CONTINUOUS
 62
     7
 10
-90.280951999999999
 20
64.547943000000004
 30
0.0
 11
-90.280951999999999
 21
77.547934999999981
 31
0.0
  0
LINE
  5
5A3
  8
0
  6
CONTINUOUS
 62
     7
 10
-55.280949
 20
64.547943000000004
 30
0.0
 11
-55.280949
 21
79.547927999999985
 31
0.0
  0
LINE
  5
5A4
  8
0
  6
CONTINUOUS
 62
     7
 10
-374.63387999999992
 20
97.161231999999998
 30
0.0
 11
-374.63387999999992
 21
221.87980999999991
 31
0.0
  0
LINE
  5
5A5
  8
0
  6
CONTINUOUS
 62
     7
 10
-469.63387999999992
 20
77.547934999999981
 30
0.0
 11
-469.63387999999992
 21
64.547927999999985
 31
0.0
  0
LINE
  5
5A6
  8
0
  6
CENTER
 62
     7
 10
-181.35903999999999
 20
170.54793000000001
 30
0.0
 11
-109.02266999999991
 21
170.54793000000001
 31
0.0
  0
LINE
  5
5A7
  8
0
  6
CENTER
 62
     7
 10
-145.2809399999999
 20
61.013194999999982
 30
0.0
 11
-145.2809399999999
 21
235.83014
 31
0.0
  0
LINE
  5
5A8
  8
0
  6
CENTER
 62
     7
 10
-231.63766000000001
 20
147.34795
 30
0.0
 11
-57.770896999999998
 21
147.34795
 31
0.0
  0
LINE
  5
5A9
  8
0
  6
CENTER
 62
     7
 10
-374.63394
 20
82.337845000000002
 30
0.0
 11
-374.63394
 21
61.502864999999993
 31
0.0
  0
LINE
  5
5AA
  8
0
  6
CENTER
 62
     7
 10
-454.63387999999998
 20
81.694785999999965
 30
0.0
 11
-454.63387999999998
 21
61.502864999999993
 31
0.0
  0
LINE
  5
5AB
  8
0
  6
CONTINUOUS
 62
     7
 10
-202.2809399999999
 20
79.547927999999985
 30
0.0
 11
-233.2809399999999
 21
79.547927999999985
 31
0.0
  0
LINE
  5
5AC
  8
0
  6
CONTINUOUS
 62
     7
 10
-435.63382000000001
 20
228.34796
 30
0.0
 11
-379.50295999999992
 21
226.87812999999991
 31
0.0
  0
LINE
  5
5AD
  8
0
  6
CONTINUOUS
 62
     7
 10
-219.08681999999999
 20
199.70193
 30
0.0
 11
-183.52781999999991
 21
218.74943999999991
 31
0.0
  0
LINE
  5
5AE
  8
0
  6
CONTINUOUS
 62
     7
 10
-359.63387999999992
 20
142.52208999999999
 30
0.0
 11
-359.63387999999992
 21
198.57378
 31
0.0
  0
LINE
  5
5AF
  8
0
  6
CONTINUOUS
 62
     7
 10
-361.6601
 20
141.49486999999991
 30
0.0
 11
-360.60772999999989
 21
141.52243000000001
 31
0.0
  0
LINE
  5
5B0
  8
0
  6
CONTINUOUS
 62
     7
 10
-361.66005999999987
 20
199.60097999999991
 30
0.0
 11
-360.60770000000002
 21
199.57343
 31
0.0
  0
LINE
  5
5B1
  8
0
  6
CONTINUOUS
 62
     7
 10
-432.72104000000002
 20
116.0872899999999
 30
0.0
 11
-439.17183999999997
 21
81.990256999999986
 31
0.0
  0
LINE
  5
5B2
  8
0
  6
CONTINUOUS
 62
     7
 10
-400.63390999999979
 20
187.84795
 30
0.0
 11
-400.63390999999979
 21
170.54793000000001
 31
0.0
  0
LINE
  5
5B3
  8
0
  6
CONTINUOUS
 62
     7
 10
-235.2809399999999
 20
79.547927999999985
 30
0.0
 11
-227.48981000000001
 21
186.75762999999981
 31
0.0
  0
LINE
  5
5B4
  8
0
  6
CONTINUOUS
 62
     7
 10
-442.63387999999992
 20
64.547927999999985
 30
0.0
 11
-442.63387999999992
 21
64.547927999999985
 31
0.0
  0
LINE
  5
5B5
  8
0
  6
CONTINUOUS
 62
     7
 10
-435.63384999999988
 20
228.3479499999998
 30
0.0
 11
-435.63384999999988
 21
100.6907999999999
 31
0.0
  0
LINE
  5
5B6
  8
0
  6
CONTINUOUS
 62
     7
 10
-479.13387999999998
 20
91.347938999999997
 30
0.0
 11
-461.26500999999968
 21
90.723945999999998
 31
0.0
  0
LINE
  5
5B7
  8
0
  6
CONTINUOUS
 62
     7
 10
-442.63387999999992
 20
226.17212000000001
 30
0.0
 11
-442.63387999999992
 21
226.245
 31
0.0
  0
LINE
  5
5B8
  8
0
  6
CONTINUOUS
 62
     7
 10
-440.70366999999987
 20
228.1708999999999
 30
0.0
 11
-435.63387999999992
 21
228.34792999999991
 31
0.0
  0
LINE
  5
5B9
  8
0
  6
CONTINUOUS
 62
     7
 10
-458.2255599999998
 20
205.13868999999991
 30
0.0
 11
-451.41994999999997
 21
210.8492699999999
 31
0.0
  0
LINE
  5
5BA
  8
0
  6
CONTINUOUS
 62
     7
 10
-458.22552000000002
 20
89.557198
 30
0.0
 11
-451.41991999999999
 21
83.846610999999982
 31
0.0
  0
LINE
  5
5BB
  8
0
  6
CENTER
 62
     7
 10
-618.87902999999994
 20
147.34795
 30
0.0
 11
-429.27230999999989
 21
147.34795
 31
0.0
  0
LINE
  5
5BC
  8
0
  6
CONTINUOUS
 62
     7
 10
-449.63387999999998
 20
220.2064399999999
 30
0.0
 11
-449.63387999999998
 21
79.547927999999985
 31
0.0
  0
LINE
  5
5BD
  8
0
  6
CONTINUOUS
 62
     7
 10
-446.73858999999999
 20
223.20459
 30
0.0
 11
-445.52917000000002
 21
223.2468299999999
 31
0.0
  0
LINE
  5
5BE
  8
0
  6
CONTINUOUS
 62
     7
 10
-442.63387999999992
 20
226.17212000000001
 30
0.0
 11
-442.63387999999992
 21
203.68200999999991
 31
0.0
  0
LINE
  5
5BF
  8
0
  6
CONTINUOUS
 62
     7
 10
-479.13385
 20
91.347931000000017
 30
0.0
 11
-479.13385
 21
203.34792999999991
 31
0.0
  0
LINE
  5
5C0
  8
0
  6
CONTINUOUS
 62
     7
 10
-479.13387999999998
 20
203.3479499999998
 30
0.0
 11
-461.26500999999968
 21
203.97193999999999
 31
0.0
  0
LINE
  5
5C1
  8
0
  6
CONTINUOUS
 62
     7
 10
-479.13385
 20
179.28493999999981
 30
0.0
 11
-459.54439999999988
 21
179.28493999999981
 31
0.0
  0
LINE
  5
5C2
  8
0
  6
CONTINUOUS
 62
     7
 10
-459.54439999999988
 20
115.41094
 30
0.0
 11
-459.54439999999988
 21
179.28493999999981
 31
0.0
  0
LINE
  5
5C3
  8
0
  6
CONTINUOUS
 62
     7
 10
-442.63387999999992
 20
178.49713
 30
0.0
 11
-442.63387999999992
 21
87.80394699999998
 31
0.0
  0
LINE
  5
5C4
  8
0
  6
CONTINUOUS
 62
     7
 10
-479.13385
 20
115.41094
 30
0.0
 11
-459.54439999999988
 21
115.41094
 31
0.0
  0
LINE
  5
5C5
  8
0
  6
CONTINUOUS
 62
     7
 10
-447.63384999999988
 20
201.68201999999999
 30
0.0
 11
-444.63385
 21
201.68201999999999
 31
0.0
  0
LINE
  5
5C6
  8
0
  6
CONTINUOUS
 62
     7
 10
-479.13385
 20
101.34793999999999
 30
0.0
 11
-453.49007999999992
 21
101.34793999999999
 31
0.0
  0
LINE
  5
5C7
  8
0
  6
CONTINUOUS
 62
     7
 10
-479.13385
 20
193.34794999999991
 30
0.0
 11
-453.49007999999992
 21
193.34794999999991
 31
0.0
  0
LINE
  5
5C8
  8
0
  6
CONTINUOUS
 62
     7
 10
-449.63387999999998
 20
174.0200199999999
 30
0.0
 11
-444.63385
 21
174.0200199999999
 31
0.0
  0
LINE
  5
5C9
  8
0
  6
CONTINUOUS
 62
     7
 10
-447.63384999999988
 20
180.49715
 30
0.0
 11
-444.63385
 21
180.49715
 31
0.0
  0
LINE
  5
5CA
  8
0
  6
CONTINUOUS
 62
     7
 10
-459.54439999999988
 20
193.34794999999991
 30
0.0
 11
-459.54439999999988
 21
204.03201000000001
 31
0.0
  0
LINE
  5
5CB
  8
0
  6
CONTINUOUS
 62
     7
 10
-459.54439999999988
 20
90.663848999999999
 30
0.0
 11
-459.54439999999988
 21
101.34793999999999
 31
0.0
  0
LINE
  5
5CC
  8
0
  6
CONTINUOUS
 62
     7
 10
-447.63384999999988
 20
85.803954999999988
 30
0.0
 11
-444.63385
 21
85.803954999999988
 31
0.0
  0
LINE
  5
5CD
  8
0
  6
CONTINUOUS
 62
     7
 10
-459.54439999999988
 20
115.4109199999999
 30
0.0
 11
-451.85525999999987
 21
104.50002000000001
 31
0.0
  0
LINE
  5
5CE
  8
0
  6
CONTINUOUS
 62
     7
 10
-451.85525999999987
 20
190.19585000000001
 30
0.0
 11
-459.54439999999988
 21
179.28496000000001
 31
0.0
  0
LINE
  5
5CF
  8
0
  6
CONTINUOUS
 62
     7
 10
-506.63387999999992
 20
177.34795
 30
0.0
 11
-497.36383000000001
 21
177.34795
 31
0.0
  0
LINE
  5
5D0
  8
0
  6
CONTINUOUS
 62
     3
 10
-588.63433999999995
 20
139.8476999999998
 30
0.0
 11
-588.63433999999995
 21
154.84769
 31
0.0
  0
LINE
  5
5D1
  8
0
  6
CONTINUOUS
 62
     3
 10
-588.63433999999995
 20
154.84769
 30
0.0
 11
-585.13434000000007
 21
154.84769
 31
0.0
  0
LINE
  5
5D2
  8
0
  6
CONTINUOUS
 62
     3
 10
-581.13434000000007
 20
180.84769
 30
0.0
 11
-581.13434000000007
 21
177.34769
 31
0.0
  0
LINE
  5
5D3
  8
0
  6
CONTINUOUS
 62
     3
 10
-581.13434000000007
 20
180.84769
 30
0.0
 11
-566.13385000000017
 21
180.84769
 31
0.0
  0
LINE
  5
5D4
  8
0
  6
CONTINUOUS
 62
     3
 10
-566.13385000000017
 20
180.84769
 30
0.0
 11
-566.13385000000017
 21
177.34769
 31
0.0
  0
LINE
  5
5D5
  8
0
  6
CONTINUOUS
 62
     3
 10
-585.13434000000007
 20
117.34818
 30
0.0
 11
-585.13434000000007
 21
177.34769
 31
0.0
  0
LINE
  5
5D6
  8
0
  6
CONTINUOUS
 62
     3
 10
-508.13387999999998
 20
118.8479499999999
 30
0.0
 11
-508.13387999999998
 21
175.84794999999991
 31
0.0
  0
LINE
  5
5D7
  8
0
  6
CONTINUOUS
 62
     3
 10
-585.13434000000007
 20
177.34769
 30
0.0
 11
-509.63387999999981
 21
177.34769
 31
0.0
  0
LINE
  5
5D8
  8
0
  6
CONTINUOUS
 62
     3
 10
-555.93389999999999
 20
129.54771
 30
0.0
 11
-555.93389999999999
 21
165.15170000000001
 31
0.0
  0
LINE
  5
5D9
  8
0
  6
CONTINUOUS
 62
     3
 10
-520.33385999999985
 20
129.54771
 30
0.0
 11
-520.33385999999985
 21
165.15170000000001
 31
0.0
  0
LINE
  5
5DA
  8
0
  6
CONTINUOUS
 62
     3
 10
-555.93389999999999
 20
129.54771
 30
0.0
 11
-520.33385999999985
 21
129.54771
 31
0.0
  0
LINE
  5
5DB
  8
0
  6
CONTINUOUS
 62
     3
 10
-555.93389999999999
 20
165.15170000000001
 30
0.0
 11
-520.33385999999985
 21
165.15170000000001
 31
0.0
  0
LINE
  5
5DC
  8
0
  6
CONTINUOUS
 62
     3
 10
-517.76189999999986
 20
124.8481799999999
 30
0.0
 11
-513.55687999999986
 21
124.8481799999999
 31
0.0
  0
LINE
  5
5DD
  8
0
  6
CONTINUOUS
 62
     3
 10
-515.63385000000005
 20
122.78618
 30
0.0
 11
-515.63385000000005
 21
126.81211999999979
 31
0.0
  0
LINE
  5
5DE
  8
0
  6
CONTINUOUS
 62
     3
 10
-586.63433999999995
 20
115.84818
 30
0.0
 11
-581.13434000000007
 21
115.84818
 31
0.0
  0
LINE
  5
5DF
  8
0
  6
CONTINUOUS
 62
     3
 10
-586.63433999999995
 20
178.84769
 30
0.0
 11
-581.13434000000007
 21
178.84769
 31
0.0
  0
LINE
  5
5E0
  8
0
  6
CONTINUOUS
 62
     3
 10
-561.13391000000001
 20
124.34818
 30
0.0
 11
-521.11187999999993
 21
124.34818
 31
0.0
  0
LINE
  5
5E1
  8
0
  6
CONTINUOUS
 62
     3
 10
-555.15686000000005
 20
170.34769
 30
0.0
 11
-515.13385000000005
 21
170.34769
 31
0.0
  0
LINE
  5
5E2
  8
0
  6
CONTINUOUS
 62
     3
 10
-506.63387999999992
 20
115.84818
 30
0.0
 11
-506.63387999999992
 21
178.84769
 31
0.0
  0
LINE
  5
5E3
  8
0
  6
CONTINUOUS
 62
     3
 10
-515.13385000000005
 20
130.32567
 30
0.0
 11
-515.13385000000005
 21
170.34769
 31
0.0
  0
LINE
  5
5E4
  8
0
  6
CONTINUOUS
 62
     3
 10
-561.13391000000001
 20
124.34818
 30
0.0
 11
-561.13391000000001
 21
164.37071
 31
0.0
  0
LINE
  5
5E5
  8
0
  6
CONTINUOUS
 62
     3
 10
-586.63433999999995
 20
115.84818
 30
0.0
 11
-586.63433999999995
 21
139.8476999999998
 31
0.0
  0
LINE
  5
5E6
  8
0
  6
CONTINUOUS
 62
     3
 10
-586.63433999999995
 20
154.84769
 30
0.0
 11
-586.63433999999995
 21
178.84769
 31
0.0
  0
LINE
  5
5E7
  8
0
  6
CONTINUOUS
 62
     3
 10
-560.63385000000005
 20
167.78568000000001
 30
0.0
 11
-560.63385000000005
 21
171.81167999999991
 31
0.0
  0
LINE
  5
5E8
  8
0
  6
CONTINUOUS
 62
     3
 10
-562.76189999999997
 20
169.84769
 30
0.0
 11
-558.55687999999986
 21
169.84769
 31
0.0
  0
LINE
  5
5E9
  8
0
  6
CONTINUOUS
 62
     3
 10
-585.13434000000007
 20
117.34818
 30
0.0
 11
-509.63387999999981
 21
117.34818
 31
0.0
  0
LINE
  5
5EA
  8
0
  6
CONTINUOUS
 62
     7
 10
-506.63387999999992
 20
117.34795
 30
0.0
 11
-497.36383000000001
 21
117.34795
 31
0.0
  0
LINE
  5
5EB
  8
0
  6
CONTINUOUS
 62
     7
 10
-235.2809399999999
 20
177.34795
 30
0.0
 11
-228.17362999999989
 21
177.34795
 31
0.0
  0
LINE
  5
5EC
  8
0
  6
CONTINUOUS
 62
     7
 10
-235.2809399999999
 20
117.34795
 30
0.0
 11
-232.53395
 21
117.34795
 31
0.0
  0
LINE
  5
5ED
  8
0
  6
CONTINUOUS
 62
     7
 10
-235.28090999999989
 20
170.34792999999979
 30
0.0
 11
-238.28091000000001
 21
165.15792999999991
 31
0.0
  0
LINE
  5
5EE
  8
0
  6
CONTINUOUS
 62
     7
 10
-235.2809399999999
 20
117.34795
 30
0.0
 11
-235.2809399999999
 21
177.34795
 31
0.0
  0
LINE
  5
5EF
  8
0
  6
CONTINUOUS
 62
     7
 10
-569.63385000000017
 20
109.12486
 30
0.0
 11
-487.13387999999998
 21
109.12486
 31
0.0
  0
LINE
  5
5F0
  8
0
  6
CONTINUOUS
 62
     7
 10
-571.13385000000005
 20
110.62486
 30
0.0
 11
-571.13385000000005
 21
110.62486
 31
0.0
  0
LINE
  5
5F1
  8
0
  6
CONTINUOUS
 62
     7
 10
-487.13387999999998
 20
115.41051
 30
0.0
 11
-479.13385
 21
115.41051
 31
0.0
  0
LINE
  5
5F2
  8
0
  6
CONTINUOUS
 62
     7
 10
-492.59334999999999
 20
94.347931000000003
 30
0.0
 11
-487.13387999999998
 21
94.347931000000003
 31
0.0
  0
LINE
  5
5F3
  8
0
  6
CONTINUOUS
 62
     7
 10
-488.63387999999981
 20
109.12491
 30
0.0
 11
-493.07589999999999
 21
92.547049999999984
 31
0.0
  0
LINE
  5
5F4
  8
0
  6
CONTINUOUS
 62
     7
 10
-556.13385000000005
 20
87.460006999999962
 30
0.0
 11
-556.13385000000005
 21
91.064667
 31
0.0
  0
LINE
  5
5F5
  8
0
  6
CONTINUOUS
 62
     7
 10
-595.13391000000001
 20
96.563072000000005
 30
0.0
 11
-593.82500999999945
 21
87.183616999999998
 31
0.0
  0
LINE
  5
5F6
  8
0
  6
CONTINUOUS
 62
     7
 10
-595.13385000000017
 20
96.563103000000012
 30
0.0
 11
-593.84283000000005
 21
88.069991999999985
 31
0.0
  0
LINE
  5
5F7
  8
0
  6
CONTINUOUS
 62
     7
 10
-595.13391000000001
 20
97.907661000000004
 30
0.0
 11
-593.85382000000004
 21
89.902473000000001
 31
0.0
  0
LINE
  5
5F8
  8
0
  6
CONTINUOUS
 62
     7
 10
-591.84418000000005
 20
85.459991000000016
 30
0.0
 11
-558.13391000000001
 21
85.459991000000016
 31
0.0
  0
LINE
  5
5F9
  8
0
  6
CONTINUOUS
 62
     7
 10
-591.86547999999959
 20
86.370529000000005
 30
0.0
 11
-558.13391000000001
 21
86.370529000000005
 31
0.0
  0
LINE
  5
5FA
  8
0
  6
CONTINUOUS
 62
     7
 10
-591.87885000000006
 20
88.218292000000005
 30
0.0
 11
-558.13391000000001
 21
88.218292000000005
 31
0.0
  0
LINE
  5
5FB
  8
0
  6
CONTINUOUS
 62
     7
 10
-595.13385000000017
 20
99.252174000000011
 30
0.0
 11
-593.89257999999995
 21
92.692824999999999
 31
0.0
  0
LINE
  5
5FC
  8
0
  6
CONTINUOUS
 62
     7
 10
-591.92749000000003
 20
91.064667
 30
0.0
 11
-495.00771999999989
 21
91.064667
 31
0.0
  0
LINE
  5
5FD
  8
0
  6
CONTINUOUS
 62
     7
 10
-487.13387999999998
 20
91.347931000000017
 30
0.0
 11
-479.13385
 21
91.347931000000017
 31
0.0
  0
LINE
  5
5FE
  8
0
  6
CONTINUOUS
 62
     7
 10
-487.13387999999998
 20
101.34793999999999
 30
0.0
 11
-479.13385
 21
101.34793999999999
 31
0.0
  0
LINE
  5
5FF
  8
0
  6
CONTINUOUS
 62
     7
 10
-602.43573000000004
 20
104.1564799999999
 30
0.0
 11
-596.20592999999985
 21
104.1564799999999
 31
0.0
  0
LINE
  5
600
  8
0
  6
CONTINUOUS
 62
     7
 10
-603.13391000000001
 20
94.347931000000003
 30
0.0
 11
-595.13385000000017
 21
94.347931000000003
 31
0.0
  0
LINE
  5
601
  8
0
  6
CONTINUOUS
 62
     7
 10
-604.13385000000005
 20
97.347931000000003
 30
0.0
 11
-603.13391000000001
 21
97.347931000000003
 31
0.0
  0
LINE
  5
602
  8
0
  6
CONTINUOUS
 62
     7
 10
-607.13385000000017
 20
97.851791000000006
 30
0.0
 11
-607.13385000000017
 21
98.377533000000014
 31
0.0
  0
LINE
  5
603
  8
0
  6
CONTINUOUS
 62
     7
 10
-607.13385000000017
 20
99.951392999999996
 30
0.0
 11
-607.13385000000017
 21
100.49741
 31
0.0
  0
LINE
  5
604
  8
0
  6
CONTINUOUS
 62
     7
 10
-607.13385000000017
 20
104.51749
 30
0.0
 11
-607.13385000000017
 21
104.98961
 31
0.0
  0
LINE
  5
605
  8
0
  6
CONTINUOUS
 62
     7
 10
-607.35357999999997
 20
100.96275
 30
0.0
 11
-608.60216999999977
 21
101.6245999999999
 31
0.0
  0
LINE
  5
606
  8
0
  6
CONTINUOUS
 62
     7
 10
-607.34722999999985
 20
98.853195000000014
 30
0.0
 11
-608.58654999999965
 21
99.482224000000002
 31
0.0
  0
LINE
  5
607
  8
0
  6
CONTINUOUS
 62
     7
 10
-607.36803999999995
 20
105.5001399999998
 30
0.0
 11
-608.63933999999995
 21
106.2448
 31
0.0
  0
LINE
  5
608
  8
0
  6
CONTINUOUS
 62
     7
 10
-606.89458999999999
 20
98.744843000000003
 30
0.0
 11
-604.6339099999999
 21
98.744843000000003
 31
0.0
  0
LINE
  5
609
  8
0
  6
CONTINUOUS
 62
     7
 10
-606.88519000000019
 20
100.8463
 30
0.0
 11
-605.13385000000005
 21
100.8463
 31
0.0
  0
LINE
  5
60A
  8
0
  6
CONTINUOUS
 62
     7
 10
-606.86255000000017
 20
105.36301
 30
0.0
 11
-605.13385000000005
 21
105.36301
 31
0.0
  0
LINE
  5
60B
  8
0
  6
CONTINUOUS
 62
     7
 10
-606.83520999999985
 20
104.2229899999999
 30
0.0
 11
-604.13385000000005
 21
104.2229899999999
 31
0.0
  0
LINE
  5
60C
  8
0
  6
CONTINUOUS
 62
     7
 10
-606.85681
 20
99.706283999999997
 30
0.0
 11
-604.13385000000005
 21
99.706283999999997
 31
0.0
  0
LINE
  5
60D
  8
0
  6
CONTINUOUS
 62
     7
 10
-607.38367000000005
 20
104.38677
 30
0.0
 11
-608.68224999999995
 21
105.23833
 31
0.0
  0
LINE
  5
60E
  8
0
  6
CONTINUOUS
 62
     7
 10
-607.37139999999977
 20
99.848838999999984
 30
0.0
 11
-608.64844000000005
 21
100.61511
 31
0.0
  0
LINE
  5
60F
  8
0
  6
CONTINUOUS
 62
     7
 10
-607.36608999999999
 20
97.732749999999996
 30
0.0
 11
-608.63427999999965
 21
98.465728999999996
 31
0.0
  0
LINE
  5
610
  8
0
  6
CONTINUOUS
 62
     7
 10
-606.86565999999959
 20
97.598557000000014
 30
0.0
 11
-604.6339099999999
 21
97.598557000000014
 31
0.0
  0
LINE
  5
611
  8
0
  6
CONTINUOUS
 62
     7
 10
-609.1339099999999
 20
99.331512000000004
 30
0.0
 11
-609.1339099999999
 21
142.34792999999991
 31
0.0
  0
LINE
  5
612
  8
0
  6
CONTINUOUS
 62
     7
 10
-492.59334999999999
 20
200.34792999999991
 30
0.0
 11
-487.13387999999998
 21
200.34792999999991
 31
0.0
  0
LINE
  5
613
  8
0
  6
CONTINUOUS
 62
     7
 10
-488.93175999999988
 20
186.6827199999999
 30
0.0
 11
-493.07589999999999
 21
202.14879999999999
 31
0.0
  0
LINE
  5
614
  8
0
  6
CONTINUOUS
 62
     7
 10
-556.13385000000005
 20
207.2358099999999
 30
0.0
 11
-556.13385000000005
 21
203.63120000000001
 31
0.0
  0
LINE
  5
615
  8
0
  6
CONTINUOUS
 62
     7
 10
-595.13385000000017
 20
198.13278
 30
0.0
 11
-593.82500999999945
 21
207.51224999999991
 31
0.0
  0
LINE
  5
616
  8
0
  6
CONTINUOUS
 62
     7
 10
-595.13385000000017
 20
198.13276999999991
 30
0.0
 11
-593.84283000000005
 21
206.6258499999999
 31
0.0
  0
LINE
  5
617
  8
0
  6
CONTINUOUS
 62
     7
 10
-595.13391000000001
 20
196.7881899999999
 30
0.0
 11
-593.85382000000004
 21
204.7933699999999
 31
0.0
  0
LINE
  5
618
  8
0
  6
CONTINUOUS
 62
     7
 10
-591.84418000000005
 20
209.2358099999999
 30
0.0
 11
-558.13391000000001
 21
209.2358099999999
 31
0.0
  0
LINE
  5
619
  8
0
  6
CONTINUOUS
 62
     7
 10
-591.86547999999959
 20
208.32529
 30
0.0
 11
-558.13391000000001
 21
208.32529
 31
0.0
  0
LINE
  5
61A
  8
0
  6
CONTINUOUS
 62
     7
 10
-591.87885000000006
 20
206.4775699999999
 30
0.0
 11
-558.13391000000001
 21
206.4775699999999
 31
0.0
  0
LINE
  5
61B
  8
0
  6
CONTINUOUS
 62
     7
 10
-569.63385000000017
 20
185.57095000000001
 30
0.0
 11
-487.13387999999998
 21
185.57095000000001
 31
0.0
  0
LINE
  5
61C
  8
0
  6
CONTINUOUS
 62
     7
 10
-589.76842999999985
 20
110.69670000000001
 30
0.0
 11
-595.13385000000017
 21
99.252212999999998
 31
0.0
  0
LINE
  5
61D
  8
0
  6
CONTINUOUS
 62
     7
 10
-589.76836999999989
 20
183.99909999999991
 30
0.0
 11
-595.1337900000002
 21
195.44356999999991
 31
0.0
  0
LINE
  5
61E
  8
0
  6
CONTINUOUS
 62
     7
 10
-595.13391000000001
 20
195.44363000000001
 30
0.0
 11
-593.89264000000003
 21
202.00306999999989
 31
0.0
  0
LINE
  5
61F
  8
0
  6
CONTINUOUS
 62
     7
 10
-591.92749000000003
 20
203.63120000000001
 30
0.0
 11
-495.00771999999989
 21
203.63120000000001
 31
0.0
  0
LINE
  5
620
  8
0
  6
CONTINUOUS
 62
     7
 10
-571.13385000000005
 20
110.62486
 30
0.0
 11
-571.13385000000005
 21
109.12486
 31
0.0
  0
LINE
  5
621
  8
0
  6
CONTINUOUS
 62
     7
 10
-571.13385000000005
 20
184.07095000000001
 30
0.0
 11
-571.13385000000005
 21
184.07095000000001
 31
0.0
  0
LINE
  5
622
  8
0
  6
CONTINUOUS
 62
     7
 10
-487.13387999999998
 20
203.34792999999991
 30
0.0
 11
-479.13385
 21
203.34792999999991
 31
0.0
  0
LINE
  5
623
  8
0
  6
CONTINUOUS
 62
     7
 10
-487.13387999999998
 20
179.28538999999989
 30
0.0
 11
-479.13385
 21
179.28538999999989
 31
0.0
  0
LINE
  5
624
  8
0
  6
CONTINUOUS
 62
     7
 10
-487.13387999999998
 20
193.34792999999991
 30
0.0
 11
-479.13385
 21
193.34792999999991
 31
0.0
  0
LINE
  5
625
  8
0
  6
CONTINUOUS
 62
     7
 10
-602.43573000000004
 20
190.5393399999999
 30
0.0
 11
-596.20592999999985
 21
190.5393399999999
 31
0.0
  0
LINE
  5
626
  8
0
  6
CONTINUOUS
 62
     7
 10
-603.13391000000001
 20
200.34792999999991
 30
0.0
 11
-595.13385000000017
 21
200.34792999999991
 31
0.0
  0
LINE
  5
627
  8
0
  6
CONTINUOUS
 62
     7
 10
-603.13391000000001
 20
200.34792999999991
 30
0.0
 11
-603.13391000000001
 21
94.347931000000003
 31
0.0
  0
LINE
  5
628
  8
0
  6
CONTINUOUS
 62
     7
 10
-604.13385000000005
 20
197.34792999999991
 30
0.0
 11
-603.13391000000001
 21
197.34792999999991
 31
0.0
  0
LINE
  5
629
  8
0
  6
CONTINUOUS
 62
     7
 10
-604.13385000000005
 20
197.34792999999991
 30
0.0
 11
-604.13385000000005
 21
96.224716000000001
 31
0.0
  0
LINE
  5
62A
  8
0
  6
CONTINUOUS
 62
     7
 10
-608.63927999999964
 20
106.2448199999999
 30
0.0
 11
-608.66296
 21
106.2586699999999
 31
0.0
  0
LINE
  5
62B
  8
0
  6
CONTINUOUS
 62
     7
 10
-595.13385000000017
 20
200.34792999999991
 30
0.0
 11
-595.13385000000017
 21
97.907684000000003
 31
0.0
  0
LINE
  5
62C
  8
0
  6
CONTINUOUS
 62
     7
 10
-538.13385000000005
 20
110.62486
 30
0.0
 11
-490.31180000000001
 21
110.62486
 31
0.0
  0
LINE
  5
62D
  8
0
  6
CONTINUOUS
 62
     7
 10
-593.45592999999997
 20
113.98068000000001
 30
0.0
 11
-581.13434000000007
 21
113.98068000000001
 31
0.0
  0
LINE
  5
62E
  8
0
  6
CONTINUOUS
 62
     7
 10
-538.13385000000005
 20
111.3479499999999
 30
0.0
 11
-592.76849000000004
 21
111.3479499999999
 31
0.0
  0
LINE
  5
62F
  8
0
  6
CONTINUOUS
 62
     7
 10
-538.13385000000005
 20
113.3479399999998
 30
0.0
 11
-592.76849000000004
 21
113.3479399999998
 31
0.0
  0
LINE
  5
630
  8
0
  6
CONTINUOUS
 62
     7
 10
-610.63391000000001
 20
130.0659
 30
0.0
 11
-609.1339099999999
 21
130.0659
 31
0.0
  0
LINE
  5
631
  8
0
  6
CONTINUOUS
 62
     7
 10
-610.63391000000001
 20
132.1979199999999
 30
0.0
 11
-607.34020999999996
 21
132.1979199999999
 31
0.0
  0
LINE
  5
632
  8
0
  6
CONTINUOUS
 62
     7
 10
-607.13385000000017
 20
141.73465999999991
 30
0.0
 11
-607.13385000000017
 21
142.89554999999979
 31
0.0
  0
LINE
  5
633
  8
0
  6
CONTINUOUS
 62
     7
 10
-610.63385000000005
 20
127.34795
 30
0.0
 11
-609.13385000000005
 21
127.2167199999999
 31
0.0
  0
LINE
  5
634
  8
0
  6
CONTINUOUS
 62
     7
 10
-610.63391000000001
 20
127.34792999999991
 30
0.0
 11
-610.63391000000001
 21
147.34795
 31
0.0
  0
LINE
  5
635
  8
0
  6
CONTINUOUS
 62
     7
 10
-607.13385000000017
 20
111.9550599999999
 30
0.0
 11
-607.13385000000017
 21
113.0149799999998
 31
0.0
  0
LINE
  5
636
  8
0
  6
CONTINUOUS
 62
     7
 10
-607.13385000000017
 20
121.72171999999991
 30
0.0
 11
-607.13385000000017
 21
123.0845699999999
 31
0.0
  0
LINE
  5
637
  8
0
  6
CONTINUOUS
 62
     7
 10
-607.13385000000017
 20
131.74081000000001
 30
0.0
 11
-607.13385000000017
 21
132.95219
 31
0.0
  0
LINE
  5
638
  8
0
  6
CONTINUOUS
 62
     7
 10
-605.13385000000005
 20
143.34794999999991
 30
0.0
 11
-608.13385000000005
 21
143.34794999999991
 31
0.0
  0
LINE
  5
639
  8
0
  6
CONTINUOUS
 62
     7
 10
-605.13385000000005
 20
141.34795
 30
0.0
 11
-608.13385000000005
 21
141.34795
 31
0.0
  0
LINE
  5
63A
  8
0
  6
CONTINUOUS
 62
     7
 10
-605.13385000000005
 20
133.34792999999999
 30
0.0
 11
-608.13385000000005
 21
133.34792999999999
 31
0.0
  0
LINE
  5
63B
  8
0
  6
CONTINUOUS
 62
     7
 10
-605.13385000000005
 20
131.34794999999991
 30
0.0
 11
-608.13385000000005
 21
131.34794999999991
 31
0.0
  0
LINE
  5
63C
  8
0
  6
CONTINUOUS
 62
     7
 10
-605.13385000000005
 20
123.34795
 30
0.0
 11
-608.13385000000005
 21
123.34795
 31
0.0
  0
LINE
  5
63D
  8
0
  6
CONTINUOUS
 62
     7
 10
-605.13385000000005
 20
121.34793000000001
 30
0.0
 11
-608.13385000000005
 21
121.34793000000001
 31
0.0
  0
LINE
  5
63E
  8
0
  6
CONTINUOUS
 62
     7
 10
-607.27752999999996
 20
113.6489899999999
 30
0.0
 11
-608.42786000000001
 21
114.0028299999999
 31
0.0
  0
LINE
  5
63F
  8
0
  6
CONTINUOUS
 62
     7
 10
-606.98351999999988
 20
113.6047699999999
 30
0.0
 11
-605.13385000000005
 21
113.6047699999999
 31
0.0
  0
LINE
  5
640
  8
0
  6
CONTINUOUS
 62
     7
 10
-607.32208000000003
 20
111.73907
 30
0.0
 11
-608.52672999999982
 21
112.25355
 31
0.0
  0
LINE
  5
641
  8
0
  6
CONTINUOUS
 62
     7
 10
-606.92920000000004
 20
111.65868
 30
0.0
 11
-604.83385999999996
 21
111.65868
 31
0.0
  0
LINE
  5
642
  8
0
  6
CONTINUOUS
 62
     7
 10
-490.31180000000001
 20
113.98068000000001
 30
0.0
 11
-506.83385999999967
 21
113.98068000000001
 31
0.0
  0
LINE
  5
643
  8
0
  6
CONTINUOUS
 62
     7
 10
-507.83389
 20
114.9806899999999
 30
0.0
 11
-507.83389
 21
115.84818
 31
0.0
  0
LINE
  5
644
  8
0
  6
CONTINUOUS
 62
     7
 10
-506.63384999999988
 20
117.0822899999999
 30
0.0
 11
-497.36389000000003
 21
117.34791
 31
0.0
  0
LINE
  5
645
  8
0
  6
CONTINUOUS
 62
     7
 10
-593.45592999999997
 20
110.62486
 30
0.0
 11
-538.13385000000005
 21
110.62486
 31
0.0
  0
LINE
  5
646
  8
0
  6
CONTINUOUS
 62
     7
 10
-493.78951999999981
 20
111.3479499999999
 30
0.0
 11
-538.13385000000005
 21
111.3479499999999
 31
0.0
  0
LINE
  5
647
  8
0
  6
CONTINUOUS
 62
     7
 10
-493.78951999999981
 20
113.3479399999998
 30
0.0
 11
-538.13385000000005
 21
113.3479399999998
 31
0.0
  0
LINE
  5
648
  8
0
  6
CONTINUOUS
 62
     7
 10
-593.67229999999995
 20
120.86174
 30
0.0
 11
-586.63433999999995
 21
120.86174
 31
0.0
  0
LINE
  5
649
  8
0
  6
CONTINUOUS
 62
     7
 10
-586.63433999999995
 20
121.34793000000001
 30
0.0
 11
-592.76849000000004
 21
121.34793000000001
 31
0.0
  0
LINE
  5
64A
  8
0
  6
CONTINUOUS
 62
     7
 10
-593.67229999999995
 20
123.7847
 30
0.0
 11
-586.63433999999995
 21
123.7847
 31
0.0
  0
LINE
  5
64B
  8
0
  6
CONTINUOUS
 62
     7
 10
-586.63433999999995
 20
123.34795
 30
0.0
 11
-592.76849000000004
 21
123.34795
 31
0.0
  0
LINE
  5
64C
  8
0
  6
CONTINUOUS
 62
     7
 10
-593.80291999999986
 20
131.0044399999999
 30
0.0
 11
-586.63433999999995
 21
131.0044399999999
 31
0.0
  0
LINE
  5
64D
  8
0
  6
CONTINUOUS
 62
     7
 10
-586.63433999999995
 20
131.34794999999991
 30
0.0
 11
-592.76849000000004
 21
131.34794999999991
 31
0.0
  0
LINE
  5
64E
  8
0
  6
CONTINUOUS
 62
     7
 10
-586.63433999999995
 20
133.34792999999999
 30
0.0
 11
-592.76849000000004
 21
133.34792999999999
 31
0.0
  0
LINE
  5
64F
  8
0
  6
CONTINUOUS
 62
     7
 10
-593.80291999999986
 20
133.66631000000001
 30
0.0
 11
-586.63433999999995
 21
133.66631000000001
 31
0.0
  0
LINE
  5
650
  8
0
  6
CONTINUOUS
 62
     7
 10
-593.86492999999984
 20
141.07511999999991
 30
0.0
 11
-588.63433999999995
 21
141.07511999999991
 31
0.0
  0
LINE
  5
651
  8
0
  6
CONTINUOUS
 62
     7
 10
-588.63433999999995
 20
141.34795
 30
0.0
 11
-592.76849000000004
 21
141.34795
 31
0.0
  0
LINE
  5
652
  8
0
  6
CONTINUOUS
 62
     7
 10
-588.63433999999995
 20
143.34794999999991
 30
0.0
 11
-592.76849000000004
 21
143.34794999999991
 31
0.0
  0
LINE
  5
653
  8
0
  6
CONTINUOUS
 62
     7
 10
-593.86492999999984
 20
143.6129599999999
 30
0.0
 11
-588.63433999999995
 21
143.6129599999999
 31
0.0
  0
LINE
  5
654
  8
0
  6
CONTINUOUS
 62
     7
 10
-507.83389
 20
179.7151299999999
 30
0.0
 11
-507.83389
 21
178.84769
 31
0.0
  0
LINE
  5
655
  8
0
  6
CONTINUOUS
 62
     7
 10
-490.31180000000001
 20
180.7151199999999
 30
0.0
 11
-506.83385999999967
 21
180.7151199999999
 31
0.0
  0
LINE
  5
656
  8
0
  6
CONTINUOUS
 62
     7
 10
-593.86492999999984
 20
151.08286000000001
 30
0.0
 11
-588.63433999999995
 21
151.08286000000001
 31
0.0
  0
LINE
  5
657
  8
0
  6
CONTINUOUS
 62
     7
 10
-593.86492999999984
 20
153.6207
 30
0.0
 11
-588.63433999999995
 21
153.6207
 31
0.0
  0
LINE
  5
658
  8
0
  6
CONTINUOUS
 62
     7
 10
-593.80291999999986
 20
161.02958999999981
 30
0.0
 11
-586.63433999999995
 21
161.02958999999981
 31
0.0
  0
LINE
  5
659
  8
0
  6
CONTINUOUS
 62
     7
 10
-593.80291999999986
 20
163.69144
 30
0.0
 11
-586.63433999999995
 21
163.69144
 31
0.0
  0
LINE
  5
65A
  8
0
  6
CONTINUOUS
 62
     7
 10
-593.67235999999957
 20
170.9111
 30
0.0
 11
-586.63433999999995
 21
170.9111
 31
0.0
  0
LINE
  5
65B
  8
0
  6
CONTINUOUS
 62
     7
 10
-593.67235999999957
 20
173.83408
 30
0.0
 11
-586.63433999999995
 21
173.83408
 31
0.0
  0
LINE
  5
65C
  8
0
  6
CONTINUOUS
 62
     7
 10
-593.45659999999998
 20
180.7151199999999
 30
0.0
 11
-581.13434000000007
 21
180.7151199999999
 31
0.0
  0
LINE
  5
65D
  8
0
  6
CONTINUOUS
 62
     7
 10
-593.45659999999998
 20
184.07095000000001
 30
0.0
 11
-490.31180000000001
 21
184.07095000000001
 31
0.0
  0
LINE
  5
65E
  8
0
  6
CONTINUOUS
 62
     7
 10
-588.63433999999995
 20
151.34792999999999
 30
0.0
 11
-592.76849000000004
 21
151.34792999999999
 31
0.0
  0
LINE
  5
65F
  8
0
  6
CONTINUOUS
 62
     7
 10
-588.63433999999995
 20
153.34795
 30
0.0
 11
-592.76849000000004
 21
153.34795
 31
0.0
  0
LINE
  5
660
  8
0
  6
CONTINUOUS
 62
     7
 10
-586.63433999999995
 20
161.34792999999991
 30
0.0
 11
-592.76849000000004
 21
161.34792999999991
 31
0.0
  0
LINE
  5
661
  8
0
  6
CONTINUOUS
 62
     7
 10
-586.63433999999995
 20
163.34792999999991
 30
0.0
 11
-592.76849000000004
 21
163.34792999999991
 31
0.0
  0
LINE
  5
662
  8
0
  6
CONTINUOUS
 62
     7
 10
-586.63433999999995
 20
171.34795
 30
0.0
 11
-592.76849000000004
 21
171.34795
 31
0.0
  0
LINE
  5
663
  8
0
  6
CONTINUOUS
 62
     7
 10
-586.63433999999995
 20
173.34792999999991
 30
0.0
 11
-592.76849000000004
 21
173.34792999999991
 31
0.0
  0
LINE
  5
664
  8
0
  6
CONTINUOUS
 62
     7
 10
-493.78951999999981
 20
181.34792999999999
 30
0.0
 11
-592.76849000000004
 21
181.34792999999999
 31
0.0
  0
LINE
  5
665
  8
0
  6
CONTINUOUS
 62
     7
 10
-493.78951999999981
 20
183.34794999999991
 30
0.0
 11
-592.76849000000004
 21
183.34794999999991
 31
0.0
  0
LINE
  5
666
  8
0
  6
CONTINUOUS
 62
     7
 10
-610.63391000000001
 20
164.62991
 30
0.0
 11
-609.1339099999999
 21
164.62991
 31
0.0
  0
LINE
  5
667
  8
0
  6
CONTINUOUS
 62
     7
 10
-610.63391000000001
 20
162.49796000000001
 30
0.0
 11
-605.95636000000002
 21
162.49796000000001
 31
0.0
  0
LINE
  5
668
  8
0
  6
CONTINUOUS
 62
     7
 10
-610.63391000000001
 20
167.34795
 30
0.0
 11
-609.1339099999999
 21
167.4791699999999
 31
0.0
  0
LINE
  5
669
  8
0
  6
CONTINUOUS
 62
     7
 10
-610.63391000000001
 20
167.34792999999991
 30
0.0
 11
-610.63391000000001
 21
147.34795
 31
0.0
  0
LINE
  5
66A
  8
0
  6
CONTINUOUS
 62
     7
 10
-607.13385000000017
 20
196.8441
 30
0.0
 11
-607.13385000000017
 21
196.31833
 31
0.0
  0
LINE
  5
66B
  8
0
  6
CONTINUOUS
 62
     7
 10
-607.13385000000017
 20
194.74448000000001
 30
0.0
 11
-607.13385000000017
 21
194.19840999999991
 31
0.0
  0
LINE
  5
66C
  8
0
  6
CONTINUOUS
 62
     7
 10
-607.13385000000017
 20
190.17838
 30
0.0
 11
-607.13385000000017
 21
189.70621
 31
0.0
  0
LINE
  5
66D
  8
0
  6
CONTINUOUS
 62
     7
 10
-607.13385000000017
 20
182.74081000000001
 30
0.0
 11
-607.13385000000017
 21
181.68088
 31
0.0
  0
LINE
  5
66E
  8
0
  6
CONTINUOUS
 62
     7
 10
-607.13385000000017
 20
172.97411
 30
0.0
 11
-607.13385000000017
 21
171.6112999999998
 31
0.0
  0
LINE
  5
66F
  8
0
  6
CONTINUOUS
 62
     7
 10
-607.13385000000017
 20
152.96115
 30
0.0
 11
-607.13385000000017
 21
151.80026000000001
 31
0.0
  0
LINE
  5
670
  8
0
  6
CONTINUOUS
 62
     7
 10
-607.13385000000017
 20
162.95505
 30
0.0
 11
-607.13385000000017
 21
161.74361999999999
 31
0.0
  0
LINE
  5
671
  8
0
  6
CONTINUOUS
 62
     7
 10
-605.13385000000005
 20
151.34792999999999
 30
0.0
 11
-608.13385000000005
 21
151.34792999999999
 31
0.0
  0
LINE
  5
672
  8
0
  6
CONTINUOUS
 62
     7
 10
-605.13385000000005
 20
153.34795
 30
0.0
 11
-608.13385000000005
 21
153.34795
 31
0.0
  0
LINE
  5
673
  8
0
  6
CONTINUOUS
 62
     7
 10
-605.13385000000005
 20
161.34792999999991
 30
0.0
 11
-608.13385000000005
 21
161.34792999999991
 31
0.0
  0
LINE
  5
674
  8
0
  6
CONTINUOUS
 62
     7
 10
-605.13385000000005
 20
163.34792999999991
 30
0.0
 11
-608.13385000000005
 21
163.34792999999991
 31
0.0
  0
LINE
  5
675
  8
0
  6
CONTINUOUS
 62
     7
 10
-605.13385000000005
 20
171.34795
 30
0.0
 11
-608.13385000000005
 21
171.34795
 31
0.0
  0
LINE
  5
676
  8
0
  6
CONTINUOUS
 62
     7
 10
-605.13385000000005
 20
173.34792999999991
 30
0.0
 11
-608.13385000000005
 21
173.34792999999991
 31
0.0
  0
LINE
  5
677
  8
0
  6
CONTINUOUS
 62
     7
 10
-607.35357999999997
 20
193.7331199999999
 30
0.0
 11
-608.60222999999985
 21
193.07126999999991
 31
0.0
  0
LINE
  5
678
  8
0
  6
CONTINUOUS
 62
     7
 10
-607.34722999999985
 20
195.84271000000001
 30
0.0
 11
-608.58649000000003
 21
195.21368000000001
 31
0.0
  0
LINE
  5
679
  8
0
  6
CONTINUOUS
 62
     7
 10
-607.27752999999996
 20
181.04688999999999
 30
0.0
 11
-608.42791999999997
 21
180.69303999999991
 31
0.0
  0
LINE
  5
67A
  8
0
  6
CONTINUOUS
 62
     7
 10
-607.36797999999976
 20
189.19574
 30
0.0
 11
-608.63927999999964
 21
188.4510699999999
 31
0.0
  0
LINE
  5
67B
  8
0
  6
CONTINUOUS
 62
     7
 10
-606.89458999999999
 20
195.95102
 30
0.0
 11
-604.6339099999999
 21
195.95102
 31
0.0
  0
LINE
  5
67C
  8
0
  6
CONTINUOUS
 62
     7
 10
-606.88519000000019
 20
193.84958999999989
 30
0.0
 11
-605.13385000000005
 21
193.84958999999989
 31
0.0
  0
LINE
  5
67D
  8
0
  6
CONTINUOUS
 62
     7
 10
-606.86255000000017
 20
189.33286000000001
 30
0.0
 11
-605.13385000000005
 21
189.33286000000001
 31
0.0
  0
LINE
  5
67E
  8
0
  6
CONTINUOUS
 62
     7
 10
-606.98351999999988
 20
181.0910299999999
 30
0.0
 11
-605.13385000000005
 21
181.0910299999999
 31
0.0
  0
LINE
  5
67F
  8
0
  6
CONTINUOUS
 62
     7
 10
-606.83520999999985
 20
190.4728099999999
 30
0.0
 11
-604.13385000000005
 21
190.4728099999999
 31
0.0
  0
LINE
  5
680
  8
0
  6
CONTINUOUS
 62
     7
 10
-606.85681
 20
194.98953
 30
0.0
 11
-604.13385000000005
 21
194.98953
 31
0.0
  0
LINE
  5
681
  8
0
  6
CONTINUOUS
 62
     7
 10
-607.32201999999995
 20
182.95685999999981
 30
0.0
 11
-608.52661000000001
 21
182.44238000000001
 31
0.0
  0
LINE
  5
682
  8
0
  6
CONTINUOUS
 62
     7
 10
-607.38360999999998
 20
190.3091399999999
 30
0.0
 11
-608.68224999999995
 21
189.45757
 31
0.0
  0
LINE
  5
683
  8
0
  6
CONTINUOUS
 62
     7
 10
-607.37139999999977
 20
194.84706
 30
0.0
 11
-608.64844000000005
 21
194.08076
 31
0.0
  0
LINE
  5
684
  8
0
  6
CONTINUOUS
 62
     7
 10
-607.36608999999999
 20
196.9630699999999
 30
0.0
 11
-608.63427999999965
 21
196.2300899999999
 31
0.0
  0
LINE
  5
685
  8
0
  6
CONTINUOUS
 62
     7
 10
-606.92920000000004
 20
183.03713999999991
 30
0.0
 11
-604.83385999999996
 21
183.03713999999991
 31
0.0
  0
LINE
  5
686
  8
0
  6
CONTINUOUS
 62
     7
 10
-606.86565999999959
 20
197.09734
 30
0.0
 11
-604.6339099999999
 21
197.09734
 31
0.0
  0
LINE
  5
687
  8
0
  6
CONTINUOUS
 62
     7
 10
-609.1339099999999
 20
195.36429000000001
 30
0.0
 11
-609.1339099999999
 21
152.34792999999991
 31
0.0
  0
LINE
  5
688
  8
0
  6
CONTINUOUS
 62
     7
 10
-497.36383000000001
 20
177.34795
 30
0.0
 11
-497.36383000000001
 21
117.34795
 31
0.0
  0
LINE
  5
689
  8
0
  6
CONTINUOUS
 62
     7
 10
-487.13387999999998
 20
203.34792999999991
 30
0.0
 11
-487.13387999999998
 21
91.347931000000017
 31
0.0
  0
LINE
  5
68A
  8
0
  6
CONTINUOUS
 62
     3
 10
-566.13385000000017
 20
113.84818
 30
0.0
 11
-581.13434000000007
 21
113.84818
 31
0.0
  0
LINE
  5
68B
  8
0
  6
CONTINUOUS
 62
     3
 10
-588.63433999999995
 20
139.8476999999998
 30
0.0
 11
-585.13434000000007
 21
139.8476999999998
 31
0.0
  0
LINE
  5
68C
  8
0
  6
CONTINUOUS
 62
     3
 10
-566.13385000000017
 20
178.84769
 30
0.0
 11
-506.63387999999992
 21
178.84769
 31
0.0
  0
LINE
  5
68D
  8
0
  6
CONTINUOUS
 62
     3
 10
-566.13385000000017
 20
115.84818
 30
0.0
 11
-506.63387999999992
 21
115.84818
 31
0.0
  0
LINE
  5
68E
  8
0
  6
CONTINUOUS
 62
     3
 10
-566.13385000000017
 20
113.84818
 30
0.0
 11
-566.13385000000017
 21
117.34818
 31
0.0
  0
LINE
  5
68F
  8
0
  6
CENTER
 62
     7
 10
-538.13385000000005
 20
185.94182000000001
 30
0.0
 11
-538.13385000000005
 21
104.69521999999991
 31
0.0
  0
LINE
  5
690
  8
0
  6
CONTINUOUS
 62
     3
 10
-581.13434000000007
 20
113.84818
 30
0.0
 11
-581.13434000000007
 21
117.34818
 31
0.0
  0
LINE
  5
691
  8
0
  6
CONTINUOUS
 62
     7
 10
-235.2809399999999
 20
124.34795
 30
0.0
 11
-238.2809399999999
 21
129.54793999999981
 31
0.0
  0
LINE
  5
692
  8
0
  6
CONTINUOUS
 62
     7
 10
-238.2809399999999
 20
129.54793999999981
 30
0.0
 11
-238.2809399999999
 21
165.15793999999991
 31
0.0
  0
LINE
  5
693
  8
0
  6
CONTINUOUS
 62
     7
 10
-227.91927999999999
 20
180.84792999999991
 30
0.0
 11
-230.28093999999999
 21
180.84792999999991
 31
0.0
  0
LINE
  5
694
  8
0
  6
CONTINUOUS
 62
     7
 10
-230.28093999999999
 20
177.34795
 30
0.0
 11
-230.28093999999999
 21
180.84792999999991
 31
0.0
  0
LINE
  5
695
  8
0
  6
CONTINUOUS
 62
     7
 10
-451.85521999999997
 20
455.94277999999991
 30
0.0
 11
-459.54437000000001
 21
445.03188999999998
 31
0.0
  0
LINE
  5
696
  8
0
  6
CONTINUOUS
 62
     7
 10
-459.54439999999988
 20
381.15783999999991
 30
0.0
 11
-451.85521999999997
 21
370.24691999999988
 31
0.0
  0
LINE
  5
697
  8
0
  6
CONTINUOUS
 62
     7
 10
-459.54439999999988
 20
356.10088999999999
 30
0.0
 11
-459.54439999999988
 21
367.09487999999999
 31
0.0
  0
LINE
  5
698
  8
0
  6
CONTINUOUS
 62
     7
 10
-459.54439999999988
 20
459.09487999999988
 30
0.0
 11
-459.54439999999988
 21
470.08886999999999
 31
0.0
  0
LINE
  5
699
  8
0
  6
CONTINUOUS
 62
     7
 10
-479.13385
 20
459.09487999999988
 30
0.0
 11
-453.49005
 21
459.09487999999988
 31
0.0
  0
LINE
  5
69A
  8
0
  6
CONTINUOUS
 62
     7
 10
-479.13385
 20
367.09487999999999
 30
0.0
 11
-453.49005
 21
367.09487999999999
 31
0.0
  0
LINE
  5
69B
  8
0
  6
CONTINUOUS
 62
     7
 10
-479.13385
 20
381.15789999999998
 30
0.0
 11
-459.54439999999988
 21
381.15789999999998
 31
0.0
  0
LINE
  5
69C
  8
0
  6
CONTINUOUS
 62
     7
 10
-459.54439999999988
 20
381.15789999999998
 30
0.0
 11
-459.54439999999988
 21
445.03188999999998
 31
0.0
  0
LINE
  5
69D
  8
0
  6
CONTINUOUS
 62
     7
 10
-479.13385
 20
445.03188999999998
 30
0.0
 11
-459.54439999999988
 21
445.03188999999998
 31
0.0
  0
LINE
  5
69E
  8
0
  6
CONTINUOUS
 62
     7
 10
-458.2255599999998
 20
355.30417
 30
0.0
 11
-451.41989000000001
 21
349.59354000000002
 31
0.0
  0
LINE
  5
69F
  8
0
  6
CONTINUOUS
 62
     7
 10
-458.22552000000002
 20
470.88558999999992
 30
0.0
 11
-451.41991999999999
 21
476.59615999999988
 31
0.0
  0
LINE
  5
6A0
  8
0
  6
CONTINUOUS
 62
     7
 10
-359.63384999999982
 20
398.09487999999999
 30
0.0
 11
-356.63385
 21
398.09487999999999
 31
0.0
  0
LINE
  5
6A1
  8
0
  6
CONTINUOUS
 62
     7
 10
-314.63387999999992
 20
427.09491000000003
 30
0.0
 11
-314.63387999999992
 21
399.09491000000003
 31
0.0
  0
LINE
  5
6A2
  8
0
  6
CONTINUOUS
 62
     7
 10
-356.63385
 20
427.09491000000003
 30
0.0
 11
-314.63387999999992
 21
427.09491000000003
 31
0.0
  0
LINE
  5
6A3
  8
0
  6
CONTINUOUS
 62
     7
 10
-356.63385
 20
428.09487999999988
 30
0.0
 11
-356.63385
 21
398.09487999999999
 31
0.0
  0
LINE
  5
6A4
  8
0
  6
CONTINUOUS
 62
     7
 10
-356.63385
 20
399.09491000000003
 30
0.0
 11
-314.63387999999992
 21
399.09491000000003
 31
0.0
  0
LINE
  5
6A5
  8
0
  6
CONTINUOUS
 62
     7
 10
-346.63387999999992
 20
417.09484999999989
 30
0.0
 11
-346.63387999999992
 21
409.09487999999988
 31
0.0
  0
LINE
  5
6A6
  8
0
  6
CONTINUOUS
 62
     7
 10
-359.63384999999982
 20
428.09487999999988
 30
0.0
 11
-356.63385
 21
428.09487999999988
 31
0.0
  0
LINE
  5
6A7
  8
0
  6
CONTINUOUS
 62
     7
 10
-361.66000000000003
 20
442.14794999999998
 30
0.0
 11
-360.60766999999998
 21
442.12038999999999
 31
0.0
  0
LINE
  5
6A8
  8
0
  6
CONTINUOUS
 62
     7
 10
-467.41028
 20
477.41320999999988
 30
0.0
 11
-454.55221999999992
 21
473.96789999999987
 31
0.0
  0
LINE
  5
6A9
  8
0
  6
CONTINUOUS
 62
     7
 10
-469.63385
 20
499.20352000000003
 30
0.0
 11
-469.63385
 21
480.31097
 31
0.0
  0
LINE
  5
6AA
  8
0
  6
CONTINUOUS
 62
     7
 10
-359.63384999999982
 20
498.26082999999988
 30
0.0
 11
-359.63384999999982
 21
471.09487999999988
 31
0.0
  0
LINE
  5
6AB
  8
0
  6
CENTER
 62
     7
 10
-462.83989999999989
 20
488.09487999999988
 30
0.0
 11
-447.0426299999998
 21
488.09487999999988
 31
0.0
  0
LINE
  5
6AC
  8
0
  6
CONTINUOUS
 62
     7
 10
-432.63385
 20
503.09487999999988
 30
0.0
 11
-362.55532999999991
 21
501.25979999999993
 31
0.0
  0
LINE
  5
6AD
  8
0
  6
CONTINUOUS
 62
     7
 10
-466.71237000000002
 20
502.20247999999992
 30
0.0
 11
-432.63385
 21
503.09485000000001
 31
0.0
  0
LINE
  5
6AE
  8
0
  6
CENTER
 62
     7
 10
-454.63385
 20
496.53499999999991
 30
0.0
 11
-454.63385
 21
479.57144
 31
0.0
  0
LINE
  5
6AF
  8
0
  6
CENTER
 62
     7
 10
-374.63385
 20
496.9590799999998
 30
0.0
 11
-374.63385
 21
479.25339000000002
 31
0.0
  0
LINE
  5
6B0
  8
0
  6
CENTER
 62
     7
 10
-382.89922999999987
 20
488.09487999999988
 30
0.0
 11
-366.25375000000003
 21
488.09487999999988
 31
0.0
  0
LINE
  5
6B1
  8
0
  6
CONTINUOUS
 62
     7
 10
-432.63385
 20
497.96222
 30
0.0
 11
-432.63385
 21
495.34582999999998
 31
0.0
  0
LINE
  5
6B2
  8
0
  6
CONTINUOUS
 62
     7
 10
-361.66002999999989
 20
384.04183999999992
 30
0.0
 11
-360.60766999999998
 21
384.06939999999992
 31
0.0
  0
LINE
  5
6B3
  8
0
  6
CONTINUOUS
 62
     7
 10
-469.63385
 20
326.98621000000009
 30
0.0
 11
-469.63385
 21
345.87878000000001
 31
0.0
  0
LINE
  5
6B4
  8
0
  6
CONTINUOUS
 62
     7
 10
-467.41030999999992
 20
348.77654999999999
 30
0.0
 11
-454.55221999999992
 21
352.22185999999982
 31
0.0
  0
LINE
  5
6B5
  8
0
  6
CONTINUOUS
 62
     7
 10
-359.63384999999982
 20
327.92892000000001
 30
0.0
 11
-359.63384999999982
 21
355.09487999999999
 31
0.0
  0
LINE
  5
6B6
  8
0
  6
CENTER
 62
     7
 10
-463.32799999999997
 20
338.09487999999999
 30
0.0
 11
-447.07400999999987
 21
338.09487999999999
 31
0.0
  0
LINE
  5
6B7
  8
0
  6
CONTINUOUS
 62
     7
 10
-432.63385
 20
323.09487999999999
 30
0.0
 11
-362.55532999999991
 21
324.92995999999999
 31
0.0
  0
LINE
  5
6B8
  8
0
  6
CONTINUOUS
 62
     7
 10
-466.71237000000002
 20
323.98723999999982
 30
0.0
 11
-432.63385
 21
323.09487999999999
 31
0.0
  0
LINE
  5
6B9
  8
0
  6
CENTER
 62
     7
 10
-454.63385
 20
329.02404999999987
 30
0.0
 11
-454.63385
 21
346.99596999999977
 31
0.0
  0
LINE
  5
6BA
  8
0
  6
CENTER
 62
     7
 10
-374.63385
 20
328.23117000000002
 30
0.0
 11
-374.63385
 21
347.78885000000002
 31
0.0
  0
LINE
  5
6BB
  8
0
  6
CONTINUOUS
 62
     7
 10
-435.63384999999988
 20
330.84392999999972
 30
0.0
 11
-435.63384999999988
 21
495.34582999999998
 31
0.0
  0
LINE
  5
6BC
  8
0
  6
CONTINUOUS
 62
     7
 10
-362.63385
 20
358.96785999999992
 30
0.0
 11
-362.63385
 21
467.2218899999998
 31
0.0
  0
LINE
  5
6BD
  8
0
  6
CONTINUOUS
 62
     7
 10
-359.63384999999982
 20
441.12072999999998
 30
0.0
 11
-359.63384999999982
 21
385.06903
 31
0.0
  0
LINE
  5
6BE
  8
0
  6
CONTINUOUS
 62
     7
 10
-436.63385
 20
501.96221999999989
 30
0.0
 11
-436.63385
 21
498.61908
 31
0.0
  0
LINE
  5
6BF
  8
0
  6
CONTINUOUS
 62
     7
 10
-346.63387999999992
 20
409.09487999999988
 30
0.0
 11
-314.63387999999992
 21
409.09487999999988
 31
0.0
  0
LINE
  5
6C0
  8
0
  6
CONTINUOUS
 62
     7
 10
-346.63387999999992
 20
417.09484999999989
 30
0.0
 11
-314.63387999999992
 21
417.09484999999989
 31
0.0
  0
LINE
  5
6C1
  8
0
  6
CONTINUOUS
 62
     7
 10
-374.63385
 20
357.92334
 30
0.0
 11
-374.63385
 21
468.26641999999993
 31
0.0
  0
LINE
  5
6C2
  8
0
  6
CONTINUOUS
 62
     7
 10
-365.37237999999979
 20
467.33447000000001
 30
0.0
 11
-371.16782000000001
 21
467.84151999999989
 31
0.0
  0
LINE
  5
6C3
  8
0
  6
CONTINUOUS
 62
     7
 10
-365.37241
 20
358.85528999999991
 30
0.0
 11
-371.16782000000001
 21
358.34827000000001
 31
0.0
  0
LINE
  5
6C4
  8
0
  6
CONTINUOUS
 62
     7
 10
-379.45937999999978
 20
473.26339999999999
 30
0.0
 11
-384.91305999999992
 21
473.45382999999993
 31
0.0
  0
LINE
  5
6C5
  8
0
  6
CONTINUOUS
 62
     7
 10
-379.45934999999992
 20
352.92635999999999
 30
0.0
 11
-384.91305999999992
 21
352.73593
 31
0.0
  0
LINE
  5
6C6
  8
0
  6
CONTINUOUS
 62
     7
 10
-392.63384999999988
 20
329.27496000000002
 30
0.0
 11
-392.63384999999988
 21
344.74077999999992
 31
0.0
  0
LINE
  5
6C7
  8
0
  6
CONTINUOUS
 62
     7
 10
-392.63384999999988
 20
481.44896999999997
 30
0.0
 11
-392.63384999999988
 21
496.91478999999998
 31
0.0
  0
LINE
  5
6C8
  8
0
  6
CONTINUOUS
 62
     7
 10
-435.63384999999988
 20
330.84392999999972
 30
0.0
 11
-432.63385
 21
330.84392999999972
 31
0.0
  0
LINE
  5
6C9
  8
0
  6
CONTINUOUS
 62
     7
 10
-435.63384999999988
 20
495.34582999999998
 30
0.0
 11
-432.63385
 21
495.34582999999998
 31
0.0
  0
LINE
  5
6CA
  8
0
  6
CENTER
 62
     7
 10
-383.51166000000001
 20
338.09487999999999
 30
0.0
 11
-366.59692000000001
 21
338.09487999999999
 31
0.0
  0
LINE
  5
6CB
  8
0
  6
CONTINUOUS
 62
     7
 10
-432.63385
 20
328.22753999999992
 30
0.0
 11
-432.63385
 21
330.84392999999972
 31
0.0
  0
LINE
  5
6CC
  8
0
  6
CONTINUOUS
 62
     7
 10
-436.63385
 20
324.22753999999998
 30
0.0
 11
-436.63385
 21
327.57067999999998
 31
0.0
  0
LINE
  5
6CD
  8
0
  6
CONTINUOUS
 62
     7
 10
-435.63384999999988
 20
330.84392999999972
 30
0.0
 11
-446.73855999999989
 21
331.23171999999983
 31
0.0
  0
LINE
  5
6CE
  8
0
  6
CONTINUOUS
 62
     7
 10
-435.63387999999992
 20
495.34582999999998
 30
0.0
 11
-446.73855999999989
 21
494.95803999999998
 31
0.0
  0
LINE
  5
6CF
  8
0
  6
CONTINUOUS
 62
     7
 10
-449.63385
 20
334.22989000000001
 30
0.0
 11
-449.63385
 21
491.95987000000002
 31
0.0
  0
LINE
  5
6D0
  8
0
  6
CONTINUOUS
 62
     7
 10
-449.63385
 20
472.40337999999991
 30
0.0
 11
-442.63387999999992
 21
472.40337999999991
 31
0.0
  0
LINE
  5
6D1
  8
0
  6
CONTINUOUS
 62
     7
 10
-449.63385
 20
353.78638000000001
 30
0.0
 11
-442.63387999999992
 21
353.78638000000001
 31
0.0
  0
LINE
  5
6D2
  8
0
  6
CONTINUOUS
 62
     7
 10
-442.63387999999992
 20
342.00470000000001
 30
0.0
 11
-442.63387999999992
 21
484.18505999999991
 31
0.0
  0
LINE
  5
6D3
  8
0
  6
CONTINUOUS
 62
     7
 10
-479.13385
 20
357.09487999999999
 30
0.0
 11
-479.13385
 21
469.09487999999999
 31
0.0
  0
LINE
  5
6D4
  8
0
  6
CONTINUOUS
 62
     7
 10
-461.26497999999981
 20
356.47088999999983
 30
0.0
 11
-479.13385
 21
357.09487999999999
 31
0.0
  0
LINE
  5
6D5
  8
0
  6
CONTINUOUS
 62
     7
 10
-461.26500999999968
 20
469.71886999999981
 30
0.0
 11
-479.13385
 21
469.09487999999999
 31
0.0
  0
LINE
  5
6D6
  8
0
  6
CONTINUOUS
 62
     3
 10
-587.40674000000001
 20
347.59487999999988
 30
0.0
 11
-507.40685999999988
 21
347.59487999999988
 31
0.0
  0
LINE
  5
6D7
  8
0
  6
CONTINUOUS
 62
     3
 10
-507.40685999999988
 20
347.59487999999988
 30
0.0
 11
-507.40685999999988
 21
340.59487999999982
 31
0.0
  0
LINE
  5
6D8
  8
0
  6
CONTINUOUS
 62
     3
 10
-508.90685999999988
 20
324.09487999999982
 30
0.0
 11
-508.90685999999988
 21
340.59487999999982
 31
0.0
  0
LINE
  5
6D9
  8
0
  6
CONTINUOUS
 62
     3
 10
-566.90686000000005
 20
336.59487999999982
 30
0.0
 11
-566.90686000000005
 21
344.09487999999999
 31
0.0
  0
LINE
  5
6DA
  8
0
  6
CONTINUOUS
 62
     3
 10
-581.90674000000001
 20
344.09487999999999
 30
0.0
 11
-581.90674000000001
 21
336.59487999999982
 31
0.0
  0
LINE
  5
6DB
  8
0
  6
CONTINUOUS
 62
     3
 10
-585.90673999999979
 20
344.09487999999999
 30
0.0
 11
-585.90673999999979
 21
324.09487999999982
 31
0.0
  0
LINE
  5
6DC
  8
0
  6
CONTINUOUS
 62
     3
 10
-556.70678999999996
 20
321.09487999999999
 30
0.0
 11
-521.10681
 21
321.09487999999999
 31
0.0
  0
LINE
  5
6DD
  8
0
  6
CONTINUOUS
 62
     3
 10
-585.90673999999979
 20
324.09487999999982
 30
0.0
 11
-508.90685999999988
 21
324.09487999999982
 31
0.0
  0
LINE
  5
6DE
  8
0
  6
CONTINUOUS
 62
     3
 10
-585.90673999999979
 20
340.59487999999982
 30
0.0
 11
-581.90674000000001
 21
340.59487999999982
 31
0.0
  0
LINE
  5
6DF
  8
0
  6
CONTINUOUS
 62
     3
 10
-515.90679999999986
 20
324.09485000000001
 30
0.0
 11
-521.10681
 21
321.09485000000001
 31
0.0
  0
LINE
  5
6E0
  8
0
  6
CONTINUOUS
 62
     3
 10
-556.70685000000003
 20
321.09491000000008
 30
0.0
 11
-561.90686000000005
 21
324.09487999999982
 31
0.0
  0
LINE
  5
6E1
  8
0
  6
CONTINUOUS
 62
     3
 10
-589.4067399999999
 20
344.09487999999999
 30
0.0
 11
-589.4067399999999
 21
329.09586000000002
 31
0.0
  0
LINE
  5
6E2
  8
0
  6
CONTINUOUS
 62
     3
 10
-585.90673999999979
 20
329.09586000000002
 30
0.0
 11
-589.4067399999999
 21
329.09586000000002
 31
0.0
  0
LINE
  5
6E3
  8
0
  6
CONTINUOUS
 62
     3
 10
-570.40686000000017
 20
344.09487999999999
 30
0.0
 11
-570.40686000000017
 21
336.59487999999982
 31
0.0
  0
LINE
  5
6E4
  8
0
  6
CONTINUOUS
 62
     3
 10
-578.40674000000001
 20
344.09487999999999
 30
0.0
 11
-578.40674000000001
 21
336.59487999999982
 31
0.0
  0
LINE
  5
6E5
  8
0
  6
CONTINUOUS
 62
     3
 10
-566.90686000000005
 20
340.59487999999982
 30
0.0
 11
-507.40685999999988
 21
340.59487999999982
 31
0.0
  0
LINE
  5
6E6
  8
0
  6
CONTINUOUS
 62
     3
 10
-589.4067399999999
 20
344.09487999999999
 30
0.0
 11
-507.40685999999988
 21
344.09487999999999
 31
0.0
  0
LINE
  5
6E7
  8
0
  6
CONTINUOUS
 62
     3
 10
-587.40674000000001
 20
347.59487999999988
 30
0.0
 11
-587.40674000000001
 21
344.09487999999999
 31
0.0
  0
LINE
  5
6E8
  8
0
  6
CONTINUOUS
 62
     7
 10
-508.63385
 20
348.59487999999999
 30
0.0
 11
-508.63385
 21
347.59487999999988
 31
0.0
  0
LINE
  5
6E9
  8
0
  6
CONTINUOUS
 62
     7
 10
-567.63378999999998
 20
348.59487999999999
 30
0.0
 11
-567.63378999999998
 21
347.59487999999988
 31
0.0
  0
LINE
  5
6EA
  8
0
  6
CONTINUOUS
 62
     7
 10
-488.92809999999992
 20
458.02377000000001
 30
0.0
 11
-493.07384999999999
 21
473.50487999999962
 31
0.0
  0
LINE
  5
6EB
  8
0
  6
CONTINUOUS
 62
     7
 10
-488.92812999999961
 20
457.11376999999999
 30
0.0
 11
-493.07384999999999
 21
472.59487999999999
 31
0.0
  0
LINE
  5
6EC
  8
0
  6
CONTINUOUS
 62
     7
 10
-488.92812999999961
 20
455.26382000000001
 30
0.0
 11
-493.07384999999999
 21
470.74492999999961
 31
0.0
  0
LINE
  5
6ED
  8
0
  6
CONTINUOUS
 62
     7
 10
-487.13385
 20
469.09487999999999
 30
0.0
 11
-487.13385
 21
357.09487999999999
 31
0.0
  0
LINE
  5
6EE
  8
0
  6
CONTINUOUS
 62
     7
 10
-609.13378999999998
 20
461.11489999999998
 30
0.0
 11
-609.13378999999998
 21
418.09487999999999
 31
0.0
  0
LINE
  5
6EF
  8
0
  6
CONTINUOUS
 62
     7
 10
-606.86388999999986
 20
462.84487999999999
 30
0.0
 11
-604.63379000000009
 21
462.84487999999999
 31
0.0
  0
LINE
  5
6F0
  8
0
  6
CONTINUOUS
 62
     7
 10
-606.93384000000003
 20
448.78482000000002
 30
0.0
 11
-604.83385999999996
 21
448.78482000000002
 31
0.0
  0
LINE
  5
6F1
  8
0
  6
CONTINUOUS
 62
     7
 10
-607.36382999999978
 20
462.71487000000002
 30
0.0
 11
-608.63379000000009
 21
461.97487999999993
 31
0.0
  0
LINE
  5
6F2
  8
0
  6
CONTINUOUS
 62
     7
 10
-607.37390000000005
 20
460.59494000000001
 30
0.0
 11
-608.65386999999998
 21
459.82495
 31
0.0
  0
LINE
  5
6F3
  8
0
  6
CONTINUOUS
 62
     7
 10
-607.38391000000001
 20
456.05486999999999
 30
0.0
 11
-608.68389999999999
 21
455.20490000000001
 31
0.0
  0
LINE
  5
6F4
  8
0
  6
CONTINUOUS
 62
     7
 10
-607.32379000000003
 20
448.70485999999988
 30
0.0
 11
-608.52386000000001
 21
448.19484999999992
 31
0.0
  0
LINE
  5
6F5
  8
0
  6
CONTINUOUS
 62
     7
 10
-606.85387999999978
 20
460.73488999999989
 30
0.0
 11
-604.1337900000002
 21
460.73488999999989
 31
0.0
  0
LINE
  5
6F6
  8
0
  6
CONTINUOUS
 62
     7
 10
-606.83385999999985
 20
456.22487999999981
 30
0.0
 11
-604.1337900000002
 21
456.22487999999981
 31
0.0
  0
LINE
  5
6F7
  8
0
  6
CONTINUOUS
 62
     7
 10
-606.98388999999975
 20
446.83486999999991
 30
0.0
 11
-605.13378999999998
 21
446.83486999999991
 31
0.0
  0
LINE
  5
6F8
  8
0
  6
CONTINUOUS
 62
     7
 10
-606.86388999999986
 20
455.08487000000002
 30
0.0
 11
-605.13378999999998
 21
455.08487000000002
 31
0.0
  0
LINE
  5
6F9
  8
0
  6
CONTINUOUS
 62
     7
 10
-606.88379000000009
 20
459.59487999999999
 30
0.0
 11
-605.13378999999998
 21
459.59487999999999
 31
0.0
  0
LINE
  5
6FA
  8
0
  6
CONTINUOUS
 62
     7
 10
-606.89380000000006
 20
461.69484999999992
 30
0.0
 11
-604.63379000000009
 21
461.69484999999992
 31
0.0
  0
LINE
  5
6FB
  8
0
  6
CONTINUOUS
 62
     7
 10
-607.36388999999986
 20
454.94488999999987
 30
0.0
 11
-608.64386000000002
 21
454.19488999999999
 31
0.0
  0
LINE
  5
6FC
  8
0
  6
CONTINUOUS
 62
     7
 10
-607.27386000000001
 20
446.79491999999988
 30
0.0
 11
-608.42389000000003
 21
446.44494999999989
 31
0.0
  0
LINE
  5
6FD
  8
0
  6
CONTINUOUS
 62
     7
 10
-607.34387000000004
 20
461.59487999999988
 30
0.0
 11
-608.58392000000003
 21
460.96487000000002
 31
0.0
  0
LINE
  5
6FE
  8
0
  6
CONTINUOUS
 62
     7
 10
-607.35382000000004
 20
459.48491999999987
 30
0.0
 11
-608.60387999999978
 21
458.81490999999988
 31
0.0
  0
LINE
  5
6FF
  8
0
  6
CONTINUOUS
 62
     7
 10
-605.13378999999998
 20
439.09487999999999
 30
0.0
 11
-608.1337900000002
 21
439.09487999999999
 31
0.0
  0
LINE
  5
700
  8
0
  6
CONTINUOUS
 62
     7
 10
-605.13378999999998
 20
437.09487999999988
 30
0.0
 11
-608.1337900000002
 21
437.09487999999988
 31
0.0
  0
LINE
  5
701
  8
0
  6
CONTINUOUS
 62
     7
 10
-605.13378999999998
 20
429.09487999999988
 30
0.0
 11
-608.1337900000002
 21
429.09487999999988
 31
0.0
  0
LINE
  5
702
  8
0
  6
CONTINUOUS
 62
     7
 10
-605.13378999999998
 20
427.09487999999999
 30
0.0
 11
-608.1337900000002
 21
427.09487999999999
 31
0.0
  0
LINE
  5
703
  8
0
  6
CONTINUOUS
 62
     7
 10
-605.13378999999998
 20
419.09487999999999
 30
0.0
 11
-608.1337900000002
 21
419.09487999999999
 31
0.0
  0
LINE
  5
704
  8
0
  6
CONTINUOUS
 62
     7
 10
-605.13378999999998
 20
417.09487999999988
 30
0.0
 11
-608.1337900000002
 21
417.09487999999988
 31
0.0
  0
LINE
  5
705
  8
0
  6
CONTINUOUS
 62
     7
 10
-607.1337900000002
 20
428.70485999999988
 30
0.0
 11
-607.1337900000002
 21
427.49489999999992
 31
0.0
  0
LINE
  5
706
  8
0
  6
CONTINUOUS
 62
     7
 10
-607.1337900000002
 20
418.70485999999988
 30
0.0
 11
-607.1337900000002
 21
417.54482999999999
 31
0.0
  0
LINE
  5
707
  8
0
  6
CONTINUOUS
 62
     7
 10
-607.1337900000002
 20
438.72487999999998
 30
0.0
 11
-607.1337900000002
 21
437.35489000000001
 31
0.0
  0
LINE
  5
708
  8
0
  6
CONTINUOUS
 62
     7
 10
-607.1337900000002
 20
448.48489000000012
 30
0.0
 11
-607.1337900000002
 21
447.42484000000002
 31
0.0
  0
LINE
  5
709
  8
0
  6
CONTINUOUS
 62
     7
 10
-607.1337900000002
 20
455.92484000000002
 30
0.0
 11
-607.1337900000002
 21
455.45485999999988
 31
0.0
  0
LINE
  5
70A
  8
0
  6
CONTINUOUS
 62
     7
 10
-607.1337900000002
 20
460.49489999999992
 30
0.0
 11
-607.1337900000002
 21
459.94484999999997
 31
0.0
  0
LINE
  5
70B
  8
0
  6
CONTINUOUS
 62
     7
 10
-607.1337900000002
 20
462.59487999999988
 30
0.0
 11
-607.1337900000002
 21
462.06484999999992
 31
0.0
  0
LINE
  5
70C
  8
0
  6
CONTINUOUS
 62
     7
 10
-610.63378999999975
 20
433.09487999999988
 30
0.0
 11
-610.63378999999975
 21
413.09487999999988
 31
0.0
  0
LINE
  5
70D
  8
0
  6
CONTINUOUS
 62
     7
 10
-610.63378999999975
 20
433.09482000000003
 30
0.0
 11
-609.13385000000005
 21
433.22482000000002
 31
0.0
  0
LINE
  5
70E
  8
0
  6
CONTINUOUS
 62
     7
 10
-610.63378999999975
 20
428.2448999999998
 30
0.0
 11
-609.13378999999998
 21
428.2448999999998
 31
0.0
  0
LINE
  5
70F
  8
0
  6
CONTINUOUS
 62
     7
 10
-610.63378999999975
 20
430.37490999999989
 30
0.0
 11
-609.13378999999998
 21
430.37490999999989
 31
0.0
  0
LINE
  5
710
  8
0
  6
CONTINUOUS
 62
     7
 10
-493.79385000000002
 20
449.09487999999988
 30
0.0
 11
-592.77380000000005
 21
449.09487999999988
 31
0.0
  0
LINE
  5
711
  8
0
  6
CONTINUOUS
 62
     7
 10
-493.79385000000002
 20
447.09487999999999
 30
0.0
 11
-592.77380000000005
 21
447.09487999999999
 31
0.0
  0
LINE
  5
712
  8
0
  6
CONTINUOUS
 62
     7
 10
-526.13385000000005
 20
439.09487999999999
 30
0.0
 11
-592.77380000000005
 21
439.09487999999999
 31
0.0
  0
LINE
  5
713
  8
0
  6
CONTINUOUS
 62
     7
 10
-493.80103000000003
 20
437.09487999999988
 30
0.0
 11
-592.77380000000005
 21
437.09487999999988
 31
0.0
  0
LINE
  5
714
  8
0
  6
CONTINUOUS
 62
     7
 10
-558.69519000000003
 20
429.09487999999988
 30
0.0
 11
-592.77380000000005
 21
429.09487999999988
 31
0.0
  0
LINE
  5
715
  8
0
  6
CONTINUOUS
 62
     7
 10
-558.69519000000003
 20
427.09487999999999
 30
0.0
 11
-592.77380000000005
 21
427.09487999999999
 31
0.0
  0
LINE
  5
716
  8
0
  6
CONTINUOUS
 62
     7
 10
-558.69519000000003
 20
419.09487999999999
 30
0.0
 11
-592.77380000000005
 21
419.09487999999999
 31
0.0
  0
LINE
  5
717
  8
0
  6
CONTINUOUS
 62
     7
 10
-558.69519000000003
 20
417.09487999999988
 30
0.0
 11
-592.77380000000005
 21
417.09487999999988
 31
0.0
  0
LINE
  5
718
  8
0
  6
CONTINUOUS
 62
     7
 10
-593.45385999999985
 20
449.81484999999998
 30
0.0
 11
-490.31384000000003
 21
449.81484999999998
 31
0.0
  0
LINE
  5
719
  8
0
  6
CONTINUOUS
 62
     7
 10
-593.45385999999985
 20
446.46487000000002
 30
0.0
 11
-526.11388999999986
 21
446.46487000000002
 31
0.0
  0
LINE
  5
71A
  8
0
  6
CONTINUOUS
 62
     7
 10
-593.67382999999995
 20
439.58487000000002
 30
0.0
 11
-526.13385000000005
 21
439.58487000000002
 31
0.0
  0
LINE
  5
71B
  8
0
  6
CONTINUOUS
 62
     7
 10
-593.67382999999995
 20
436.65494000000001
 30
0.0
 11
-490.09960999999993
 21
436.65494000000001
 31
0.0
  0
LINE
  5
71C
  8
0
  6
CONTINUOUS
 62
     7
 10
-593.80382999999995
 20
429.43484000000001
 30
0.0
 11
-557.4751
 21
429.43484000000001
 31
0.0
  0
LINE
  5
71D
  8
0
  6
CONTINUOUS
 62
     7
 10
-593.80382999999995
 20
426.77492999999998
 30
0.0
 11
-557.4751
 21
426.77492999999998
 31
0.0
  0
LINE
  5
71E
  8
0
  6
CONTINUOUS
 62
     7
 10
-593.86388999999986
 20
419.36489999999981
 30
0.0
 11
-557.41516000000001
 21
419.36489999999981
 31
0.0
  0
LINE
  5
71F
  8
0
  6
CONTINUOUS
 62
     7
 10
-593.86388999999986
 20
416.83487000000002
 30
0.0
 11
-557.41516000000001
 21
416.83487000000002
 31
0.0
  0
LINE
  5
720
  8
0
  6
CONTINUOUS
 62
     7
 10
-593.86388999999986
 20
409.36489999999998
 30
0.0
 11
-557.41516000000001
 21
409.36489999999998
 31
0.0
  0
LINE
  5
721
  8
0
  6
CONTINUOUS
 62
     7
 10
-558.69519000000003
 20
409.09487999999988
 30
0.0
 11
-592.77380000000005
 21
409.09487999999988
 31
0.0
  0
LINE
  5
722
  8
0
  6
CONTINUOUS
 62
     7
 10
-558.69519000000003
 20
407.09487999999999
 30
0.0
 11
-592.77380000000005
 21
407.09487999999999
 31
0.0
  0
LINE
  5
723
  8
0
  6
CONTINUOUS
 62
     7
 10
-593.86388999999986
 20
406.82486
 30
0.0
 11
-557.41516000000001
 21
406.82486
 31
0.0
  0
LINE
  5
724
  8
0
  6
CONTINUOUS
 62
     7
 10
-593.80382999999995
 20
399.41482999999988
 30
0.0
 11
-557.4751
 21
399.41482999999988
 31
0.0
  0
LINE
  5
725
  8
0
  6
CONTINUOUS
 62
     7
 10
-558.69519000000003
 20
399.09487999999988
 30
0.0
 11
-592.77380000000005
 21
399.09487999999988
 31
0.0
  0
LINE
  5
726
  8
0
  6
CONTINUOUS
 62
     7
 10
-558.69519000000003
 20
397.09487999999999
 30
0.0
 11
-592.77380000000005
 21
397.09487999999999
 31
0.0
  0
LINE
  5
727
  8
0
  6
CONTINUOUS
 62
     7
 10
-593.80382999999995
 20
396.75490999999988
 30
0.0
 11
-557.46252000000004
 21
396.75490999999988
 31
0.0
  0
LINE
  5
728
  8
0
  6
CONTINUOUS
 62
     7
 10
-493.80103000000003
 20
389.09487999999988
 30
0.0
 11
-592.77380000000005
 21
389.09487999999988
 31
0.0
  0
LINE
  5
729
  8
0
  6
CONTINUOUS
 62
     7
 10
-593.67382999999995
 20
389.53482000000002
 30
0.0
 11
-490.09960999999993
 21
389.53482000000002
 31
0.0
  0
LINE
  5
72A
  8
0
  6
CONTINUOUS
 62
     7
 10
-526.13385000000005
 20
387.09487999999988
 30
0.0
 11
-592.77380000000005
 21
387.09487999999988
 31
0.0
  0
LINE
  5
72B
  8
0
  6
CONTINUOUS
 62
     7
 10
-593.67382999999995
 20
386.60489000000001
 30
0.0
 11
-526.13385000000005
 21
386.60489000000001
 31
0.0
  0
LINE
  5
72C
  8
0
  6
CONTINUOUS
 62
     7
 10
-493.79385000000002
 20
379.09487999999988
 30
0.0
 11
-538.13379000000009
 21
379.09487999999988
 31
0.0
  0
LINE
  5
72D
  8
0
  6
CONTINUOUS
 62
     7
 10
-493.79385000000002
 20
377.09487999999988
 30
0.0
 11
-538.13379000000009
 21
377.09487999999988
 31
0.0
  0
LINE
  5
72E
  8
0
  6
CONTINUOUS
 62
     7
 10
-593.45385999999985
 20
376.37491
 30
0.0
 11
-538.13379000000009
 21
376.37491
 31
0.0
  0
LINE
  5
72F
  8
0
  6
CONTINUOUS
 62
     7
 10
-490.31384000000003
 20
379.72487999999993
 30
0.0
 11
-508.15384
 21
379.72487999999993
 31
0.0
  0
LINE
  5
730
  8
0
  6
CONTINUOUS
 62
     7
 10
-606.93384000000003
 20
377.40493999999978
 30
0.0
 11
-604.83385999999996
 21
377.40493999999978
 31
0.0
  0
LINE
  5
731
  8
0
  6
CONTINUOUS
 62
     7
 10
-607.32379000000003
 20
377.48489000000001
 30
0.0
 11
-608.52386000000001
 21
378.00490999999988
 31
0.0
  0
LINE
  5
732
  8
0
  6
CONTINUOUS
 62
     7
 10
-606.98388999999975
 20
379.35489000000001
 30
0.0
 11
-605.13378999999998
 21
379.35489000000001
 31
0.0
  0
LINE
  5
733
  8
0
  6
CONTINUOUS
 62
     7
 10
-607.27380000000005
 20
379.39483999999999
 30
0.0
 11
-608.42382999999995
 21
379.75484999999992
 31
0.0
  0
LINE
  5
734
  8
0
  6
CONTINUOUS
 62
     7
 10
-605.13378999999998
 20
387.09487999999988
 30
0.0
 11
-608.1337900000002
 21
387.09487999999988
 31
0.0
  0
LINE
  5
735
  8
0
  6
CONTINUOUS
 62
     7
 10
-605.13378999999998
 20
389.09487999999988
 30
0.0
 11
-608.1337900000002
 21
389.09487999999988
 31
0.0
  0
LINE
  5
736
  8
0
  6
CONTINUOUS
 62
     7
 10
-605.13378999999998
 20
397.09487999999999
 30
0.0
 11
-608.1337900000002
 21
397.09487999999999
 31
0.0
  0
LINE
  5
737
  8
0
  6
CONTINUOUS
 62
     7
 10
-605.13378999999998
 20
399.09487999999988
 30
0.0
 11
-608.1337900000002
 21
399.09487999999988
 31
0.0
  0
LINE
  5
738
  8
0
  6
CONTINUOUS
 62
     7
 10
-605.13378999999998
 20
407.09487999999999
 30
0.0
 11
-608.1337900000002
 21
407.09487999999999
 31
0.0
  0
LINE
  5
739
  8
0
  6
CONTINUOUS
 62
     7
 10
-605.13378999999998
 20
409.09487999999988
 30
0.0
 11
-608.1337900000002
 21
409.09487999999988
 31
0.0
  0
LINE
  5
73A
  8
0
  6
CONTINUOUS
 62
     7
 10
-607.1337900000002
 20
397.48488999999989
 30
0.0
 11
-607.1337900000002
 21
398.70485999999988
 31
0.0
  0
LINE
  5
73B
  8
0
  6
CONTINUOUS
 62
     7
 10
-607.1337900000002
 20
407.48489000000001
 30
0.0
 11
-607.1337900000002
 21
408.64492999999987
 31
0.0
  0
LINE
  5
73C
  8
0
  6
CONTINUOUS
 62
     7
 10
-607.1337900000002
 20
387.46487000000002
 30
0.0
 11
-607.1337900000002
 21
388.83487000000002
 31
0.0
  0
LINE
  5
73D
  8
0
  6
CONTINUOUS
 62
     7
 10
-607.1337900000002
 20
377.70486
 30
0.0
 11
-607.1337900000002
 21
378.76492000000002
 31
0.0
  0
LINE
  5
73E
  8
0
  6
CONTINUOUS
 62
     7
 10
-610.63378999999975
 20
393.09487999999988
 30
0.0
 11
-610.63378999999975
 21
413.09487999999988
 31
0.0
  0
LINE
  5
73F
  8
0
  6
CONTINUOUS
 62
     7
 10
-610.63385000000005
 20
393.09482000000003
 30
0.0
 11
-609.13385000000005
 21
392.96480999999989
 31
0.0
  0
LINE
  5
740
  8
0
  6
CONTINUOUS
 62
     7
 10
-610.63378999999975
 20
397.94484999999992
 30
0.0
 11
-609.13378999999998
 21
397.94484999999992
 31
0.0
  0
LINE
  5
741
  8
0
  6
CONTINUOUS
 62
     7
 10
-610.63378999999975
 20
395.81484999999998
 30
0.0
 11
-609.13378999999998
 21
395.81484999999998
 31
0.0
  0
LINE
  5
742
  8
0
  6
CONTINUOUS
 62
     7
 10
-593.45385999999985
 20
379.72487999999993
 30
0.0
 11
-526.11388999999986
 21
379.72487999999993
 31
0.0
  0
LINE
  5
743
  8
0
  6
CONTINUOUS
 62
     7
 10
-538.13379000000009
 20
379.09487999999988
 30
0.0
 11
-592.77380000000005
 21
379.09487999999988
 31
0.0
  0
LINE
  5
744
  8
0
  6
CONTINUOUS
 62
     7
 10
-538.13379000000009
 20
377.09487999999988
 30
0.0
 11
-592.77380000000005
 21
377.09487999999988
 31
0.0
  0
LINE
  5
745
  8
0
  6
CONTINUOUS
 62
     7
 10
-538.13379000000009
 20
376.37491
 30
0.0
 11
-490.31384000000003
 21
376.37491
 31
0.0
  0
LINE
  5
746
  8
0
  6
CONTINUOUS
 62
     7
 10
-603.1337900000002
 20
466.09487999999988
 30
0.0
 11
-603.1337900000002
 21
360.09487999999988
 31
0.0
  0
LINE
  5
747
  8
0
  6
CONTINUOUS
 62
     7
 10
-595.1337900000002
 20
466.09487999999988
 30
0.0
 11
-595.1337900000002
 21
360.09487999999988
 31
0.0
  0
LINE
  5
748
  8
0
  6
CONTINUOUS
 62
     7
 10
-608.64386000000002
 20
371.99484000000001
 30
0.0
 11
-608.66387999999995
 21
372.00481999999988
 31
0.0
  0
LINE
  5
749
  8
0
  6
CONTINUOUS
 62
     7
 10
-604.1337900000002
 20
463.09487999999988
 30
0.0
 11
-604.1337900000002
 21
363.09487999999999
 31
0.0
  0
LINE
  5
74A
  8
0
  6
CONTINUOUS
 62
     7
 10
-604.1337900000002
 20
463.09487999999988
 30
0.0
 11
-603.1337900000002
 21
463.09487999999988
 31
0.0
  0
LINE
  5
74B
  8
0
  6
CONTINUOUS
 62
     7
 10
-603.1337900000002
 20
466.09487999999988
 30
0.0
 11
-595.1337900000002
 21
466.09487999999988
 31
0.0
  0
LINE
  5
74C
  8
0
  6
CONTINUOUS
 62
     7
 10
-602.43384000000003
 20
456.28482000000002
 30
0.0
 11
-596.20385999999985
 21
456.28482000000002
 31
0.0
  0
LINE
  5
74D
  8
0
  6
CONTINUOUS
 62
     7
 10
-487.13385
 20
459.09487999999988
 30
0.0
 11
-479.13385
 21
459.09487999999988
 31
0.0
  0
LINE
  5
74E
  8
0
  6
CONTINUOUS
 62
     7
 10
-487.13385
 20
445.03482000000002
 30
0.0
 11
-479.13385
 21
445.03482000000002
 31
0.0
  0
LINE
  5
74F
  8
0
  6
CONTINUOUS
 62
     7
 10
-487.13385
 20
469.09487999999999
 30
0.0
 11
-479.13385
 21
469.09487999999999
 31
0.0
  0
LINE
  5
750
  8
0
  6
CONTINUOUS
 62
     7
 10
-591.92382999999995
 20
469.37490999999989
 30
0.0
 11
-495.00384999999989
 21
469.37490999999989
 31
0.0
  0
LINE
  5
751
  8
0
  6
CONTINUOUS
 62
     7
 10
-595.13385000000017
 20
461.19495000000001
 30
0.0
 11
-593.89386000000002
 21
467.75493999999998
 31
0.0
  0
LINE
  5
752
  8
0
  6
CONTINUOUS
 62
     7
 10
-589.77386000000001
 20
449.74484000000001
 30
0.0
 11
-595.13385000000017
 21
461.19481999999988
 31
0.0
  0
LINE
  5
753
  8
0
  6
CONTINUOUS
 62
     7
 10
-589.77392999999995
 20
376.44484999999992
 30
0.0
 11
-595.13385000000017
 21
365.00493999999992
 31
0.0
  0
LINE
  5
754
  8
0
  6
CONTINUOUS
 62
     7
 10
-591.88378999999975
 20
472.22487999999998
 30
0.0
 11
-495.00384999999989
 21
472.22487999999998
 31
0.0
  0
LINE
  5
755
  8
0
  6
CONTINUOUS
 62
     7
 10
-591.8638900000002
 20
474.07485999999989
 30
0.0
 11
-495.00384999999989
 21
474.07485999999989
 31
0.0
  0
LINE
  5
756
  8
0
  6
CONTINUOUS
 62
     7
 10
-591.84387000000004
 20
474.98488999999989
 30
0.0
 11
-495.00378000000001
 21
474.98488999999989
 31
0.0
  0
LINE
  5
757
  8
0
  6
CONTINUOUS
 62
     7
 10
-595.13385000000017
 20
462.53491000000002
 30
0.0
 11
-593.85382000000004
 21
470.54482999999988
 31
0.0
  0
LINE
  5
758
  8
0
  6
CONTINUOUS
 62
     7
 10
-595.13385000000017
 20
463.88482999999991
 30
0.0
 11
-593.84380999999985
 21
472.37490999999989
 31
0.0
  0
LINE
  5
759
  8
0
  6
CONTINUOUS
 62
     7
 10
-595.13391000000001
 20
463.88488999999998
 30
0.0
 11
-593.82384999999965
 21
473.26492000000002
 31
0.0
  0
LINE
  5
75A
  8
0
  6
CONTINUOUS
 62
     7
 10
-488.93377999999979
 20
452.43484000000001
 30
0.0
 11
-493.07378999999992
 21
467.89487000000003
 31
0.0
  0
LINE
  5
75B
  8
0
  6
CONTINUOUS
 62
     7
 10
-492.59384
 20
466.09487999999988
 30
0.0
 11
-487.13385
 21
466.09487999999988
 31
0.0
  0
LINE
  5
75C
  8
0
  6
CONTINUOUS
 62
     7
 10
-609.13378999999998
 20
365.07486
 30
0.0
 11
-609.13378999999998
 21
408.09487999999988
 31
0.0
  0
LINE
  5
75D
  8
0
  6
CONTINUOUS
 62
     7
 10
-606.86388999999986
 20
363.34487999999999
 30
0.0
 11
-604.63379000000009
 21
363.34487999999999
 31
0.0
  0
LINE
  5
75E
  8
0
  6
CONTINUOUS
 62
     7
 10
-607.36382999999978
 20
363.48482999999987
 30
0.0
 11
-608.63385000000005
 21
364.21483999999992
 31
0.0
  0
LINE
  5
75F
  8
0
  6
CONTINUOUS
 62
     7
 10
-607.37383999999975
 20
365.59487999999988
 30
0.0
 11
-608.65380999999979
 21
366.36489999999992
 31
0.0
  0
LINE
  5
760
  8
0
  6
CONTINUOUS
 62
     7
 10
-607.38391000000001
 20
370.13482999999991
 30
0.0
 11
-608.68389999999999
 21
370.98482999999987
 31
0.0
  0
LINE
  5
761
  8
0
  6
CONTINUOUS
 62
     7
 10
-606.85387999999978
 20
365.45486
 30
0.0
 11
-604.1337900000002
 21
365.45486
 31
0.0
  0
LINE
  5
762
  8
0
  6
CONTINUOUS
 62
     7
 10
-606.83385999999985
 20
369.97487999999998
 30
0.0
 11
-604.1337900000002
 21
369.97487999999998
 31
0.0
  0
LINE
  5
763
  8
0
  6
CONTINUOUS
 62
     7
 10
-606.86388999999986
 20
371.11489999999992
 30
0.0
 11
-605.13378999999998
 21
371.11489999999992
 31
0.0
  0
LINE
  5
764
  8
0
  6
CONTINUOUS
 62
     7
 10
-606.88379000000009
 20
366.59487999999988
 30
0.0
 11
-605.13378999999998
 21
366.59487999999988
 31
0.0
  0
LINE
  5
765
  8
0
  6
CONTINUOUS
 62
     7
 10
-606.89380000000006
 20
364.49489999999992
 30
0.0
 11
-604.63379000000009
 21
364.49489999999992
 31
0.0
  0
LINE
  5
766
  8
0
  6
CONTINUOUS
 62
     7
 10
-607.36382999999978
 20
371.24489999999992
 30
0.0
 11
-608.64380000000017
 21
371.99486999999988
 31
0.0
  0
LINE
  5
767
  8
0
  6
CONTINUOUS
 62
     7
 10
-607.34380999999985
 20
364.60482999999988
 30
0.0
 11
-608.58385999999985
 21
365.23482999999987
 31
0.0
  0
LINE
  5
768
  8
0
  6
CONTINUOUS
 62
     7
 10
-607.35388
 20
366.71483999999992
 30
0.0
 11
-608.60387999999978
 21
367.37487999999979
 31
0.0
  0
LINE
  5
769
  8
0
  6
CONTINUOUS
 62
     7
 10
-607.1337900000002
 20
370.26492000000002
 30
0.0
 11
-607.1337900000002
 21
370.73488999999989
 31
0.0
  0
LINE
  5
76A
  8
0
  6
CONTINUOUS
 62
     7
 10
-607.1337900000002
 20
365.69484999999992
 30
0.0
 11
-607.1337900000002
 21
366.24489999999992
 31
0.0
  0
LINE
  5
76B
  8
0
  6
CONTINUOUS
 62
     7
 10
-607.1337900000002
 20
363.59487999999988
 30
0.0
 11
-607.1337900000002
 21
364.12491
 31
0.0
  0
LINE
  5
76C
  8
0
  6
CONTINUOUS
 62
     7
 10
-604.1337900000002
 20
363.09487999999999
 30
0.0
 11
-603.1337900000002
 21
363.09487999999999
 31
0.0
  0
LINE
  5
76D
  8
0
  6
CONTINUOUS
 62
     7
 10
-603.1337900000002
 20
360.09487999999988
 30
0.0
 11
-595.1337900000002
 21
360.09487999999988
 31
0.0
  0
LINE
  5
76E
  8
0
  6
CONTINUOUS
 62
     7
 10
-602.43384000000003
 20
369.90494000000001
 30
0.0
 11
-596.20385999999985
 21
369.90494000000001
 31
0.0
  0
LINE
  5
76F
  8
0
  6
CONTINUOUS
 62
     7
 10
-487.13385
 20
367.09487999999999
 30
0.0
 11
-479.13385
 21
367.09487999999999
 31
0.0
  0
LINE
  5
770
  8
0
  6
CONTINUOUS
 62
     7
 10
-487.13385
 20
357.09487999999999
 30
0.0
 11
-479.13385
 21
357.09487999999999
 31
0.0
  0
LINE
  5
771
  8
0
  6
CONTINUOUS
 62
     7
 10
-591.92382999999995
 20
356.81484999999992
 30
0.0
 11
-495.00384999999989
 21
356.81484999999992
 31
0.0
  0
LINE
  5
772
  8
0
  6
CONTINUOUS
 62
     7
 10
-595.13385000000017
 20
365.00484999999998
 30
0.0
 11
-593.89386000000002
 21
358.44484999999992
 31
0.0
  0
LINE
  5
773
  8
0
  6
CONTINUOUS
 62
     7
 10
-592.22766000000001
 20
353.96487000000002
 30
0.0
 11
-569.7357199999999
 21
353.96487000000002
 31
0.0
  0
LINE
  5
774
  8
0
  6
CONTINUOUS
 62
     7
 10
-595.13385000000017
 20
363.65484999999978
 30
0.0
 11
-593.85382000000004
 21
355.65490999999992
 31
0.0
  0
LINE
  5
775
  8
0
  6
CONTINUOUS
 62
     7
 10
-595.13391000000001
 20
362.31491
 30
0.0
 11
-594.12463000000002
 21
355.66472999999979
 31
0.0
  0
LINE
  5
776
  8
0
  6
CONTINUOUS
 62
     7
 10
-595.1337900000002
 20
362.31491
 30
0.0
 11
-594.20830999999976
 21
355.68831999999992
 31
0.0
  0
LINE
  5
777
  8
0
  6
CONTINUOUS
 62
     7
 10
-488.92812999999961
 20
373.77600000000001
 30
0.0
 11
-493.07384999999999
 21
358.29489000000001
 31
0.0
  0
LINE
  5
778
  8
0
  6
CONTINUOUS
 62
     7
 10
-492.59182999999979
 20
360.09487999999988
 30
0.0
 11
-487.13385
 21
360.09487999999988
 31
0.0
  0
LINE
  5
779
  8
0
  6
CONTINUOUS
 62
     7
 10
-487.13385
 20
381.15494000000001
 30
0.0
 11
-479.13385
 21
381.15494000000001
 31
0.0
  0
LINE
  5
77A
  8
0
  6
CONTINUOUS
 62
     3
 10
-568.13385000000005
 20
348.59485000000001
 30
0.0
 11
-568.34911999999963
 21
356.81493999999992
 31
0.0
  0
LINE
  5
77B
  8
0
  6
CONTINUOUS
 62
     3
 10
-508.13387999999998
 20
348.59485000000001
 30
0.0
 11
-507.91860999999989
 21
356.81493999999992
 31
0.0
  0
LINE
  5
77C
  8
0
  6
CONTINUOUS
 62
     3
 10
-488.13382000000001
 20
360.09485000000001
 30
0.0
 11
-493.85959000000003
 21
351.27794999999992
 31
0.0
  0
LINE
  5
77D
  8
0
  6
CONTINUOUS
 62
     7
 10
-508.13385
 20
348.59487999999999
 30
0.0
 11
-568.13378999999986
 21
348.59487999999999
 31
0.0
  0
LINE
  5
77E
  8
0
  6
CONTINUOUS
 62
     7
 10
-506.62024000000002
 20
350.59487999999999
 30
0.0
 11
-495.11765000000003
 21
350.59487999999999
 31
0.0
  0
LINE
  5
77F
  8
0
  6
CONTINUOUS
 62
     7
 10
-509.15384000000012
 20
440.59487999999988
 30
0.0
 11
-509.15384000000012
 21
445.45485999999988
 31
0.0
  0
LINE
  5
780
  8
0
  6
CONTINUOUS
 62
     7
 10
-525.11388999999986
 20
440.59487999999988
 30
0.0
 11
-525.11388999999986
 21
445.45485999999988
 31
0.0
  0
LINE
  5
781
  8
0
  6
CONTINUOUS
 62
     7
 10
-509.63384999999988
 20
440.59487999999988
 30
0.0
 11
-509.63384999999988
 21
445.59487999999988
 31
0.0
  0
LINE
  5
782
  8
0
  6
CONTINUOUS
 62
     7
 10
-524.63385000000005
 20
440.59487999999988
 30
0.0
 11
-524.63385000000005
 21
445.59487999999988
 31
0.0
  0
LINE
  5
783
  8
0
  6
CONTINUOUS
 62
     7
 10
-553.13379000000009
 20
426.09487999999988
 30
0.0
 11
-490.13385
 21
426.09487999999988
 31
0.0
  0
LINE
  5
784
  8
0
  6
CONTINUOUS
 62
     7
 10
-553.13379000000009
 20
392.59487999999999
 30
0.0
 11
-490.13385
 21
392.59487999999999
 31
0.0
  0
LINE
  5
785
  8
0
  6
CONTINUOUS
 62
     7
 10
-553.13379000000009
 20
433.59487999999988
 30
0.0
 11
-490.13385
 21
433.59487999999988
 31
0.0
  0
LINE
  5
786
  8
0
  6
CONTINUOUS
 62
     3
 10
-490.13385
 20
433.59487999999988
 30
0.0
 11
-490.13385
 21
392.59487999999999
 31
0.0
  0
LINE
  5
787
  8
0
  6
CONTINUOUS
 62
     3
 10
-553.13379000000009
 20
433.59487999999988
 30
0.0
 11
-553.13379000000009
 21
392.59487999999999
 31
0.0
  0
LINE
  5
788
  8
0
  6
CONTINUOUS
 62
     7
 10
-508.13385
 20
439.58487000000002
 30
0.0
 11
-490.08812999999992
 21
439.58487000000002
 31
0.0
  0
LINE
  5
789
  8
0
  6
CONTINUOUS
 62
     7
 10
-508.13385
 20
386.61489999999998
 30
0.0
 11
-490.09960999999993
 21
386.61489999999998
 31
0.0
  0
LINE
  5
78A
  8
0
  6
CONTINUOUS
 62
     7
 10
-509.15384000000012
 20
385.59487999999999
 30
0.0
 11
-509.15384000000012
 21
380.73489000000001
 31
0.0
  0
LINE
  5
78B
  8
0
  6
CONTINUOUS
 62
     7
 10
-525.11388999999986
 20
385.59487999999999
 30
0.0
 11
-525.11388999999986
 21
380.73489000000001
 31
0.0
  0
LINE
  5
78C
  8
0
  6
CONTINUOUS
 62
     7
 10
-509.63384999999988
 20
385.59487999999999
 30
0.0
 11
-509.63384999999988
 21
380.59487999999988
 31
0.0
  0
LINE
  5
78D
  8
0
  6
CONTINUOUS
 62
     7
 10
-524.63385000000005
 20
385.59487999999999
 30
0.0
 11
-524.63385000000005
 21
380.59487999999988
 31
0.0
  0
LINE
  5
78E
  8
0
  6
CONTINUOUS
 62
     7
 10
-493.80103000000003
 20
387.09487999999988
 30
0.0
 11
-508.13385
 21
387.09487999999988
 31
0.0
  0
LINE
  5
78F
  8
0
  6
CONTINUOUS
 62
     7
 10
-493.78671000000003
 20
439.09487999999999
 30
0.0
 11
-508.13385
 21
439.09487999999999
 31
0.0
  0
LINE
  5
790
  8
0
  6
CONTINUOUS
 62
     3
 10
-508.15384
 20
446.45485999999988
 30
0.0
 11
-490.31384000000003
 21
446.45485999999988
 31
0.0
  0
LINE
  5
791
  8
0
  6
CONTINUOUS
 62
     7
 10
-435.63384999999988
 20
332.98752000000002
 30
0.0
 11
-449.36449999999991
 21
332.98752000000002
 31
0.0
  0
LINE
  5
792
  8
0
  6
CONTINUOUS
 62
     7
 10
-435.63384999999988
 20
493.20224000000002
 30
0.0
 11
-449.36449999999991
 21
493.20224000000002
 31
0.0
  0
LINE
  5
793
  8
0
  6
CONTINUOUS
 62
     7
 10
-435.63384999999988
 20
374.81979000000001
 30
0.0
 11
-442.63387999999992
 21
374.81979000000001
 31
0.0
  0
LINE
  5
794
  8
0
  6
CONTINUOUS
 62
     7
 10
-435.63384999999988
 20
451.36995999999988
 30
0.0
 11
-442.63387999999992
 21
451.36995999999988
 31
0.0
  0
CIRCLE
  5
795
  8
0
  6
CONTINUOUS
 62
     7
 10
-145.2809399999999
 20
170.54793000000001
 30
0.0
 40
4.0
  0
ARC
  5
796
  8
0
  6
CONTINUOUS
 62
     7
 10
-145.2809399999999
 20
170.54793000000001
 30
0.0
 40
14.00000099999999
 50
106.6015399999999
 51
73.398452000000006
  0
CIRCLE
  5
797
  8
0
  6
CONTINUOUS
 62
     7
 10
-145.2809399999999
 20
170.54793000000001
 30
0.0
 40
3.0
  0
ARC
  5
798
  8
0
  6
CONTINUOUS
 62
     7
 10
-379.63391000000001
 20
221.87980999999991
 30
0.0
 40
5.0
 50
0.0
 51
88.499996999999965
  0
ARC
  5
799
  8
0
  6
CONTINUOUS
 62
     7
 10
-90.280951999999999
 20
199.79791
 30
0.0
 40
5.0
 50
0.0
 51
43.64050000000001
  0
ARC
  5
79A
  8
0
  6
CONTINUOUS
 62
     7
 10
-145.2809399999999
 20
147.34795
 30
0.0
 40
81.0
 50
7.0485985999999992
 51
172.95139999999981
  0
ARC
  5
79B
  8
0
  6
CONTINUOUS
 62
     7
 10
-57.280940999999991
 20
77.547934999999981
 30
0.0
 40
2.0
 50
0.0
 51
90.000003000000007
  0
ARC
  5
79C
  8
0
  6
CONTINUOUS
 62
     7
 10
-369.63387999999992
 20
215.17946000000001
 30
0.0
 40
5.0
 50
179.99998999999991
 51
265.0
  0
ARC
  5
79D
  8
0
  6
CONTINUOUS
 62
     7
 10
-192.28093000000001
 20
71.547934999999995
 30
0.0
 40
5.0
 50
270.0
 51
0.0
  0
ARC
  5
79E
  8
0
  6
CONTINUOUS
 62
     7
 10
-198.28093000000001
 20
64.547943000000004
 30
0.0
 40
2.0
 50
90.000003000000007
 51
180.00001
  0
ARC
  5
79F
  8
0
  6
CONTINUOUS
 62
     7
 10
-202.2809399999999
 20
77.547934999999981
 30
0.0
 40
2.0
 50
0.0
 51
90.000003000000007
  0
ARC
  5
7A0
  8
0
  6
CONTINUOUS
 62
     7
 10
-98.280944999999974
 20
71.547934999999995
 30
0.0
 40
5.0
 50
179.99998999999991
 51
270.0
  0
ARC
  5
7A1
  8
0
  6
CONTINUOUS
 62
     7
 10
-233.2809399999999
 20
77.547934999999981
 30
0.0
 40
2.0
 50
90.000003000000007
 51
180.00001
  0
ARC
  5
7A2
  8
0
  6
CONTINUOUS
 62
     7
 10
-379.63391000000001
 20
97.161231999999998
 30
0.0
 40
5.0
 50
270.0
 51
0.0
  0
ARC
  5
7A3
  8
0
  6
CONTINUOUS
 62
     7
 10
-387.63387999999992
 20
84.547919999999976
 30
0.0
 40
5.0
 50
179.99998999999991
 51
270.0
  0
ARC
  5
7A4
  8
0
  6
CONTINUOUS
 62
     7
 10
-200.2809399999999
 20
199.79791
 30
0.0
 40
5.0
 50
136.35948999999999
 51
180.00001
  0
ARC
  5
7A5
  8
0
  6
CONTINUOUS
 62
     7
 10
-145.2809399999999
 20
155.54793000000001
 30
0.0
 40
54.0
 50
0.0
 51
180.00001
  0
ARC
  5
7A6
  8
0
  6
CONTINUOUS
 62
     7
 10
-365.63387999999992
 20
206.7989199999999
 30
0.0
 40
3.0
 50
0.0
 51
84.999996999999979
  0
ARC
  5
7A7
  8
0
  6
CONTINUOUS
 62
     7
 10
-441.63385
 20
64.547927999999985
 30
0.0
 40
1.0
 50
90.000003000000007
 51
180.00001
  0
ARC
  5
7A8
  8
0
  6
CONTINUOUS
 62
     7
 10
-442.11953999999997
 20
82.547927999999999
 30
0.0
 40
3.0
 50
270.0
 51
349.28688
  0
ARC
  5
7A9
  8
0
  6
CONTINUOUS
 62
     7
 10
-361.63391000000001
 20
77.547934999999981
 30
0.0
 40
2.0
 50
0.0
 51
90.000003000000007
  0
ARC
  5
7AA
  8
0
  6
CONTINUOUS
 62
     7
 10
-467.63387999999992
 20
77.547934999999981
 30
0.0
 40
2.0
 50
90.000003000000007
 51
180.00001
  0
ARC
  5
7AB
  8
0
  6
CONTINUOUS
 62
     7
 10
-145.2809399999999
 20
118.34793000000001
 30
0.0
 40
60.0
 50
334.15807000000001
 51
0.0
  0
ARC
  5
7AC
  8
0
  6
CONTINUOUS
 62
     7
 10
-145.2809399999999
 20
118.34793000000001
 30
0.0
 40
60.0
 50
180.00001
 51
205.84192999999991
  0
ARC
  5
7AD
  8
0
  6
CONTINUOUS
 62
     7
 10
-382.63391000000001
 20
191.78122999999991
 30
0.0
 40
10.0
 50
90.000003000000007
 51
180.00001
  0
ARC
  5
7AE
  8
0
  6
CONTINUOUS
 62
     7
 10
-88.280944999999974
 20
77.547934999999981
 30
0.0
 40
2.0
 50
90.000003000000007
 51
180.00001
  0
ARC
  5
7AF
  8
0
  6
CONTINUOUS
 62
     7
 10
-92.280945000000003
 20
64.547943000000004
 30
0.0
 40
2.0
 50
0.0
 51
90.000003000000007
  0
ARC
  5
7B0
  8
0
  6
CONTINUOUS
 62
     7
 10
-108.2809399999999
 20
72.547943000000004
 30
0.0
 40
5.0
 50
0.0
 51
90.000003000000007
  0
CIRCLE
  5
7B1
  8
0
  6
CONTINUOUS
 62
     7
 10
-145.2809399999999
 20
170.54793000000001
 30
0.0
 40
29.0
  0
ARC
  5
7B2
  8
0
  6
CONTINUOUS
 62
     7
 10
-182.2809399999999
 20
72.547943000000004
 30
0.0
 40
5.0
 50
90.000003000000007
 51
180.00001
  0
ARC
  5
7B3
  8
0
  6
CONTINUOUS
 62
     7
 10
-360.63387999999992
 20
81.420913999999982
 30
0.0
 40
2.0
 50
179.99998999999991
 51
255.52249
  0
ARC
  5
7B4
  8
0
  6
CONTINUOUS
 62
     7
 10
-145.2809399999999
 20
147.34792999999991
 30
0.0
 40
81.0
 50
265.97275000000002
 51
274.02724999999992
  0
ARC
  5
7B5
  8
0
  6
CONTINUOUS
 62
     7
 10
-204.28093000000001
 20
84.547943000000004
 30
0.0
 40
5.0
 50
270.0
 51
0.0
  0
ARC
  5
7B6
  8
0
  6
CONTINUOUS
 62
     7
 10
-86.280945000000017
 20
84.547943000000004
 30
0.0
 40
5.0
 50
179.99998999999991
 51
270.0
  0
ARC
  5
7B7
  8
0
  6
CONTINUOUS
 62
     7
 10
-360.63387999999992
 20
142.52208999999999
 30
0.0
 40
1.0
 50
271.49999999999972
 51
0.0
  0
ARC
  5
7B8
  8
0
  6
CONTINUOUS
 62
     7
 10
-361.63391000000001
 20
200.60065
 30
0.0
 40
1.0
 50
179.99998999999991
 51
268.50000999999992
  0
ARC
  5
7B9
  8
0
  6
CONTINUOUS
 62
     7
 10
-360.63387999999992
 20
198.57378
 30
0.0
 40
1.0
 50
0.0
 51
88.499996999999965
  0
ARC
  5
7BA
  8
0
  6
CONTINUOUS
 62
     7
 10
-361.63391000000001
 20
140.4952099999999
 30
0.0
 40
1.0
 50
91.500000999999969
 51
180.00001
  0
ARC
  5
7BB
  8
0
  6
CONTINUOUS
 62
     7
 10
-437.63387999999998
 20
117.01675
 30
0.0
 40
5.0
 50
349.28688
 51
0.0
  0
ARC
  5
7BC
  8
0
  6
CONTINUOUS
 62
     7
 10
-387.63387999999992
 20
64.547927999999985
 30
0.0
 40
1.0
 50
0.0
 51
90.000003000000007
  0
ARC
  5
7BD
  8
0
  6
CONTINUOUS
 62
     7
 10
-447.63384999999988
 20
199.68201999999991
 30
0.0
 40
2.0
 50
90.000003000000007
 51
180.00001
  0
ARC
  5
7BE
  8
0
  6
CONTINUOUS
 62
     7
 10
-454.63387999999998
 20
80.016402999999983
 30
0.0
 40
5.0
 50
0.0
 51
50.0
  0
ARC
  5
7BF
  8
0
  6
CONTINUOUS
 62
     7
 10
-440.63387999999992
 20
226.17212000000001
 30
0.0
 40
2.0
 50
91.999998000000005
 51
180.00001
  0
ARC
  5
7C0
  8
0
  6
CONTINUOUS
 62
     7
 10
-447.63384999999988
 20
83.803962999999996
 30
0.0
 40
2.0
 50
90.000003000000007
 51
180.00001
  0
ARC
  5
7C1
  8
0
  6
CONTINUOUS
 62
     7
 10
-446.63387999999992
 20
220.2064399999999
 30
0.0
 40
3.0
 50
91.999998000000005
 51
180.00001
  0
ARC
  5
7C2
  8
0
  6
CONTINUOUS
 62
     7
 10
-461.43950999999998
 20
208.96888999999999
 30
0.0
 40
5.0
 50
272.0
 51
310.0
  0
ARC
  5
7C3
  8
0
  6
CONTINUOUS
 62
     7
 10
-454.63387999999998
 20
214.6794899999999
 30
0.0
 40
5.0
 50
310.0
 51
0.0
  0
ARC
  5
7C4
  8
0
  6
CONTINUOUS
 62
     7
 10
-445.63387999999998
 20
226.245
 30
0.0
 40
3.0
 50
272.0
 51
0.0
  0
ARC
  5
7C5
  8
0
  6
CONTINUOUS
 62
     7
 10
-461.43950999999998
 20
85.726981999999964
 30
0.0
 40
5.0
 50
50.0
 51
88.0
  0
ARC
  5
7C6
  8
0
  6
CONTINUOUS
 62
     7
 10
-444.63385
 20
172.02002999999991
 30
0.0
 40
2.0
 50
0.0
 51
90.000003000000007
  0
ARC
  5
7C7
  8
0
  6
CONTINUOUS
 62
     7
 10
-444.63385
 20
87.80394699999998
 30
0.0
 40
2.0
 50
270.0
 51
0.0
  0
ARC
  5
7C8
  8
0
  6
CONTINUOUS
 62
     7
 10
-444.63385
 20
178.49713
 30
0.0
 40
2.0
 50
0.0
 51
90.000003000000007
  0
ARC
  5
7C9
  8
0
  6
CONTINUOUS
 62
     7
 10
-447.63384999999988
 20
182.49715
 30
0.0
 40
2.0
 50
179.99998999999991
 51
270.0
  0
ARC
  5
7CA
  8
0
  6
CONTINUOUS
 62
     7
 10
-444.63385
 20
203.68200999999991
 30
0.0
 40
2.0
 50
270.0
 51
0.0
  0
ARC
  5
7CB
  8
0
  6
CONTINUOUS
 62
     7
 10
-453.49007999999992
 20
191.34792999999991
 30
0.0
 40
2.0
 50
324.82673
 51
90.000003000000007
  0
ARC
  5
7CC
  8
0
  6
CONTINUOUS
 62
     7
 10
-453.49007999999992
 20
103.34792999999991
 30
0.0
 40
2.0
 50
270.0
 51
35.173271
  0
ARC
  5
7CD
  8
0
  6
CONTINUOUS
 62
     3
 10
-515.63385000000005
 20
124.8481799999999
 30
0.0
 40
5.5
 50
84.784087999999983
 51
185.21596
  0
ARC
  5
7CE
  8
0
  6
CONTINUOUS
 62
     7
 10
-591.86547999999959
 20
88.37052199999998
 30
0.0
 40
2.0
 50
188.6433899999999
 51
270.0
  0
ARC
  5
7CF
  8
0
  6
CONTINUOUS
 62
     7
 10
-591.87885000000006
 20
90.218306999999996
 30
0.0
 40
2.0
 50
189.08497
 51
270.0
  0
ARC
  5
7D0
  8
0
  6
CONTINUOUS
 62
     7
 10
-591.92749000000003
 20
93.064682000000005
 30
0.0
 40
2.0
 50
190.71569
 51
270.0
  0
ARC
  5
7D1
  8
0
  6
CONTINUOUS
 62
     7
 10
-604.6339099999999
 20
97.098541000000012
 30
0.0
 40
0.5
 50
0.0
 51
90.000003000000007
  0
ARC
  5
7D2
  8
0
  6
CONTINUOUS
 62
     7
 10
-604.6339099999999
 20
99.244857999999994
 30
0.0
 40
0.5
 50
270.0
 51
0.0
  0
ARC
  5
7D3
  8
0
  6
CONTINUOUS
 62
     7
 10
-605.13385000000005
 20
101.84627999999999
 30
0.0
 40
1.0
 50
270.0
 51
0.0
  0
ARC
  5
7D4
  8
0
  6
CONTINUOUS
 62
     7
 10
-605.13385000000005
 20
106.36301
 30
0.0
 40
1.0
 50
270.0
 51
0.0
  0
ARC
  5
7D5
  8
0
  6
CONTINUOUS
 62
     7
 10
-608.13385000000005
 20
101.47256
 30
0.0
 40
1.0
 50
179.99998999999991
 51
239.0334
  0
ARC
  5
7D6
  8
0
  6
CONTINUOUS
 62
     7
 10
-608.13385000000005
 20
102.50816
 30
0.0
 40
1.0
 50
179.99998999999991
 51
242.07341
  0
ARC
  5
7D7
  8
0
  6
CONTINUOUS
 62
     7
 10
-608.13385000000005
 20
106.07455
 30
0.0
 40
1.0
 50
179.99998999999991
 51
236.74527999999981
  0
ARC
  5
7D8
  8
0
  6
CONTINUOUS
 62
     7
 10
-608.13385000000005
 20
107.10769999999999
 30
0.0
 40
1.0
 50
179.99998999999991
 51
239.64048999999989
  0
ARC
  5
7D9
  8
0
  6
CONTINUOUS
 62
     7
 10
-606.86255000000017
 20
106.36301
 30
0.0
 40
1.0
 50
239.6405
 51
270.0
  0
ARC
  5
7DA
  8
0
  6
CONTINUOUS
 62
     7
 10
-606.83520999999985
 20
105.2229999999999
 30
0.0
 40
1.0
 50
236.74527
 51
270.0
  0
ARC
  5
7DB
  8
0
  6
CONTINUOUS
 62
     7
 10
-606.88519000000019
 20
101.84627999999999
 30
0.0
 40
1.0
 50
242.07339999999999
 51
270.0
  0
ARC
  5
7DC
  8
0
  6
CONTINUOUS
 62
     7
 10
-606.85681
 20
100.7062699999998
 30
0.0
 40
1.0
 50
239.0334
 51
270.0
  0
ARC
  5
7DD
  8
0
  6
CONTINUOUS
 62
     7
 10
-606.89458999999999
 20
99.744850000000014
 30
0.0
 40
1.0
 50
243.08874
 51
270.0
  0
ARC
  5
7DE
  8
0
  6
CONTINUOUS
 62
     7
 10
-606.86565999999959
 20
98.598540999999983
 30
0.0
 40
1.0
 50
239.9736
 51
270.0
  0
ARC
  5
7DF
  8
0
  6
CONTINUOUS
 62
     7
 10
-608.13385000000005
 20
100.37389
 30
0.0
 40
1.0
 50
179.99998999999991
 51
243.08874999999981
  0
ARC
  5
7E0
  8
0
  6
CONTINUOUS
 62
     7
 10
-608.13385000000005
 20
99.331512000000004
 30
0.0
 40
1.0
 50
179.99998999999991
 51
239.97361000000001
  0
ARC
  5
7E1
  8
0
  6
CONTINUOUS
 62
     7
 10
-558.13391000000001
 20
90.218306999999996
 30
0.0
 40
2.0
 50
270.0
 51
0.0
  0
ARC
  5
7E2
  8
0
  6
CONTINUOUS
 62
     7
 10
-558.13391000000001
 20
88.37052199999998
 30
0.0
 40
2.0
 50
270.0
 51
0.0
  0
ARC
  5
7E3
  8
0
  6
CONTINUOUS
 62
     7
 10
-495.00771999999989
 20
93.064682000000005
 30
0.0
 40
2.0
 50
270.0
 51
345.0
  0
ARC
  5
7E4
  8
0
  6
CONTINUOUS
 62
     7
 10
-558.13391000000001
 20
87.460006999999962
 30
0.0
 40
2.0
 50
270.0
 51
0.0
  0
ARC
  5
7E5
  8
0
  6
CONTINUOUS
 62
     7
 10
-591.84418000000005
 20
87.460006999999962
 30
0.0
 40
2.0
 50
187.9440399999998
 51
270.0
  0
ARC
  5
7E6
  8
0
  6
CONTINUOUS
 62
     7
 10
-487.48287999999991
 20
187.07095000000001
 30
0.0
 40
1.5
 50
195.00001
 51
270.0
  0
ARC
  5
7E7
  8
0
  6
CONTINUOUS
 62
     7
 10
-495.00771999999989
 20
201.6312099999999
 30
0.0
 40
2.0
 50
15.0
 51
90.000003000000007
  0
ARC
  5
7E8
  8
0
  6
CONTINUOUS
 62
     7
 10
-558.13391000000001
 20
207.2358099999999
 30
0.0
 40
2.0
 50
0.0
 51
90.000003000000007
  0
ARC
  5
7E9
  8
0
  6
CONTINUOUS
 62
     7
 10
-558.13391000000001
 20
206.3253
 30
0.0
 40
2.0
 50
0.0
 51
90.000003000000007
  0
ARC
  5
7EA
  8
0
  6
CONTINUOUS
 62
     7
 10
-558.13391000000001
 20
204.47757999999999
 30
0.0
 40
2.0
 50
0.0
 51
90.000003000000007
  0
ARC
  5
7EB
  8
0
  6
CONTINUOUS
 62
     7
 10
-591.84418000000005
 20
207.2358099999999
 30
0.0
 40
2.0
 50
90.000003000000007
 51
172.05596
  0
ARC
  5
7EC
  8
0
  6
CONTINUOUS
 62
     7
 10
-591.86547999999959
 20
206.3253
 30
0.0
 40
2.0
 50
90.000003000000007
 51
171.3566099999999
  0
ARC
  5
7ED
  8
0
  6
CONTINUOUS
 62
     7
 10
-591.87885000000006
 20
204.47757999999999
 30
0.0
 40
2.0
 50
90.000003000000007
 51
170.91503
  0
ARC
  5
7EE
  8
0
  6
CONTINUOUS
 62
     7
 10
-569.63385000000017
 20
184.07095000000001
 30
0.0
 40
1.5
 50
90.000003000000007
 51
180.00001
  0
ARC
  5
7EF
  8
0
  6
CONTINUOUS
 62
     7
 10
-591.92749000000003
 20
201.6312099999999
 30
0.0
 40
2.0
 50
90.000003000000007
 51
169.28431
  0
ARC
  5
7F0
  8
0
  6
CONTINUOUS
 62
     7
 10
-608.13385000000005
 20
107.10769999999999
 30
0.0
 40
1.0
 50
179.99998999999991
 51
239.64048999999989
  0
ARC
  5
7F1
  8
0
  6
CONTINUOUS
 62
     7
 10
-605.13385000000005
 20
106.36301
 30
0.0
 40
1.0
 50
334.63675999999998
 51
0.0
  0
ARC
  5
7F2
  8
0
  6
CONTINUOUS
 62
     7
 10
-593.45592999999997
 20
112.3027699999999
 30
0.0
 40
1.6779174999999991
 50
90.000003000000007
 51
270.0
  0
ARC
  5
7F3
  8
0
  6
CONTINUOUS
 62
     7
 10
-593.67229999999995
 20
122.32321999999991
 30
0.0
 40
1.461502099999997
 50
90.000003000000007
 51
270.0
  0
ARC
  5
7F4
  8
0
  6
CONTINUOUS
 62
     7
 10
-593.80291999999986
 20
132.33536000000001
 30
0.0
 40
1.330932599999999
 50
90.000003000000007
 51
270.0
  0
ARC
  5
7F5
  8
0
  6
CONTINUOUS
 62
     7
 10
-593.86492999999984
 20
142.34403999999981
 30
0.0
 40
1.268920899999999
 50
90.000003000000007
 51
270.0
  0
ARC
  5
7F6
  8
0
  6
CONTINUOUS
 62
     7
 10
-593.86492999999984
 20
152.35177999999999
 30
0.0
 40
1.268920899999999
 50
90.000003000000007
 51
270.0
  0
ARC
  5
7F7
  8
0
  6
CONTINUOUS
 62
     7
 10
-593.80291999999986
 20
162.3604999999998
 30
0.0
 40
1.330932599999999
 50
90.000003000000007
 51
270.0
  0
ARC
  5
7F8
  8
0
  6
CONTINUOUS
 62
     7
 10
-593.67235999999957
 20
172.37260000000001
 30
0.0
 40
1.4614868000000001
 50
90.000003000000007
 51
270.0
  0
ARC
  5
7F9
  8
0
  6
CONTINUOUS
 62
     7
 10
-592.58446999999978
 20
122.3479399999998
 30
0.0
 40
1.0
 50
90.000003000000007
 51
270.0
  0
ARC
  5
7FA
  8
0
  6
CONTINUOUS
 62
     7
 10
-592.58446999999978
 20
132.34794999999991
 30
0.0
 40
1.0
 50
90.000003000000007
 51
270.0
  0
ARC
  5
7FB
  8
0
  6
CONTINUOUS
 62
     7
 10
-592.58446999999978
 20
142.34792999999991
 30
0.0
 40
1.0
 50
90.000003000000007
 51
270.0
  0
ARC
  5
7FC
  8
0
  6
CONTINUOUS
 62
     7
 10
-592.58446999999978
 20
152.34792999999991
 30
0.0
 40
1.0
 50
90.000003000000007
 51
270.0
  0
ARC
  5
7FD
  8
0
  6
CONTINUOUS
 62
     7
 10
-592.58446999999978
 20
162.34795
 30
0.0
 40
1.0
 50
90.000003000000007
 51
270.0
  0
ARC
  5
7FE
  8
0
  6
CONTINUOUS
 62
     7
 10
-592.58446999999978
 20
172.34792999999991
 30
0.0
 40
1.0
 50
90.000003000000007
 51
270.0
  0
ARC
  5
7FF
  8
0
  6
CONTINUOUS
 62
     7
 10
-592.58446999999978
 20
182.34792999999991
 30
0.0
 40
1.0
 50
90.000003000000007
 51
270.0
  0
ARC
  5
800
  8
0
  6
CONTINUOUS
 62
     7
 10
-593.45659999999998
 20
182.3930499999999
 30
0.0
 40
1.6779127
 50
90.000003000000007
 51
270.0
  0
ARC
  5
801
  8
0
  6
CONTINUOUS
 62
     7
 10
-509.63387999999981
 20
175.84794999999991
 30
0.0
 40
1.5
 50
0.0
 51
90.000003000000007
  0
ARC
  5
802
  8
0
  6
CONTINUOUS
 62
     7
 10
-509.63387999999981
 20
118.8479499999999
 30
0.0
 40
1.5
 50
270.0
 51
0.0
  0
ARC
  5
803
  8
0
  6
CONTINUOUS
 62
     7
 10
-605.13385000000005
 20
130.34792999999999
 30
0.0
 40
1.0
 50
0.0
 51
90.000003000000007
  0
ARC
  5
804
  8
0
  6
CONTINUOUS
 62
     7
 10
-605.13385000000005
 20
134.34794999999991
 30
0.0
 40
1.0
 50
270.0
 51
0.0
  0
ARC
  5
805
  8
0
  6
CONTINUOUS
 62
     7
 10
-605.13385000000005
 20
140.34794999999991
 30
0.0
 40
1.0
 50
0.0
 51
90.000003000000007
  0
ARC
  5
806
  8
0
  6
CONTINUOUS
 62
     7
 10
-605.13385000000005
 20
144.34795
 30
0.0
 40
1.0
 50
270.0
 51
0.0
  0
ARC
  5
807
  8
0
  6
CONTINUOUS
 62
     7
 10
-608.13385000000005
 20
142.34792999999991
 30
0.0
 40
1.0
 50
90.000003000000007
 51
180.00001
  0
ARC
  5
808
  8
0
  6
CONTINUOUS
 62
     7
 10
-608.13385000000005
 20
142.34792999999991
 30
0.0
 40
1.0
 50
179.99998999999991
 51
270.0
  0
ARC
  5
809
  8
0
  6
CONTINUOUS
 62
     7
 10
-608.13385000000005
 20
132.34794999999991
 30
0.0
 40
1.0
 50
90.000003000000007
 51
180.00001
  0
ARC
  5
80A
  8
0
  6
CONTINUOUS
 62
     7
 10
-608.13385000000005
 20
132.34794999999991
 30
0.0
 40
1.0
 50
179.99998999999991
 51
270.0
  0
ARC
  5
80B
  8
0
  6
CONTINUOUS
 62
     7
 10
-608.13385000000005
 20
122.3479399999998
 30
0.0
 40
1.0
 50
90.000003000000007
 51
180.00001
  0
ARC
  5
80C
  8
0
  6
CONTINUOUS
 62
     7
 10
-608.13385000000005
 20
122.3479399999998
 30
0.0
 40
1.0
 50
179.99998999999991
 51
270.0
  0
ARC
  5
80D
  8
0
  6
CONTINUOUS
 62
     7
 10
-608.13385000000005
 20
113.17318999999991
 30
0.0
 40
1.0
 50
179.99998999999991
 51
246.8729799999999
  0
ARC
  5
80E
  8
0
  6
CONTINUOUS
 62
     7
 10
-608.13385000000005
 20
114.95865000000001
 30
0.0
 40
1.0
 50
179.99998999999991
 51
252.90236999999999
  0
ARC
  5
80F
  8
0
  6
CONTINUOUS
 62
     7
 10
-606.98351999999988
 20
114.60477
 30
0.0
 40
1.0
 50
252.90236999999999
 51
270.0
  0
ARC
  5
810
  8
0
  6
CONTINUOUS
 62
     7
 10
-606.92920000000004
 20
112.65866
 30
0.0
 40
1.0
 50
246.87297000000001
 51
270.0
  0
ARC
  5
811
  8
0
  6
CONTINUOUS
 62
     7
 10
-604.83385999999996
 20
110.95871
 30
0.0
 40
0.6999999900000004
 50
0.0
 51
90.000003000000007
  0
ARC
  5
812
  8
0
  6
CONTINUOUS
 62
     7
 10
-605.13385000000005
 20
120.34795
 30
0.0
 40
1.0
 50
0.0
 51
90.000003000000007
  0
ARC
  5
813
  8
0
  6
CONTINUOUS
 62
     7
 10
-605.13385000000005
 20
124.34793000000001
 30
0.0
 40
1.0
 50
270.0
 51
0.0
  0
ARC
  5
814
  8
0
  6
CONTINUOUS
 62
     7
 10
-605.13385000000005
 20
114.60477
 30
0.0
 40
1.0
 50
270.0
 51
0.0
  0
ARC
  5
815
  8
0
  6
CONTINUOUS
 62
     7
 10
-490.31180000000001
 20
112.3027699999999
 30
0.0
 40
1.6779127
 50
270.0
 51
90.000003000000007
  0
ARC
  5
816
  8
0
  6
CONTINUOUS
 62
     7
 10
-493.78951999999981
 20
112.34793000000001
 30
0.0
 40
1.0
 50
270.0
 51
90.000003000000007
  0
ARC
  5
817
  8
0
  6
CONTINUOUS
 62
     7
 10
-493.78951999999981
 20
182.34792999999991
 30
0.0
 40
1.0
 50
270.0
 51
90.000003000000007
  0
ARC
  5
818
  8
0
  6
CONTINUOUS
 62
     7
 10
-490.31180000000001
 20
182.3930499999999
 30
0.0
 40
1.6779127
 50
270.0
 51
90.000003000000007
  0
ARC
  5
819
  8
0
  6
CONTINUOUS
 62
     7
 10
-506.83385999999967
 20
114.9806899999999
 30
0.0
 40
1.0
 50
179.99998999999991
 51
270.0
  0
ARC
  5
81A
  8
0
  6
CONTINUOUS
 62
     7
 10
-506.83385999999967
 20
179.7151299999999
 30
0.0
 40
1.0
 50
90.000003000000007
 51
180.00001
  0
ARC
  5
81B
  8
0
  6
CONTINUOUS
 62
     7
 10
-592.58446999999978
 20
112.34793000000001
 30
0.0
 40
1.0
 50
90.000003000000007
 51
270.0
  0
ARC
  5
81C
  8
0
  6
CONTINUOUS
 62
     7
 10
-604.6339099999999
 20
197.59732
 30
0.0
 40
0.5
 50
270.0
 51
0.0
  0
ARC
  5
81D
  8
0
  6
CONTINUOUS
 62
     7
 10
-604.6339099999999
 20
195.45103
 30
0.0
 40
0.5
 50
0.0
 51
90.000003000000007
  0
ARC
  5
81E
  8
0
  6
CONTINUOUS
 62
     7
 10
-605.13385000000005
 20
192.84958
 30
0.0
 40
1.0
 50
0.0
 51
90.000003000000007
  0
ARC
  5
81F
  8
0
  6
CONTINUOUS
 62
     7
 10
-604.83385999999996
 20
183.73715000000001
 30
0.0
 40
0.6999999900000004
 50
270.0
 51
0.0
  0
ARC
  5
820
  8
0
  6
CONTINUOUS
 62
     7
 10
-605.13385000000005
 20
188.33286000000001
 30
0.0
 40
1.0
 50
0.0
 51
90.000003000000007
  0
ARC
  5
821
  8
0
  6
CONTINUOUS
 62
     7
 10
-605.13385000000005
 20
180.09105
 30
0.0
 40
1.0
 50
0.0
 51
90.000003000000007
  0
ARC
  5
822
  8
0
  6
CONTINUOUS
 62
     7
 10
-605.13385000000005
 20
174.34795
 30
0.0
 40
1.0
 50
270.0
 51
0.0
  0
ARC
  5
823
  8
0
  6
CONTINUOUS
 62
     7
 10
-605.13385000000005
 20
170.34792999999979
 30
0.0
 40
1.0
 50
0.0
 51
90.000003000000007
  0
ARC
  5
824
  8
0
  6
CONTINUOUS
 62
     7
 10
-605.13385000000005
 20
164.34792999999991
 30
0.0
 40
1.0
 50
270.0
 51
0.0
  0
ARC
  5
825
  8
0
  6
CONTINUOUS
 62
     7
 10
-605.13385000000005
 20
160.34792999999999
 30
0.0
 40
1.0
 50
0.0
 51
90.000003000000007
  0
ARC
  5
826
  8
0
  6
CONTINUOUS
 62
     7
 10
-605.13385000000005
 20
154.34792999999991
 30
0.0
 40
1.0
 50
270.0
 51
0.0
  0
ARC
  5
827
  8
0
  6
CONTINUOUS
 62
     7
 10
-605.13385000000005
 20
150.34795
 30
0.0
 40
1.0
 50
0.0
 51
90.000003000000007
  0
ARC
  5
828
  8
0
  6
CONTINUOUS
 62
     7
 10
-608.13385000000005
 20
152.34792999999991
 30
0.0
 40
1.0
 50
179.99998999999991
 51
270.0
  0
ARC
  5
829
  8
0
  6
CONTINUOUS
 62
     7
 10
-608.13385000000005
 20
152.34792999999991
 30
0.0
 40
1.0
 50
90.000003000000007
 51
180.00001
  0
ARC
  5
82A
  8
0
  6
CONTINUOUS
 62
     7
 10
-608.13385000000005
 20
162.34795
 30
0.0
 40
1.0
 50
179.99998999999991
 51
270.0
  0
ARC
  5
82B
  8
0
  6
CONTINUOUS
 62
     7
 10
-608.13385000000005
 20
162.34795
 30
0.0
 40
1.0
 50
90.000003000000007
 51
180.00001
  0
ARC
  5
82C
  8
0
  6
CONTINUOUS
 62
     7
 10
-608.13385000000005
 20
172.34792999999991
 30
0.0
 40
1.0
 50
179.99998999999991
 51
270.0
  0
ARC
  5
82D
  8
0
  6
CONTINUOUS
 62
     7
 10
-608.13385000000005
 20
172.34792999999991
 30
0.0
 40
1.0
 50
90.000003000000007
 51
180.00001
  0
ARC
  5
82E
  8
0
  6
CONTINUOUS
 62
     7
 10
-608.13385000000005
 20
181.52267000000001
 30
0.0
 40
1.0
 50
113.12703
 51
180.00001
  0
ARC
  5
82F
  8
0
  6
CONTINUOUS
 62
     7
 10
-608.13385000000005
 20
179.73721
 30
0.0
 40
1.0
 50
107.0976299999999
 51
180.00001
  0
ARC
  5
830
  8
0
  6
CONTINUOUS
 62
     7
 10
-606.98351999999988
 20
180.09105
 30
0.0
 40
1.0
 50
90.000003000000007
 51
107.0976299999999
  0
ARC
  5
831
  8
0
  6
CONTINUOUS
 62
     7
 10
-606.92920000000004
 20
182.03713999999991
 30
0.0
 40
1.0
 50
90.000003000000007
 51
113.12703
  0
ARC
  5
832
  8
0
  6
CONTINUOUS
 62
     7
 10
-608.13385000000005
 20
193.22324
 30
0.0
 40
1.0
 50
120.9666
 51
180.00001
  0
ARC
  5
833
  8
0
  6
CONTINUOUS
 62
     7
 10
-608.13385000000005
 20
192.18764999999991
 30
0.0
 40
1.0
 50
117.92659999999979
 51
180.00001
  0
ARC
  5
834
  8
0
  6
CONTINUOUS
 62
     7
 10
-608.13385000000005
 20
188.62125
 30
0.0
 40
1.0
 50
123.25473
 51
180.00001
  0
ARC
  5
835
  8
0
  6
CONTINUOUS
 62
     7
 10
-608.13385000000005
 20
187.58816999999991
 30
0.0
 40
1.0
 50
120.3594999999999
 51
180.00001
  0
ARC
  5
836
  8
0
  6
CONTINUOUS
 62
     7
 10
-606.86255000000017
 20
188.33286000000001
 30
0.0
 40
1.0
 50
90.000003000000007
 51
120.3594999999999
  0
ARC
  5
837
  8
0
  6
CONTINUOUS
 62
     7
 10
-606.83520999999985
 20
189.4728199999999
 30
0.0
 40
1.0
 50
90.000003000000007
 51
123.25473
  0
ARC
  5
838
  8
0
  6
CONTINUOUS
 62
     7
 10
-606.88519000000019
 20
192.84958
 30
0.0
 40
1.0
 50
90.000003000000007
 51
117.92659999999979
  0
ARC
  5
839
  8
0
  6
CONTINUOUS
 62
     7
 10
-606.85681
 20
193.98953
 30
0.0
 40
1.0
 50
90.000003000000007
 51
120.9666
  0
ARC
  5
83A
  8
0
  6
CONTINUOUS
 62
     7
 10
-606.89458999999999
 20
194.9510199999998
 30
0.0
 40
1.0
 50
90.000003000000007
 51
116.91126
  0
ARC
  5
83B
  8
0
  6
CONTINUOUS
 62
     7
 10
-606.86565999999959
 20
196.09731999999991
 30
0.0
 40
1.0
 50
90.000003000000007
 51
120.0264
  0
ARC
  5
83C
  8
0
  6
CONTINUOUS
 62
     7
 10
-608.13385000000005
 20
194.32200999999981
 30
0.0
 40
1.0
 50
116.91126
 51
180.00001
  0
ARC
  5
83D
  8
0
  6
CONTINUOUS
 62
     7
 10
-608.13385000000005
 20
195.36429000000001
 30
0.0
 40
1.0
 50
120.0264
 51
180.00001
  0
ARC
  5
83E
  8
0
  6
CONTINUOUS
 62
     3
 10
-560.63385000000005
 20
169.84769
 30
0.0
 40
5.5
 50
264.78411999999992
 51
5.2159094000000001
  0
ARC
  5
83F
  8
0
  6
CONTINUOUS
 62
     7
 10
-211.53189
 20
185.59795
 30
0.0
 40
16.0
 50
118.1761399999998
 51
175.8435099999999
  0
ARC
  5
840
  8
0
  6
CONTINUOUS
 62
     7
 10
-79.029999000000004
 20
185.59795
 30
0.0
 40
16.0
 50
4.1564915999999981
 51
61.823859999999989
  0
ARC
  5
841
  8
0
  6
CONTINUOUS
 62
     7
 10
-453.49005
 20
369.09485000000001
 30
0.0
 40
2.0
 50
269.99998999999991
 51
35.173260999999997
  0
ARC
  5
842
  8
0
  6
CONTINUOUS
 62
     7
 10
-453.49005
 20
457.09487999999999
 30
0.0
 40
2.0
 50
324.82673
 51
90.000003000000007
  0
ARC
  5
843
  8
0
  6
CONTINUOUS
 62
     7
 10
-454.63387999999998
 20
480.42642000000001
 30
0.0
 40
5.0
 50
310.0
 51
0.0
  0
ARC
  5
844
  8
0
  6
CONTINUOUS
 62
     7
 10
-454.63387999999998
 20
345.76333999999991
 30
0.0
 40
5.0
 50
0.0
 51
50.0
  0
ARC
  5
845
  8
0
  6
CONTINUOUS
 62
     7
 10
-361.63384999999988
 20
443.14758
 30
0.0
 40
1.0
 50
180.00001
 51
268.5
  0
ARC
  5
846
  8
0
  6
CONTINUOUS
 62
     7
 10
-360.63385
 20
441.12072999999998
 30
0.0
 40
1.0
 50
0.0
 51
88.499996999999965
  0
CIRCLE
  5
847
  8
0
  6
CONTINUOUS
 62
     7
 10
-374.63385
 20
488.09487999999988
 30
0.0
 40
6.0
  0
ARC
  5
848
  8
0
  6
CONTINUOUS
 62
     7
 10
-466.63385
 20
499.20352000000003
 30
0.0
 40
3.0
 50
91.500000999999969
 51
180.00001
  0
ARC
  5
849
  8
0
  6
CONTINUOUS
 62
     7
 10
-362.63385
 20
498.26082999999988
 30
0.0
 40
3.0
 50
0.0
 51
88.499996999999965
  0
ARC
  5
84A
  8
0
  6
CONTINUOUS
 62
     7
 10
-454.63385
 20
488.09487999999988
 30
0.0
 40
6.0
 50
33.557262000000001
 51
326.44274000000001
  0
ARC
  5
84B
  8
0
  6
CONTINUOUS
 62
     7
 10
-362.63385
 20
471.09487999999988
 30
0.0
 40
3.0
 50
284.47751
 51
0.0
  0
ARC
  5
84C
  8
0
  6
CONTINUOUS
 62
     7
 10
-466.63385
 20
480.31097
 30
0.0
 40
3.0
 50
180.00001
 51
254.99998999999991
  0
ARC
  5
84D
  8
0
  6
CONTINUOUS
 62
     7
 10
-361.63384999999988
 20
383.04217999999992
 30
0.0
 40
1.0
 50
91.500000999999969
 51
180.00001
  0
ARC
  5
84E
  8
0
  6
CONTINUOUS
 62
     7
 10
-360.63385
 20
385.06903
 30
0.0
 40
1.0
 50
271.49999999999972
 51
0.0
  0
CIRCLE
  5
84F
  8
0
  6
CONTINUOUS
 62
     7
 10
-374.63385
 20
338.09487999999999
 30
0.0
 40
6.0
  0
ARC
  5
850
  8
0
  6
CONTINUOUS
 62
     7
 10
-466.63385
 20
326.98621000000009
 30
0.0
 40
3.0
 50
180.00001
 51
268.5
  0
ARC
  5
851
  8
0
  6
CONTINUOUS
 62
     7
 10
-362.63385
 20
327.92892000000001
 30
0.0
 40
3.0
 50
271.49999999999972
 51
0.0
  0
ARC
  5
852
  8
0
  6
CONTINUOUS
 62
     7
 10
-454.63385
 20
338.09487999999999
 30
0.0
 40
6.0
 50
33.557262000000001
 51
326.44274000000001
  0
ARC
  5
853
  8
0
  6
CONTINUOUS
 62
     7
 10
-362.63385
 20
355.09487999999999
 30
0.0
 40
3.0
 50
0.0
 51
75.522487999999981
  0
ARC
  5
854
  8
0
  6
CONTINUOUS
 62
     7
 10
-466.63385
 20
345.87878000000001
 30
0.0
 40
3.0
 50
105.0
 51
180.00001
  0
ARC
  5
855
  8
0
  6
CONTINUOUS
 62
     7
 10
-437.63385
 20
497.96222
 30
0.0
 40
5.0
 50
0.0
 51
91.500000999999969
  0
ARC
  5
856
  8
0
  6
CONTINUOUS
 62
     7
 10
-437.63385
 20
492.96221999999989
 30
0.0
 40
5.0
 50
28.47123899999999
 51
70.528779
  0
ARC
  5
857
  8
0
  6
CONTINUOUS
 62
     7
 10
-435.63384999999988
 20
498.61908
 30
0.0
 40
1.0
 50
180.00001
 51
250.52877000000001
  0
ARC
  5
858
  8
0
  6
CONTINUOUS
 62
     7
 10
-437.63385
 20
501.96221999999989
 30
0.0
 40
1.0
 50
0.0
 51
90.000003000000007
  0
ARC
  5
859
  8
0
  6
CONTINUOUS
 62
     7
 10
-346.63387999999992
 20
413.09485000000001
 30
0.0
 40
3.9999962
 50
90.000003000000007
 51
270.0
  0
ARC
  5
85A
  8
0
  6
CONTINUOUS
 62
     7
 10
-361.63384999999988
 20
358.96785999999992
 30
0.0
 40
1.0
 50
180.00001
 51
255.52249
  0
ARC
  5
85B
  8
0
  6
CONTINUOUS
 62
     7
 10
-361.63384999999988
 20
467.2218899999998
 30
0.0
 40
1.0
 50
104.47751
 51
180.00001
  0
ARC
  5
85C
  8
0
  6
CONTINUOUS
 62
     7
 10
-365.63384999999988
 20
361.84386999999998
 30
0.0
 40
3.0
 50
275.0
 51
0.0
  0
ARC
  5
85D
  8
0
  6
CONTINUOUS
 62
     7
 10
-365.63384999999988
 20
464.34589
 30
0.0
 40
3.0
 50
0.0
 51
85.000004000000004
  0
ARC
  5
85E
  8
0
  6
CONTINUOUS
 62
     7
 10
-379.63385
 20
468.26641999999993
 30
0.0
 40
5.0
 50
0.0
 51
88.0
  0
ARC
  5
85F
  8
0
  6
CONTINUOUS
 62
     7
 10
-379.63385
 20
357.92334
 30
0.0
 40
5.0
 50
272.0
 51
0.0
  0
ARC
  5
860
  8
0
  6
CONTINUOUS
 62
     7
 10
-370.73203000000001
 20
472.82247999999993
 30
0.0
 40
5.0
 50
207.1038099999999
 51
265.00000999999992
  0
ARC
  5
861
  8
0
  6
CONTINUOUS
 62
     7
 10
-370.73203000000001
 20
353.36727999999999
 30
0.0
 40
5.0
 50
95.000001999999995
 51
152.89618999999979
  0
ARC
  5
862
  8
0
  6
CONTINUOUS
 62
     7
 10
-387.63385
 20
329.27496000000002
 30
0.0
 40
5.0
 50
180.00001
 51
271.49999999999972
  0
ARC
  5
863
  8
0
  6
CONTINUOUS
 62
     7
 10
-387.63385
 20
496.91478999999998
 30
0.0
 40
5.0
 50
88.499996999999965
 51
180.00001
  0
ARC
  5
864
  8
0
  6
CONTINUOUS
 62
     7
 10
-384.63384999999988
 20
481.44896999999997
 30
0.0
 40
8.0
 50
180.00001
 51
268.0
  0
ARC
  5
865
  8
0
  6
CONTINUOUS
 62
     7
 10
-384.63384999999988
 20
344.74077999999992
 30
0.0
 40
8.0
 50
91.999998000000005
 51
180.00001
  0
ARC
  5
866
  8
0
  6
CONTINUOUS
 62
     7
 10
-437.63385
 20
328.22753999999992
 30
0.0
 40
5.0
 50
268.5
 51
0.0000006832456
  0
ARC
  5
867
  8
0
  6
CONTINUOUS
 62
     7
 10
-437.63385
 20
333.22753999999992
 30
0.0
 40
5.0
 50
289.47122999999999
 51
331.52875999999998
  0
ARC
  5
868
  8
0
  6
CONTINUOUS
 62
     7
 10
-435.63384999999988
 20
327.57067999999998
 30
0.0
 40
1.0
 50
109.47122
 51
180.00001
  0
ARC
  5
869
  8
0
  6
CONTINUOUS
 62
     7
 10
-437.63385
 20
324.22753999999998
 30
0.0
 40
1.0
 50
270.0
 51
0.0
  0
ARC
  5
86A
  8
0
  6
CONTINUOUS
 62
     7
 10
-446.63384999999988
 20
334.22989000000001
 30
0.0
 40
3.0
 50
180.00001
 51
268.0
  0
ARC
  5
86B
  8
0
  6
CONTINUOUS
 62
     7
 10
-446.63384999999988
 20
491.95987000000002
 30
0.0
 40
3.0
 50
91.999998000000005
 51
180.00001
  0
ARC
  5
86C
  8
0
  6
CONTINUOUS
 62
     3
 10
-574.40674000000001
 20
336.59487999999982
 30
0.0
 40
7.5
 50
179.99997999999991
 51
0.000010017913
  0
ARC
  5
86D
  8
0
  6
CONTINUOUS
 62
     3
 10
-574.40674000000001
 20
336.59487999999982
 30
0.0
 40
4.0
 50
179.99997999999991
 51
0.000010017912
  0
ARC
  5
86E
  8
0
  6
CONTINUOUS
 62
     7
 10
-487.48061999999999
 20
458.42764
 30
0.0
 40
1.502775999999999
 50
194.75642999999991
 51
269.87757999999991
  0
ARC
  5
86F
  8
0
  6
CONTINUOUS
 62
     7
 10
-487.48061999999999
 20
457.51760999999999
 30
0.0
 40
1.502775999999999
 50
194.75642999999991
 51
269.87757999999991
  0
ARC
  5
870
  8
0
  6
CONTINUOUS
 62
     7
 10
-487.48061999999999
 20
455.66762999999992
 30
0.0
 40
1.502775999999999
 50
194.75642999999991
 51
269.87757999999991
  0
ARC
  5
871
  8
0
  6
CONTINUOUS
 62
     7
 10
-495.00869999999992
 20
472.98012999999997
 30
0.0
 40
2.0047290000000002
 50
15.173496
 51
89.861677999999998
  0
ARC
  5
872
  8
0
  6
CONTINUOUS
 62
     7
 10
-495.00869999999992
 20
472.07010000000002
 30
0.0
 40
2.0047290000000002
 50
15.173496
 51
89.861677999999998
  0
ARC
  5
873
  8
0
  6
CONTINUOUS
 62
     7
 10
-495.00869999999992
 20
470.22012000000001
 30
0.0
 40
2.0047290000000002
 50
15.173496
 51
89.861677999999998
  0
ARC
  5
874
  8
0
  6
CONTINUOUS
 62
     7
 10
-487.48061999999999
 20
373.37209999999999
 30
0.0
 40
1.502775999999999
 50
90.122413000000037
 51
165.24357000000001
  0
ARC
  5
875
  8
0
  6
CONTINUOUS
 62
     7
 10
-608.14062999999999
 20
461.11282
 30
0.0
 40
0.99319202
 50
119.77338
 51
179.87958999999981
  0
ARC
  5
876
  8
0
  6
CONTINUOUS
 62
     7
 10
-608.13830999999982
 20
460.07461999999992
 30
0.0
 40
0.995579
 50
116.5870899999999
 51
179.98264
  0
ARC
  5
877
  8
0
  6
CONTINUOUS
 62
     7
 10
-606.87182999999982
 20
461.84902999999991
 30
0.0
 40
0.9959030199999999
 50
89.541267000000005
 51
119.60717
  0
ARC
  5
878
  8
0
  6
CONTINUOUS
 62
     7
 10
-606.90905999999995
 20
460.70084000000003
 30
0.0
 40
0.99411702
 50
89.122643999999966
 51
115.93498
  0
ARC
  5
879
  8
0
  6
CONTINUOUS
 62
     7
 10
-606.86499000000003
 20
459.74062999999961
 30
0.0
 40
0.99427301
 50
89.356065999999984
 51
120.78091000000001
  0
ARC
  5
87A
  8
0
  6
CONTINUOUS
 62
     7
 10
-606.89880000000005
 20
458.59951999999998
 30
0.0
 40
0.99545902
 50
89.141291000000024
 51
117.20381999999999
  0
ARC
  5
87B
  8
0
  6
CONTINUOUS
 62
     7
 10
-606.82727
 20
455.22867000000002
 30
0.0
 40
0.99617702
 50
90.381317999999979
 51
123.9704899999999
  0
ARC
  5
87C
  8
0
  6
CONTINUOUS
 62
     7
 10
-606.85449000000006
 20
454.08840999999961
 30
0.0
 40
0.99648702
 50
90.540720999999976
 51
120.74377
  0
ARC
  5
87D
  8
0
  6
CONTINUOUS
 62
     7
 10
-608.13977
 20
453.33803999999992
 30
0.0
 40
0.99404597
 50
120.4682
 51
180.18563999999989
  0
ARC
  5
87E
  8
0
  6
CONTINUOUS
 62
     7
 10
-608.13904000000002
 20
454.37247000000002
 30
0.0
 40
0.9948369899999999
 50
123.20496
 51
180.4378599999998
  0
ARC
  5
87F
  8
0
  6
CONTINUOUS
 62
     7
 10
-608.14062999999999
 20
457.93630999999988
 30
0.0
 40
0.9932109699999999
 50
117.7993199999999
 51
180.08187000000001
  0
ARC
  5
880
  8
0
  6
CONTINUOUS
 62
     7
 10
-608.13940000000002
 20
458.97390999999999
 30
0.0
 40
0.9944329899999999
 50
121.15213
 51
179.9405099999999
  0
ARC
  5
881
  8
0
  6
CONTINUOUS
 62
     7
 10
-606.93286000000001
 20
447.78945999999991
 30
0.0
 40
0.9954450099999999
 50
90.056905000000043
 51
113.1274499999999
  0
ARC
  5
882
  8
0
  6
CONTINUOUS
 62
     7
 10
-606.99463000000003
 20
445.84219000000002
 30
0.0
 40
0.9927430199999999
 50
89.374555000000001
 51
106.33207
  0
ARC
  5
883
  8
0
  6
CONTINUOUS
 62
     7
 10
-608.13756999999976
 20
445.49062999999961
 30
0.0
 40
0.9962710099999999
 50
106.69792
 51
180.3300499999998
  0
ARC
  5
884
  8
0
  6
CONTINUOUS
 62
     7
 10
-608.13744999999994
 20
447.27640000000002
 30
0.0
 40
0.9963999999999998
 50
112.81735999999979
 51
180.09041999999991
  0
ARC
  5
885
  8
0
  6
CONTINUOUS
 62
     7
 10
-608.13879000000009
 20
438.09975999999989
 30
0.0
 40
0.99507803
 50
89.715886999999981
 51
180.28411
  0
ARC
  5
886
  8
0
  6
CONTINUOUS
 62
     7
 10
-608.13367000000005
 20
438.09512000000001
 30
0.0
 40
1.000203
 50
180.01165
 51
269.98835000000003
  0
ARC
  5
887
  8
0
  6
CONTINUOUS
 62
     7
 10
-608.13879000000009
 20
428.09975999999989
 30
0.0
 40
0.99508202
 50
89.716099
 51
180.28390999999991
  0
ARC
  5
888
  8
0
  6
CONTINUOUS
 62
     7
 10
-608.13367000000005
 20
428.09512000000001
 30
0.0
 40
1.0001999999999991
 50
180.0114299999999
 51
269.98856999999992
  0
ARC
  5
889
  8
0
  6
CONTINUOUS
 62
     7
 10
-608.13879000000009
 20
418.09976
 30
0.0
 40
0.9950849999999999
 50
89.716311000000005
 51
180.28368999999981
  0
ARC
  5
88A
  8
0
  6
CONTINUOUS
 62
     7
 10
-608.13367000000005
 20
418.09511999999989
 30
0.0
 40
1.0001959999999981
 50
180.01122000000001
 51
269.98877999999991
  0
ARC
  5
88B
  8
0
  6
CONTINUOUS
 62
     7
 10
-605.13367000000017
 20
416.09500000000003
 30
0.0
 40
0.9998249999999999
 50
359.98995000000002
 51
90.010050000000007
  0
ARC
  5
88C
  8
0
  6
CONTINUOUS
 62
     7
 10
-605.13878999999986
 20
420.09975999999989
 30
0.0
 40
1.0049469
 50
270.28134999999992
 51
359.71866
  0
ARC
  5
88D
  8
0
  6
CONTINUOUS
 62
     7
 10
-605.13367000000017
 20
426.09500000000003
 30
0.0
 40
0.9998210099999999
 50
359.98975000000002
 51
90.010255000000001
  0
ARC
  5
88E
  8
0
  6
CONTINUOUS
 62
     7
 10
-605.13878999999986
 20
430.09975999999989
 30
0.0
 40
1.004939
 50
270.28091000000001
 51
359.71910000000008
  0
ARC
  5
88F
  8
0
  6
CONTINUOUS
 62
     7
 10
-605.13367000000017
 20
436.09500000000003
 30
0.0
 40
0.9998289899999999
 50
359.99018999999993
 51
90.009810999999985
  0
ARC
  5
890
  8
0
  6
CONTINUOUS
 62
     7
 10
-605.13878999999986
 20
440.09975999999989
 30
0.0
 40
1.004942999999999
 50
270.28111000000001
 51
359.71888999999987
  0
ARC
  5
891
  8
0
  6
CONTINUOUS
 62
     7
 10
-605.13207999999997
 20
445.83658000000003
 30
0.0
 40
0.9982839799999999
 50
359.90141999999992
 51
90.098575999999994
  0
ARC
  5
892
  8
0
  6
CONTINUOUS
 62
     7
 10
-605.13622999999995
 20
454.08255000000003
 30
0.0
 40
1.002353
 50
0.13432682
 51
89.865673000000001
  0
ARC
  5
893
  8
0
  6
CONTINUOUS
 62
     7
 10
-604.83838000000003
 20
449.48940999999979
 30
0.0
 40
0.704566
 50
270.37009999999992
 51
359.62990999999982
  0
ARC
  5
894
  8
0
  6
CONTINUOUS
 62
     7
 10
-605.13280999999995
 20
458.59585999999962
 30
0.0
 40
0.9990100299999999
 50
359.94319000000002
 51
90.056808999999959
  0
ARC
  5
895
  8
0
  6
CONTINUOUS
 62
     7
 10
-604.6321999999999
 20
461.19655999999992
 30
0.0
 40
0.4983060100000002
 50
359.80489
 51
90.195107000000007
  0
ARC
  5
896
  8
0
  6
CONTINUOUS
 62
     7
 10
-604.63842999999963
 20
463.34951999999993
 30
0.0
 40
0.50463498
 50
270.52382999999992
 51
359.47617000000002
  0
ARC
  5
897
  8
0
  6
CONTINUOUS
 62
     7
 10
-592.58922999999982
 20
378.09487999999988
 30
0.0
 40
1.000013899999999
 50
89.691659999999985
 51
270.30833999999999
  0
ARC
  5
898
  8
0
  6
CONTINUOUS
 62
     7
 10
-490.31384000000003
 20
448.13992000000002
 30
0.0
 40
1.6750020000000001
 50
269.99998999999991
 51
90.000003000000007
  0
ARC
  5
899
  8
0
  6
CONTINUOUS
 62
     7
 10
-493.79385000000002
 20
448.09487999999999
 30
0.0
 40
1.0
 50
269.99998999999991
 51
90.000003000000007
  0
ARC
  5
89A
  8
0
  6
CONTINUOUS
 62
     7
 10
-493.79385000000002
 20
378.09487999999988
 30
0.0
 40
1.0
 50
269.99998999999991
 51
90.000003000000007
  0
ARC
  5
89B
  8
0
  6
CONTINUOUS
 62
     7
 10
-490.31384000000003
 20
378.04984000000002
 30
0.0
 40
1.6750020000000001
 50
269.99998999999991
 51
90.000003000000007
  0
ARC
  5
89C
  8
0
  6
CONTINUOUS
 62
     7
 10
-605.13720999999998
 20
380.35817999999989
 30
0.0
 40
1.003352
 50
270.19110999999992
 51
359.80889999999982
  0
ARC
  5
89D
  8
0
  6
CONTINUOUS
 62
     7
 10
-605.13878999999986
 20
390.09976
 30
0.0
 40
1.0049469
 50
270.28136999999992
 51
359.71863000000002
  0
ARC
  5
89E
  8
0
  6
CONTINUOUS
 62
     7
 10
-605.13367000000017
 20
386.09500000000003
 30
0.0
 40
0.9998239899999999
 50
359.98991999999993
 51
90.010076999999981
  0
ARC
  5
89F
  8
0
  6
CONTINUOUS
 62
     7
 10
-604.83325000000002
 20
376.70546999999999
 30
0.0
 40
0.6994530000000001
 50
359.95517000000001
 51
90.044829000000021
  0
ARC
  5
8A0
  8
0
  6
CONTINUOUS
 62
     7
 10
-606.93090999999981
 20
378.41005999999987
 30
0.0
 40
1.005233
 50
246.98638999999989
 51
269.82924999999989
  0
ARC
  5
8A1
  8
0
  6
CONTINUOUS
 62
     7
 10
-606.99329
 20
380.35757000000001
 30
0.0
 40
1.002699
 50
253.7527199999999
 51
270.54064
  0
ARC
  5
8A2
  8
0
  6
CONTINUOUS
 62
     7
 10
-608.13744999999994
 20
380.70925999999992
 30
0.0
 40
0.99638802
 50
180.24991
 51
253.29664
  0
ARC
  5
8A3
  8
0
  6
CONTINUOUS
 62
     7
 10
-608.13733000000002
 20
378.92336999999998
 30
0.0
 40
0.9965090199999998
 50
179.91374999999999
 51
247.17845
  0
ARC
  5
8A4
  8
0
  6
CONTINUOUS
 62
     7
 10
-608.13367000000005
 20
388.09512000000001
 30
0.0
 40
1.0001959999999981
 50
180.01124999999999
 51
269.98874999999992
  0
ARC
  5
8A5
  8
0
  6
CONTINUOUS
 62
     7
 10
-608.13879000000009
 20
388.09976
 30
0.0
 40
0.9950849999999999
 50
89.716282999999976
 51
180.2837199999999
  0
ARC
  5
8A6
  8
0
  6
CONTINUOUS
 62
     7
 10
-608.13367000000005
 20
398.09512000000001
 30
0.0
 40
1.0001999999999991
 50
180.01146
 51
269.98853999999972
  0
ARC
  5
8A7
  8
0
  6
CONTINUOUS
 62
     7
 10
-608.13879000000009
 20
398.09976
 30
0.0
 40
0.9950810099999999
 50
89.716071999999997
 51
180.28391999999999
  0
ARC
  5
8A8
  8
0
  6
CONTINUOUS
 62
     7
 10
-608.13367000000005
 20
408.09512000000001
 30
0.0
 40
1.0002040000000001
 50
180.01166000000001
 51
269.9883200000001
  0
ARC
  5
8A9
  8
0
  6
CONTINUOUS
 62
     7
 10
-608.13879000000009
 20
408.09975999999989
 30
0.0
 40
0.9950770099999999
 50
89.715860000000006
 51
180.28413999999989
  0
ARC
  5
8AA
  8
0
  6
CONTINUOUS
 62
     7
 10
-605.13878999999986
 20
410.09976
 30
0.0
 40
1.004942999999999
 50
270.28113999999988
 51
359.71886999999992
  0
ARC
  5
8AB
  8
0
  6
CONTINUOUS
 62
     7
 10
-605.13367000000017
 20
406.09500000000003
 30
0.0
 40
0.9998279799999998
 50
359.99015999999978
 51
90.009838000000002
  0
ARC
  5
8AC
  8
0
  6
CONTINUOUS
 62
     7
 10
-605.13878999999986
 20
400.09975999999989
 30
0.0
 40
1.004939
 50
270.28093999999999
 51
359.71906999999999
  0
ARC
  5
8AD
  8
0
  6
CONTINUOUS
 62
     7
 10
-605.13367000000017
 20
396.09500000000003
 30
0.0
 40
0.9998210099999999
 50
359.98971999999998
 51
90.010281999999961
  0
ARC
  5
8AE
  8
0
  6
CONTINUOUS
 62
     7
 10
-593.46130000000005
 20
448.13992000000002
 30
0.0
 40
1.6750160000000001
 50
89.746144999999984
 51
270.25387000000001
  0
ARC
  5
8AF
  8
0
  6
CONTINUOUS
 62
     7
 10
-592.58922999999982
 20
448.09487999999999
 30
0.0
 40
1.000013899999999
 50
89.691659999999985
 51
270.30833999999999
  0
ARC
  5
8B0
  8
0
  6
CONTINUOUS
 62
     7
 10
-592.58922999999982
 20
438.09487999999988
 30
0.0
 40
1.000013899999999
 50
89.691659999999985
 51
270.30833999999999
  0
ARC
  5
8B1
  8
0
  6
CONTINUOUS
 62
     7
 10
-592.58922999999982
 20
428.09487999999988
 30
0.0
 40
1.000013899999999
 50
89.691659999999985
 51
270.30833999999999
  0
ARC
  5
8B2
  8
0
  6
CONTINUOUS
 62
     7
 10
-592.58922999999982
 20
418.09487999999999
 30
0.0
 40
1.000013899999999
 50
89.691659999999985
 51
270.30833999999999
  0
ARC
  5
8B3
  8
0
  6
CONTINUOUS
 62
     7
 10
-592.58922999999982
 20
408.09487999999988
 30
0.0
 40
1.000013899999999
 50
89.691659999999985
 51
270.30833999999999
  0
ARC
  5
8B4
  8
0
  6
CONTINUOUS
 62
     7
 10
-592.58922999999982
 20
398.09487999999999
 30
0.0
 40
1.000013899999999
 50
89.691659999999985
 51
270.30833999999999
  0
ARC
  5
8B5
  8
0
  6
CONTINUOUS
 62
     7
 10
-592.58922999999982
 20
388.09487999999999
 30
0.0
 40
1.000013899999999
 50
89.691659999999985
 51
270.30833999999999
  0
ARC
  5
8B6
  8
0
  6
CONTINUOUS
 62
     7
 10
-593.67382999999995
 20
438.11989999999992
 30
0.0
 40
1.465004
 50
90.000003000000007
 51
270.0
  0
ARC
  5
8B7
  8
0
  6
CONTINUOUS
 62
     7
 10
-593.80382999999995
 20
428.10489000000001
 30
0.0
 40
1.3300049999999981
 50
90.000003000000007
 51
270.0
  0
ARC
  5
8B8
  8
0
  6
CONTINUOUS
 62
     7
 10
-593.86963000000003
 20
418.09987999999998
 30
0.0
 40
1.2650129999999991
 50
89.735579000000016
 51
270.26441
  0
ARC
  5
8B9
  8
0
  6
CONTINUOUS
 62
     7
 10
-593.86963000000003
 20
408.09487999999988
 30
0.0
 40
1.2700129999999981
 50
89.736616999999995
 51
270.26337000000001
  0
ARC
  5
8BA
  8
0
  6
CONTINUOUS
 62
     7
 10
-593.80382999999995
 20
398.08487000000002
 30
0.0
 40
1.3300049999999981
 50
90.000003000000007
 51
270.0
  0
ARC
  5
8BB
  8
0
  6
CONTINUOUS
 62
     7
 10
-593.67382999999995
 20
388.06984999999992
 30
0.0
 40
1.465004
 50
90.000003000000007
 51
270.0
  0
ARC
  5
8BC
  8
0
  6
CONTINUOUS
 62
     7
 10
-593.46069
 20
378.04984000000002
 30
0.0
 40
1.675014
 50
89.766498999999982
 51
270.23351000000002
  0
ARC
  5
8BD
  8
0
  6
CONTINUOUS
 62
     7
 10
-605.13707999999986
 20
372.12160999999992
 30
0.0
 40
1.0032760000000001
 50
334.19810000000001
 51
359.61810999999977
  0
ARC
  5
8BE
  8
0
  6
CONTINUOUS
 62
     7
 10
-608.13538000000017
 20
372.85415999999992
 30
0.0
 40
0.9984580299999999
 50
179.9595799999999
 51
239.38657000000001
  0
ARC
  5
8BF
  8
0
  6
CONTINUOUS
 62
     7
 10
-591.93517999999995
 20
467.38076999999998
 30
0.0
 40
1.994108999999999
 50
89.675548000000006
 51
169.18777
  0
ARC
  5
8C0
  8
0
  6
CONTINUOUS
 62
     7
 10
-591.88367000000005
 20
470.22964000000002
 30
0.0
 40
1.995282999999997
 50
90.006203999999983
 51
170.90835000000001
  0
ARC
  5
8C1
  8
0
  6
CONTINUOUS
 62
     7
 10
-591.86926000000005
 20
472.07815999999991
 30
0.0
 40
1.9967330000000001
 50
89.843967000000006
 51
171.45387999999991
  0
ARC
  5
8C2
  8
0
  6
CONTINUOUS
 62
     7
 10
-591.84729000000004
 20
472.98928999999998
 30
0.0
 40
1.995633
 50
89.899708000000004
 51
172.06112999999991
  0
ARC
  5
8C3
  8
0
  6
CONTINUOUS
 62
     7
 10
-495.00375000000003
 20
467.37662
 30
0.0
 40
1.9982919999999991
 50
15.032547999999981
 51
90.002631999999977
  0
ARC
  5
8C4
  8
0
  6
CONTINUOUS
 62
     7
 10
-487.48061999999999
 20
452.81765999999999
 30
0.0
 40
1.502775999999999
 50
194.75642999999991
 51
269.87757999999991
  0
ARC
  5
8C5
  8
0
  6
CONTINUOUS
 62
     7
 10
-495.00869999999992
 20
358.81961000000001
 30
0.0
 40
2.0047290000000002
 50
270.13832000000002
 51
344.82650000000001
  0
ARC
  5
8C6
  8
0
  6
CONTINUOUS
 62
     7
 10
-608.13622999999995
 20
365.0795
 30
0.0
 40
0.9976310099999999
 50
180.26780999999991
 51
240.07924
  0
ARC
  5
8C7
  8
0
  6
CONTINUOUS
 62
     7
 10
-608.13818000000003
 20
366.12526999999989
 30
0.0
 40
0.9956849800000001
 50
180.02112999999991
 51
243.40913999999981
  0
ARC
  5
8C8
  8
0
  6
CONTINUOUS
 62
     7
 10
-606.85315000000003
 20
364.34598
 30
0.0
 40
1.001123999999999
 50
239.32782000000009
 51
269.38767999999988
  0
ARC
  5
8C9
  8
0
  6
CONTINUOUS
 62
     7
 10
-606.88805999999988
 20
365.49417
 30
0.0
 40
0.9993420200000001
 50
242.86199999999999
 51
269.66546
  0
ARC
  5
8CA
  8
0
  6
CONTINUOUS
 62
     7
 10
-606.86243000000002
 20
366.45853
 30
0.0
 40
1.0037439999999991
 50
239.37112999999999
 51
270.49189999999987
  0
ARC
  5
8CB
  8
0
  6
CONTINUOUS
 62
     7
 10
-606.87865999999997
 20
367.59548999999993
 30
0.0
 40
1.0006820000000001
 50
241.65062
 51
269.7039299999999
  0
ARC
  5
8CC
  8
0
  6
CONTINUOUS
 62
     7
 10
-606.84105999999986
 20
370.97537
 30
0.0
 40
1.000521999999999
 50
237.14617999999999
 51
270.41343999999998
  0
ARC
  5
8CD
  8
0
  6
CONTINUOUS
 62
     7
 10
-606.87047999999982
 20
372.11587999999989
 30
0.0
 40
1.0010449999999991
 50
240.47187
 51
270.37970999999999
  0
ARC
  5
8CE
  8
0
  6
CONTINUOUS
 62
     7
 10
-608.13538000000017
 20
372.85415999999992
 30
0.0
 40
0.9984580299999999
 50
179.9595799999999
 51
239.38657000000001
  0
ARC
  5
8CF
  8
0
  6
CONTINUOUS
 62
     7
 10
-608.13477
 20
371.81961000000001
 30
0.0
 40
0.9990889999999998
 50
179.69508999999991
 51
236.66209000000001
  0
ARC
  5
8D0
  8
0
  6
CONTINUOUS
 62
     7
 10
-608.13610999999958
 20
368.25612999999993
 30
0.0
 40
0.9977070099999998
 50
180.0740199999999
 51
242.04481000000001
  0
ARC
  5
8D1
  8
0
  6
CONTINUOUS
 62
     7
 10
-608.13500999999985
 20
367.21840999999989
 30
0.0
 40
0.9987969999999998
 50
179.62728000000001
 51
238.70795000000001
  0
ARC
  5
8D2
  8
0
  6
CONTINUOUS
 62
     7
 10
-605.13634999999988
 20
372.11734000000001
 30
0.0
 40
1.002470999999999
 50
270.14107000000001
 51
359.85892999999987
  0
ARC
  5
8D3
  8
0
  6
CONTINUOUS
 62
     7
 10
-605.13793999999996
 20
367.59902999999991
 30
0.0
 40
1.004119999999999
 50
270.23460999999992
 51
359.76538999999991
  0
ARC
  5
8D4
  8
0
  6
CONTINUOUS
 62
     7
 10
-604.63720999999998
 20
364.99831999999992
 30
0.0
 40
0.5033929900000002
 50
270.38490999999982
 51
359.61509999999993
  0
ARC
  5
8D5
  8
0
  6
CONTINUOUS
 62
     7
 10
-604.63342
 20
362.84537
 30
0.0
 40
0.49952301
 50
359.94522999999992
 51
90.054773999999981
  0
ARC
  5
8D6
  8
0
  6
CONTINUOUS
 62
     7
 10
-591.92895999999985
 20
358.81411999999978
 30
0.0
 40
1.9992490000000001
 50
190.64309999999981
 51
270.14742999999999
  0
ARC
  5
8D7
  8
0
  6
CONTINUOUS
 62
     7
 10
-591.87769000000003
 20
355.96523999999999
 30
0.0
 40
2.000420099999999
 50
188.92681999999991
 51
269.82270999999992
  0
ARC
  5
8D8
  8
0
  6
CONTINUOUS
 62
     7
 10
-506.62024000000002
 20
349.09487999999988
 30
0.0
 40
1.5
 50
90.000003000000007
 51
178.5
  0
ARC
  5
8D9
  8
0
  6
CONTINUOUS
 62
     3
 10
-495.11765000000003
 20
352.09487999999988
 30
0.0
 40
1.5
 50
269.99998999999991
 51
327.0
  0
ARC
  5
8DA
  8
0
  6
CONTINUOUS
 62
     7
 10
-592.14722000000006
 20
355.96487000000002
 30
0.0
 40
2.0
 50
188.6296199999999
 51
269.99998999999991
  0
ARC
  5
8DB
  8
0
  6
CONTINUOUS
 62
     7
 10
-592.22766000000001
 20
355.96487000000002
 30
0.0
 40
2.0
 50
187.9504399999999
 51
269.99998999999991
  0
ARC
  5
8DC
  8
0
  6
CONTINUOUS
 62
     7
 10
-569.7357199999999
 20
352.46487000000002
 30
0.0
 40
1.5
 50
1.500002699999998
 51
90.000003000000007
  0
ARC
  5
8DD
  8
0
  6
CONTINUOUS
 62
     7
 10
-558.69519000000003
 20
428.09487999999988
 30
0.0
 40
1.0000056999999991
 50
269.99998999999991
 51
90.000003000000007
  0
ARC
  5
8DE
  8
0
  6
CONTINUOUS
 62
     7
 10
-558.69519000000003
 20
418.09487999999999
 30
0.0
 40
1.0000056999999991
 50
269.99998999999991
 51
90.000003000000007
  0
ARC
  5
8DF
  8
0
  6
CONTINUOUS
 62
     7
 10
-558.69519000000003
 20
408.09487999999988
 30
0.0
 40
1.0000056999999991
 50
269.99998999999991
 51
90.000003000000007
  0
ARC
  5
8E0
  8
0
  6
CONTINUOUS
 62
     7
 10
-558.69519000000003
 20
398.09487999999999
 30
0.0
 40
1.0000056999999991
 50
269.99998999999991
 51
90.000003000000007
  0
ARC
  5
8E1
  8
0
  6
CONTINUOUS
 62
     7
 10
-508.13385
 20
380.59487999999988
 30
0.0
 40
1.5
 50
179.99998999999991
 51
270.0
  0
ARC
  5
8E2
  8
0
  6
CONTINUOUS
 62
     7
 10
-526.13385000000005
 20
380.59487999999988
 30
0.0
 40
1.5
 50
269.99998999999991
 51
0.00000068324516
  0
ARC
  5
8E3
  8
0
  6
CONTINUOUS
 62
     7
 10
-526.11388999999986
 20
380.73489000000001
 30
0.0
 40
1.0
 50
269.99998999999991
 51
0.00000068324625
  0
ARC
  5
8E4
  8
0
  6
CONTINUOUS
 62
     7
 10
-508.15384
 20
380.73489000000001
 30
0.0
 40
1.0
 50
179.99998999999991
 51
270.0
  0
CIRCLE
  5
8E5
  8
0
  6
CONTINUOUS
 62
     3
 10
-519.63385000000005
 20
441.59487999999988
 30
0.0
 40
1.1000000000000001
  0
CIRCLE
  5
8E6
  8
0
  6
CONTINUOUS
 62
     3
 10
-519.63385000000005
 20
441.59487999999988
 30
0.0
 40
1.149999999999999
  0
CIRCLE
  5
8E7
  8
0
  6
CONTINUOUS
 62
     3
 10
-514.63385000000005
 20
441.59487999999988
 30
0.0
 40
1.0
  0
ARC
  5
8E8
  8
0
  6
CONTINUOUS
 62
     7
 10
-526.13385000000005
 20
440.59487999999988
 30
0.0
 40
1.02
 50
269.99998999999991
 51
0.00000068324403
  0
ARC
  5
8E9
  8
0
  6
CONTINUOUS
 62
     7
 10
-508.13385
 20
440.59487999999988
 30
0.0
 40
1.02
 50
179.99998999999991
 51
270.0
  0
ARC
  5
8EA
  8
0
  6
CONTINUOUS
 62
     7
 10
-526.13385000000005
 20
440.59487999999988
 30
0.0
 40
1.5
 50
269.99998999999991
 51
0.00000068324516
  0
ARC
  5
8EB
  8
0
  6
CONTINUOUS
 62
     7
 10
-508.13385
 20
440.59487999999988
 30
0.0
 40
1.5
 50
179.99998999999991
 51
270.0
  0
CIRCLE
  5
8EC
  8
0
  6
CONTINUOUS
 62
     3
 10
-514.63385000000005
 20
384.59487999999999
 30
0.0
 40
1.0
  0
CIRCLE
  5
8ED
  8
0
  6
CONTINUOUS
 62
     3
 10
-519.63385000000005
 20
384.59487999999999
 30
0.0
 40
1.149999999999999
  0
CIRCLE
  5
8EE
  8
0
  6
CONTINUOUS
 62
     3
 10
-519.63385000000005
 20
384.59487999999999
 30
0.0
 40
1.1000000000000001
  0
ARC
  5
8EF
  8
0
  6
CONTINUOUS
 62
     7
 10
-526.13385000000005
 20
385.59487999999999
 30
0.0
 40
1.02
 50
0.0
 51
90.000003000000007
  0
ARC
  5
8F0
  8
0
  6
CONTINUOUS
 62
     7
 10
-508.13385
 20
385.59487999999999
 30
0.0
 40
1.02
 50
90.000003000000007
 51
180.00001
  0
ARC
  5
8F1
  8
0
  6
CONTINUOUS
 62
     7
 10
-526.13385000000005
 20
385.59487999999999
 30
0.0
 40
1.5
 50
0.0
 51
90.000003000000007
  0
ARC
  5
8F2
  8
0
  6
CONTINUOUS
 62
     7
 10
-508.13385
 20
385.59487999999999
 30
0.0
 40
1.5
 50
90.000003000000007
 51
180.00001
  0
ARC
  5
8F3
  8
0
  6
CONTINUOUS
 62
     7
 10
-557.46887000000004
 20
398.08487000000002
 30
0.0
 40
1.3300148000000001
 50
269.72941999999989
 51
90.270567000000014
  0
ARC
  5
8F4
  8
0
  6
CONTINUOUS
 62
     7
 10
-557.40697999999998
 20
408.09487999999988
 30
0.0
 40
1.2700266
 50
269.62931999999989
 51
90.370669999999961
  0
ARC
  5
8F5
  8
0
  6
CONTINUOUS
 62
     7
 10
-557.40697999999998
 20
418.10489000000001
 30
0.0
 40
1.2700266
 50
269.62931999999989
 51
90.370669999999961
  0
ARC
  5
8F6
  8
0
  6
CONTINUOUS
 62
     7
 10
-557.46887000000004
 20
428.10988999999989
 30
0.0
 40
1.3350147999999991
 50
269.73043000000001
 51
90.269555999999994
  0
ARC
  5
8F7
  8
0
  6
CONTINUOUS
 62
     7
 10
-493.79385000000002
 20
438.09487999999988
 30
0.0
 40
1.0000255999999981
 50
269.58947000000001
 51
90.410531000000006
  0
ARC
  5
8F8
  8
0
  6
CONTINUOUS
 62
     7
 10
-490.09386999999998
 20
438.12490999999989
 30
0.0
 40
1.460011199999999
 50
269.77525000000003
 51
90.224749999999986
  0
ARC
  5
8F9
  8
0
  6
CONTINUOUS
 62
     7
 10
-493.79385000000002
 20
388.09487999999999
 30
0.0
 40
1.0000255999999981
 50
269.58947000000001
 51
90.410531000000006
  0
ARC
  5
8FA
  8
0
  6
CONTINUOUS
 62
     7
 10
-490.09386999999998
 20
388.06484999999992
 30
0.0
 40
1.460011199999999
 50
269.77525000000003
 51
90.224749999999986
  0
ARC
  5
8FB
  8
0
  6
CONTINUOUS
 62
     7
 10
-508.15384
 20
445.45485999999988
 30
0.0
 40
1.0
 50
90.000003000000007
 51
180.00001
  0
ARC
  5
8FC
  8
0
  6
CONTINUOUS
 62
     7
 10
-508.13385
 20
445.59487999999988
 30
0.0
 40
1.5
 50
90.000003000000007
 51
180.00001
  0
ARC
  5
8FD
  8
0
  6
CONTINUOUS
 62
     7
 10
-526.13385000000005
 20
445.59487999999988
 30
0.0
 40
1.5
 50
0.0
 51
90.000003000000007
  0
ARC
  5
8FE
  8
0
  6
CONTINUOUS
 62
     7
 10
-526.11388999999986
 20
445.45485999999988
 30
0.0
 40
1.0
 50
0.0
 51
90.000003000000007
  0
ARC
  5
8FF
  8
0
  6
CONTINUOUS
 62
     7
 10
-461.43948
 20
351.47393999999991
 30
0.0
 40
5.0
 50
49.999997
 51
88.0
  0
ARC
  5
900
  8
0
  6
CONTINUOUS
 62
     7
 10
-461.43950999999998
 20
474.71582000000001
 30
0.0
 40
5.0
 50
272.0
 51
310.0
  0
POLYLINE
  5
901
  8
0
  6
CONTINUOUS
 62
     7
 66
     1
 10
0.0
 20
0.0
 30
0.0
  0
VERTEX
  5
902
  8
0
  6
CONTINUOUS
 62
     7
 10
-402.5564
 20
189.7273999999999
 30
0.0
 42
0.032714863
  0
VERTEX
  5
903
  8
0
  6
CONTINUOUS
 62
     7
 10
-404.50590999999991
 20
190.47676000000001
 30
0.0
 42
0.016800356
  0
VERTEX
  5
904
  8
0
  6
CONTINUOUS
 62
     7
 10
-406.51825000000002
 20
191.03896999999981
 30
0.0
 42
0.01082795
  0
VERTEX
  5
905
  8
0
  6
CONTINUOUS
 62
     7
 10
-408.5588399999998
 20
191.49174999999991
 30
0.0
 42
0.0078595161
  0
VERTEX
  5
906
  8
0
  6
CONTINUOUS
 62
     7
 10
-410.61467999999991
 20
191.8688699999999
 30
0.0
 42
0.0061446418
  0
VERTEX
  5
907
  8
0
  6
CONTINUOUS
 62
     7
 10
-412.68079999999992
 20
192.1887999999999
 30
0.0
 42
0.0050517291
  0
VERTEX
  5
908
  8
0
  6
CONTINUOUS
 62
     7
 10
-414.75353999999987
 20
192.46261000000001
 30
0.0
 42
0.0043110087
  0
VERTEX
  5
909
  8
0
  6
CONTINUOUS
 62
     7
 10
-416.8313099999998
 20
192.6977399999999
 30
0.0
 42
0.0037845282
  0
VERTEX
  5
90A
  8
0
  6
CONTINUOUS
 62
     7
 10
-418.91217999999992
 20
192.89923999999999
 30
0.0
 42
0.0034013156
  0
VERTEX
  5
90B
  8
0
  6
CONTINUOUS
 62
     7
 10
-420.99621999999988
 20
193.07092
 30
0.0
 42
0.0031157553
  0
VERTEX
  5
90C
  8
0
  6
CONTINUOUS
 62
     7
 10
-423.08274
 20
193.21549999999999
 30
0.0
 42
0.0029006417
  0
VERTEX
  5
90D
  8
0
  6
CONTINUOUS
 62
     7
 10
-425.1708299999998
 20
193.33498999999981
 30
0.0
 42
0.0027395361
  0
VERTEX
  5
90E
  8
0
  6
CONTINUOUS
 62
     7
 10
-427.26017000000002
 20
193.43093999999999
 30
0.0
 42
0.0026210345
  0
VERTEX
  5
90F
  8
0
  6
CONTINUOUS
 62
     7
 10
-429.3504699999998
 20
193.50451000000001
 30
0.0
 42
0.0025375867
  0
VERTEX
  5
910
  8
0
  6
CONTINUOUS
 62
     7
 10
-431.44146999999992
 20
193.55653000000001
 30
0.0
 42
0.0024842924
  0
VERTEX
  5
911
  8
0
  6
CONTINUOUS
 62
     7
 10
-433.53287999999998
 20
193.58755999999991
 30
0.0
 42
0.0024582564
  0
VERTEX
  5
912
  8
0
  6
CONTINUOUS
 62
     7
 10
-435.62447999999989
 20
193.59792999999991
 30
0.0
  0
SEQEND
  5
913
  8
0
 62
     7
  0
POLYLINE
  5
914
  8
0
  6
CONTINUOUS
 62
     7
 66
     1
 10
0.0
 20
0.0
 30
0.0
  0
VERTEX
  5
915
  8
0
  6
CONTINUOUS
 62
     7
 10
-400.63390999999979
 20
187.84795
 30
0.0
 42
0.029628699
  0
VERTEX
  5
916
  8
0
  6
CONTINUOUS
 62
     7
 10
-400.82555000000002
 20
191.0772399999999
 30
0.0
 42
0.029364794
  0
VERTEX
  5
917
  8
0
  6
CONTINUOUS
 62
     7
 10
-401.39620999999988
 20
194.26220000000001
 30
0.0
 42
0.028846913
  0
VERTEX
  5
918
  8
0
  6
CONTINUOUS
 62
     7
 10
-402.33292999999992
 20
197.35891000000001
 30
0.0
 42
0.028138187
  0
VERTEX
  5
919
  8
0
  6
CONTINUOUS
 62
     7
 10
-403.61587999999989
 20
200.32921999999991
 30
0.0
 42
0.027295399
  0
VERTEX
  5
91A
  8
0
  6
CONTINUOUS
 62
     7
 10
-405.21992999999981
 20
203.1399599999998
 30
0.0
 42
0.026361396
  0
VERTEX
  5
91B
  8
0
  6
CONTINUOUS
 62
     7
 10
-407.11516999999992
 20
205.76193000000001
 30
0.0
 42
0.025425264
  0
VERTEX
  5
91C
  8
0
  6
CONTINUOUS
 62
     7
 10
-409.27220999999992
 20
208.17498999999981
 30
0.0
 42
0.024501835
  0
VERTEX
  5
91D
  8
0
  6
CONTINUOUS
 62
     7
 10
-411.65901000000002
 20
210.36108999999999
 30
0.0
 42
0.023637331
  0
VERTEX
  5
91E
  8
0
  6
CONTINUOUS
 62
     7
 10
-414.24487999999991
 20
212.30777
 30
0.0
 42
0.022856388
  0
VERTEX
  5
91F
  8
0
  6
CONTINUOUS
 62
     7
 10
-417.00042000000002
 20
214.00612000000001
 30
0.0
 42
0.022174346
  0
VERTEX
  5
920
  8
0
  6
CONTINUOUS
 62
     7
 10
-419.89770999999962
 20
215.4499899999999
 30
0.0
 42
0.021600208
  0
VERTEX
  5
921
  8
0
  6
CONTINUOUS
 62
     7
 10
-422.91032999999999
 20
216.63522
 30
0.0
 42
0.021138615
  0
VERTEX
  5
922
  8
0
  6
CONTINUOUS
 62
     7
 10
-426.01330000000002
 20
217.55911
 30
0.0
 42
0.020791456
  0
VERTEX
  5
923
  8
0
  6
CONTINUOUS
 62
     7
 10
-429.18281000000002
 20
218.21999999999991
 30
0.0
 42
0.020559075
  0
VERTEX
  5
924
  8
0
  6
CONTINUOUS
 62
     7
 10
-432.39598999999998
 20
218.61691999999999
 30
0.0
 42
0.02044129
  0
VERTEX
  5
925
  8
0
  6
CONTINUOUS
 62
     7
 10
-435.63058999999993
 20
218.74943999999991
 30
0.0
  0
SEQEND
  5
926
  8
0
 62
     7
  0
POLYLINE
  5
927
  8
0
  6
CONTINUOUS
 62
     7
 66
     1
 10
0.0
 20
0.0
 30
0.0
  0
VERTEX
  5
928
  8
0
  6
CONTINUOUS
 62
     7
 10
-432.63390999999962
 20
79.547927999999985
 30
0.0
 42
0.12796133
  0
VERTEX
  5
929
  8
0
  6
CONTINUOUS
 62
     7
 10
-426.53714000000002
 20
81.214818999999963
 30
0.0
 42
0.075865267
  0
VERTEX
  5
92A
  8
0
  6
CONTINUOUS
 62
     7
 10
-421.55522999999988
 20
85.175595000000001
 30
0.0
 42
0.043906072
  0
VERTEX
  5
92B
  8
0
  6
CONTINUOUS
 62
     7
 10
-417.61423999999988
 20
90.194522000000006
 30
0.0
 42
0.028467102
  0
VERTEX
  5
92C
  8
0
  6
CONTINUOUS
 62
     7
 10
-414.42114999999978
 20
95.724577999999994
 30
0.0
 42
0.020364405
  0
VERTEX
  5
92D
  8
0
  6
CONTINUOUS
 62
     7
 10
-411.77471000000003
 20
101.5382699999999
 30
0.0
 42
0.015653199
  0
VERTEX
  5
92E
  8
0
  6
CONTINUOUS
 62
     7
 10
-409.54984999999988
 20
107.52652999999979
 30
0.0
 42
0.012687612
  0
VERTEX
  5
92F
  8
0
  6
CONTINUOUS
 62
     7
 10
-407.66559000000001
 20
113.63151000000001
 30
0.0
 42
0.010704117
  0
VERTEX
  5
930
  8
0
  6
CONTINUOUS
 62
     7
 10
-406.06786
 20
119.81708999999999
 30
0.0
 42
0.0093243122
  0
VERTEX
  5
931
  8
0
  6
CONTINUOUS
 62
     7
 10
-404.71811000000002
 20
126.06273
 30
0.0
 42
0.0083328898
  0
VERTEX
  5
932
  8
0
  6
CONTINUOUS
 62
     7
 10
-403.58924999999999
 20
132.35183000000001
 30
0.0
 42
0.0076106932
  0
VERTEX
  5
933
  8
0
  6
CONTINUOUS
 62
     7
 10
-402.66106000000002
 20
138.67407
 30
0.0
 42
0.0070818602
  0
VERTEX
  5
934
  8
0
  6
CONTINUOUS
 62
     7
 10
-401.91873999999979
 20
145.02088000000001
 30
0.0
 42
0.0066999935
  0
VERTEX
  5
935
  8
0
  6
CONTINUOUS
 62
     7
 10
-401.35139999999978
 20
151.3859699999999
 30
0.0
 42
0.0064347785
  0
VERTEX
  5
936
  8
0
  6
CONTINUOUS
 62
     7
 10
-400.95125000000002
 20
157.76398
 30
0.0
 42
0.006267056
  0
VERTEX
  5
937
  8
0
  6
CONTINUOUS
 62
     7
 10
-400.71308999999991
 20
164.15014999999991
 30
0.0
 42
0.0061855192
  0
VERTEX
  5
938
  8
0
  6
CONTINUOUS
 62
     7
 10
-400.63390999999979
 20
170.54004
 30
0.0
  0
SEQEND
  5
939
  8
0
 62
     7
  0
POLYLINE
  5
93A
  8
0
  6
CONTINUOUS
 62
     7
 66
     1
 10
0.0
 20
0.0
 30
0.0
  0
VERTEX
  5
93B
  8
0
  6
CONTINUOUS
 62
     7
 10
-591.27172000000019
 20
173.83485999999991
 30
0.0
  0
VERTEX
  5
93C
  8
0
  6
CONTINUOUS
 62
     7
 10
-590.31123000000002
 20
180.7165099999998
 30
0.0
 42
-1.0
  0
SEQEND
  5
93D
  8
0
 62
     7
  0
POLYLINE
  5
93E
  8
0
  6
CONTINUOUS
 62
     7
 66
     1
 10
0.0
 20
0.0
 30
0.0
  0
VERTEX
  5
93F
  8
0
  6
CONTINUOUS
 62
     7
 10
-592.25346999999988
 20
163.69048000000001
 30
0.0
  0
VERTEX
  5
940
  8
0
  6
CONTINUOUS
 62
     7
 10
-591.60740999999985
 20
170.91139000000001
 30
0.0
 42
-1.0
  0
SEQEND
  5
941
  8
0
 62
     7
  0
POLYLINE
  5
942
  8
0
  6
CONTINUOUS
 62
     7
 66
     1
 10
0.0
 20
0.0
 30
0.0
  0
VERTEX
  5
943
  8
0
  6
CONTINUOUS
 62
     7
 10
-592.72513000000004
 20
153.6192299999999
 30
0.0
  0
VERTEX
  5
944
  8
0
  6
CONTINUOUS
 62
     7
 10
-592.42645999999979
 20
161.02924999999991
 30
0.0
 42
-1.0
  0
SEQEND
  5
945
  8
0
 62
     7
  0
POLYLINE
  5
946
  8
0
  6
CONTINUOUS
 62
     7
 66
     1
 10
0.0
 20
0.0
 30
0.0
  0
VERTEX
  5
947
  8
0
  6
CONTINUOUS
 62
     7
 10
-592.76849000000004
 20
147.34795
 30
0.0
  0
VERTEX
  5
948
  8
0
  6
CONTINUOUS
 62
     7
 10
-592.76577999999995
 20
151.08042
 30
0.0
 42
-1.0
  0
SEQEND
  5
949
  8
0
 62
     7
  0
POLYLINE
  5
94A
  8
0
  6
CONTINUOUS
 62
     7
 66
     1
 10
0.0
 20
0.0
 30
0.0
  0
VERTEX
  5
94B
  8
0
  6
CONTINUOUS
 62
     7
 10
-591.27172000000019
 20
120.8609399999998
 30
0.0
  0
VERTEX
  5
94C
  8
0
  6
CONTINUOUS
 62
     7
 10
-590.31123000000002
 20
113.9793499999999
 30
0.0
 42
-1.0
  0
SEQEND
  5
94D
  8
0
 62
     7
  0
POLYLINE
  5
94E
  8
0
  6
CONTINUOUS
 62
     7
 66
     1
 10
0.0
 20
0.0
 30
0.0
  0
VERTEX
  5
94F
  8
0
  6
CONTINUOUS
 62
     7
 10
-592.25346999999988
 20
131.0053399999999
 30
0.0
  0
VERTEX
  5
950
  8
0
  6
CONTINUOUS
 62
     7
 10
-591.60740999999985
 20
123.7843899999998
 30
0.0
 42
-1.0
  0
SEQEND
  5
951
  8
0
 62
     7
  0
POLYLINE
  5
952
  8
0
  6
CONTINUOUS
 62
     7
 66
     1
 10
0.0
 20
0.0
 30
0.0
  0
VERTEX
  5
953
  8
0
  6
CONTINUOUS
 62
     7
 10
-592.72513000000004
 20
141.07665
 30
0.0
  0
VERTEX
  5
954
  8
0
  6
CONTINUOUS
 62
     7
 10
-592.42645999999979
 20
133.66658000000001
 30
0.0
 42
-1.0
  0
SEQEND
  5
955
  8
0
 62
     7
  0
POLYLINE
  5
956
  8
0
  6
CONTINUOUS
 62
     7
 66
     1
 10
0.0
 20
0.0
 30
0.0
  0
VERTEX
  5
957
  8
0
  6
CONTINUOUS
 62
     7
 10
-592.76849000000004
 20
147.34795
 30
0.0
  0
VERTEX
  5
958
  8
0
  6
CONTINUOUS
 62
     7
 10
-592.76577999999995
 20
143.6154699999999
 30
0.0
 42
-1.0
  0
SEQEND
  5
959
  8
0
 62
     7
  0
POLYLINE
  5
95A
  8
0
  6
CONTINUOUS
 62
     7
 66
     1
 10
0.0
 20
0.0
 30
0.0
  0
VERTEX
  5
95B
  8
0
  6
CONTINUOUS
 62
     7
 10
-435.63384999999988
 20
374.81979000000001
 30
0.0
 42
-0.059991193
  0
VERTEX
  5
95C
  8
0
  6
CONTINUOUS
 62
     7
 10
-410.0450399999998
 20
358.88757999999979
 30
0.0
 42
-0.30883796
  0
VERTEX
  5
95D
  8
0
  6
CONTINUOUS
 62
     7
 10
-400.63387999999992
 20
342.94684000000001
 30
0.0
 42
-0.25905842
  0
VERTEX
  5
95E
  8
0
  6
CONTINUOUS
 62
     7
 10
-435.08355
 20
323.15877999999992
 30
0.0
  0
SEQEND
  5
95F
  8
0
 62
     7
  0
POLYLINE
  5
960
  8
0
  6
CONTINUOUS
 62
     7
 66
     1
 10
0.0
 20
0.0
 30
0.0
  0
VERTEX
  5
961
  8
0
  6
CONTINUOUS
 62
     7
 10
-434.37030999999979
 20
333.16590000000002
 30
0.0
 42
0.021277534
  0
VERTEX
  5
962
  8
0
  6
CONTINUOUS
 62
     7
 10
-423.54016999999988
 20
335.22242
 30
0.0
 42
0.020622971
  0
VERTEX
  5
963
  8
0
  6
CONTINUOUS
 62
     7
 10
-413.41540999999989
 20
338.03946000000002
 30
0.0
 42
0.022709
  0
VERTEX
  5
964
  8
0
  6
CONTINUOUS
 62
     7
 10
-402.60848999999979
 20
342.08501999999987
 30
0.0
  0
SEQEND
  5
965
  8
0
 62
     7
  0
POLYLINE
  5
966
  8
0
  6
CONTINUOUS
 62
     7
 66
     1
 10
0.0
 20
0.0
 30
0.0
  0
VERTEX
  5
967
  8
0
  6
CONTINUOUS
 62
     7
 10
-435.63384999999988
 20
451.36995999999988
 30
0.0
 42
0.059991175
  0
VERTEX
  5
968
  8
0
  6
CONTINUOUS
 62
     7
 10
-410.0450399999998
 20
467.30216999999988
 30
0.0
 42
0.30883786
  0
VERTEX
  5
969
  8
0
  6
CONTINUOUS
 62
     7
 10
-400.63387999999992
 20
483.24291999999991
 30
0.0
 42
0.25905849
  0
VERTEX
  5
96A
  8
0
  6
CONTINUOUS
 62
     7
 10
-435.08352999999988
 20
503.03097000000002
 30
0.0
  0
SEQEND
  5
96B
  8
0
 62
     7
  0
POLYLINE
  5
96C
  8
0
  6
CONTINUOUS
 62
     7
 66
     1
 10
0.0
 20
0.0
 30
0.0
  0
VERTEX
  5
96D
  8
0
  6
CONTINUOUS
 62
     7
 10
-434.37030999999979
 20
493.02386000000001
 30
0.0
 42
-0.021277534
  0
VERTEX
  5
96E
  8
0
  6
CONTINUOUS
 62
     7
 10
-423.54016999999988
 20
490.96733999999992
 30
0.0
 42
-0.020622971
  0
VERTEX
  5
96F
  8
0
  6
CONTINUOUS
 62
     7
 10
-413.41540999999989
 20
488.15030000000002
 30
0.0
 42
-0.022709
  0
VERTEX
  5
970
  8
0
  6
CONTINUOUS
 62
     7
 10
-402.60848999999979
 20
484.10473999999988
 30
0.0
  0
SEQEND
  5
971
  8
0
 62
     7
  0
POLYLINE
  5
972
  8
0
  6
CONTINUOUS
 62
     7
 66
     1
 10
0.0
 20
0.0
 30
0.0
  0
VERTEX
  5
973
  8
0
  6
CONTINUOUS
 62
     7
 10
-592.77380000000005
 20
413.09487999999988
 30
0.0
 42
0.00034747618
  0
VERTEX
  5
974
  8
0
  6
CONTINUOUS
 62
     7
 10
-592.77620999999976
 20
412.78375
 30
0.0
 42
0.0004057423
  0
VERTEX
  5
975
  8
0
  6
CONTINUOUS
 62
     7
 10
-592.77810999999986
 20
412.47264000000001
 30
0.0
 42
0.0003970523
  0
VERTEX
  5
976
  8
0
  6
CONTINUOUS
 62
     7
 10
-592.77953999999988
 20
412.16153000000003
 30
0.0
 42
0.00038766493
  0
VERTEX
  5
977
  8
0
  6
CONTINUOUS
 62
     7
 10
-592.78047000000004
 20
411.85039
 30
0.0
 42
0.00040613778
  0
VERTEX
  5
978
  8
0
  6
CONTINUOUS
 62
     7
 10
-592.78092000000004
 20
411.53927999999991
 30
0.0
 42
0.00035571853
  0
VERTEX
  5
979
  8
0
  6
CONTINUOUS
 62
     7
 10
-592.78088000000002
 20
411.22817999999978
 30
0.0
 42
0.00034187235
  0
VERTEX
  5
97A
  8
0
  6
CONTINUOUS
 62
     7
 10
-592.78044
 20
410.91703999999999
 30
0.0
 42
0.00050755129
  0
VERTEX
  5
97B
  8
0
  6
CONTINUOUS
 62
     7
 10
-592.77945999999963
 20
410.60593999999992
 30
0.0
 42
0.00031405455
  0
VERTEX
  5
97C
  8
0
  6
CONTINUOUS
 62
     7
 10
-592.77795000000003
 20
410.29470999999972
 30
0.0
 42
0.0003831987
  0
VERTEX
  5
97D
  8
0
  6
CONTINUOUS
 62
     7
 10
-592.77604000000019
 20
409.98356999999982
 30
0.0
 42
0.00030570555
  0
VERTEX
  5
97E
  8
0
  6
CONTINUOUS
 62
     7
 10
-592.77367000000004
 20
409.67234000000002
 30
0.0
 42
0.00044501307
  0
VERTEX
  5
97F
  8
0
  6
CONTINUOUS
 62
     7
 10
-592.77087000000006
 20
409.36124000000001
 30
0.0
  0
SEQEND
  5
980
  8
0
 62
     7
  0
POLYLINE
  5
981
  8
0
  6
CONTINUOUS
 62
     7
 66
     1
 10
0.0
 20
0.0
 30
0.0
  0
VERTEX
  5
982
  8
0
  6
CONTINUOUS
 62
     7
 10
-592.72973999999965
 20
406.8244899999998
 30
0.0
 42
0.00074501045
  0
VERTEX
  5
983
  8
0
  6
CONTINUOUS
 62
     7
 10
-592.71498999999994
 20
406.20672999999988
 30
0.0
 42
0.00078382358
  0
VERTEX
  5
984
  8
0
  6
CONTINUOUS
 62
     7
 10
-592.69835
 20
405.58912999999978
 30
0.0
 42
0.00074332135
  0
VERTEX
  5
985
  8
0
  6
CONTINUOUS
 62
     7
 10
-592.67980999999997
 20
404.97147000000001
 30
0.0
 42
0.00075144469
  0
VERTEX
  5
986
  8
0
  6
CONTINUOUS
 62
     7
 10
-592.6594399999999
 20
404.35385999999988
 30
0.0
 42
0.00073475781
  0
VERTEX
  5
987
  8
0
  6
CONTINUOUS
 62
     7
 10
-592.63722000000018
 20
403.73642999999998
 30
0.0
 42
0.00077737158
  0
VERTEX
  5
988
  8
0
  6
CONTINUOUS
 62
     7
 10
-592.61315999999965
 20
403.11905000000002
 30
0.0
 42
0.00075773232
  0
VERTEX
  5
989
  8
0
  6
CONTINUOUS
 62
     7
 10
-592.58717999999999
 20
402.50164999999993
 30
0.0
 42
0.00073477315
  0
VERTEX
  5
98A
  8
0
  6
CONTINUOUS
 62
     7
 10
-592.55934000000002
 20
401.88425999999998
 30
0.0
 42
0.00077014563
  0
VERTEX
  5
98B
  8
0
  6
CONTINUOUS
 62
     7
 10
-592.52965999999981
 20
401.26687999999979
 30
0.0
 42
0.00077088287
  0
VERTEX
  5
98C
  8
0
  6
CONTINUOUS
 62
     7
 10
-592.49806000000001
 20
400.64974999999998
 30
0.0
 42
0.0007348301
  0
VERTEX
  5
98D
  8
0
  6
CONTINUOUS
 62
     7
 10
-592.46461999999985
 20
400.03270999999989
 30
0.0
 42
0.00075616136
  0
VERTEX
  5
98E
  8
0
  6
CONTINUOUS
 62
     7
 10
-592.42932000000008
 20
399.41568000000001
 30
0.0
  0
SEQEND
  5
98F
  8
0
 62
     7
  0
POLYLINE
  5
990
  8
0
  6
CONTINUOUS
 62
     7
 66
     1
 10
0.0
 20
0.0
 30
0.0
  0
VERTEX
  5
991
  8
0
  6
CONTINUOUS
 62
     7
 10
-592.25562000000002
 20
396.7543
 30
0.0
 42
0.00073721987
  0
VERTEX
  5
992
  8
0
  6
CONTINUOUS
 62
     7
 10
-592.21145999999965
 20
396.15190000000001
 30
0.0
 42
0.00074398499
  0
VERTEX
  5
993
  8
0
  6
CONTINUOUS
 62
     7
 10
-592.16552999999999
 20
395.54962999999998
 30
0.0
 42
0.00073322628
  0
VERTEX
  5
994
  8
0
  6
CONTINUOUS
 62
     7
 10
-592.11779999999999
 20
394.94729999999993
 30
0.0
 42
0.00075831517
  0
VERTEX
  5
995
  8
0
  6
CONTINUOUS
 62
     7
 10
-592.06826999999976
 20
394.34530999999993
 30
0.0
 42
0.00069523192
  0
VERTEX
  5
996
  8
0
  6
CONTINUOUS
 62
     7
 10
-592.0170099999998
 20
393.74343999999991
 30
0.0
 42
0.00075453058
  0
VERTEX
  5
997
  8
0
  6
CONTINUOUS
 62
     7
 10
-591.96398999999985
 20
393.14162999999979
 30
0.0
 42
0.00074184059
  0
VERTEX
  5
998
  8
0
  6
CONTINUOUS
 62
     7
 10
-591.90917000000002
 20
392.54009999999988
 30
0.0
 42
0.00074685399
  0
VERTEX
  5
999
  8
0
  6
CONTINUOUS
 62
     7
 10
-591.85257999999999
 20
391.93887000000001
 30
0.0
 42
0.00072743001
  0
VERTEX
  5
99A
  8
0
  6
CONTINUOUS
 62
     7
 10
-591.79418999999984
 20
391.33767999999992
 30
0.0
 42
0.00072055497
  0
VERTEX
  5
99B
  8
0
  6
CONTINUOUS
 62
     7
 10
-591.73407999999995
 20
390.73665
 30
0.0
 42
0.00075109124
  0
VERTEX
  5
99C
  8
0
  6
CONTINUOUS
 62
     7
 10
-591.67218999999966
 20
390.13591000000002
 30
0.0
 42
0.00074640586
  0
VERTEX
  5
99D
  8
0
  6
CONTINUOUS
 62
     7
 10
-591.60852
 20
389.53530999999992
 30
0.0
  0
SEQEND
  5
99E
  8
0
 62
     7
  0
POLYLINE
  5
99F
  8
0
  6
CONTINUOUS
 62
     7
 66
     1
 10
0.0
 20
0.0
 30
0.0
  0
VERTEX
  5
9A0
  8
0
  6
CONTINUOUS
 62
     7
 10
-591.27295000000004
 20
386.61185
 30
0.0
 42
0.0006890002
  0
VERTEX
  5
9A1
  8
0
  6
CONTINUOUS
 62
     7
 10
-591.20207000000016
 20
386.03708999999992
 30
0.0
 42
0.00067934106
  0
VERTEX
  5
9A2
  8
0
  6
CONTINUOUS
 62
     7
 10
-591.12958999999978
 20
385.46240999999992
 30
0.0
 42
0.00071569314
  0
VERTEX
  5
9A3
  8
0
  6
CONTINUOUS
 62
     7
 10
-591.05553999999995
 20
384.88808999999992
 30
0.0
 42
0.00069587808
  0
VERTEX
  5
9A4
  8
0
  6
CONTINUOUS
 62
     7
 10
-590.9798599999998
 20
384.31394999999992
 30
0.0
 42
0.00071687036
  0
VERTEX
  5
9A5
  8
0
  6
CONTINUOUS
 62
     7
 10
-590.90255000000002
 20
383.73995999999988
 30
0.0
 42
0.00069759108
  0
VERTEX
  5
9A6
  8
0
  6
CONTINUOUS
 62
     7
 10
-590.8236099999998
 20
383.16617000000002
 30
0.0
 42
0.000733212
  0
VERTEX
  5
9A7
  8
0
  6
CONTINUOUS
 62
     7
 10
-590.74302
 20
382.59269999999998
 30
0.0
 42
0.00064546132
  0
VERTEX
  5
9A8
  8
0
  6
CONTINUOUS
 62
     7
 10
-590.66087999999979
 20
382.01958999999988
 30
0.0
 42
0.00074206151
  0
VERTEX
  5
9A9
  8
0
  6
CONTINUOUS
 62
     7
 10
-590.57714999999985
 20
381.44655999999992
 30
0.0
 42
0.00073581337
  0
VERTEX
  5
9AA
  8
0
  6
CONTINUOUS
 62
     7
 10
-590.49167999999975
 20
380.87380000000002
 30
0.0
 42
0.0006891394
  0
VERTEX
  5
9AB
  8
0
  6
CONTINUOUS
 62
     7
 10
-590.40463
 20
380.30146000000002
 30
0.0
 42
0.00072290801
  0
VERTEX
  5
9AC
  8
0
  6
CONTINUOUS
 62
     7
 10
-590.31592000000001
 20
379.72915999999992
 30
0.0
  0
SEQEND
  5
9AD
  8
0
 62
     7
  0
POLYLINE
  5
9AE
  8
0
  6
CONTINUOUS
 62
     7
 66
     1
 10
0.0
 20
0.0
 30
0.0
  0
VERTEX
  5
9AF
  8
0
  6
CONTINUOUS
 62
     7
 10
-592.77380000000005
 20
413.09487999999988
 30
0.0
 42
-0.00034747668
  0
VERTEX
  5
9B0
  8
0
  6
CONTINUOUS
 62
     7
 10
-592.77620999999976
 20
413.40600999999998
 30
0.0
 42
-0.00040573842
  0
VERTEX
  5
9B1
  8
0
  6
CONTINUOUS
 62
     7
 10
-592.77810999999986
 20
413.71712000000002
 30
0.0
 42
-0.00039706112
  0
VERTEX
  5
9B2
  8
0
  6
CONTINUOUS
 62
     7
 10
-592.77953999999988
 20
414.02822999999989
 30
0.0
 42
-0.00038765721
  0
VERTEX
  5
9B3
  8
0
  6
CONTINUOUS
 62
     7
 10
-592.78047000000004
 20
414.3393699999998
 30
0.0
 42
-0.00040613431
  0
VERTEX
  5
9B4
  8
0
  6
CONTINUOUS
 62
     7
 10
-592.78092000000004
 20
414.65046999999993
 30
0.0
 42
-0.00035573432
  0
VERTEX
  5
9B5
  8
0
  6
CONTINUOUS
 62
     7
 10
-592.78088000000002
 20
414.96157999999991
 30
0.0
 42
-0.00034185751
  0
VERTEX
  5
9B6
  8
0
  6
CONTINUOUS
 62
     7
 10
-592.78044
 20
415.27271999999999
 30
0.0
 42
-0.00050754827
  0
VERTEX
  5
9B7
  8
0
  6
CONTINUOUS
 62
     7
 10
-592.77945999999963
 20
415.58381999999989
 30
0.0
 42
-0.00031407598
  0
VERTEX
  5
9B8
  8
0
  6
CONTINUOUS
 62
     7
 10
-592.77795000000003
 20
415.89505000000003
 30
0.0
 42
-0.0003831782
  0
VERTEX
  5
9B9
  8
0
  6
CONTINUOUS
 62
     7
 10
-592.77604000000019
 20
416.20618999999999
 30
0.0
 42
-0.00030570285
  0
VERTEX
  5
9BA
  8
0
  6
CONTINUOUS
 62
     7
 10
-592.77367000000004
 20
416.51742000000002
 30
0.0
 42
-0.00044503941
  0
VERTEX
  5
9BB
  8
0
  6
CONTINUOUS
 62
     7
 10
-592.77087000000006
 20
416.82852000000003
 30
0.0
  0
SEQEND
  5
9BC
  8
0
 62
     7
  0
POLYLINE
  5
9BD
  8
0
  6
CONTINUOUS
 62
     7
 66
     1
 10
0.0
 20
0.0
 30
0.0
  0
VERTEX
  5
9BE
  8
0
  6
CONTINUOUS
 62
     7
 10
-592.72973999999965
 20
419.36525999999998
 30
0.0
 42
-0.00074497799
  0
VERTEX
  5
9BF
  8
0
  6
CONTINUOUS
 62
     7
 10
-592.71498999999994
 20
419.98302999999999
 30
0.0
 42
-0.00078382106
  0
VERTEX
  5
9C0
  8
0
  6
CONTINUOUS
 62
     7
 10
-592.69835
 20
420.60062999999991
 30
0.0
 42
-0.0007433568
  0
VERTEX
  5
9C1
  8
0
  6
CONTINUOUS
 62
     7
 10
-592.67980999999997
 20
421.21829000000002
 30
0.0
 42
-0.00075141079
  0
VERTEX
  5
9C2
  8
0
  6
CONTINUOUS
 62
     7
 10
-592.6594399999999
 20
421.83589999999992
 30
0.0
 42
-0.00073282875
  0
VERTEX
  5
9C3
  8
0
  6
CONTINUOUS
 62
     7
 10
-592.63722000000018
 20
422.45332000000002
 30
0.0
 42
-0.00077904702
  0
VERTEX
  5
9C4
  8
0
  6
CONTINUOUS
 62
     7
 10
-592.61315999999965
 20
423.07082999999989
 30
0.0
 42
-0.00075975985
  0
VERTEX
  5
9C5
  8
0
  6
CONTINUOUS
 62
     7
 10
-592.58717999999999
 20
423.68822
 30
0.0
 42
-0.0007324004
  0
VERTEX
  5
9C6
  8
0
  6
CONTINUOUS
 62
     7
 10
-592.55934000000002
 20
424.30549999999999
 30
0.0
 42
-0.00077017552
  0
VERTEX
  5
9C7
  8
0
  6
CONTINUOUS
 62
     7
 10
-592.52965999999981
 20
424.92288000000002
 30
0.0
 42
-0.00077085244
  0
VERTEX
  5
9C8
  8
0
  6
CONTINUOUS
 62
     7
 10
-592.49806000000001
 20
425.54000999999988
 30
0.0
 42
-0.00073483086
  0
VERTEX
  5
9C9
  8
0
  6
CONTINUOUS
 62
     7
 10
-592.46461999999985
 20
426.15703999999999
 30
0.0
 42
-0.00075618795
  0
VERTEX
  5
9CA
  8
0
  6
CONTINUOUS
 62
     7
 10
-592.42932000000008
 20
426.77407999999991
 30
0.0
  0
SEQEND
  5
9CB
  8
0
 62
     7
  0
POLYLINE
  5
9CC
  8
0
  6
CONTINUOUS
 62
     7
 66
     1
 10
0.0
 20
0.0
 30
0.0
  0
VERTEX
  5
9CD
  8
0
  6
CONTINUOUS
 62
     7
 10
-592.25562000000002
 20
429.43545999999998
 30
0.0
 42
-0.00073370504
  0
VERTEX
  5
9CE
  8
0
  6
CONTINUOUS
 62
     7
 10
-592.21146999999985
 20
430.03787
 30
0.0
 42
-0.00075211326
  0
VERTEX
  5
9CF
  8
0
  6
CONTINUOUS
 62
     7
 10
-592.16552999999999
 20
430.64025999999961
 30
0.0
 42
-0.00072974913
  0
VERTEX
  5
9D0
  8
0
  6
CONTINUOUS
 62
     7
 10
-592.11779999999999
 20
431.24245999999988
 30
0.0
 42
-0.00075830266
  0
VERTEX
  5
9D1
  8
0
  6
CONTINUOUS
 62
     7
 10
-592.06826999999976
 20
431.84444999999999
 30
0.0
 42
-0.00069523362
  0
VERTEX
  5
9D2
  8
0
  6
CONTINUOUS
 62
     7
 10
-592.0170099999998
 20
432.44632000000001
 30
0.0
 42
-0.00075453669
  0
VERTEX
  5
9D3
  8
0
  6
CONTINUOUS
 62
     7
 10
-591.96398999999985
 20
433.04812999999967
 30
0.0
 42
-0.00073754162
  0
VERTEX
  5
9D4
  8
0
  6
CONTINUOUS
 62
     7
 10
-591.90917000000002
 20
433.64965999999998
 30
0.0
 42
-0.00075683463
  0
VERTEX
  5
9D5
  8
0
  6
CONTINUOUS
 62
     7
 10
-591.85257000000001
 20
434.25101999999993
 30
0.0
 42
-0.00072314518
  0
VERTEX
  5
9D6
  8
0
  6
CONTINUOUS
 62
     7
 10
-591.79418999999984
 20
434.85208
 30
0.0
 42
-0.00072055031
  0
VERTEX
  5
9D7
  8
0
  6
CONTINUOUS
 62
     7
 10
-591.73407999999995
 20
435.45310999999992
 30
0.0
 42
-0.00075109448
  0
VERTEX
  5
9D8
  8
0
  6
CONTINUOUS
 62
     7
 10
-591.67218999999966
 20
436.05385000000001
 30
0.0
 42
-0.00074640669
  0
VERTEX
  5
9D9
  8
0
  6
CONTINUOUS
 62
     7
 10
-591.60852
 20
436.65444999999988
 30
0.0
  0
SEQEND
  5
9DA
  8
0
 62
     7
  0
POLYLINE
  5
9DB
  8
0
  6
CONTINUOUS
 62
     7
 66
     1
 10
0.0
 20
0.0
 30
0.0
  0
VERTEX
  5
9DC
  8
0
  6
CONTINUOUS
 62
     7
 10
-591.27295000000004
 20
439.57790999999992
 30
0.0
 42
-0.00068898293
  0
VERTEX
  5
9DD
  8
0
  6
CONTINUOUS
 62
     7
 10
-591.20207000000016
 20
440.15265999999991
 30
0.0
 42
-0.00067933813
  0
VERTEX
  5
9DE
  8
0
  6
CONTINUOUS
 62
     7
 10
-591.12958999999978
 20
440.72735
 30
0.0
 42
-0.000715718
  0
VERTEX
  5
9DF
  8
0
  6
CONTINUOUS
 62
     7
 10
-591.05553999999995
 20
441.30167
 30
0.0
 42
-0.0006958567
  0
VERTEX
  5
9E0
  8
0
  6
CONTINUOUS
 62
     7
 10
-590.9798599999998
 20
441.87580000000003
 30
0.0
 42
-0.00071687214
  0
VERTEX
  5
9E1
  8
0
  6
CONTINUOUS
 62
     7
 10
-590.90255000000002
 20
442.44979999999981
 30
0.0
 42
-0.00069760016
  0
VERTEX
  5
9E2
  8
0
  6
CONTINUOUS
 62
     7
 10
-590.8236099999998
 20
443.02359000000001
 30
0.0
 42
-0.00073320364
  0
VERTEX
  5
9E3
  8
0
  6
CONTINUOUS
 62
     7
 10
-590.74302
 20
443.59705999999989
 30
0.0
 42
-0.00064546479
  0
VERTEX
  5
9E4
  8
0
  6
CONTINUOUS
 62
     7
 10
-590.66087999999979
 20
444.17016999999998
 30
0.0
 42
-0.00074205583
  0
VERTEX
  5
9E5
  8
0
  6
CONTINUOUS
 62
     7
 10
-590.57714999999985
 20
444.74319000000003
 30
0.0
 42
-0.00073582106
  0
VERTEX
  5
9E6
  8
0
  6
CONTINUOUS
 62
     7
 10
-590.49167999999975
 20
445.31594999999987
 30
0.0
 42
-0.00068913793
  0
VERTEX
  5
9E7
  8
0
  6
CONTINUOUS
 62
     7
 10
-590.40463
 20
445.88830000000002
 30
0.0
 42
-0.00072288972
  0
VERTEX
  5
9E8
  8
0
  6
CONTINUOUS
 62
     7
 10
-590.31592000000001
 20
446.46059999999989
 30
0.0
  0
SEQEND
  5
9E9
  8
0
 62
     7
  0
TEXT
  5
CB8
  8
0
  6
CONTINUOUS
 62
     0
 10
-250.2868639542196
 20
396.40734075369193
 30
0.0
 40
10.0
  1
VX02-120M~VX02-200M
  0
ENDSEC
  0
EOF
