  0
SECTION
  2
HEADER
  9
$ACADVER
  1
AC1009
  9
$INSBASE
 10
0.0
 20
0.0
 30
0.0
  9
$EXTMIN
 10
-787.29075493494975
 20
64.485725455578859
 30
-0.0000000000112498
  9
$EXTMAX
 10
-30.2755598669678
 20
632.39045089517765
 30
0.0000000000002956
  9
$LIMMIN
 10
0.0
 20
0.0
  9
$LIMMAX
 10
12.0
 20
9.0
  9
$ORTHOMODE
 70
     0
  9
$REGENMODE
 70
     1
  9
$FILLMODE
 70
     1
  9
$QTEXTMODE
 70
     0
  9
$MIRRTEXT
 70
     1
  9
$DRAGMODE
 70
     2
  9
$LTSCALE
 40
1.0
  9
$OSMODE
 70
   551
  9
$ATTMODE
 70
     1
  9
$TEXTSIZE
 40
0.2
  9
$TRACEWID
 40
0.05
  9
$TEXTSTYLE
  7
STANDARD
  9
$CLAYER
  8
0
  9
$CELTYPE
  6
CONTINUOUS
  9
$CECOLOR
 62
   256
  9
$DIMSCALE
 40
1.0
  9
$DIMASZ
 40
0.18
  9
$DIMEXO
 40
0.0625
  9
$DIMDLI
 40
0.38
  9
$DIMRND
 40
0.0
  9
$DIMDLE
 40
0.0
  9
$DIMEXE
 40
0.18
  9
$DIMTP
 40
0.0
  9
$DIMTM
 40
0.0
  9
$DIMTXT
 40
0.18
  9
$DIMCEN
 40
0.09
  9
$DIMTSZ
 40
0.0
  9
$DIMTOL
 70
     0
  9
$DIMLIM
 70
     0
  9
$DIMTIH
 70
     1
  9
$DIMTOH
 70
     1
  9
$DIMSE1
 70
     0
  9
$DIMSE2
 70
     0
  9
$DIMTAD
 70
     0
  9
$DIMZIN
 70
     0
  9
$DIMBLK
  1

  9
$DIMASO
 70
     1
  9
$DIMSHO
 70
     1
  9
$DIMPOST
  1

  9
$DIMAPOST
  1

  9
$DIMALT
 70
     0
  9
$DIMALTD
 70
     2
  9
$DIMALTF
 40
25.399999999999999
  9
$DIMLFAC
 40
1.0
  9
$DIMTOFL
 70
     0
  9
$DIMTVP
 40
0.0
  9
$DIMTIX
 70
     0
  9
$DIMSOXD
 70
     0
  9
$DIMSAH
 70
     0
  9
$DIMBLK1
  1

  9
$DIMBLK2
  1

  9
$DIMSTYLE
  2
STANDARD
  9
$DIMCLRD
 70
     0
  9
$DIMCLRE
 70
     0
  9
$DIMCLRT
 70
     0
  9
$DIMTFAC
 40
1.0
  9
$DIMGAP
 40
0.09
  9
$LUNITS
 70
     2
  9
$LUPREC
 70
     4
  9
$SKETCHINC
 40
0.1
  9
$FILLETRAD
 40
0.0
  9
$AUNITS
 70
     0
  9
$AUPREC
 70
     0
  9
$MENU
  1
.
  9
$ELEVATION
 40
0.0
  9
$PELEVATION
 40
0.0
  9
$THICKNESS
 40
0.0
  9
$LIMCHECK
 70
     0
  9
$BLIPMODE
 70
     0
  9
$CHAMFERA
 40
0.0
  9
$CHAMFERB
 40
0.0
  9
$SKPOLY
 70
     0
  9
$TDCREATE
 40
2452300.4267945141
  9
$TDUPDATE
 40
2458540.6777287852
  9
$TDINDWG
 40
0.0252334028
  9
$TDUSRTIMER
 40
0.0252333681
  9
$USRTIMER
 70
     1
  9
$ANGBASE
 50
0.0
  9
$ANGDIR
 70
     0
  9
$PDMODE
 70
     0
  9
$PDSIZE
 40
0.0
  9
$PLINEWID
 40
0.0
  9
$COORDS
 70
     1
  9
$SPLFRAME
 70
     0
  9
$SPLINETYPE
 70
     6
  9
$SPLINESEGS
 70
     8
  9
$ATTDIA
 70
     1
  9
$ATTREQ
 70
     1
  9
$HANDLING
 70
     1
  9
$HANDSEED
  5
D9E
  9
$SURFTAB1
 70
     6
  9
$SURFTAB2
 70
     6
  9
$SURFTYPE
 70
     6
  9
$SURFU
 70
     6
  9
$SURFV
 70
     6
  9
$UCSNAME
  2

  9
$UCSORG
 10
0.0
 20
0.0
 30
0.0
  9
$UCSXDIR
 10
1.0
 20
0.0
 30
0.0
  9
$UCSYDIR
 10
0.0
 20
1.0
 30
0.0
  9
$PUCSNAME
  2

  9
$PUCSORG
 10
0.0
 20
0.0
 30
0.0
  9
$PUCSXDIR
 10
1.0
 20
0.0
 30
0.0
  9
$PUCSYDIR
 10
0.0
 20
1.0
 30
0.0
  9
$USERI1
 70
     0
  9
$USERI2
 70
     0
  9
$USERI3
 70
     0
  9
$USERI4
 70
     0
  9
$USERI5
 70
     0
  9
$USERR1
 40
0.0
  9
$USERR2
 40
0.0
  9
$USERR3
 40
0.0
  9
$USERR4
 40
0.0
  9
$USERR5
 40
0.0
  9
$WORLDVIEW
 70
     1
  9
$SHADEDGE
 70
     3
  9
$SHADEDIF
 70
    70
  9
$TILEMODE
 70
     1
  9
$MAXACTVP
 70
    64
  9
$PLIMCHECK
 70
     0
  9
$PEXTMIN
 10
1.0000000000000000E+020
 20
1.0000000000000000E+020
 30
1.0000000000000000E+020
  9
$PEXTMAX
 10
-1.0000000000000000E+020
 20
-1.0000000000000000E+020
 30
-1.0000000000000000E+020
  9
$PLIMMIN
 10
0.0
 20
0.0
  9
$PLIMMAX
 10
12.0
 20
9.0
  9
$UNITMODE
 70
     0
  9
$VISRETAIN
 70
     1
  9
$PLINEGEN
 70
     0
  9
$PSLTSCALE
 70
     1
  0
ENDSEC
  0
SECTION
  2
TABLES
  0
TABLE
  2
VPORT
 70
     1
  0
VPORT
  2
*ACTIVE
 70
     0
 10
0.0
 20
0.0
 11
1.0
 21
1.0
 12
-408.78315740095871
 22
348.43808817537831
 13
0.0
 23
0.0
 14
1.0
 24
1.0
 15
0.0
 25
0.0
 16
0.0
 26
0.0
 36
1.0
 17
0.0
 27
0.0
 37
0.0
 40
571.80338488197594
 41
1.7571592210767459
 42
50.0
 43
0.0
 44
0.0
 50
0.0
 51
0.0
 71
     0
 72
   100
 73
     1
 74
     1
 75
     0
 76
     0
 77
     0
 78
     0
  0
ENDTAB
  0
TABLE
  2
LTYPE
 70
    20
  0
LTYPE
  2
CONTINUOUS
 70
     0
  3
Solid line
 72
    65
 73
     0
 40
0.0
  0
LTYPE
  2
DASHED
 70
     0
  3
__ __ __ __ __ __ __ __ __ __ __ __ __ __ __
 72
    65
 73
     2
 40
3.5
 49
2.0
 49
-1.5
  0
LTYPE
  2
CENTER
 70
     0
  3
____ _ ____ _ ____ _ ____ _ ____ _ ____ _ ____
 72
    65
 73
     4
 40
17.5
 49
13.0
 49
-1.5
 49
1.5
 49
-1.5
  0
LTYPE
  2
PHANTOM
 70
     0
  3
_____ _ _ _____ _ _ _____ _ _ _____ _ _ ____  
 72
    65
 73
     6
 40
15.5
 49
8.0
 49
-1.5
 49
1.5
 49
-1.5
 49
1.5
 49
-1.5
  0
LTYPE
  2
DOT
 70
     0
  3
. . . . . . . . . . . . . . . . . . . . . . . .
 72
    65
 73
     2
 40
0.25
 49
0.0
 49
-0.25
  0
LTYPE
  2
AM_ISO02W050
 70
     0
  3
__ __ __ __ __ __ __ __ __ __ __ __ __ __ __
 72
    65
 73
     2
 40
7.5
 49
6.0
 49
-1.5
  0
LTYPE
  2
AM_ISO08W050
 70
     0
  3
____ . ____ . ____ . ____ . ____ . ____ . ____
 72
    65
 73
     4
 40
18.0
 49
12.0
 49
-1.5
 49
3.0
 49
-1.5
  0
LTYPE
  2
AM_ISO09W050
 70
     0
  3
_____ . . _____ . . _____ . . ____ .. ____
 72
    65
 73
     6
 40
22.5
 49
12.0
 49
-1.5
 49
3.0
 49
-1.5
 49
3.0
 49
-1.5
  0
LTYPE
  2
AMCONSTR
 70
     0
  3
_______________________
 72
    65
 73
     2
 40
9999.0
 49
9999.0
 49
0.0
  0
LTYPE
  2
AM_ISO08W050X2
 70
     0
  3
__ . __ . __ . __ . __ . __
 72
    65
 73
     4
 40
9.0
 49
6.0
 49
-0.75
 49
1.5
 49
-0.75
  0
LTYPE
  2
AM_ISO02W050X2
 70
     0
  3
 _ _ _ _ _ _ _ _ _ _ _ _
 72
    65
 73
     2
 40
3.75
 49
3.0
 49
-0.75
  0
LTYPE
  2
AMZIGZAG
 70
     0
  3
/\/-/\/-/\/-/\/-/\/-/\/
 72
    65
 73
     2
 40
11.000099999999991
 49
0.0001
 49
-11.0
  0
LTYPE
  2
HIDDEN
 70
     0
  3
Hidden __ __ __ __ __ __ __ __ __ __ __ __ __ _
 72
    65
 73
     2
 40
0.375
 49
0.25
 49
-0.125
  0
LTYPE
  2
PHANTOM2
 70
     0
  3
Phantom (.5x) ___ _ _ ___ _ _ ___ _ _ ___ _ _
 72
    65
 73
     6
 40
1.25
 49
0.625
 49
-0.125
 49
0.125
 49
-0.125
 49
0.125
 49
-0.125
  0
LTYPE
  2
CENTER2
 70
     0
  3
Center (.5x) ___ _ ___ _ ___ _ ___ _ ___ _ ___
 72
    65
 73
     4
 40
1.125
 49
0.75
 49
-0.125
 49
0.125
 49
-0.125
  0
LTYPE
  2
HIDDEN2
 70
     0
  3
Hidden (.5x) _ _ _ _ _ _ _ _ _ _ _ _ _ _ _ _ _
 72
    65
 73
     2
 40
0.1875
 49
0.125
 49
-0.0625
  0
LTYPE
  2
AMZIGZAG2
 70
     0
  3
/\/-/\/-/\/-/\/-/\/-/\/
 72
    65
 73
     2
 40
0.4401
 49
0.0001
 49
-0.4400000000000003
  0
LTYPE
  2
ACANSTGB
 70
     0
  3
__ . . __ . .
 72
    65
 73
     6
 40
0.35433070866
 49
0.15748031496
 49
-0.03937007874
 49
0.03937007874
 49
-0.03937007874
 49
0.03937007874
 49
-0.03937007874
  0
LTYPE
  2
ACANSTGL
 70
     0
  3
_ _ _ _ _
 72
    65
 73
     2
 40
0.11811023622
 49
0.07874015748
 49
-0.03937007874
  0
ENDTAB
  0
TABLE
  2
LAYER
 70
     1
  0
LAYER
  2
0
 70
     0
 62
     7
  6
CONTINUOUS
  0
ENDTAB
  0
TABLE
  2
STYLE
 70
     5
  0
STYLE
  2
STANDARD
 70
     0
 40
0.0
 41
1.0
 50
0.0
 71
     0
 42
0.2
  3
txt
  4

  0
STYLE
  2
ANNOTATIVE
 70
     0
 40
0.0
 41
1.0
 50
0.0
 71
     0
 42
0.2
  3
txt
  4

  0
STYLE
  2

 70
     1
 40
0.0
 41
1.0
 50
0.0
 71
     0
 42
0.2
  3
ltypeshp.shx
  4

  0
STYLE
  2
ACANSTS
 70
     0
 40
1.0
 41
1.0
 50
0.0
 71
     0
 42
0.2
  3
romans.shx
  4
extfont.shx
  0
STYLE
  2
ACANSGDT
 70
     0
 40
0.0
 41
1.0
 50
0.0
 71
     0
 42
0.2
  3
amgdt.shx
  4

  0
ENDTAB
  0
TABLE
  2
VIEW
 70
     0
  0
ENDTAB
  0
TABLE
  2
UCS
 70
     0
  0
ENDTAB
  0
TABLE
  2
APPID
 70
    11
  0
APPID
  2
ACAD
 70
     0
  0
APPID
  2
ACADANNOTATIVE
 70
     0
  0
APPID
  2
MCAD_NO_VIS
 70
     0
  0
APPID
  2
ACAD_TEMP_GRAPHIC
 70
     0
  0
APPID
  2
ACATTRIBSERVICES
 70
     0
  0
APPID
  2
DESIGNERASSEMBLIES
 70
     0
  0
APPID
  2
ACAD_DSTYLE_DIMBREAK
 70
     0
  0
APPID
  2
ACAD_DSTYLE_DIMJAG
 70
     0
  0
APPID
  2
ACAD_NAV_VCDISPLAY
 70
     0
  0
APPID
  2
ACAD_EXEMPT_FROM_CAD_STANDARDS
 70
     0
  0
APPID
  2
ACAD_MLEADERVER
 70
     0
  0
ENDTAB
  0
TABLE
  2
DIMSTYLE
 70
     8
  0
DIMSTYLE
  2
STANDARD
 70
     0
  3

  4

  5

  6

  7

 40
1.0
 41
0.18
 42
0.0625
 43
0.38
 44
0.18
 45
0.0
 46
0.0
 47
0.0
 48
0.0
140
0.18
141
0.09
142
0.0
143
25.399999999999999
144
1.0
145
0.0
146
1.0
147
0.09
 71
     0
 72
     0
 73
     1
 74
     1
 75
     0
 76
     0
 77
     0
 78
     0
170
     0
171
     2
172
     0
173
     0
174
     0
175
     0
176
     0
177
     0
178
     0
  0
DIMSTYLE
  2
ANNOTATIVE
 70
     0
  3

  4

  5

  6

  7

 40
1.0
 41
0.18
 42
0.0625
 43
0.38
 44
0.18
 45
0.0
 46
0.0
 47
0.0
 48
0.0
140
0.18
141
0.09
142
0.0
143
25.399999999999999
144
1.0
145
0.0
146
1.0
147
0.09
 71
     0
 72
     0
 73
     1
 74
     1
 75
     0
 76
     0
 77
     0
 78
     0
170
     0
171
     2
172
     0
173
     0
174
     0
175
     0
176
     0
177
     0
178
     0
  0
DIMSTYLE
  2
AM_ANSI
 70
     0
  3

  4
mm
  5

  6

  7

 40
1.0
 41
0.1
 42
0.05
 43
0.5
 44
0.1
 45
0.0
 46
0.0
 47
0.1
 48
0.1
140
0.12
141
0.0
142
0.0
143
25.399999999999999
144
1.0
145
0.0
146
0.71
147
0.06
 71
     0
 72
     0
 73
     1
 74
     1
 75
     0
 76
     0
 77
     0
 78
     7
170
     0
171
     2
172
     0
173
     0
174
     0
175
     0
176
   256
177
   256
178
     2
  0
DIMSTYLE
  2
AM_ANSI$3
 70
     0
  3

  4
mm
  5

  6

  7

 40
1.0
 41
0.1
 42
0.05
 43
0.5
 44
0.1
 45
0.0
 46
0.0
 47
0.1
 48
0.1
140
0.12
141
0.0
142
0.0
143
25.399999999999999
144
1.0
145
0.0
146
0.71
147
0.06
 71
     0
 72
     0
 73
     1
 74
     1
 75
     0
 76
     0
 77
     0
 78
     7
170
     0
171
     2
172
     0
173
     0
174
     0
175
     0
176
   256
177
   256
178
     2
  0
DIMSTYLE
  2
AM_ANSI$4
 70
     0
  3

  4
mm
  5

  6

  7

 40
1.0
 41
0.1
 42
0.05
 43
0.5
 44
0.1
 45
0.0
 46
0.0
 47
0.1
 48
0.1
140
0.12
141
0.0
142
0.0
143
25.399999999999999
144
1.0
145
0.0
146
0.71
147
0.06
 71
     0
 72
     0
 73
     1
 74
     1
 75
     0
 76
     0
 77
     0
 78
     7
170
     0
171
     2
172
     0
173
     0
174
     0
175
     0
176
   256
177
   256
178
     2
  0
DIMSTYLE
  2
AM_ANSI$7
 70
     0
  3

  4
mm
  5

  6

  7

 40
1.0
 41
0.1
 42
0.05
 43
0.5
 44
0.1
 45
0.0
 46
0.0
 47
0.1
 48
0.1
140
0.24
141
0.0
142
0.0
143
25.399999999999999
144
1.0
145
0.0
146
0.71
147
0.06
 71
     0
 72
     0
 73
     1
 74
     1
 75
     0
 76
     0
 77
     0
 78
     7
170
     0
171
     2
172
     0
173
     0
174
     0
175
     0
176
   256
177
   256
178
     2
  0
DIMSTYLE
  2
AM_ANSI$SF
 70
     0
  3

  4
mm
  5

  6

  7

 40
1.0
 41
0.1
 42
0.05
 43
0.5
 44
0.1
 45
0.0
 46
0.0
 47
0.1
 48
0.1
140
0.12
141
0.0
142
0.0
143
25.399999999999999
144
1.0
145
0.0
146
0.71
147
0.06
 71
     0
 72
     0
 73
     1
 74
     1
 75
     1
 76
     1
 77
     0
 78
     7
170
     0
171
     2
172
     0
173
     0
174
     0
175
     0
176
   256
177
   256
178
     2
  0
DIMSTYLE
  2
AM_ANSI$SH
 70
     0
  3

  4
mm
  5

  6

  7

 40
1.0
 41
0.1
 42
0.05
 43
0.5
 44
0.1
 45
0.0
 46
0.0
 47
0.1
 48
0.1
140
0.12
141
0.0
142
0.0
143
25.399999999999999
144
1.0
145
0.0
146
0.71
147
0.06
 71
     0
 72
     0
 73
     1
 74
     1
 75
     1
 76
     1
 77
     0
 78
     7
170
     0
171
     2
172
     0
173
     1
174
     0
175
     0
176
   256
177
   256
178
     2
  0
ENDTAB
  0
ENDSEC
  0
SECTION
  2
BLOCKS
  0
BLOCK
  8
0
  2
$MODEL_SPACE
 70
     0
 10
0.0
 20
0.0
 30
0.0
  3
$MODEL_SPACE
  1

  0
ENDBLK
  5
CAA
  8
0
  0
BLOCK
 67
     1
  8
0
  2
$PAPER_SPACE
 70
     0
 10
0.0
 20
0.0
 30
0.0
  3
$PAPER_SPACE
  1

  0
ENDBLK
  5
CA6
 67
     1
  8
0
  0
BLOCK
  8
0
  2
GENAXEH
 70
     0
 10
0.0
 20
0.0
 30
0.0
  3
GENAXEH
  1

  0
LINE
  5
5AE
  8
0
 10
-1.0
 20
0.0
 30
0.0
 11
1.0
 21
0.0
 31
0.0
  0
ENDBLK
  5
5AF
  8
0
  0
BLOCK
  8
0
  2
_ACMFILLEDHALF
 70
     0
 10
0.0
 20
0.0
 30
0.0
  3
_ACMFILLEDHALF
  1

  0
TRACE
  5
BAC
  8
0
  6
CONTINUOUS
 62
     0
 10
-0.8
 20
0.0
 30
0.0
 11
-1.0
 21
0.166666666
 31
0.0
 12
0.0
 22
0.0
 32
0.0
 13
0.0
 23
0.0
 33
0.0
  0
LINE
  5
BAD
  8
0
  6
CONTINUOUS
 62
     0
 10
-1.0
 20
0.0
 30
0.0
 11
-0.8
 21
0.0
 31
0.0
  0
ENDBLK
  5
BAB
  8
0
  0
BLOCK
  8
0
  2
*U4
 70
     1
 10
0.0
 20
0.0
 30
0.0
  3
*U4
  1

  0
TEXT
  5
C33
  8
0
  6
CONTINUOUS
 62
     0
 10
4.1999993754229852
 20
4.4356759791489822
 30
0.0
 40
10.0
  1
ＶＸ０１－２４０Ｍ～ＶＸ０１－６００Ｍ
  0
ENDBLK
  5
C35
  8
0
  0
BLOCK
  8
0
  2
*U5
 70
     1
 10
0.0
 20
0.0
 30
0.0
  3
*U5
  1

  0
TEXT
  5
C37
  8
0
  6
CONTINUOUS
 62
     0
 10
-265.80168971012438
 20
411.3786832404848
 30
0.0
 40
15.0
  1
ＶＸ０２－２４０Ｍ～ＶＸ０２－６００Ｍ
  0
ENDBLK
  5
C39
  8
0
  0
ENDSEC
  0
SECTION
  2
ENTITIES
  0
LINE
  5
5B0
  8
0
  6
CENTER
 62
     7
 10
-787.28026999999975
 20
517.36658
 30
0.0
 11
-334.97030999999993
 21
517.36658
 31
0.0
  0
LINE
  5
5B1
  8
0
  6
CENTER
 62
     1
 10
-184.2809399999999
 20
209.54793000000001
 30
0.0
 11
-106.2809399999999
 21
209.54793000000001
 31
0.0
  0
LINE
  5
5B2
  8
0
  6
CENTER
 62
     1
 10
-145.2809399999999
 20
64.492133999999993
 30
0.0
 11
-145.2809399999999
 21
286.7843299999999
 31
0.0
  0
LINE
  5
5B3
  8
0
  6
CENTER
 62
     7
 10
-232.14350999999991
 20
181.5479399999999
 30
0.0
 11
-58.237056999999993
 21
181.5479399999999
 31
0.0
  0
LINE
  5
5B4
  8
0
  6
CONTINUOUS
 62
     7
 10
-342.88315
 20
225.54792999999981
 30
0.0
 11
-400.88312000000002
 21
225.54792999999981
 31
0.0
  0
LINE
  5
5B5
  8
0
  6
CONTINUOUS
 62
     7
 10
-342.88315
 20
228.54792999999989
 30
0.0
 11
-387.88315
 21
228.54792999999989
 31
0.0
  0
LINE
  5
5B6
  8
0
  6
CONTINUOUS
 62
     7
 10
-400.88312000000002
 20
192.0479399999999
 30
0.0
 11
-404.88315
 21
192.0479399999999
 31
0.0
  0
LINE
  5
5B7
  8
0
  6
CONTINUOUS
 62
     7
 10
-150.28093999999979
 20
220.5479399999999
 30
0.0
 11
-140.28095999999991
 21
220.5479399999999
 31
0.0
  0
LINE
  5
5B8
  8
0
  6
CONTINUOUS
 62
     1
 10
-150.28093999999979
 20
220.5479399999999
 30
0.0
 11
-150.28093999999979
 21
228.54792999999989
 31
0.0
  0
LINE
  5
5B9
  8
0
  6
CONTINUOUS
 62
     7
 10
-342.88315
 20
193.54794000000001
 30
0.0
 11
-400.88312000000002
 21
193.54794000000001
 31
0.0
  0
LINE
  5
5BA
  8
0
  6
CONTINUOUS
 62
     1
 10
-140.28095999999991
 20
220.5479399999999
 30
0.0
 11
-140.28095999999991
 21
228.54792999999989
 31
0.0
  0
LINE
  5
5BB
  8
0
  6
DASHED
 62
     7
 10
-415.38314999999989
 20
87.547927999999999
 30
0.0
 11
-415.38314999999989
 21
69.547927999999985
 31
0.0
  0
LINE
  5
5BC
  8
0
  6
CONTINUOUS
 62
     7
 10
-387.88315
 20
225.54792999999981
 30
0.0
 11
-387.88315
 21
228.54792999999989
 31
0.0
  0
LINE
  5
5BD
  8
0
  6
CENTER
 62
     7
 10
-422.88315
 20
66.547927999999999
 30
0.0
 11
-422.88315
 21
91.076346999999998
 31
0.0
  0
LINE
  5
5BE
  8
0
  6
CENTER
 62
     7
 10
-547.88311999999996
 20
66.547927999999999
 30
0.0
 11
-547.88311999999996
 21
91.076346999999998
 31
0.0
  0
LINE
  5
5BF
  8
0
  6
CONTINUOUS
 62
     7
 10
-517.88311999999985
 20
281.04793999999998
 30
0.0
 11
-517.88311999999985
 21
125.0479399999999
 31
0.0
  0
LINE
  5
5C0
  8
0
  6
CENTER
 62
     1
 10
-565.66498000000001
 20
209.54793000000001
 30
0.0
 11
-333.42935
 21
209.54793000000001
 31
0.0
  0
LINE
  5
5C1
  8
0
  6
CENTER
 62
     7
 10
-50.280949
 20
91.797256000000004
 30
0.0
 11
-50.280949
 21
66.216620999999989
 31
0.0
  0
LINE
  5
5C2
  8
0
  6
CONTINUOUS
 62
     7
 10
-400.88312000000002
 20
192.0479399999999
 30
0.0
 11
-400.88312000000002
 21
227.04792999999981
 31
0.0
  0
LINE
  5
5C3
  8
0
  6
CONTINUOUS
 62
     7
 10
-342.88315
 20
193.54794000000001
 30
0.0
 11
-342.88315
 21
228.54792999999989
 31
0.0
  0
LINE
  5
5C4
  8
0
  6
CENTER
 62
     7
 10
-240.2809399999999
 20
92.559821999999997
 30
0.0
 11
-240.2809399999999
 21
66.216620999999989
 31
0.0
  0
LINE
  5
5C5
  8
0
  6
DASHED
 62
     7
 10
-430.38315
 20
87.547927999999999
 30
0.0
 11
-430.38315
 21
69.547927999999985
 31
0.0
  0
LINE
  5
5C6
  8
0
  6
CONTINUOUS
 62
     7
 10
-150.28093999999979
 20
228.54792999999989
 30
0.0
 11
-140.28095999999991
 21
228.54792999999989
 31
0.0
  0
LINE
  5
5C7
  8
0
  6
CONTINUOUS
 62
     7
 10
-400.88312000000002
 20
227.04792999999981
 30
0.0
 11
-404.88315
 21
227.04792999999981
 31
0.0
  0
LINE
  5
5C8
  8
0
  6
CONTINUOUS
 62
     7
 10
-538.26195999999993
 20
259.68322999999992
 30
0.0
 11
-517.88311999999985
 21
259.68322999999992
 31
0.0
  0
LINE
  5
5C9
  8
0
  6
CONTINUOUS
 62
     7
 10
-210.2809399999999
 20
83.547919999999976
 30
0.0
 11
-210.2809399999999
 21
69.547927999999985
 31
0.0
  0
LINE
  5
5CA
  8
0
  6
DASHED
 62
     7
 10
-57.780944999999988
 20
87.547927999999999
 30
0.0
 11
-57.780944999999988
 21
69.547927999999985
 31
0.0
  0
LINE
  5
5CB
  8
0
  6
DASHED
 62
     7
 10
-42.780949
 20
87.547927999999999
 30
0.0
 11
-42.780949
 21
69.547927999999985
 31
0.0
  0
LINE
  5
5CC
  8
0
  6
CONTINUOUS
 62
     7
 10
-260.28093999999987
 20
69.547927999999985
 30
0.0
 11
-210.2809399999999
 21
69.547927999999985
 31
0.0
  0
LINE
  5
5CD
  8
0
  6
CONTINUOUS
 62
     7
 10
-260.28093999999987
 20
84.547927999999985
 30
0.0
 11
-260.28093999999987
 21
69.547927999999985
 31
0.0
  0
LINE
  5
5CE
  8
0
  6
CONTINUOUS
 62
     7
 10
-80.280944999999988
 20
69.547927999999985
 30
0.0
 11
-30.280947000000001
 21
69.547927999999985
 31
0.0
  0
LINE
  5
5CF
  8
0
  6
CONTINUOUS
 62
     7
 10
-80.280944999999988
 20
83.547919999999976
 30
0.0
 11
-80.280944999999988
 21
69.547927999999985
 31
0.0
  0
LINE
  5
5D0
  8
0
  6
CONTINUOUS
 62
     7
 10
-30.280947000000001
 20
84.547927999999985
 30
0.0
 11
-30.280947000000001
 21
69.547927999999985
 31
0.0
  0
LINE
  5
5D1
  8
0
  6
CONTINUOUS
 62
     7
 10
-214.28095999999999
 20
87.547927999999999
 30
0.0
 11
-257.28093999999999
 21
87.547927999999999
 31
0.0
  0
LINE
  5
5D2
  8
0
  6
CONTINUOUS
 62
     7
 10
-76.280945000000003
 20
87.547927999999999
 30
0.0
 11
-33.28094500000001
 21
87.547927999999999
 31
0.0
  0
LINE
  5
5D3
  8
0
  6
CONTINUOUS
 62
     7
 10
-404.88315
 20
209.54793000000001
 30
0.0
 11
-404.88315
 21
236.8158699999999
 31
0.0
  0
LINE
  5
5D4
  8
0
  6
CONTINUOUS
 62
     7
 10
-404.88315
 20
182.2799999999998
 30
0.0
 11
-404.88315
 21
209.54793000000001
 31
0.0
  0
LINE
  5
5D5
  8
0
  6
CONTINUOUS
 62
     7
 10
-410.38315
 20
177.37253000000001
 30
0.0
 11
-406.38315
 21
179.68192999999991
 31
0.0
  0
LINE
  5
5D6
  8
0
  6
CONTINUOUS
 62
     7
 10
-410.38315
 20
241.72336999999999
 30
0.0
 11
-406.38315
 21
239.41397000000001
 31
0.0
  0
LINE
  5
5D7
  8
0
  6
CONTINUOUS
 62
     7
 10
-226.9949299999999
 20
252.86989
 30
0.0
 11
-240.0917799999998
 21
211.73326
 31
0.0
  0
LINE
  5
5D8
  8
0
  6
CONTINUOUS
 62
     7
 10
-437.88315
 20
87.547927999999999
 30
0.0
 11
-406.88311999999991
 21
87.547927999999999
 31
0.0
  0
LINE
  5
5D9
  8
0
  6
CONTINUOUS
 62
     7
 10
-527.88317999999981
 20
71.547934999999995
 30
0.0
 11
-442.88312000000002
 21
71.547934999999995
 31
0.0
  0
LINE
  5
5DA
  8
0
  6
DASHED
 62
     7
 10
-232.78093999999999
 20
87.547927999999999
 30
0.0
 11
-232.78093999999999
 21
69.547927999999985
 31
0.0
  0
LINE
  5
5DB
  8
0
  6
DASHED
 62
     7
 10
-540.38311999999985
 20
87.547927999999999
 30
0.0
 11
-540.38311999999985
 21
69.547927999999985
 31
0.0
  0
LINE
  5
5DC
  8
0
  6
CONTINUOUS
 62
     7
 10
-411.88314999999989
 20
95.087326000000004
 30
0.0
 11
-411.88314999999989
 21
253.5479399999999
 31
0.0
  0
LINE
  5
5DD
  8
0
  6
CONTINUOUS
 62
     7
 10
-452.88314999999989
 20
102.54794
 30
0.0
 11
-452.88314999999989
 21
240.99065999999991
 31
0.0
  0
LINE
  5
5DE
  8
0
  6
CONTINUOUS
 62
     7
 10
-563.88317999999981
 20
87.547927999999999
 30
0.0
 11
-532.80297999999993
 21
87.547927999999999
 31
0.0
  0
LINE
  5
5DF
  8
0
  6
DASHED
 62
     7
 10
-555.38311999999985
 20
87.547927999999999
 30
0.0
 11
-555.38311999999985
 21
69.547927999999985
 31
0.0
  0
LINE
  5
5E0
  8
0
  6
CONTINUOUS
 62
     7
 10
-565.88311999999985
 20
69.547927999999985
 30
0.0
 11
-529.88311999999985
 21
69.547927999999985
 31
0.0
  0
LINE
  5
5E1
  8
0
  6
CONTINUOUS
 62
     7
 10
-404.88315
 20
69.547927999999985
 30
0.0
 11
-404.88315
 21
85.547934999999981
 31
0.0
  0
LINE
  5
5E2
  8
0
  6
CONTINUOUS
 62
     7
 10
-565.88311999999985
 20
69.547927999999985
 30
0.0
 11
-565.88311999999985
 21
85.547934999999981
 31
0.0
  0
LINE
  5
5E3
  8
0
  6
CONTINUOUS
 62
     7
 10
-528.99322999999993
 20
90.328812000000013
 30
0.0
 11
-514.07343000000003
 21
136.95321999999979
 31
0.0
  0
LINE
  5
5E4
  8
0
  6
DASHED
 62
     7
 10
-247.7809399999999
 20
87.547927999999999
 30
0.0
 11
-247.7809399999999
 21
69.547927999999985
 31
0.0
  0
LINE
  5
5E5
  8
0
  6
CONTINUOUS
 62
     7
 10
-432.88314999999989
 20
110.00566000000001
 30
0.0
 11
-432.88314999999989
 21
271.02886999999998
 31
0.0
  0
LINE
  5
5E6
  8
0
  6
CONTINUOUS
 62
     7
 10
-424.88312000000002
 20
257.54793999999998
 30
0.0
 11
-415.88311999999979
 21
257.54793999999998
 31
0.0
  0
LINE
  5
5E7
  8
0
  6
CONTINUOUS
 62
     7
 10
-210.2809399999999
 20
192.54794000000001
 30
0.0
 11
-210.2809399999999
 21
102.54794
 31
0.0
  0
LINE
  5
5E8
  8
0
  6
CONTINUOUS
 62
     7
 10
-216.60291000000001
 20
263.26195999999987
 30
0.0
 11
-175.46628000000001
 21
276.35879999999992
 31
0.0
  0
LINE
  5
5E9
  8
0
  6
CONTINUOUS
 62
     7
 10
-513.88311999999985
 20
138.17234999999991
 30
0.0
 11
-513.88311999999985
 21
196.1956899999999
 31
0.0
  0
LINE
  5
5EA
  8
0
  6
CONTINUOUS
 62
     7
 10
-63.164977999999998
 20
253.06869999999989
 30
0.0
 11
-50.16905999999998
 21
210.77086
 31
0.0
  0
LINE
  5
5EB
  8
0
  6
CONTINUOUS
 62
     7
 10
-73.760216
 20
263.66388000000001
 30
0.0
 11
-116.05803999999991
 21
276.65978999999987
 31
0.0
  0
LINE
  5
5EC
  8
0
  6
CONTINUOUS
 62
     7
 10
-80.280944999999988
 20
192.54794000000001
 30
0.0
 11
-80.280944999999988
 21
102.54794
 31
0.0
  0
LINE
  5
5ED
  8
0
  6
CONTINUOUS
 62
     7
 10
-68.280944999999974
 20
241.64161999999999
 30
0.0
 11
-68.280944999999974
 21
143.2852
 31
0.0
  0
LINE
  5
5EE
  8
0
  6
CONTINUOUS
 62
     7
 10
-222.28093999999999
 20
241.64161999999999
 30
0.0
 11
-222.28093999999999
 21
143.2852
 31
0.0
  0
LINE
  5
5EF
  8
0
  6
CONTINUOUS
 62
     7
 10
-517.88311999999985
 20
281.04793999999998
 30
0.0
 11
-440.67370999999991
 21
279.02614999999992
 31
0.0
  0
LINE
  5
5F0
  8
0
  6
CONTINUOUS
 62
     7
 10
-30.313631000000001
 20
84.989554999999996
 30
0.0
 11
-46.865028000000002
 21
196.1956899999999
 31
0.0
  0
LINE
  5
5F1
  8
0
  6
CONTINUOUS
 62
     7
 10
-260.24826000000002
 20
84.989563000000004
 30
0.0
 11
-243.6968699999999
 21
196.1956899999999
 31
0.0
  0
LINE
  5
5F2
  8
0
  6
CONTINUOUS
 62
     7
 10
-517.88311999999985
 20
196.1956899999999
 30
0.0
 11
-513.88311999999985
 21
196.1956899999999
 31
0.0
  0
LINE
  5
5F3
  8
0
  6
CONTINUOUS
 62
     7
 10
-447.80817000000002
 20
102.00566999999999
 30
0.0
 11
-440.88314999999989
 21
102.00566999999999
 31
0.0
  0
LINE
  5
5F4
  8
0
  6
CONTINUOUS
 62
     7
 10
-440.88314999999989
 20
69.547927999999985
 30
0.0
 11
-404.88315
 21
69.547927999999985
 31
0.0
  0
LINE
  5
5F5
  8
0
  6
CONTINUOUS
 62
     7
 10
-440.88314999999989
 20
69.547927999999985
 30
0.0
 11
-440.88314999999989
 21
69.547927999999985
 31
0.0
  0
LINE
  5
5F6
  8
0
  6
CONTINUOUS
 62
     7
 10
-208.28095999999999
 20
71.547934999999995
 30
0.0
 11
-82.280945000000003
 21
71.547934999999995
 31
0.0
  0
LINE
  5
5F7
  8
0
  6
CONTINUOUS
 62
     7
 10
-444.88314999999989
 20
248.99064999999999
 30
0.0
 11
-436.48363999999992
 21
248.99064999999999
 31
0.0
  0
LINE
  5
5F8
  8
0
  6
CONTINUOUS
 62
     7
 10
-517.88317999999992
 20
211.73326
 30
0.0
 11
-517.88158999999996
 21
211.73326
 31
0.0
  0
LINE
  5
5F9
  8
0
  6
CONTINUOUS
 62
     7
 10
-517.88311999999985
 20
211.7332499999998
 30
0.0
 11
-490.11450000000002
 21
237.01973000000001
 31
0.0
  0
LINE
  5
5FA
  8
0
  6
CONTINUOUS
 62
     7
 10
-539.88317999999992
 20
272.57198999999991
 30
0.0
 11
-539.88317999999992
 21
90.524490000000014
 31
0.0
  0
LINE
  5
5FB
  8
0
  6
CONTINUOUS
 62
     7
 10
-536.98784999999987
 20
275.57013000000001
 30
0.0
 11
-529.81329000000005
 21
275.82065
 31
0.0
  0
LINE
  5
5FC
  8
0
  6
CONTINUOUS
 62
     7
 10
-527.88317999999981
 20
93.797943000000004
 30
0.0
 11
-527.88317999999981
 21
99.130156999999997
 31
0.0
  0
LINE
  5
5FD
  8
0
  6
CONTINUOUS
 62
     7
 10
-574.38311999999985
 20
255.04790999999989
 30
0.0
 11
-542.77844000000005
 21
256.15157999999991
 31
0.0
  0
LINE
  5
5FE
  8
0
  6
CONTINUOUS
 62
     7
 10
-525.95299999999986
 20
280.76611000000003
 30
0.0
 11
-517.88317999999992
 21
281.04791
 31
0.0
  0
LINE
  5
5FF
  8
0
  6
CONTINUOUS
 62
     7
 10
-574.38311999999985
 20
108.0479399999999
 30
0.0
 11
-542.31335000000001
 21
106.92804
 31
0.0
  0
LINE
  5
600
  8
0
  6
CONTINUOUS
 62
     7
 10
-537.88311999999985
 20
264.8505899999999
 30
0.0
 11
-529.88311999999985
 21
264.8505899999999
 31
0.0
  0
LINE
  5
601
  8
0
  6
CONTINUOUS
 62
     7
 10
-537.88311999999985
 20
247.88002
 30
0.0
 11
-529.88311999999985
 21
247.88002
 31
0.0
  0
LINE
  5
602
  8
0
  6
CONTINUOUS
 62
     7
 10
-527.88317999999981
 20
266.8505899999999
 30
0.0
 11
-527.88317999999981
 21
278.76732999999979
 31
0.0
  0
LINE
  5
603
  8
0
  6
CONTINUOUS
 62
     7
 10
-538.40459999999985
 20
238.93059999999991
 30
0.0
 11
-529.45403999999985
 21
238.93059999999991
 31
0.0
  0
LINE
  5
604
  8
0
  6
CONTINUOUS
 62
     7
 10
-537.88311999999985
 20
121.8052499999999
 30
0.0
 11
-529.88311999999985
 21
121.8052499999999
 31
0.0
  0
LINE
  5
605
  8
0
  6
CONTINUOUS
 62
     7
 10
-584.38311999999985
 20
142.07327000000001
 30
0.0
 11
-539.88317999999992
 21
142.07327000000001
 31
0.0
  0
LINE
  5
606
  8
0
  6
CONTINUOUS
 62
     7
 10
-584.38311999999985
 20
221.0226099999999
 30
0.0
 11
-539.88317999999992
 21
221.0226099999999
 31
0.0
  0
LINE
  5
607
  8
0
  6
CONTINUOUS
 62
     7
 10
-537.88311999999985
 20
101.13015
 30
0.0
 11
-529.88311999999985
 21
101.13015
 31
0.0
  0
LINE
  5
608
  8
0
  6
CONTINUOUS
 62
     7
 10
-527.88317999999981
 20
119.68855000000001
 30
0.0
 11
-527.88317999999981
 21
245.88003999999981
 31
0.0
  0
LINE
  5
609
  8
0
  6
CONTINUOUS
 62
     7
 10
-527.88317999999981
 20
117.68856
 30
0.0
 11
-520.23815999999977
 21
117.68856
 31
0.0
  0
LINE
  5
60A
  8
0
  6
CONTINUOUS
 62
     3
 10
-584.38311999999985
 20
243.12658999999999
 30
0.0
 11
-539.88317999999992
 21
243.12658999999999
 31
0.0
  0
LINE
  5
60B
  8
0
  6
CONTINUOUS
 62
     3
 10
-584.38311999999985
 20
119.9693
 30
0.0
 11
-539.88317999999992
 21
119.9693
 31
0.0
  0
LINE
  5
60C
  8
0
  6
CENTER
 62
     1
 10
-546.68182000000002
 20
153.54793999999981
 30
0.0
 11
-784.96331999999984
 21
153.54793999999981
 31
0.0
  0
LINE
  5
60D
  8
0
  6
CONTINUOUS
 62
     7
 10
-675.88311999999985
 20
183.5479399999999
 30
0.0
 11
-666.61310000000003
 21
183.5479399999999
 31
0.0
  0
LINE
  5
60E
  8
0
  6
CONTINUOUS
 62
     3
 10
-757.88360999999998
 20
146.04768000000001
 30
0.0
 11
-757.88360999999998
 21
161.04768000000001
 31
0.0
  0
LINE
  5
60F
  8
0
  6
CONTINUOUS
 62
     3
 10
-757.88360999999998
 20
161.04768000000001
 30
0.0
 11
-754.38360999999998
 21
161.04768000000001
 31
0.0
  0
LINE
  5
610
  8
0
  6
CONTINUOUS
 62
     3
 10
-750.38360999999998
 20
187.04769999999991
 30
0.0
 11
-750.38360999999998
 21
183.54768000000001
 31
0.0
  0
LINE
  5
611
  8
0
  6
CONTINUOUS
 62
     3
 10
-750.38360999999998
 20
187.04769999999991
 30
0.0
 11
-735.38311999999985
 21
187.04769999999991
 31
0.0
  0
LINE
  5
612
  8
0
  6
CONTINUOUS
 62
     3
 10
-735.38311999999985
 20
187.04769999999991
 30
0.0
 11
-735.38311999999985
 21
183.54768000000001
 31
0.0
  0
LINE
  5
613
  8
0
  6
CONTINUOUS
 62
     3
 10
-754.38360999999998
 20
123.54818999999991
 30
0.0
 11
-754.38360999999998
 21
183.54768000000001
 31
0.0
  0
LINE
  5
614
  8
0
  6
CONTINUOUS
 62
     3
 10
-677.38311999999996
 20
125.0479399999999
 30
0.0
 11
-677.38311999999996
 21
182.0479399999999
 31
0.0
  0
LINE
  5
615
  8
0
  6
CONTINUOUS
 62
     3
 10
-754.38360999999998
 20
183.54768000000001
 30
0.0
 11
-678.88311999999985
 21
183.54768000000001
 31
0.0
  0
LINE
  5
616
  8
0
  6
CONTINUOUS
 62
     3
 10
-725.18317000000002
 20
135.74771000000001
 30
0.0
 11
-725.18317000000002
 21
171.35172
 31
0.0
  0
LINE
  5
617
  8
0
  6
CONTINUOUS
 62
     3
 10
-689.58312999999998
 20
135.74771000000001
 30
0.0
 11
-689.58312999999998
 21
171.35172
 31
0.0
  0
LINE
  5
618
  8
0
  6
CONTINUOUS
 62
     3
 10
-725.18317000000002
 20
135.74771000000001
 30
0.0
 11
-689.58312999999998
 21
135.74771000000001
 31
0.0
  0
LINE
  5
619
  8
0
  6
CONTINUOUS
 62
     3
 10
-725.18317000000002
 20
171.35172
 30
0.0
 11
-689.58312999999998
 21
171.35172
 31
0.0
  0
LINE
  5
61A
  8
0
  6
CONTINUOUS
 62
     3
 10
-687.01116999999977
 20
131.04818999999981
 30
0.0
 11
-682.80615
 21
131.04818999999981
 31
0.0
  0
LINE
  5
61B
  8
0
  6
CONTINUOUS
 62
     3
 10
-684.88311999999985
 20
128.98617999999991
 30
0.0
 11
-684.88311999999985
 21
133.01211999999981
 31
0.0
  0
LINE
  5
61C
  8
0
  6
CONTINUOUS
 62
     3
 10
-755.88360999999975
 20
122.04819000000001
 30
0.0
 11
-750.38360999999998
 21
122.04819000000001
 31
0.0
  0
LINE
  5
61D
  8
0
  6
CONTINUOUS
 62
     3
 10
-755.88360999999975
 20
185.04768000000001
 30
0.0
 11
-750.38360999999998
 21
185.04768000000001
 31
0.0
  0
LINE
  5
61E
  8
0
  6
CONTINUOUS
 62
     3
 10
-730.38317999999981
 20
130.54817
 30
0.0
 11
-690.36114999999995
 21
130.54817
 31
0.0
  0
LINE
  5
61F
  8
0
  6
CONTINUOUS
 62
     3
 10
-724.40612999999985
 20
176.54769999999991
 30
0.0
 11
-684.38311999999985
 21
176.54769999999991
 31
0.0
  0
LINE
  5
620
  8
0
  6
CONTINUOUS
 62
     3
 10
-675.88311999999985
 20
122.04819000000001
 30
0.0
 11
-675.88311999999985
 21
185.04768000000001
 31
0.0
  0
LINE
  5
621
  8
0
  6
CONTINUOUS
 62
     3
 10
-684.38311999999985
 20
136.52565000000001
 30
0.0
 11
-684.38311999999985
 21
176.54769999999991
 31
0.0
  0
LINE
  5
622
  8
0
  6
CONTINUOUS
 62
     3
 10
-730.38317999999981
 20
130.54817
 30
0.0
 11
-730.38317999999981
 21
170.57070999999991
 31
0.0
  0
LINE
  5
623
  8
0
  6
CONTINUOUS
 62
     3
 10
-755.88360999999975
 20
122.04819000000001
 30
0.0
 11
-755.88360999999975
 21
146.04768000000001
 31
0.0
  0
LINE
  5
624
  8
0
  6
CONTINUOUS
 62
     3
 10
-755.88360999999975
 20
161.04768000000001
 30
0.0
 11
-755.88360999999975
 21
185.04768000000001
 31
0.0
  0
LINE
  5
625
  8
0
  6
CONTINUOUS
 62
     3
 10
-729.88311999999985
 20
173.98568999999989
 30
0.0
 11
-729.88311999999985
 21
178.01167000000001
 31
0.0
  0
LINE
  5
626
  8
0
  6
CONTINUOUS
 62
     3
 10
-732.01116999999988
 20
176.04768000000001
 30
0.0
 11
-727.80614999999989
 21
176.04768000000001
 31
0.0
  0
LINE
  5
627
  8
0
  6
CONTINUOUS
 62
     3
 10
-754.38360999999998
 20
123.54818999999991
 30
0.0
 11
-678.88311999999985
 21
123.54818999999991
 31
0.0
  0
LINE
  5
628
  8
0
  6
CONTINUOUS
 62
     7
 10
-675.88311999999985
 20
123.54794
 30
0.0
 11
-666.61310000000003
 21
123.54794
 31
0.0
  0
LINE
  5
629
  8
0
  6
CONTINUOUS
 62
     7
 10
-738.88311999999985
 20
115.3248499999999
 30
0.0
 11
-656.38311999999996
 21
115.3248499999999
 31
0.0
  0
LINE
  5
62A
  8
0
  6
CONTINUOUS
 62
     7
 10
-740.38311999999985
 20
116.82485
 30
0.0
 11
-740.38311999999985
 21
116.82485
 31
0.0
  0
LINE
  5
62B
  8
0
  6
CONTINUOUS
 62
     7
 10
-661.84258999999997
 20
100.54794
 30
0.0
 11
-656.38311999999996
 21
100.54794
 31
0.0
  0
LINE
  5
62C
  8
0
  6
CONTINUOUS
 62
     7
 10
-657.88311999999985
 20
115.3248999999999
 30
0.0
 11
-662.32512999999994
 21
98.747040000000013
 31
0.0
  0
LINE
  5
62D
  8
0
  6
CONTINUOUS
 62
     7
 10
-725.38311999999985
 20
93.659987999999984
 30
0.0
 11
-725.38311999999985
 21
97.264679000000015
 31
0.0
  0
LINE
  5
62E
  8
0
  6
CONTINUOUS
 62
     7
 10
-764.38311999999985
 20
102.76305000000001
 30
0.0
 11
-763.07427999999982
 21
93.383598000000006
 31
0.0
  0
LINE
  5
62F
  8
0
  6
CONTINUOUS
 62
     7
 10
-764.38323999999989
 20
102.76308
 30
0.0
 11
-763.09215999999969
 21
94.269965999999997
 31
0.0
  0
LINE
  5
630
  8
0
  6
CONTINUOUS
 62
     7
 10
-764.38311999999985
 20
104.10764
 30
0.0
 11
-763.10308999999984
 21
96.102470000000011
 31
0.0
  0
LINE
  5
631
  8
0
  6
CONTINUOUS
 62
     7
 10
-761.09343999999965
 20
91.659996000000007
 30
0.0
 11
-727.38317999999981
 21
91.659996000000007
 31
0.0
  0
LINE
  5
632
  8
0
  6
CONTINUOUS
 62
     7
 10
-761.11474999999984
 20
92.570510999999996
 30
0.0
 11
-727.38317999999981
 21
92.570510999999996
 31
0.0
  0
LINE
  5
633
  8
0
  6
CONTINUOUS
 62
     7
 10
-761.12810999999999
 20
94.418304000000006
 30
0.0
 11
-727.38317999999981
 21
94.418304000000006
 31
0.0
  0
LINE
  5
634
  8
0
  6
CONTINUOUS
 62
     7
 10
-764.38317999999981
 20
105.45215
 30
0.0
 11
-763.14190999999983
 21
98.892792
 31
0.0
  0
LINE
  5
635
  8
0
  6
CONTINUOUS
 62
     7
 10
-761.17675999999983
 20
97.264679000000015
 30
0.0
 11
-664.25702000000001
 21
97.264679000000015
 31
0.0
  0
LINE
  5
636
  8
0
  6
CONTINUOUS
 62
     7
 10
-656.38311999999996
 20
97.547943000000004
 30
0.0
 11
-648.38311999999996
 21
97.547943000000004
 31
0.0
  0
LINE
  5
637
  8
0
  6
CENTER
 62
     7
 10
-658.29974000000004
 20
112.1821399999999
 30
0.0
 11
-646.49860000000001
 21
112.1821399999999
 31
0.0
  0
LINE
  5
638
  8
0
  6
CONTINUOUS
 62
     7
 10
-771.68505999999979
 20
110.3564699999999
 30
0.0
 11
-765.45525999999984
 21
110.3564699999999
 31
0.0
  0
LINE
  5
639
  8
0
  6
CONTINUOUS
 62
     7
 10
-772.38317999999981
 20
100.54794
 30
0.0
 11
-764.38317999999981
 21
100.54794
 31
0.0
  0
LINE
  5
63A
  8
0
  6
CONTINUOUS
 62
     7
 10
-773.38317999999981
 20
103.54794
 30
0.0
 11
-772.38317999999981
 21
103.54794
 31
0.0
  0
LINE
  5
63B
  8
0
  6
CONTINUOUS
 62
     7
 10
-776.38317999999981
 20
104.05177999999979
 30
0.0
 11
-776.38317999999981
 21
104.5775499999999
 31
0.0
  0
LINE
  5
63C
  8
0
  6
CONTINUOUS
 62
     7
 10
-776.38317999999981
 20
106.1513799999999
 30
0.0
 11
-776.38317999999981
 21
106.6974
 31
0.0
  0
LINE
  5
63D
  8
0
  6
CONTINUOUS
 62
     7
 10
-776.38317999999981
 20
110.7174799999999
 30
0.0
 11
-776.38317999999981
 21
111.1895999999999
 31
0.0
  0
LINE
  5
63E
  8
0
  6
CONTINUOUS
 62
     7
 10
-776.60284000000001
 20
107.1627799999999
 30
0.0
 11
-777.85149999999965
 21
107.8246399999999
 31
0.0
  0
LINE
  5
63F
  8
0
  6
CONTINUOUS
 62
     7
 10
-776.59649999999999
 20
105.0531899999999
 30
0.0
 11
-777.83574999999985
 21
105.68222
 31
0.0
  0
LINE
  5
640
  8
0
  6
CONTINUOUS
 62
     7
 10
-776.61725000000001
 20
111.70011
 30
0.0
 11
-777.88855000000001
 21
112.44476999999991
 31
0.0
  0
LINE
  5
641
  8
0
  6
CONTINUOUS
 62
     7
 10
-776.1438599999999
 20
104.94485
 30
0.0
 11
-773.88317999999981
 21
104.94485
 31
0.0
  0
LINE
  5
642
  8
0
  6
CONTINUOUS
 62
     7
 10
-776.13451999999984
 20
107.0462899999998
 30
0.0
 11
-774.38311999999985
 21
107.0462899999998
 31
0.0
  0
LINE
  5
643
  8
0
  6
CONTINUOUS
 62
     7
 10
-776.11181999999985
 20
111.56301999999999
 30
0.0
 11
-774.38311999999985
 21
111.56301999999999
 31
0.0
  0
LINE
  5
644
  8
0
  6
CONTINUOUS
 62
     7
 10
-776.08452999999975
 20
110.4229999999999
 30
0.0
 11
-773.38317999999981
 21
110.4229999999999
 31
0.0
  0
LINE
  5
645
  8
0
  6
CONTINUOUS
 62
     7
 10
-776.10613999999987
 20
105.90626999999991
 30
0.0
 11
-773.38317999999981
 21
105.90626999999991
 31
0.0
  0
LINE
  5
646
  8
0
  6
CONTINUOUS
 62
     7
 10
-776.63292999999965
 20
110.58674999999999
 30
0.0
 11
-777.93146000000002
 21
111.43828999999999
 31
0.0
  0
LINE
  5
647
  8
0
  6
CONTINUOUS
 62
     7
 10
-776.62067000000002
 20
106.0488499999999
 30
0.0
 11
-777.89757999999983
 21
106.8151
 31
0.0
  0
LINE
  5
648
  8
0
  6
CONTINUOUS
 62
     7
 10
-776.6153599999999
 20
103.9327899999999
 30
0.0
 11
-777.88354000000004
 21
104.6657399999999
 31
0.0
  0
LINE
  5
649
  8
0
  6
CONTINUOUS
 62
     7
 10
-776.11492999999984
 20
103.79855000000001
 30
0.0
 11
-773.88317999999981
 21
103.79855000000001
 31
0.0
  0
LINE
  5
64A
  8
0
  6
CONTINUOUS
 62
     7
 10
-778.3831799999997
 20
105.53152
 30
0.0
 11
-778.3831799999997
 21
148.54793999999981
 31
0.0
  0
LINE
  5
64B
  8
0
  6
CONTINUOUS
 62
     7
 10
-661.84258999999997
 20
206.54793000000001
 30
0.0
 11
-656.38311999999996
 21
206.54793000000001
 31
0.0
  0
LINE
  5
64C
  8
0
  6
CONTINUOUS
 62
     7
 10
-658.18102999999985
 20
192.88278
 30
0.0
 11
-662.32519999999988
 21
208.34885
 31
0.0
  0
LINE
  5
64D
  8
0
  6
CONTINUOUS
 62
     7
 10
-725.38311999999985
 20
213.43581
 30
0.0
 11
-725.38311999999985
 21
209.83118999999999
 31
0.0
  0
LINE
  5
64E
  8
0
  6
CONTINUOUS
 62
     7
 10
-764.38317999999981
 20
204.3327899999999
 30
0.0
 11
-763.07434000000001
 21
213.71222999999981
 31
0.0
  0
LINE
  5
64F
  8
0
  6
CONTINUOUS
 62
     7
 10
-764.38311999999985
 20
204.33276000000001
 30
0.0
 11
-763.09209999999985
 21
212.82585
 31
0.0
  0
LINE
  5
650
  8
0
  6
CONTINUOUS
 62
     7
 10
-764.38311999999985
 20
202.98816999999991
 30
0.0
 11
-763.10302999999988
 21
210.99334999999991
 31
0.0
  0
LINE
  5
651
  8
0
  6
CONTINUOUS
 62
     7
 10
-761.09343999999965
 20
215.43582000000001
 30
0.0
 11
-727.38317999999981
 21
215.43582000000001
 31
0.0
  0
LINE
  5
652
  8
0
  6
CONTINUOUS
 62
     7
 10
-761.11474999999984
 20
214.5252799999999
 30
0.0
 11
-727.38317999999981
 21
214.5252799999999
 31
0.0
  0
LINE
  5
653
  8
0
  6
CONTINUOUS
 62
     7
 10
-761.12810999999999
 20
212.67757
 30
0.0
 11
-727.38317999999981
 21
212.67757
 31
0.0
  0
LINE
  5
654
  8
0
  6
CONTINUOUS
 62
     7
 10
-738.88311999999985
 20
191.77094999999991
 30
0.0
 11
-656.38311999999996
 21
191.77094999999991
 31
0.0
  0
LINE
  5
655
  8
0
  6
CONTINUOUS
 62
     7
 10
-759.01769999999988
 20
116.89669000000001
 30
0.0
 11
-764.38311999999985
 21
105.45222
 31
0.0
  0
LINE
  5
656
  8
0
  6
CONTINUOUS
 62
     7
 10
-759.01769999999988
 20
190.19910999999999
 30
0.0
 11
-764.38311999999985
 21
201.6435899999999
 31
0.0
  0
LINE
  5
657
  8
0
  6
CONTINUOUS
 62
     7
 10
-764.38311999999985
 20
201.64363
 30
0.0
 11
-763.14184999999975
 21
208.20305999999991
 31
0.0
  0
LINE
  5
658
  8
0
  6
CONTINUOUS
 62
     7
 10
-761.17675999999983
 20
209.83118999999999
 30
0.0
 11
-664.25702000000001
 21
209.83118999999999
 31
0.0
  0
LINE
  5
659
  8
0
  6
CONTINUOUS
 62
     7
 10
-740.38311999999985
 20
116.82485
 30
0.0
 11
-740.38311999999985
 21
115.3248499999999
 31
0.0
  0
LINE
  5
65A
  8
0
  6
CONTINUOUS
 62
     7
 10
-740.38311999999985
 20
190.27095
 30
0.0
 11
-740.38311999999985
 21
190.27095
 31
0.0
  0
LINE
  5
65B
  8
0
  6
CONTINUOUS
 62
     7
 10
-656.38311999999996
 20
209.54793000000001
 30
0.0
 11
-648.38311999999996
 21
209.54793000000001
 31
0.0
  0
LINE
  5
65C
  8
0
  6
CENTER
 62
     7
 10
-658.29974000000004
 20
194.91367
 30
0.0
 11
-646.49860000000001
 21
194.91367
 31
0.0
  0
LINE
  5
65D
  8
0
  6
CONTINUOUS
 62
     7
 10
-771.68505999999979
 20
196.73932999999991
 30
0.0
 11
-765.45525999999984
 21
196.73932999999991
 31
0.0
  0
LINE
  5
65E
  8
0
  6
CONTINUOUS
 62
     7
 10
-772.38317999999981
 20
206.54793000000001
 30
0.0
 11
-764.38317999999981
 21
206.54793000000001
 31
0.0
  0
LINE
  5
65F
  8
0
  6
CONTINUOUS
 62
     7
 10
-773.38317999999981
 20
203.54792999999989
 30
0.0
 11
-772.38317999999981
 21
203.54792999999989
 31
0.0
  0
LINE
  5
660
  8
0
  6
CONTINUOUS
 62
     7
 10
-773.38317999999981
 20
203.54792999999989
 30
0.0
 11
-773.38317999999981
 21
102.42470999999991
 31
0.0
  0
LINE
  5
661
  8
0
  6
CONTINUOUS
 62
     7
 10
-777.88855000000001
 20
112.44479
 30
0.0
 11
-777.91216999999983
 21
112.45865000000001
 31
0.0
  0
LINE
  5
662
  8
0
  6
CONTINUOUS
 62
     7
 10
-764.38317999999981
 20
206.54793000000001
 30
0.0
 11
-764.38317999999981
 21
104.10769999999999
 31
0.0
  0
LINE
  5
663
  8
0
  6
CONTINUOUS
 62
     7
 10
-772.38317999999981
 20
206.54793000000001
 30
0.0
 11
-772.38317999999981
 21
100.54794
 31
0.0
  0
LINE
  5
664
  8
0
  6
CONTINUOUS
 62
     7
 10
-707.38311999999985
 20
116.82485
 30
0.0
 11
-659.5610999999999
 21
116.82485
 31
0.0
  0
LINE
  5
665
  8
0
  6
CONTINUOUS
 62
     7
 10
-707.38311999999985
 20
117.5479399999999
 30
0.0
 11
-762.01775999999984
 21
117.5479399999999
 31
0.0
  0
LINE
  5
666
  8
0
  6
CONTINUOUS
 62
     7
 10
-707.38311999999985
 20
119.54792999999979
 30
0.0
 11
-762.01775999999984
 21
119.54792999999979
 31
0.0
  0
LINE
  5
667
  8
0
  6
CONTINUOUS
 62
     7
 10
-762.70519999999988
 20
120.1806899999999
 30
0.0
 11
-750.38360999999998
 21
120.1806899999999
 31
0.0
  0
LINE
  5
668
  8
0
  6
CONTINUOUS
 62
     7
 10
-779.88317999999981
 20
136.26589999999979
 30
0.0
 11
-778.3831799999997
 21
136.26589999999979
 31
0.0
  0
LINE
  5
669
  8
0
  6
CONTINUOUS
 62
     7
 10
-779.88317999999981
 20
138.39789999999991
 30
0.0
 11
-776.58947999999964
 21
138.39789999999991
 31
0.0
  0
LINE
  5
66A
  8
0
  6
CONTINUOUS
 62
     7
 10
-779.88317999999981
 20
133.5479599999999
 30
0.0
 11
-778.3831799999997
 21
133.41673
 31
0.0
  0
LINE
  5
66B
  8
0
  6
CONTINUOUS
 62
     7
 10
-779.88317999999981
 20
133.54793999999981
 30
0.0
 11
-779.88317999999981
 21
153.54793999999981
 31
0.0
  0
LINE
  5
66C
  8
0
  6
CONTINUOUS
 62
     7
 10
-776.38317999999981
 20
118.1550399999999
 30
0.0
 11
-776.38317999999981
 21
119.215
 31
0.0
  0
LINE
  5
66D
  8
0
  6
CONTINUOUS
 62
     7
 10
-776.38317999999981
 20
127.92171
 30
0.0
 11
-776.38317999999981
 21
129.28455999999991
 31
0.0
  0
LINE
  5
66E
  8
0
  6
CONTINUOUS
 62
     7
 10
-776.38317999999981
 20
147.93466000000001
 30
0.0
 11
-776.38317999999981
 21
149.09555
 31
0.0
  0
LINE
  5
66F
  8
0
  6
CONTINUOUS
 62
     7
 10
-776.38317999999981
 20
137.94083000000001
 30
0.0
 11
-776.38317999999981
 21
139.15218999999991
 31
0.0
  0
LINE
  5
670
  8
0
  6
CONTINUOUS
 62
     7
 10
-774.38311999999985
 20
149.54793000000001
 30
0.0
 11
-777.38311999999985
 21
149.54793000000001
 31
0.0
  0
LINE
  5
671
  8
0
  6
CONTINUOUS
 62
     7
 10
-774.38311999999985
 20
147.5479399999999
 30
0.0
 11
-777.38311999999985
 21
147.5479399999999
 31
0.0
  0
LINE
  5
672
  8
0
  6
CONTINUOUS
 62
     7
 10
-774.38311999999985
 20
139.5479399999999
 30
0.0
 11
-777.38311999999985
 21
139.5479399999999
 31
0.0
  0
LINE
  5
673
  8
0
  6
CONTINUOUS
 62
     7
 10
-774.38311999999985
 20
137.54793000000001
 30
0.0
 11
-777.38311999999985
 21
137.54793000000001
 31
0.0
  0
LINE
  5
674
  8
0
  6
CONTINUOUS
 62
     7
 10
-774.38311999999985
 20
129.54793999999981
 30
0.0
 11
-777.38311999999985
 21
129.54793999999981
 31
0.0
  0
LINE
  5
675
  8
0
  6
CONTINUOUS
 62
     7
 10
-774.38311999999985
 20
127.54794
 30
0.0
 11
-777.38311999999985
 21
127.54794
 31
0.0
  0
LINE
  5
676
  8
0
  6
CONTINUOUS
 62
     7
 10
-776.52685999999983
 20
119.84901000000001
 30
0.0
 11
-777.67724999999984
 21
120.20286
 31
0.0
  0
LINE
  5
677
  8
0
  6
CONTINUOUS
 62
     7
 10
-776.23284999999964
 20
119.80477999999979
 30
0.0
 11
-774.38311999999985
 21
119.80477999999979
 31
0.0
  0
LINE
  5
678
  8
0
  6
CONTINUOUS
 62
     7
 10
-776.57135000000005
 20
117.93906
 30
0.0
 11
-777.77593999999988
 21
118.45352
 31
0.0
  0
LINE
  5
679
  8
0
  6
CONTINUOUS
 62
     7
 10
-776.17846999999983
 20
117.8586699999998
 30
0.0
 11
-774.08318999999983
 21
117.8586699999998
 31
0.0
  0
LINE
  5
67A
  8
0
  6
CONTINUOUS
 62
     7
 10
-659.5610999999999
 20
120.1806899999999
 30
0.0
 11
-676.08312999999976
 21
120.1806899999999
 31
0.0
  0
LINE
  5
67B
  8
0
  6
CONTINUOUS
 62
     7
 10
-677.08319000000006
 20
121.18068
 30
0.0
 11
-677.08319000000006
 21
122.04819000000001
 31
0.0
  0
LINE
  5
67C
  8
0
  6
CONTINUOUS
 62
     7
 10
-675.88317999999981
 20
123.28230000000001
 30
0.0
 11
-666.61315999999988
 21
123.5478999999999
 31
0.0
  0
LINE
  5
67D
  8
0
  6
CONTINUOUS
 62
     7
 10
-762.70519999999988
 20
116.82485
 30
0.0
 11
-707.38311999999985
 21
116.82485
 31
0.0
  0
LINE
  5
67E
  8
0
  6
CONTINUOUS
 62
     7
 10
-663.03881999999965
 20
117.5479399999999
 30
0.0
 11
-707.38311999999985
 21
117.5479399999999
 31
0.0
  0
LINE
  5
67F
  8
0
  6
CONTINUOUS
 62
     7
 10
-663.03881999999965
 20
119.54792999999979
 30
0.0
 11
-707.38311999999985
 21
119.54792999999979
 31
0.0
  0
LINE
  5
680
  8
0
  6
CONTINUOUS
 62
     7
 10
-762.92156999999975
 20
127.06173
 30
0.0
 11
-755.88360999999975
 21
127.06173
 31
0.0
  0
LINE
  5
681
  8
0
  6
CONTINUOUS
 62
     7
 10
-755.88360999999975
 20
127.54794
 30
0.0
 11
-762.01775999999984
 21
127.54794
 31
0.0
  0
LINE
  5
682
  8
0
  6
CONTINUOUS
 62
     7
 10
-762.92156999999975
 20
129.98471000000001
 30
0.0
 11
-755.88360999999975
 21
129.98471000000001
 31
0.0
  0
LINE
  5
683
  8
0
  6
CONTINUOUS
 62
     7
 10
-755.88360999999975
 20
129.54793999999981
 30
0.0
 11
-762.01775999999984
 21
129.54793999999981
 31
0.0
  0
LINE
  5
684
  8
0
  6
CONTINUOUS
 62
     7
 10
-763.05218999999988
 20
137.20441999999991
 30
0.0
 11
-755.88360999999975
 21
137.20441999999991
 31
0.0
  0
LINE
  5
685
  8
0
  6
CONTINUOUS
 62
     7
 10
-755.88360999999975
 20
137.54793000000001
 30
0.0
 11
-762.01775999999984
 21
137.54793000000001
 31
0.0
  0
LINE
  5
686
  8
0
  6
CONTINUOUS
 62
     7
 10
-755.88360999999975
 20
139.5479399999999
 30
0.0
 11
-762.01775999999984
 21
139.5479399999999
 31
0.0
  0
LINE
  5
687
  8
0
  6
CONTINUOUS
 62
     7
 10
-763.05218999999988
 20
139.86629999999991
 30
0.0
 11
-755.88360999999975
 21
139.86629999999991
 31
0.0
  0
LINE
  5
688
  8
0
  6
CONTINUOUS
 62
     7
 10
-763.11419999999964
 20
147.2751199999999
 30
0.0
 11
-757.88360999999998
 21
147.2751199999999
 31
0.0
  0
LINE
  5
689
  8
0
  6
CONTINUOUS
 62
     7
 10
-757.88360999999998
 20
147.5479399999999
 30
0.0
 11
-762.01775999999984
 21
147.5479399999999
 31
0.0
  0
LINE
  5
68A
  8
0
  6
CONTINUOUS
 62
     7
 10
-757.88360999999998
 20
149.54793000000001
 30
0.0
 11
-762.01775999999984
 21
149.54793000000001
 31
0.0
  0
LINE
  5
68B
  8
0
  6
CONTINUOUS
 62
     7
 10
-763.11419999999964
 20
149.81296
 30
0.0
 11
-757.88360999999998
 21
149.81296
 31
0.0
  0
LINE
  5
68C
  8
0
  6
CONTINUOUS
 62
     7
 10
-677.08319000000006
 20
185.91513
 30
0.0
 11
-677.08319000000006
 21
185.04768000000001
 31
0.0
  0
LINE
  5
68D
  8
0
  6
CONTINUOUS
 62
     7
 10
-659.5610999999999
 20
186.91513
 30
0.0
 11
-676.08312999999976
 21
186.91513
 31
0.0
  0
LINE
  5
68E
  8
0
  6
CONTINUOUS
 62
     7
 10
-763.11419999999964
 20
157.28284999999991
 30
0.0
 11
-757.88360999999998
 21
157.28284999999991
 31
0.0
  0
LINE
  5
68F
  8
0
  6
CONTINUOUS
 62
     7
 10
-763.11419999999964
 20
159.8206899999999
 30
0.0
 11
-757.88360999999998
 21
159.8206899999999
 31
0.0
  0
LINE
  5
690
  8
0
  6
CONTINUOUS
 62
     7
 10
-763.05218999999988
 20
167.22958
 30
0.0
 11
-755.88360999999975
 21
167.22958
 31
0.0
  0
LINE
  5
691
  8
0
  6
CONTINUOUS
 62
     7
 10
-763.05218999999988
 20
169.89144999999979
 30
0.0
 11
-755.88360999999975
 21
169.89144999999979
 31
0.0
  0
LINE
  5
692
  8
0
  6
CONTINUOUS
 62
     7
 10
-762.92162999999982
 20
177.11110999999991
 30
0.0
 11
-755.88360999999975
 21
177.11110999999991
 31
0.0
  0
LINE
  5
693
  8
0
  6
CONTINUOUS
 62
     7
 10
-762.92162999999982
 20
180.0340699999999
 30
0.0
 11
-755.88360999999975
 21
180.0340699999999
 31
0.0
  0
LINE
  5
694
  8
0
  6
CONTINUOUS
 62
     7
 10
-762.70587
 20
186.91513
 30
0.0
 11
-750.38360999999998
 21
186.91513
 31
0.0
  0
LINE
  5
695
  8
0
  6
CONTINUOUS
 62
     7
 10
-762.70587
 20
190.27095
 30
0.0
 11
-659.5610999999999
 21
190.27095
 31
0.0
  0
LINE
  5
696
  8
0
  6
CONTINUOUS
 62
     7
 10
-757.88360999999998
 20
157.54793999999981
 30
0.0
 11
-762.01775999999984
 21
157.54793999999981
 31
0.0
  0
LINE
  5
697
  8
0
  6
CONTINUOUS
 62
     7
 10
-757.88360999999998
 20
159.54793999999981
 30
0.0
 11
-762.01775999999984
 21
159.54793999999981
 31
0.0
  0
LINE
  5
698
  8
0
  6
CONTINUOUS
 62
     7
 10
-755.88360999999975
 20
167.54793000000001
 30
0.0
 11
-762.01775999999984
 21
167.54793000000001
 31
0.0
  0
LINE
  5
699
  8
0
  6
CONTINUOUS
 62
     7
 10
-755.88360999999975
 20
169.5479399999999
 30
0.0
 11
-762.01775999999984
 21
169.5479399999999
 31
0.0
  0
LINE
  5
69A
  8
0
  6
CONTINUOUS
 62
     7
 10
-755.88360999999975
 20
177.5479399999999
 30
0.0
 11
-762.01775999999984
 21
177.5479399999999
 31
0.0
  0
LINE
  5
69B
  8
0
  6
CONTINUOUS
 62
     7
 10
-755.88360999999975
 20
179.54793000000001
 30
0.0
 11
-762.01775999999984
 21
179.54793000000001
 31
0.0
  0
LINE
  5
69C
  8
0
  6
CONTINUOUS
 62
     7
 10
-663.03881999999965
 20
187.5479399999999
 30
0.0
 11
-762.01775999999984
 21
187.5479399999999
 31
0.0
  0
LINE
  5
69D
  8
0
  6
CONTINUOUS
 62
     7
 10
-663.03881999999965
 20
189.5479399999999
 30
0.0
 11
-762.01775999999984
 21
189.5479399999999
 31
0.0
  0
LINE
  5
69E
  8
0
  6
CONTINUOUS
 62
     7
 10
-779.88317999999981
 20
170.82991000000001
 30
0.0
 11
-778.3831799999997
 21
170.82991000000001
 31
0.0
  0
LINE
  5
69F
  8
0
  6
CONTINUOUS
 62
     7
 10
-779.88317999999981
 20
168.69797
 30
0.0
 11
-775.20562999999981
 21
168.69797
 31
0.0
  0
LINE
  5
6A0
  8
0
  6
CONTINUOUS
 62
     7
 10
-779.88317999999981
 20
173.54791
 30
0.0
 11
-778.3831799999997
 21
173.67914999999991
 31
0.0
  0
LINE
  5
6A1
  8
0
  6
CONTINUOUS
 62
     7
 10
-779.88317999999981
 20
173.54793000000001
 30
0.0
 11
-779.88317999999981
 21
153.54793999999981
 31
0.0
  0
LINE
  5
6A2
  8
0
  6
CONTINUOUS
 62
     7
 10
-776.38317999999981
 20
203.0440999999999
 30
0.0
 11
-776.38317999999981
 21
202.51832999999999
 31
0.0
  0
LINE
  5
6A3
  8
0
  6
CONTINUOUS
 62
     7
 10
-776.38317999999981
 20
200.94449
 30
0.0
 11
-776.38317999999981
 21
200.39841000000001
 31
0.0
  0
LINE
  5
6A4
  8
0
  6
CONTINUOUS
 62
     7
 10
-776.38317999999981
 20
196.37838999999991
 30
0.0
 11
-776.38317999999981
 21
195.90620000000001
 31
0.0
  0
LINE
  5
6A5
  8
0
  6
CONTINUOUS
 62
     7
 10
-776.38317999999981
 20
188.94083000000001
 30
0.0
 11
-776.38317999999981
 21
187.88086999999999
 31
0.0
  0
LINE
  5
6A6
  8
0
  6
CONTINUOUS
 62
     7
 10
-776.38317999999981
 20
179.17410000000001
 30
0.0
 11
-776.38317999999981
 21
177.81130999999991
 31
0.0
  0
LINE
  5
6A7
  8
0
  6
CONTINUOUS
 62
     7
 10
-776.38317999999981
 20
159.16114999999991
 30
0.0
 11
-776.38317999999981
 21
158.00026
 31
0.0
  0
LINE
  5
6A8
  8
0
  6
CONTINUOUS
 62
     7
 10
-776.38317999999981
 20
169.15503999999979
 30
0.0
 11
-776.38317999999981
 21
167.94361999999981
 31
0.0
  0
LINE
  5
6A9
  8
0
  6
CONTINUOUS
 62
     7
 10
-774.38311999999985
 20
157.54793999999981
 30
0.0
 11
-777.38311999999985
 21
157.54793999999981
 31
0.0
  0
LINE
  5
6AA
  8
0
  6
CONTINUOUS
 62
     7
 10
-774.38311999999985
 20
159.54793999999981
 30
0.0
 11
-777.38311999999985
 21
159.54793999999981
 31
0.0
  0
LINE
  5
6AB
  8
0
  6
CONTINUOUS
 62
     7
 10
-774.38311999999985
 20
167.54793000000001
 30
0.0
 11
-777.38311999999985
 21
167.54793000000001
 31
0.0
  0
LINE
  5
6AC
  8
0
  6
CONTINUOUS
 62
     7
 10
-774.38311999999985
 20
169.5479399999999
 30
0.0
 11
-777.38311999999985
 21
169.5479399999999
 31
0.0
  0
LINE
  5
6AD
  8
0
  6
CONTINUOUS
 62
     7
 10
-774.38311999999985
 20
177.5479399999999
 30
0.0
 11
-777.38311999999985
 21
177.5479399999999
 31
0.0
  0
LINE
  5
6AE
  8
0
  6
CONTINUOUS
 62
     7
 10
-774.38311999999985
 20
179.54793000000001
 30
0.0
 11
-777.38311999999985
 21
179.54793000000001
 31
0.0
  0
LINE
  5
6AF
  8
0
  6
CONTINUOUS
 62
     7
 10
-776.60277999999983
 20
199.93308999999991
 30
0.0
 11
-777.85144000000003
 21
199.2712199999998
 31
0.0
  0
LINE
  5
6B0
  8
0
  6
CONTINUOUS
 62
     7
 10
-776.59649999999999
 20
202.0427199999998
 30
0.0
 11
-777.83574999999985
 21
201.41370000000001
 31
0.0
  0
LINE
  5
6B1
  8
0
  6
CONTINUOUS
 62
     7
 10
-776.52679000000001
 20
187.24688999999989
 30
0.0
 11
-777.67711999999983
 21
186.8930499999999
 31
0.0
  0
LINE
  5
6B2
  8
0
  6
CONTINUOUS
 62
     7
 10
-776.61730999999975
 20
195.39571000000001
 30
0.0
 11
-777.88860999999974
 21
194.65105
 31
0.0
  0
LINE
  5
6B3
  8
0
  6
CONTINUOUS
 62
     7
 10
-776.1438599999999
 20
202.1510199999999
 30
0.0
 11
-773.88317999999981
 21
202.1510199999999
 31
0.0
  0
LINE
  5
6B4
  8
0
  6
CONTINUOUS
 62
     7
 10
-776.13451999999984
 20
200.04958999999991
 30
0.0
 11
-774.38311999999985
 21
200.04958999999991
 31
0.0
  0
LINE
  5
6B5
  8
0
  6
CONTINUOUS
 62
     7
 10
-776.11181999999985
 20
195.53285
 30
0.0
 11
-774.38311999999985
 21
195.53285
 31
0.0
  0
LINE
  5
6B6
  8
0
  6
CONTINUOUS
 62
     7
 10
-776.23284999999964
 20
187.29105000000001
 30
0.0
 11
-774.38311999999985
 21
187.29105000000001
 31
0.0
  0
LINE
  5
6B7
  8
0
  6
CONTINUOUS
 62
     7
 10
-776.08452999999975
 20
196.67282
 30
0.0
 11
-773.38317999999981
 21
196.67282
 31
0.0
  0
LINE
  5
6B8
  8
0
  6
CONTINUOUS
 62
     7
 10
-776.10613999999987
 20
201.18952999999991
 30
0.0
 11
-773.38317999999981
 21
201.18952999999991
 31
0.0
  0
LINE
  5
6B9
  8
0
  6
CONTINUOUS
 62
     7
 10
-776.57129000000032
 20
189.15683000000001
 30
0.0
 11
-777.77588000000003
 21
188.64234999999999
 31
0.0
  0
LINE
  5
6BA
  8
0
  6
CONTINUOUS
 62
     7
 10
-776.63280999999984
 20
196.5090899999999
 30
0.0
 11
-777.93151999999998
 21
195.65749999999991
 31
0.0
  0
LINE
  5
6BB
  8
0
  6
CONTINUOUS
 62
     7
 10
-776.62067000000002
 20
201.0470399999999
 30
0.0
 11
-777.89777000000004
 21
200.28073000000001
 31
0.0
  0
LINE
  5
6BC
  8
0
  6
CONTINUOUS
 62
     7
 10
-776.61530000000005
 20
203.16301000000001
 30
0.0
 11
-777.88354000000004
 21
202.4300199999999
 31
0.0
  0
LINE
  5
6BD
  8
0
  6
CONTINUOUS
 62
     7
 10
-776.17846999999983
 20
189.2371399999999
 30
0.0
 11
-774.08318999999983
 21
189.2371399999999
 31
0.0
  0
LINE
  5
6BE
  8
0
  6
CONTINUOUS
 62
     7
 10
-776.11492999999984
 20
203.29732999999999
 30
0.0
 11
-773.88317999999981
 21
203.29732999999999
 31
0.0
  0
LINE
  5
6BF
  8
0
  6
CONTINUOUS
 62
     7
 10
-778.3831799999997
 20
201.5642999999998
 30
0.0
 11
-778.3831799999997
 21
158.54793000000001
 31
0.0
  0
LINE
  5
6C0
  8
0
  6
CONTINUOUS
 62
     7
 10
-666.61310000000003
 20
183.5479399999999
 30
0.0
 11
-666.61310000000003
 21
123.54794
 31
0.0
  0
LINE
  5
6C1
  8
0
  6
CONTINUOUS
 62
     7
 10
-656.38311999999996
 20
209.54793000000001
 30
0.0
 11
-656.38311999999996
 21
97.547943000000004
 31
0.0
  0
LINE
  5
6C2
  8
0
  6
CONTINUOUS
 62
     3
 10
-735.38311999999985
 20
120.04817
 30
0.0
 11
-750.38360999999998
 21
120.04817
 31
0.0
  0
LINE
  5
6C3
  8
0
  6
CONTINUOUS
 62
     3
 10
-757.88360999999998
 20
146.04768000000001
 30
0.0
 11
-754.38360999999998
 21
146.04768000000001
 31
0.0
  0
LINE
  5
6C4
  8
0
  6
CONTINUOUS
 62
     3
 10
-735.38311999999985
 20
185.04768000000001
 30
0.0
 11
-675.88311999999985
 21
185.04768000000001
 31
0.0
  0
LINE
  5
6C5
  8
0
  6
CONTINUOUS
 62
     3
 10
-735.38311999999985
 20
122.04819000000001
 30
0.0
 11
-675.88311999999985
 21
122.04819000000001
 31
0.0
  0
LINE
  5
6C6
  8
0
  6
CONTINUOUS
 62
     3
 10
-735.38311999999985
 20
120.04817
 30
0.0
 11
-735.38311999999985
 21
123.54818999999991
 31
0.0
  0
LINE
  5
6C7
  8
0
  6
CONTINUOUS
 62
     3
 10
-750.38360999999998
 20
120.04817
 30
0.0
 11
-750.38360999999998
 21
123.54818999999991
 31
0.0
  0
LINE
  5
6C8
  8
0
  6
CENTER
 62
     7
 10
-707.38311999999985
 20
192.14181999999991
 30
0.0
 11
-707.38311999999985
 21
110.89523
 31
0.0
  0
LINE
  5
6C9
  8
0
  6
CONTINUOUS
 62
     7
 10
-630.20288000000016
 20
210.6827999999999
 30
0.0
 11
-624.57128999999998
 21
210.87945999999991
 31
0.0
  0
LINE
  5
6CA
  8
0
  6
CONTINUOUS
 62
     7
 10
-586.96636999999998
 20
246.96467999999999
 30
0.0
 11
-585.55364999999995
 21
248.3773799999999
 31
0.0
  0
LINE
  5
6CB
  8
0
  6
CONTINUOUS
 62
     7
 10
-621.88244999999995
 20
212.04857000000001
 30
0.0
 11
-586.96636999999998
 21
246.96467999999999
 31
0.0
  0
LINE
  5
6CC
  8
0
  6
CONTINUOUS
 62
     7
 10
-584.38311999999985
 20
110.43546000000001
 30
0.0
 11
-584.38311999999985
 21
251.11385000000001
 31
0.0
  0
LINE
  5
6CD
  8
0
  6
CONTINUOUS
 62
     7
 10
-648.38311999999996
 20
210.04792999999989
 30
0.0
 11
-630.20288000000016
 21
210.6827999999999
 31
0.0
  0
LINE
  5
6CE
  8
0
  6
CONTINUOUS
 62
     7
 10
-580.52270999999985
 20
107.76233999999999
 30
0.0
 11
-574.3831799999997
 21
107.54794
 31
0.0
  0
LINE
  5
6CF
  8
0
  6
CONTINUOUS
 62
     7
 10
-622.48792000000003
 20
244.6490299999999
 30
0.0
 11
-589.65515000000005
 21
245.7955799999998
 31
0.0
  0
LINE
  5
6D0
  8
0
  6
CONTINUOUS
 62
     7
 10
-580.52277000000004
 20
255.3335099999999
 30
0.0
 11
-574.38311999999985
 21
255.54790999999989
 31
0.0
  0
LINE
  5
6D1
  8
0
  6
CONTINUOUS
 62
     7
 10
-574.3831799999997
 20
107.54792999999999
 30
0.0
 11
-574.3831799999997
 21
255.54793000000001
 31
0.0
  0
LINE
  5
6D2
  8
0
  6
CONTINUOUS
 62
     7
 10
-624.24352999999985
 20
112.92573999999991
 30
0.0
 11
-587.09569999999985
 21
111.6284999999999
 31
0.0
  0
LINE
  5
6D3
  8
0
  6
CONTINUOUS
 62
     7
 10
-626.46966999999995
 20
212.6939999999999
 30
0.0
 11
-627.7912
 21
211.59958999999981
 31
0.0
  0
LINE
  5
6D4
  8
0
  6
CONTINUOUS
 62
     7
 10
-648.38311999999996
 20
97.047927999999985
 30
0.0
 11
-648.38311999999996
 21
210.0479399999999
 31
0.0
  0
LINE
  5
6D5
  8
0
  6
CONTINUOUS
 62
     7
 10
-628.3831799999997
 20
132.05241000000001
 30
0.0
 11
-628.3831799999997
 21
101.60911
 31
0.0
  0
LINE
  5
6D6
  8
0
  6
CONTINUOUS
 62
     7
 10
-648.38317999999981
 20
97.047934999999995
 30
0.0
 11
-632.24352999999985
 21
97.611542
 31
0.0
  0
LINE
  5
6D7
  8
0
  6
CONTINUOUS
 62
     7
 10
-625.38317999999981
 20
241.65085999999991
 30
0.0
 11
-625.38317999999981
 21
215.00461000000001
 31
0.0
  0
LINE
  5
6D8
  8
0
  6
CONTINUOUS
 62
     7
 10
-623.38311999999996
 20
137.05240000000001
 30
0.0
 11
-584.38311999999985
 21
137.05240000000001
 31
0.0
  0
LINE
  5
6D9
  8
0
  6
CONTINUOUS
 62
     7
 10
-609.23157000000003
 20
186.35375999999991
 30
0.0
 11
-584.38311999999985
 21
141.98096999999979
 31
0.0
  0
LINE
  5
6DA
  8
0
  6
CONTINUOUS
 62
     7
 10
-656.38311999999996
 20
107.54792999999999
 30
0.0
 11
-628.3831799999997
 21
107.54792999999999
 31
0.0
  0
LINE
  5
6DB
  8
0
  6
CONTINUOUS
 62
     7
 10
-656.38311999999996
 20
120.74209999999979
 30
0.0
 11
-628.3831799999997
 21
120.74209999999979
 31
0.0
  0
LINE
  5
6DC
  8
0
  6
CONTINUOUS
 62
     7
 10
-622.99657999999999
 20
210.93442999999999
 30
0.0
 11
-616.62024000000019
 21
199.5479399999999
 31
0.0
  0
LINE
  5
6DD
  8
0
  6
CONTINUOUS
 62
     7
 10
-656.38311999999996
 20
186.3537799999998
 30
0.0
 11
-609.23163
 21
186.3537799999998
 31
0.0
  0
LINE
  5
6DE
  8
0
  6
CONTINUOUS
 62
     7
 10
-656.38311999999996
 20
199.5479399999999
 30
0.0
 11
-603.28008999999975
 21
199.5479399999999
 31
0.0
  0
LINE
  5
6DF
  8
0
  6
CONTINUOUS
 62
     7
 10
-609.23157000000003
 20
186.35373000000001
 30
0.0
 11
-601.15875000000005
 21
194.42658999999981
 31
0.0
  0
LINE
  5
6E0
  8
0
  6
CONTINUOUS
 62
     7
 10
-517.88317999999992
 20
616.86658
 30
0.0
 11
-513.88317999999992
 21
616.86658
 31
0.0
  0
LINE
  5
6E1
  8
0
  6
CONTINUOUS
 62
     7
 10
-404.88312000000002
 20
448.36660999999992
 30
0.0
 11
-404.88312000000002
 21
409.96587999999991
 31
0.0
  0
LINE
  5
6E2
  8
0
  6
CONTINUOUS
 62
     7
 10
-511.88314999999989
 20
402.36660999999981
 30
0.0
 11
-408.74353000000002
 21
405.96832000000001
 31
0.0
  0
LINE
  5
6E3
  8
0
  6
CONTINUOUS
 62
     7
 10
-562.91840000000002
 20
438.69173999999992
 30
0.0
 11
-547.15423999999985
 21
442.91574000000003
 31
0.0
  0
LINE
  5
6E4
  8
0
  6
CONTINUOUS
 62
     7
 10
-526.62164000000007
 20
625.05420000000004
 30
0.0
 11
-518.23175000000003
 21
625.78821000000005
 31
0.0
  0
LINE
  5
6E5
  8
0
  6
CENTER
 62
     7
 10
-561.29834000000005
 20
422.36660999999992
 30
0.0
 11
-534.38317999999992
 21
422.36660999999992
 31
0.0
  0
LINE
  5
6E6
  8
0
  6
CENTER
 62
     7
 10
-547.88317999999992
 20
433.51929000000001
 30
0.0
 11
-547.88317999999992
 21
410.35155999999989
 31
0.0
  0
LINE
  5
6E7
  8
0
  6
CENTER
 62
     7
 10
-436.38311999999991
 20
422.36660999999992
 30
0.0
 11
-409.38312000000002
 21
422.36660999999992
 31
0.0
  0
LINE
  5
6E8
  8
0
  6
CONTINUOUS
 62
     7
 10
-565.8831799999997
 20
434.82805999999988
 30
0.0
 11
-565.8831799999997
 21
410.75632000000002
 31
0.0
  0
LINE
  5
6E9
  8
0
  6
CONTINUOUS
 62
     7
 10
-342.88315
 20
533.36658
 30
0.0
 11
-400.88312000000002
 21
533.36658
 31
0.0
  0
LINE
  5
6EA
  8
0
  6
CONTINUOUS
 62
     7
 10
-562.91840000000002
 20
596.04144000000019
 30
0.0
 11
-547.15410999999995
 21
591.81744000000003
 31
0.0
  0
LINE
  5
6EB
  8
0
  6
CENTER
 62
     7
 10
-422.88312000000002
 20
433.74419999999998
 30
0.0
 11
-422.88312000000002
 21
409.93953999999968
 31
0.0
  0
LINE
  5
6EC
  8
0
  6
CONTINUOUS
 62
     7
 10
-432.88312000000002
 20
448.15985000000001
 30
0.0
 11
-432.88312000000002
 21
586.57335999999975
 31
0.0
  0
LINE
  5
6ED
  8
0
  6
CONTINUOUS
 62
     7
 10
-562.23181
 20
406.77154999999999
 30
0.0
 11
-511.88314999999989
 21
402.36660999999981
 31
0.0
  0
LINE
  5
6EE
  8
0
  6
CONTINUOUS
 62
     7
 10
-415.77840999999989
 20
452.26461999999992
 30
0.0
 11
-425.64028999999999
 21
452.00637999999992
 31
0.0
  0
LINE
  5
6EF
  8
0
  6
CONTINUOUS
 62
     7
 10
-526.62170000000003
 20
409.67899
 30
0.0
 11
-518.23175000000003
 21
408.94494999999989
 31
0.0
  0
LINE
  5
6F0
  8
0
  6
CONTINUOUS
 62
     7
 10
-513.88317999999992
 20
616.86658
 30
0.0
 11
-513.88317999999992
 21
626.73510999999985
 31
0.0
  0
LINE
  5
6F1
  8
0
  6
CONTINUOUS
 62
     7
 10
-511.88312000000002
 20
632.36663999999985
 30
0.0
 11
-408.74353000000002
 21
628.76489000000004
 31
0.0
  0
LINE
  5
6F2
  8
0
  6
CONTINUOUS
 62
     7
 10
-452.88314999999989
 20
412.71117999999967
 30
0.0
 11
-452.88314999999989
 21
428.15302000000003
 31
0.0
  0
LINE
  5
6F3
  8
0
  6
CONTINUOUS
 62
     7
 10
-415.77843999999988
 20
582.46862999999985
 30
0.0
 11
-425.64031999999992
 21
582.72686999999985
 31
0.0
  0
LINE
  5
6F4
  8
0
  6
CONTINUOUS
 62
     7
 10
-517.88317999999992
 20
417.86660999999998
 30
0.0
 11
-513.88317999999992
 21
417.86660999999998
 31
0.0
  0
LINE
  5
6F5
  8
0
  6
CONTINUOUS
 62
     7
 10
-400.88312000000002
 20
499.86664000000002
 30
0.0
 11
-404.88315
 21
499.86664000000002
 31
0.0
  0
LINE
  5
6F6
  8
0
  6
CONTINUOUS
 62
     7
 10
-342.88315
 20
501.36663999999979
 30
0.0
 11
-400.88312000000002
 21
501.36663999999979
 31
0.0
  0
LINE
  5
6F7
  8
0
  6
CONTINUOUS
 62
     7
 10
-387.88312000000002
 20
512.36664000000007
 30
0.0
 11
-387.88312000000002
 21
522.36658
 31
0.0
  0
LINE
  5
6F8
  8
0
  6
CONTINUOUS
 62
     7
 10
-400.88312000000002
 20
499.86664000000002
 30
0.0
 11
-400.88312000000002
 21
534.86663999999985
 31
0.0
  0
LINE
  5
6F9
  8
0
  6
CONTINUOUS
 62
     7
 10
-342.88315
 20
501.36663999999979
 30
0.0
 11
-342.88315
 21
533.36658
 31
0.0
  0
LINE
  5
6FA
  8
0
  6
CONTINUOUS
 62
     7
 10
-400.88312000000002
 20
534.86663999999985
 30
0.0
 11
-404.88315
 21
534.86663999999985
 31
0.0
  0
LINE
  5
6FB
  8
0
  6
CONTINUOUS
 62
     7
 10
-404.88315
 20
517.36658
 30
0.0
 11
-404.88315
 21
544.63458000000003
 31
0.0
  0
LINE
  5
6FC
  8
0
  6
CONTINUOUS
 62
     7
 10
-404.88315
 20
490.09868999999992
 30
0.0
 11
-404.88315
 21
517.36658
 31
0.0
  0
LINE
  5
6FD
  8
0
  6
CONTINUOUS
 62
     7
 10
-410.38317999999998
 20
485.19121999999999
 30
0.0
 11
-406.38317999999992
 21
487.50063999999998
 31
0.0
  0
LINE
  5
6FE
  8
0
  6
CONTINUOUS
 62
     7
 10
-410.38312000000002
 20
549.54205000000002
 30
0.0
 11
-406.38315
 21
547.23266999999987
 31
0.0
  0
LINE
  5
6FF
  8
0
  6
CONTINUOUS
 62
     7
 10
-539.88317999999992
 20
449.2944
 30
0.0
 11
-530.88317999999992
 21
449.2944
 31
0.0
  0
LINE
  5
700
  8
0
  6
CONTINUOUS
 62
     7
 10
-527.88317999999981
 20
452.29439999999988
 30
0.0
 11
-527.88317999999981
 21
582.43884000000003
 31
0.0
  0
LINE
  5
701
  8
0
  6
CONTINUOUS
 62
     7
 10
-539.88317999999992
 20
574.68420000000003
 30
0.0
 11
-527.88317999999981
 21
574.68420000000003
 31
0.0
  0
LINE
  5
702
  8
0
  6
CONTINUOUS
 62
     7
 10
-574.38311999999985
 20
443.86660999999981
 30
0.0
 11
-574.38311999999985
 21
590.86658
 31
0.0
  0
LINE
  5
703
  8
0
  6
CONTINUOUS
 62
     7
 10
-387.88315
 20
522.36658
 30
0.0
 11
-342.88315
 21
522.36658
 31
0.0
  0
LINE
  5
704
  8
0
  6
CONTINUOUS
 62
     7
 10
-536.88317999999992
 20
423.44549999999992
 30
0.0
 11
-530.84595000000002
 21
423.44549999999992
 31
0.0
  0
LINE
  5
705
  8
0
  6
CONTINUOUS
 62
     7
 10
-539.88317999999992
 20
460.04903999999988
 30
0.0
 11
-527.88317999999981
 21
460.04903999999988
 31
0.0
  0
LINE
  5
706
  8
0
  6
CONTINUOUS
 62
     7
 10
-539.88317999999992
 20
426.44549999999981
 30
0.0
 11
-539.88317999999992
 21
608.28772000000004
 31
0.0
  0
LINE
  5
707
  8
0
  6
CENTER
 62
     7
 10
-436.38311999999991
 20
612.36658
 30
0.0
 11
-409.38312000000002
 21
612.36658
 31
0.0
  0
LINE
  5
708
  8
0
  6
CENTER
 62
     7
 10
-561.38317999999981
 20
612.36658
 30
0.0
 11
-534.38317999999992
 21
612.36658
 31
0.0
  0
LINE
  5
709
  8
0
  6
CONTINUOUS
 62
     7
 10
-527.88317999999981
 20
421.11288000000002
 30
0.0
 11
-527.88317999999981
 21
431.47658999999999
 31
0.0
  0
LINE
  5
70A
  8
0
  6
CONTINUOUS
 62
     7
 10
-517.88317999999992
 20
612.15679999999986
 30
0.0
 11
-527.88317999999981
 21
612.15679999999986
 31
0.0
  0
LINE
  5
70B
  8
0
  6
CONTINUOUS
 62
     7
 10
-539.88317999999992
 20
585.43884000000003
 30
0.0
 11
-530.88317999999992
 21
585.43884000000003
 31
0.0
  0
LINE
  5
70C
  8
0
  6
CENTER
 62
     7
 10
-422.88312000000002
 20
598.86657999999966
 30
0.0
 11
-422.88312000000002
 21
625.86658
 31
0.0
  0
LINE
  5
70D
  8
0
  6
CONTINUOUS
 62
     7
 10
-411.88312000000002
 20
456.26324
 30
0.0
 11
-411.88312000000002
 21
578.46996999999988
 31
0.0
  0
LINE
  5
70E
  8
0
  6
CENTER
 62
     7
 10
-547.88317999999992
 20
598.86657999999966
 30
0.0
 11
-547.88317999999992
 21
625.86658
 31
0.0
  0
LINE
  5
70F
  8
0
  6
CONTINUOUS
 62
     7
 10
-562.23175000000003
 20
627.96167000000003
 30
0.0
 11
-511.88312000000002
 21
632.36658
 31
0.0
  0
LINE
  5
710
  8
0
  6
CONTINUOUS
 62
     7
 10
-517.88317999999992
 20
417.86660999999998
 30
0.0
 11
-517.88317999999992
 21
616.86658
 31
0.0
  0
LINE
  5
711
  8
0
  6
CONTINUOUS
 62
     7
 10
-404.88312000000002
 20
586.36657999999966
 30
0.0
 11
-404.88312000000002
 21
624.76733000000002
 31
0.0
  0
LINE
  5
712
  8
0
  6
CONTINUOUS
 62
     7
 10
-536.88317999999992
 20
600.25665000000004
 30
0.0
 11
-530.88317999999992
 21
600.25665000000004
 31
0.0
  0
LINE
  5
713
  8
0
  6
CONTINUOUS
 62
     7
 10
-536.88317999999992
 20
434.47658999999987
 30
0.0
 11
-530.88317999999992
 21
434.47658999999987
 31
0.0
  0
LINE
  5
714
  8
0
  6
CONTINUOUS
 62
     7
 10
-524.98784999999998
 20
616.61852999999985
 30
0.0
 11
-517.88317999999992
 21
616.86664000000007
 31
0.0
  0
LINE
  5
715
  8
0
  6
CONTINUOUS
 62
     7
 10
-565.8831799999997
 20
599.90515000000005
 30
0.0
 11
-565.8831799999997
 21
623.97686999999985
 31
0.0
  0
LINE
  5
716
  8
0
  6
CONTINUOUS
 62
     7
 10
-517.88317999999992
 20
487.09017999999992
 30
0.0
 11
-527.88317999999981
 21
487.09017999999992
 31
0.0
  0
LINE
  5
717
  8
0
  6
CONTINUOUS
 62
     7
 10
-517.88317999999992
 20
547.64306999999985
 30
0.0
 11
-527.88317999999981
 21
547.64306999999985
 31
0.0
  0
LINE
  5
718
  8
0
  6
CONTINUOUS
 62
     7
 10
-513.88317999999992
 20
417.86660999999998
 30
0.0
 11
-513.88317999999992
 21
407.99811
 31
0.0
  0
LINE
  5
719
  8
0
  6
CONTINUOUS
 62
     7
 10
-517.88317999999992
 20
422.57641999999993
 30
0.0
 11
-527.88317999999981
 21
422.57641999999993
 31
0.0
  0
LINE
  5
71A
  8
0
  6
CONTINUOUS
 62
     7
 10
-517.88317999999992
 20
439.94982999999991
 30
0.0
 11
-539.88317999999992
 21
439.94982999999991
 31
0.0
  0
LINE
  5
71B
  8
0
  6
CONTINUOUS
 62
     7
 10
-524.98784999999998
 20
418.11471999999981
 30
0.0
 11
-517.88317999999992
 21
417.86664000000002
 31
0.0
  0
LINE
  5
71C
  8
0
  6
CONTINUOUS
 62
     7
 10
-580.52270999999985
 20
590.65215999999975
 30
0.0
 11
-542.77844000000005
 21
591.97020999999995
 31
0.0
  0
LINE
  5
71D
  8
0
  6
CONTINUOUS
 62
     7
 10
-580.52270999999985
 20
444.08102000000002
 30
0.0
 11
-542.31329000000005
 21
442.74669999999998
 31
0.0
  0
LINE
  5
71E
  8
0
  6
CONTINUOUS
 62
     7
 10
-584.38317999999981
 20
477.89193999999992
 30
0.0
 11
-539.88317999999992
 21
477.89193999999992
 31
0.0
  0
LINE
  5
71F
  8
0
  6
CONTINUOUS
 62
     7
 10
-584.38317999999981
 20
556.84130999999991
 30
0.0
 11
-539.88317999999992
 21
556.84130999999991
 31
0.0
  0
LINE
  5
720
  8
0
  6
CONTINUOUS
 62
     3
 10
-584.38317999999981
 20
578.94524999999999
 30
0.0
 11
-539.88317999999992
 21
578.94524999999999
 31
0.0
  0
LINE
  5
721
  8
0
  6
CONTINUOUS
 62
     3
 10
-584.38317999999981
 20
455.78795999999988
 30
0.0
 11
-539.88317999999992
 21
455.78795999999988
 31
0.0
  0
LINE
  5
722
  8
0
  6
CONTINUOUS
 62
     7
 10
-517.88317999999992
 20
594.78339000000005
 30
0.0
 11
-539.88317999999992
 21
594.78339000000005
 31
0.0
  0
LINE
  5
723
  8
0
  6
CONTINUOUS
 62
     7
 10
-536.88317999999992
 20
611.28772000000004
 30
0.0
 11
-530.84595000000002
 21
611.28772000000004
 31
0.0
  0
LINE
  5
724
  8
0
  6
CONTINUOUS
 62
     7
 10
-527.88317999999981
 20
613.62035999999989
 30
0.0
 11
-527.88317999999981
 21
603.25665000000004
 31
0.0
  0
LINE
  5
725
  8
0
  6
CONTINUOUS
 62
     7
 10
-440.67370999999991
 20
440.1626
 30
0.0
 11
-441.19726999999989
 21
440.14890000000003
 31
0.0
  0
LINE
  5
726
  8
0
  6
CONTINUOUS
 62
     7
 10
-440.67373999999978
 20
594.57061999999996
 30
0.0
 11
-441.19726999999989
 21
594.58429000000001
 31
0.0
  0
LINE
  5
727
  8
0
  6
CONTINUOUS
 62
     7
 10
-452.88314999999989
 20
606.58019999999965
 30
0.0
 11
-452.88314999999989
 21
622.02202999999997
 31
0.0
  0
LINE
  5
728
  8
0
  6
CONTINUOUS
 62
     7
 10
-387.88315
 20
512.36664000000007
 30
0.0
 11
-342.88315
 21
512.36664000000007
 31
0.0
  0
LINE
  5
729
  8
0
  6
CONTINUOUS
 62
     7
 10
-648.38317999999981
 20
563.36663999999996
 30
0.0
 11
-607.04040999999995
 21
563.36663999999996
 31
0.0
  0
LINE
  5
72A
  8
0
  6
CONTINUOUS
 62
     7
 10
-584.38317999999981
 20
448.07855000000001
 30
0.0
 11
-584.38317999999981
 21
586.65459999999985
 31
0.0
  0
LINE
  5
72B
  8
0
  6
CONTINUOUS
 62
     7
 10
-648.38317999999981
 20
460.86660999999992
 30
0.0
 11
-648.38317999999981
 21
573.86657999999966
 31
0.0
  0
LINE
  5
72C
  8
0
  6
CONTINUOUS
 62
     7
 10
-595.95177999999964
 20
459.03567999999962
 30
0.0
 11
-648.38311999999996
 21
460.86660999999992
 31
0.0
  0
LINE
  5
72D
  8
0
  6
CONTINUOUS
 62
     7
 10
-648.38311999999996
 20
573.86657999999966
 30
0.0
 11
-595.95177999999964
 21
575.69757000000004
 31
0.0
  0
LINE
  5
72E
  8
0
  6
CONTINUOUS
 62
     7
 10
-585.81011999999998
 20
450.79357999999991
 30
0.0
 11
-592.59075999999982
 21
457.57425000000001
 31
0.0
  0
LINE
  5
72F
  8
0
  6
CONTINUOUS
 62
     7
 10
-592.59082000000001
 20
577.15899999999965
 30
0.0
 11
-585.81011999999998
 21
583.93964000000005
 31
0.0
  0
LINE
  5
730
  8
0
  6
CONTINUOUS
 62
     7
 10
-625.38317999999981
 20
507.36660999999992
 30
0.0
 11
-625.38317999999981
 21
527.36657999999977
 31
0.0
  0
LINE
  5
731
  8
0
  6
CONTINUOUS
 62
     7
 10
-588.08043999999995
 20
506.59814
 30
0.0
 11
-588.08043999999995
 21
528.59862999999984
 31
0.0
  0
LINE
  5
732
  8
0
  6
CONTINUOUS
 62
     7
 10
-622.38317999999981
 20
504.36660999999998
 30
0.0
 11
-591.08043999999995
 21
504.36660999999998
 31
0.0
  0
LINE
  5
733
  8
0
  6
CONTINUOUS
 62
     7
 10
-622.38317999999981
 20
530.36658
 30
0.0
 11
-591.08043999999995
 21
530.36658
 31
0.0
  0
LINE
  5
734
  8
0
  6
CONTINUOUS
 62
     7
 10
-648.38317999999981
 20
471.36660999999998
 30
0.0
 11
-607.04040999999995
 21
471.36660999999998
 31
0.0
  0
LINE
  5
735
  8
0
  6
CONTINUOUS
 62
     3
 10
-756.65600999999981
 20
451.86660999999992
 30
0.0
 11
-676.65612999999985
 21
451.86660999999992
 31
0.0
  0
LINE
  5
736
  8
0
  6
CONTINUOUS
 62
     3
 10
-676.65612999999985
 20
451.86660999999992
 30
0.0
 11
-676.65612999999985
 21
444.86660999999992
 31
0.0
  0
LINE
  5
737
  8
0
  6
CONTINUOUS
 62
     3
 10
-678.15612999999985
 20
428.36660999999992
 30
0.0
 11
-678.15612999999985
 21
444.86660999999992
 31
0.0
  0
LINE
  5
738
  8
0
  6
CONTINUOUS
 62
     3
 10
-736.15612999999985
 20
440.86660999999992
 30
0.0
 11
-736.15612999999985
 21
448.36660999999992
 31
0.0
  0
LINE
  5
739
  8
0
  6
CONTINUOUS
 62
     3
 10
-751.15600999999958
 20
448.36660999999992
 30
0.0
 11
-751.15600999999958
 21
440.86660999999992
 31
0.0
  0
LINE
  5
73A
  8
0
  6
CONTINUOUS
 62
     3
 10
-755.15600999999958
 20
448.36660999999992
 30
0.0
 11
-755.15600999999958
 21
428.36660999999992
 31
0.0
  0
LINE
  5
73B
  8
0
  6
CONTINUOUS
 62
     3
 10
-725.95618000000002
 20
425.36660999999998
 30
0.0
 11
-690.35608000000002
 21
425.36660999999998
 31
0.0
  0
LINE
  5
73C
  8
0
  6
CONTINUOUS
 62
     3
 10
-755.15600999999958
 20
428.36660999999992
 30
0.0
 11
-678.15612999999985
 21
428.36660999999992
 31
0.0
  0
LINE
  5
73D
  8
0
  6
CONTINUOUS
 62
     3
 10
-755.15600999999958
 20
444.86660999999992
 30
0.0
 11
-751.15600999999958
 21
444.86660999999992
 31
0.0
  0
LINE
  5
73E
  8
0
  6
CONTINUOUS
 62
     3
 10
-685.15607
 20
428.36655000000002
 30
0.0
 11
-690.35613999999998
 21
425.36651999999992
 31
0.0
  0
LINE
  5
73F
  8
0
  6
CONTINUOUS
 62
     3
 10
-725.95612000000006
 20
425.36664000000002
 30
0.0
 11
-731.15607
 21
428.36660999999992
 31
0.0
  0
LINE
  5
740
  8
0
  6
CONTINUOUS
 62
     3
 10
-758.65600999999981
 20
448.36660999999992
 30
0.0
 11
-758.65600999999981
 21
433.36757999999992
 31
0.0
  0
LINE
  5
741
  8
0
  6
CONTINUOUS
 62
     3
 10
-755.15600999999958
 20
433.36757999999992
 30
0.0
 11
-758.65600999999981
 21
433.36757999999992
 31
0.0
  0
LINE
  5
742
  8
0
  6
CONTINUOUS
 62
     3
 10
-739.65612999999985
 20
448.36660999999992
 30
0.0
 11
-739.65612999999985
 21
440.86660999999992
 31
0.0
  0
LINE
  5
743
  8
0
  6
CONTINUOUS
 62
     3
 10
-747.65600999999981
 20
448.36660999999992
 30
0.0
 11
-747.65600999999981
 21
440.86660999999992
 31
0.0
  0
LINE
  5
744
  8
0
  6
CONTINUOUS
 62
     3
 10
-736.15612999999985
 20
444.86660999999992
 30
0.0
 11
-676.65612999999985
 21
444.86660999999992
 31
0.0
  0
LINE
  5
745
  8
0
  6
CONTINUOUS
 62
     3
 10
-758.65600999999981
 20
448.36660999999992
 30
0.0
 11
-676.65612999999985
 21
448.36660999999992
 31
0.0
  0
LINE
  5
746
  8
0
  6
CONTINUOUS
 62
     3
 10
-756.65600999999981
 20
451.86660999999992
 30
0.0
 11
-756.65600999999981
 21
448.36660999999992
 31
0.0
  0
LINE
  5
747
  8
0
  6
CONTINUOUS
 62
     7
 10
-677.88317999999981
 20
452.86660999999992
 30
0.0
 11
-677.88317999999981
 21
451.86660999999992
 31
0.0
  0
LINE
  5
748
  8
0
  6
CONTINUOUS
 62
     7
 10
-736.8831799999997
 20
452.86660999999992
 30
0.0
 11
-736.8831799999997
 21
451.86660999999992
 31
0.0
  0
LINE
  5
749
  8
0
  6
CONTINUOUS
 62
     7
 10
-658.17737
 20
562.29547000000002
 30
0.0
 11
-662.32312000000002
 21
577.77661000000001
 31
0.0
  0
LINE
  5
74A
  8
0
  6
CONTINUOUS
 62
     7
 10
-658.17742999999984
 20
561.38549999999998
 30
0.0
 11
-662.32312000000002
 21
576.86657999999989
 31
0.0
  0
LINE
  5
74B
  8
0
  6
CONTINUOUS
 62
     7
 10
-658.17742999999984
 20
559.53552000000002
 30
0.0
 11
-662.32317999999998
 21
575.01666
 31
0.0
  0
LINE
  5
74C
  8
0
  6
CONTINUOUS
 62
     7
 10
-656.38317999999981
 20
573.36657999999977
 30
0.0
 11
-656.38317999999981
 21
461.36660999999992
 31
0.0
  0
LINE
  5
74D
  8
0
  6
CONTINUOUS
 62
     7
 10
-778.3831799999997
 20
565.38660000000004
 30
0.0
 11
-778.3831799999997
 21
522.36658
 31
0.0
  0
LINE
  5
74E
  8
0
  6
CONTINUOUS
 62
     7
 10
-776.11315999999988
 20
567.11657999999977
 30
0.0
 11
-773.88317999999981
 21
567.11657999999977
 31
0.0
  0
LINE
  5
74F
  8
0
  6
CONTINUOUS
 62
     7
 10
-776.18310999999983
 20
553.05651999999986
 30
0.0
 11
-774.08312999999987
 21
553.05651999999986
 31
0.0
  0
LINE
  5
750
  8
0
  6
CONTINUOUS
 62
     7
 10
-776.61303999999984
 20
566.98657000000003
 30
0.0
 11
-777.88306
 21
566.24657999999965
 31
0.0
  0
LINE
  5
751
  8
0
  6
CONTINUOUS
 62
     7
 10
-776.62316999999985
 20
564.86663999999985
 30
0.0
 11
-777.90319999999986
 21
564.09667999999999
 31
0.0
  0
LINE
  5
752
  8
0
  6
CONTINUOUS
 62
     7
 10
-776.6331799999997
 20
560.32665999999995
 30
0.0
 11
-777.93317000000002
 21
559.47667999999999
 31
0.0
  0
LINE
  5
753
  8
0
  6
CONTINUOUS
 62
     7
 10
-776.57312000000002
 20
552.97662000000003
 30
0.0
 11
-777.77306999999985
 21
552.46660999999995
 31
0.0
  0
LINE
  5
754
  8
0
  6
CONTINUOUS
 62
     7
 10
-776.10315000000003
 20
565.00658999999985
 30
0.0
 11
-773.38317999999981
 21
565.00658999999985
 31
0.0
  0
LINE
  5
755
  8
0
  6
CONTINUOUS
 62
     7
 10
-776.08312999999998
 20
560.49657999999999
 30
0.0
 11
-773.38317999999981
 21
560.49657999999999
 31
0.0
  0
LINE
  5
756
  8
0
  6
CONTINUOUS
 62
     7
 10
-776.23315000000002
 20
551.10657000000003
 30
0.0
 11
-774.3831799999997
 21
551.10657000000003
 31
0.0
  0
LINE
  5
757
  8
0
  6
CONTINUOUS
 62
     7
 10
-776.11315999999988
 20
559.35657000000003
 30
0.0
 11
-774.3831799999997
 21
559.35657000000003
 31
0.0
  0
LINE
  5
758
  8
0
  6
CONTINUOUS
 62
     7
 10
-776.13317999999981
 20
563.86658
 30
0.0
 11
-774.3831799999997
 21
563.86658
 31
0.0
  0
LINE
  5
759
  8
0
  6
CONTINUOUS
 62
     7
 10
-776.14306999999985
 20
565.96654999999998
 30
0.0
 11
-773.88317999999981
 21
565.96654999999998
 31
0.0
  0
LINE
  5
75A
  8
0
  6
CONTINUOUS
 62
     7
 10
-776.61315999999999
 20
559.21666999999991
 30
0.0
 11
-777.89312999999981
 21
558.46667000000002
 31
0.0
  0
LINE
  5
75B
  8
0
  6
CONTINUOUS
 62
     7
 10
-776.52313000000004
 20
551.06664999999998
 30
0.0
 11
-777.67315999999983
 21
550.71660999999995
 31
0.0
  0
LINE
  5
75C
  8
0
  6
CONTINUOUS
 62
     7
 10
-776.59313999999983
 20
565.86663999999985
 30
0.0
 11
-777.83312999999964
 21
565.23662999999965
 31
0.0
  0
LINE
  5
75D
  8
0
  6
CONTINUOUS
 62
     7
 10
-776.60315000000003
 20
563.75665000000004
 30
0.0
 11
-777.85315000000003
 21
563.08660999999995
 31
0.0
  0
LINE
  5
75E
  8
0
  6
CONTINUOUS
 62
     7
 10
-774.3831799999997
 20
543.36657999999989
 30
0.0
 11
-777.38317999999981
 21
543.36657999999989
 31
0.0
  0
LINE
  5
75F
  8
0
  6
CONTINUOUS
 62
     7
 10
-774.3831799999997
 20
541.36658
 30
0.0
 11
-777.38317999999981
 21
541.36658
 31
0.0
  0
LINE
  5
760
  8
0
  6
CONTINUOUS
 62
     7
 10
-774.3831799999997
 20
533.36658
 30
0.0
 11
-777.38317999999981
 21
533.36658
 31
0.0
  0
LINE
  5
761
  8
0
  6
CONTINUOUS
 62
     7
 10
-774.3831799999997
 20
531.36657999999977
 30
0.0
 11
-777.38317999999981
 21
531.36657999999977
 31
0.0
  0
LINE
  5
762
  8
0
  6
CONTINUOUS
 62
     7
 10
-774.3831799999997
 20
523.36657999999977
 30
0.0
 11
-777.38317999999981
 21
523.36657999999977
 31
0.0
  0
LINE
  5
763
  8
0
  6
CONTINUOUS
 62
     7
 10
-774.3831799999997
 20
521.36658
 30
0.0
 11
-777.38317999999981
 21
521.36658
 31
0.0
  0
LINE
  5
764
  8
0
  6
CONTINUOUS
 62
     7
 10
-776.38317999999981
 20
532.97655999999995
 30
0.0
 11
-776.38317999999981
 21
531.76660000000004
 31
0.0
  0
LINE
  5
765
  8
0
  6
CONTINUOUS
 62
     7
 10
-776.38317999999981
 20
522.97655999999995
 30
0.0
 11
-776.38317999999981
 21
521.81652999999994
 31
0.0
  0
LINE
  5
766
  8
0
  6
CONTINUOUS
 62
     7
 10
-776.38317999999981
 20
542.99657999999965
 30
0.0
 11
-776.38317999999981
 21
541.62658999999985
 31
0.0
  0
LINE
  5
767
  8
0
  6
CONTINUOUS
 62
     7
 10
-776.38317999999981
 20
552.75658999999985
 30
0.0
 11
-776.38317999999981
 21
551.69653000000005
 31
0.0
  0
LINE
  5
768
  8
0
  6
CONTINUOUS
 62
     7
 10
-776.38317999999981
 20
560.19653000000005
 30
0.0
 11
-776.38317999999981
 21
559.72655999999995
 31
0.0
  0
LINE
  5
769
  8
0
  6
CONTINUOUS
 62
     7
 10
-776.38317999999981
 20
564.76660000000004
 30
0.0
 11
-776.38317999999981
 21
564.21654999999987
 31
0.0
  0
LINE
  5
76A
  8
0
  6
CONTINUOUS
 62
     7
 10
-776.38317999999981
 20
566.86658
 30
0.0
 11
-776.38317999999981
 21
566.33654999999999
 31
0.0
  0
LINE
  5
76B
  8
0
  6
CONTINUOUS
 62
     7
 10
-779.88317999999981
 20
537.36658
 30
0.0
 11
-779.88317999999981
 21
517.36658
 31
0.0
  0
LINE
  5
76C
  8
0
  6
CONTINUOUS
 62
     7
 10
-779.88311999999985
 20
537.36658
 30
0.0
 11
-778.38311999999985
 21
537.49657999999999
 31
0.0
  0
LINE
  5
76D
  8
0
  6
CONTINUOUS
 62
     7
 10
-779.88317999999981
 20
532.51660000000004
 30
0.0
 11
-778.3831799999997
 21
532.51660000000004
 31
0.0
  0
LINE
  5
76E
  8
0
  6
CONTINUOUS
 62
     7
 10
-779.88317999999981
 20
534.64660999999978
 30
0.0
 11
-778.3831799999997
 21
534.64660999999978
 31
0.0
  0
LINE
  5
76F
  8
0
  6
CONTINUOUS
 62
     7
 10
-663.04309000000001
 20
553.36658
 30
0.0
 11
-762.02306999999985
 21
553.36658
 31
0.0
  0
LINE
  5
770
  8
0
  6
CONTINUOUS
 62
     7
 10
-663.04309000000001
 20
551.36658
 30
0.0
 11
-762.02306999999985
 21
551.36658
 31
0.0
  0
LINE
  5
771
  8
0
  6
CONTINUOUS
 62
     7
 10
-695.3831799999997
 20
543.36657999999989
 30
0.0
 11
-762.02306999999985
 21
543.36657999999989
 31
0.0
  0
LINE
  5
772
  8
0
  6
CONTINUOUS
 62
     7
 10
-663.05029000000002
 20
541.36658
 30
0.0
 11
-762.02306999999985
 21
541.36658
 31
0.0
  0
LINE
  5
773
  8
0
  6
CONTINUOUS
 62
     7
 10
-727.94445999999971
 20
533.36658
 30
0.0
 11
-762.02306999999985
 21
533.36658
 31
0.0
  0
LINE
  5
774
  8
0
  6
CONTINUOUS
 62
     7
 10
-727.94445999999971
 20
531.36657999999977
 30
0.0
 11
-762.02306999999985
 21
531.36657999999977
 31
0.0
  0
LINE
  5
775
  8
0
  6
CONTINUOUS
 62
     7
 10
-727.94445999999971
 20
523.36657999999977
 30
0.0
 11
-762.02306999999985
 21
523.36657999999977
 31
0.0
  0
LINE
  5
776
  8
0
  6
CONTINUOUS
 62
     7
 10
-727.94445999999971
 20
521.36658
 30
0.0
 11
-762.02306999999985
 21
521.36658
 31
0.0
  0
LINE
  5
777
  8
0
  6
CONTINUOUS
 62
     7
 10
-762.70312999999965
 20
554.08654999999976
 30
0.0
 11
-659.56311000000017
 21
554.08654999999976
 31
0.0
  0
LINE
  5
778
  8
0
  6
CONTINUOUS
 62
     7
 10
-762.70312999999965
 20
550.73657000000003
 30
0.0
 11
-695.36315999999999
 21
550.73657000000003
 31
0.0
  0
LINE
  5
779
  8
0
  6
CONTINUOUS
 62
     7
 10
-762.92309999999975
 20
543.85657000000003
 30
0.0
 11
-695.3831799999997
 21
543.85657000000003
 31
0.0
  0
LINE
  5
77A
  8
0
  6
CONTINUOUS
 62
     7
 10
-762.92309999999975
 20
540.92663999999991
 30
0.0
 11
-659.34888000000001
 21
540.92663999999991
 31
0.0
  0
LINE
  5
77B
  8
0
  6
CONTINUOUS
 62
     7
 10
-763.05309999999974
 20
533.70654000000002
 30
0.0
 11
-726.72437000000002
 21
533.70654000000002
 31
0.0
  0
LINE
  5
77C
  8
0
  6
CONTINUOUS
 62
     7
 10
-763.05309999999974
 20
531.04663000000005
 30
0.0
 11
-726.72437000000002
 21
531.04663000000005
 31
0.0
  0
LINE
  5
77D
  8
0
  6
CONTINUOUS
 62
     7
 10
-763.11315999999988
 20
523.63660000000004
 30
0.0
 11
-726.66442999999981
 21
523.63660000000004
 31
0.0
  0
LINE
  5
77E
  8
0
  6
CONTINUOUS
 62
     7
 10
-763.11315999999988
 20
521.10657000000003
 30
0.0
 11
-726.66442999999981
 21
521.10657000000003
 31
0.0
  0
LINE
  5
77F
  8
0
  6
CONTINUOUS
 62
     7
 10
-763.11315999999988
 20
513.63660000000004
 30
0.0
 11
-726.66442999999981
 21
513.63660000000004
 31
0.0
  0
LINE
  5
780
  8
0
  6
CONTINUOUS
 62
     7
 10
-727.94445999999971
 20
513.36658
 30
0.0
 11
-762.02306999999985
 21
513.36658
 31
0.0
  0
LINE
  5
781
  8
0
  6
CONTINUOUS
 62
     7
 10
-727.94445999999971
 20
511.36660999999992
 30
0.0
 11
-762.02306999999985
 21
511.36660999999992
 31
0.0
  0
LINE
  5
782
  8
0
  6
CONTINUOUS
 62
     7
 10
-763.11315999999988
 20
511.09658999999999
 30
0.0
 11
-726.66442999999981
 21
511.09658999999999
 31
0.0
  0
LINE
  5
783
  8
0
  6
CONTINUOUS
 62
     7
 10
-763.05309999999974
 20
503.68655000000001
 30
0.0
 11
-726.72437000000002
 21
503.68655000000001
 31
0.0
  0
LINE
  5
784
  8
0
  6
CONTINUOUS
 62
     7
 10
-727.94445999999971
 20
503.36660999999992
 30
0.0
 11
-762.02306999999985
 21
503.36660999999992
 31
0.0
  0
LINE
  5
785
  8
0
  6
CONTINUOUS
 62
     7
 10
-727.94445999999971
 20
501.36660999999998
 30
0.0
 11
-762.02306999999985
 21
501.36660999999998
 31
0.0
  0
LINE
  5
786
  8
0
  6
CONTINUOUS
 62
     7
 10
-763.05309999999974
 20
501.02663999999987
 30
0.0
 11
-726.71190999999999
 21
501.02663999999987
 31
0.0
  0
LINE
  5
787
  8
0
  6
CONTINUOUS
 62
     7
 10
-663.05029000000002
 20
493.36660999999992
 30
0.0
 11
-762.02306999999985
 21
493.36660999999992
 31
0.0
  0
LINE
  5
788
  8
0
  6
CONTINUOUS
 62
     7
 10
-762.92309999999975
 20
493.80655000000002
 30
0.0
 11
-659.34888000000001
 21
493.80655000000002
 31
0.0
  0
LINE
  5
789
  8
0
  6
CONTINUOUS
 62
     7
 10
-695.3831799999997
 20
491.36660999999992
 30
0.0
 11
-762.02306999999985
 21
491.36660999999992
 31
0.0
  0
LINE
  5
78A
  8
0
  6
CONTINUOUS
 62
     7
 10
-762.92309999999975
 20
490.87662
 30
0.0
 11
-695.3831799999997
 21
490.87662
 31
0.0
  0
LINE
  5
78B
  8
0
  6
CONTINUOUS
 62
     7
 10
-663.04309000000001
 20
483.36660999999998
 30
0.0
 11
-707.38317999999981
 21
483.36660999999998
 31
0.0
  0
LINE
  5
78C
  8
0
  6
CONTINUOUS
 62
     7
 10
-663.04309000000001
 20
481.36660999999981
 30
0.0
 11
-707.38317999999981
 21
481.36660999999981
 31
0.0
  0
LINE
  5
78D
  8
0
  6
CONTINUOUS
 62
     7
 10
-762.70312999999965
 20
480.64663999999988
 30
0.0
 11
-707.38317999999981
 21
480.64663999999988
 31
0.0
  0
LINE
  5
78E
  8
0
  6
CONTINUOUS
 62
     7
 10
-659.56311000000017
 20
483.99660999999981
 30
0.0
 11
-677.40307999999982
 21
483.99660999999981
 31
0.0
  0
LINE
  5
78F
  8
0
  6
CONTINUOUS
 62
     7
 10
-776.18310999999983
 20
481.67667
 30
0.0
 11
-774.08312999999987
 21
481.67667
 31
0.0
  0
LINE
  5
790
  8
0
  6
CONTINUOUS
 62
     7
 10
-776.57305999999983
 20
481.75661999999988
 30
0.0
 11
-777.77313000000004
 21
482.27663999999987
 31
0.0
  0
LINE
  5
791
  8
0
  6
CONTINUOUS
 62
     7
 10
-776.23315000000002
 20
483.62661999999989
 30
0.0
 11
-774.3831799999997
 21
483.62661999999989
 31
0.0
  0
LINE
  5
792
  8
0
  6
CONTINUOUS
 62
     7
 10
-776.52313000000004
 20
483.66660000000002
 30
0.0
 11
-777.67309999999975
 21
484.02658000000002
 31
0.0
  0
LINE
  5
793
  8
0
  6
CONTINUOUS
 62
     7
 10
-774.3831799999997
 20
491.36660999999992
 30
0.0
 11
-777.38317999999981
 21
491.36660999999992
 31
0.0
  0
LINE
  5
794
  8
0
  6
CONTINUOUS
 62
     7
 10
-774.3831799999997
 20
493.36660999999992
 30
0.0
 11
-777.38317999999981
 21
493.36660999999992
 31
0.0
  0
LINE
  5
795
  8
0
  6
CONTINUOUS
 62
     7
 10
-774.3831799999997
 20
501.36660999999998
 30
0.0
 11
-777.38317999999981
 21
501.36660999999998
 31
0.0
  0
LINE
  5
796
  8
0
  6
CONTINUOUS
 62
     7
 10
-774.3831799999997
 20
503.36660999999992
 30
0.0
 11
-777.38317999999981
 21
503.36660999999992
 31
0.0
  0
LINE
  5
797
  8
0
  6
CONTINUOUS
 62
     7
 10
-774.3831799999997
 20
511.36660999999992
 30
0.0
 11
-777.38317999999981
 21
511.36660999999992
 31
0.0
  0
LINE
  5
798
  8
0
  6
CONTINUOUS
 62
     7
 10
-774.3831799999997
 20
513.36658
 30
0.0
 11
-777.38317999999981
 21
513.36658
 31
0.0
  0
LINE
  5
799
  8
0
  6
CONTINUOUS
 62
     7
 10
-776.38317999999981
 20
501.75662
 30
0.0
 11
-776.38317999999981
 21
502.97658999999999
 31
0.0
  0
LINE
  5
79A
  8
0
  6
CONTINUOUS
 62
     7
 10
-776.38317999999981
 20
511.75661999999988
 30
0.0
 11
-776.38317999999981
 21
512.91663000000005
 31
0.0
  0
LINE
  5
79B
  8
0
  6
CONTINUOUS
 62
     7
 10
-776.38317999999981
 20
491.73660000000001
 30
0.0
 11
-776.38317999999981
 21
493.10660000000001
 31
0.0
  0
LINE
  5
79C
  8
0
  6
CONTINUOUS
 62
     7
 10
-776.38317999999981
 20
481.97658999999999
 30
0.0
 11
-776.38317999999981
 21
483.03665000000001
 31
0.0
  0
LINE
  5
79D
  8
0
  6
CONTINUOUS
 62
     7
 10
-779.88317999999981
 20
497.36660999999992
 30
0.0
 11
-779.88317999999981
 21
517.36658
 31
0.0
  0
LINE
  5
79E
  8
0
  6
CONTINUOUS
 62
     7
 10
-779.88311999999985
 20
497.36655000000002
 30
0.0
 11
-778.38311999999985
 21
497.23653999999999
 31
0.0
  0
LINE
  5
79F
  8
0
  6
CONTINUOUS
 62
     7
 10
-779.88317999999981
 20
502.21657999999979
 30
0.0
 11
-778.3831799999997
 21
502.21657999999979
 31
0.0
  0
LINE
  5
7A0
  8
0
  6
CONTINUOUS
 62
     7
 10
-779.88317999999981
 20
500.0865799999998
 30
0.0
 11
-778.3831799999997
 21
500.0865799999998
 31
0.0
  0
LINE
  5
7A1
  8
0
  6
CONTINUOUS
 62
     7
 10
-762.70312999999965
 20
483.99660999999981
 30
0.0
 11
-695.36315999999999
 21
483.99660999999981
 31
0.0
  0
LINE
  5
7A2
  8
0
  6
CONTINUOUS
 62
     7
 10
-707.38317999999981
 20
483.36660999999998
 30
0.0
 11
-762.02306999999985
 21
483.36660999999998
 31
0.0
  0
LINE
  5
7A3
  8
0
  6
CONTINUOUS
 62
     7
 10
-707.38317999999981
 20
481.36660999999981
 30
0.0
 11
-762.02306999999985
 21
481.36660999999981
 31
0.0
  0
LINE
  5
7A4
  8
0
  6
CONTINUOUS
 62
     7
 10
-707.38317999999981
 20
480.64663999999988
 30
0.0
 11
-659.56311000000017
 21
480.64663999999988
 31
0.0
  0
LINE
  5
7A5
  8
0
  6
CONTINUOUS
 62
     7
 10
-772.38317999999981
 20
570.36658
 30
0.0
 11
-772.38317999999981
 21
464.36660999999992
 31
0.0
  0
LINE
  5
7A6
  8
0
  6
CONTINUOUS
 62
     7
 10
-764.38317999999981
 20
570.36658
 30
0.0
 11
-764.38317999999981
 21
464.36660999999992
 31
0.0
  0
LINE
  5
7A7
  8
0
  6
CONTINUOUS
 62
     7
 10
-777.89318999999989
 20
476.26659999999998
 30
0.0
 11
-777.91314999999986
 21
476.27657999999991
 31
0.0
  0
LINE
  5
7A8
  8
0
  6
CONTINUOUS
 62
     7
 10
-773.38317999999981
 20
567.36658
 30
0.0
 11
-773.38317999999981
 21
467.36660999999998
 31
0.0
  0
LINE
  5
7A9
  8
0
  6
CONTINUOUS
 62
     7
 10
-773.38317999999981
 20
567.36658
 30
0.0
 11
-772.38317999999981
 21
567.36658
 31
0.0
  0
LINE
  5
7AA
  8
0
  6
CONTINUOUS
 62
     7
 10
-772.38317999999981
 20
570.36658
 30
0.0
 11
-764.38317999999981
 21
570.36658
 31
0.0
  0
LINE
  5
7AB
  8
0
  6
CONTINUOUS
 62
     7
 10
-771.68310999999983
 20
560.55651999999998
 30
0.0
 11
-765.45312999999999
 21
560.55651999999998
 31
0.0
  0
LINE
  5
7AC
  8
0
  6
CONTINUOUS
 62
     7
 10
-656.38317999999981
 20
563.36658
 30
0.0
 11
-648.38317999999981
 21
563.36658
 31
0.0
  0
LINE
  5
7AD
  8
0
  6
CONTINUOUS
 62
     7
 10
-656.38317999999981
 20
549.30651999999998
 30
0.0
 11
-612.29076999999995
 21
549.30651999999998
 31
0.0
  0
LINE
  5
7AE
  8
0
  6
CENTER
 62
     7
 10
-658.30309999999997
 20
558.73657000000003
 30
0.0
 11
-646.50316999999995
 21
558.73657000000003
 31
0.0
  0
LINE
  5
7AF
  8
0
  6
CONTINUOUS
 62
     7
 10
-656.38317999999981
 20
573.36657999999977
 30
0.0
 11
-648.38317999999981
 21
573.36657999999977
 31
0.0
  0
LINE
  5
7B0
  8
0
  6
CONTINUOUS
 62
     7
 10
-761.17309999999975
 20
573.64661000000001
 30
0.0
 11
-664.25317000000007
 21
573.64661000000001
 31
0.0
  0
LINE
  5
7B1
  8
0
  6
CONTINUOUS
 62
     7
 10
-764.38306
 20
565.46666999999979
 30
0.0
 11
-763.14306999999985
 21
572.02660999999989
 31
0.0
  0
LINE
  5
7B2
  8
0
  6
CONTINUOUS
 62
     7
 10
-759.02313000000004
 20
554.01654000000008
 30
0.0
 11
-764.38311999999985
 21
565.46654999999998
 31
0.0
  0
LINE
  5
7B3
  8
0
  6
CONTINUOUS
 62
     7
 10
-759.02319
 20
480.71657999999991
 30
0.0
 11
-764.38311999999985
 21
469.27666999999991
 31
0.0
  0
LINE
  5
7B4
  8
0
  6
CONTINUOUS
 62
     7
 10
-761.13317999999981
 20
576.49657999999965
 30
0.0
 11
-664.25317000000007
 21
576.49657999999965
 31
0.0
  0
LINE
  5
7B5
  8
0
  6
CONTINUOUS
 62
     7
 10
-761.11315999999999
 20
578.34655999999995
 30
0.0
 11
-664.25317000000007
 21
578.34655999999995
 31
0.0
  0
LINE
  5
7B6
  8
0
  6
CONTINUOUS
 62
     7
 10
-761.09313999999983
 20
579.25658999999985
 30
0.0
 11
-664.25305000000003
 21
579.25658999999985
 31
0.0
  0
LINE
  5
7B7
  8
0
  6
CONTINUOUS
 62
     7
 10
-764.38311999999985
 20
566.80663999999979
 30
0.0
 11
-763.10315000000003
 21
574.81659000000002
 31
0.0
  0
LINE
  5
7B8
  8
0
  6
CONTINUOUS
 62
     7
 10
-764.38311999999985
 20
568.15661999999975
 30
0.0
 11
-763.09313999999983
 21
576.64666999999963
 31
0.0
  0
LINE
  5
7B9
  8
0
  6
CONTINUOUS
 62
     7
 10
-764.38311999999985
 20
568.15661999999975
 30
0.0
 11
-763.07312000000002
 21
577.53661999999963
 31
0.0
  0
LINE
  5
7BA
  8
0
  6
CONTINUOUS
 62
     7
 10
-658.18311000000017
 20
556.70659999999987
 30
0.0
 11
-662.32312000000002
 21
572.16663000000005
 31
0.0
  0
LINE
  5
7BB
  8
0
  6
CONTINUOUS
 62
     7
 10
-661.84313999999995
 20
570.36658
 30
0.0
 11
-656.38317999999981
 21
570.36658
 31
0.0
  0
LINE
  5
7BC
  8
0
  6
CONTINUOUS
 62
     7
 10
-778.3831799999997
 20
469.34658999999988
 30
0.0
 11
-778.3831799999997
 21
512.36658
 31
0.0
  0
LINE
  5
7BD
  8
0
  6
CONTINUOUS
 62
     7
 10
-776.11315999999988
 20
467.61660999999992
 30
0.0
 11
-773.88317999999981
 21
467.61660999999992
 31
0.0
  0
LINE
  5
7BE
  8
0
  6
CONTINUOUS
 62
     7
 10
-776.61310000000003
 20
467.75655999999998
 30
0.0
 11
-777.88306
 21
468.48653999999988
 31
0.0
  0
LINE
  5
7BF
  8
0
  6
CONTINUOUS
 62
     7
 10
-776.62310999999988
 20
469.86657999999989
 30
0.0
 11
-777.90314000000001
 21
470.63659999999999
 31
0.0
  0
LINE
  5
7C0
  8
0
  6
CONTINUOUS
 62
     7
 10
-776.6331799999997
 20
474.40655999999979
 30
0.0
 11
-777.93317000000002
 21
475.25652999999988
 31
0.0
  0
LINE
  5
7C1
  8
0
  6
CONTINUOUS
 62
     7
 10
-776.10315000000003
 20
469.72658999999987
 30
0.0
 11
-773.38317999999981
 21
469.72658999999987
 31
0.0
  0
LINE
  5
7C2
  8
0
  6
CONTINUOUS
 62
     7
 10
-776.08312999999998
 20
474.24660999999992
 30
0.0
 11
-773.38317999999981
 21
474.24660999999992
 31
0.0
  0
LINE
  5
7C3
  8
0
  6
CONTINUOUS
 62
     7
 10
-776.11315999999988
 20
475.38662999999991
 30
0.0
 11
-774.3831799999997
 21
475.38662999999991
 31
0.0
  0
LINE
  5
7C4
  8
0
  6
CONTINUOUS
 62
     7
 10
-776.13317999999981
 20
470.86660999999998
 30
0.0
 11
-774.3831799999997
 21
470.86660999999998
 31
0.0
  0
LINE
  5
7C5
  8
0
  6
CONTINUOUS
 62
     7
 10
-776.14306999999985
 20
468.76663000000002
 30
0.0
 11
-773.88317999999981
 21
468.76663000000002
 31
0.0
  0
LINE
  5
7C6
  8
0
  6
CONTINUOUS
 62
     7
 10
-776.61310000000003
 20
475.51659999999998
 30
0.0
 11
-777.89306999999985
 21
476.26659999999998
 31
0.0
  0
LINE
  5
7C7
  8
0
  6
CONTINUOUS
 62
     7
 10
-776.59313999999983
 20
468.87655999999993
 30
0.0
 11
-777.83312999999964
 21
469.50655999999992
 31
0.0
  0
LINE
  5
7C8
  8
0
  6
CONTINUOUS
 62
     7
 10
-776.60308999999984
 20
470.98653999999988
 30
0.0
 11
-777.85315000000003
 21
471.64654999999988
 31
0.0
  0
LINE
  5
7C9
  8
0
  6
CONTINUOUS
 62
     7
 10
-776.38317999999981
 20
474.53665000000001
 30
0.0
 11
-776.38317999999981
 21
475.00662
 31
0.0
  0
LINE
  5
7CA
  8
0
  6
CONTINUOUS
 62
     7
 10
-776.38317999999981
 20
469.96658000000002
 30
0.0
 11
-776.38317999999981
 21
470.51663000000002
 31
0.0
  0
LINE
  5
7CB
  8
0
  6
CONTINUOUS
 62
     7
 10
-776.38317999999981
 20
467.86660999999998
 30
0.0
 11
-776.38317999999981
 21
468.39663999999999
 31
0.0
  0
LINE
  5
7CC
  8
0
  6
CONTINUOUS
 62
     7
 10
-773.38317999999981
 20
467.36660999999998
 30
0.0
 11
-772.38317999999981
 21
467.36660999999998
 31
0.0
  0
LINE
  5
7CD
  8
0
  6
CONTINUOUS
 62
     7
 10
-772.38317999999981
 20
464.36660999999992
 30
0.0
 11
-764.38317999999981
 21
464.36660999999992
 31
0.0
  0
LINE
  5
7CE
  8
0
  6
CONTINUOUS
 62
     7
 10
-771.68310999999983
 20
474.17667
 30
0.0
 11
-765.45312999999999
 21
474.17667
 31
0.0
  0
LINE
  5
7CF
  8
0
  6
CONTINUOUS
 62
     7
 10
-656.38317999999981
 20
471.36660999999998
 30
0.0
 11
-648.38317999999981
 21
471.36660999999998
 31
0.0
  0
LINE
  5
7D0
  8
0
  6
CENTER
 62
     7
 10
-658.30309999999997
 20
476.00661999999988
 30
0.0
 11
-646.50316999999995
 21
476.00661999999988
 31
0.0
  0
LINE
  5
7D1
  8
0
  6
CONTINUOUS
 62
     7
 10
-656.38317999999981
 20
461.36660999999992
 30
0.0
 11
-648.38317999999981
 21
461.36660999999992
 31
0.0
  0
LINE
  5
7D2
  8
0
  6
CONTINUOUS
 62
     7
 10
-761.17309999999975
 20
461.08658000000003
 30
0.0
 11
-664.25317000000007
 21
461.08658000000003
 31
0.0
  0
LINE
  5
7D3
  8
0
  6
CONTINUOUS
 62
     7
 10
-764.38311999999985
 20
469.27654999999999
 30
0.0
 11
-763.14306999999985
 21
462.71654999999998
 31
0.0
  0
LINE
  5
7D4
  8
0
  6
CONTINUOUS
 62
     7
 10
-761.47692999999981
 20
458.23660000000001
 30
0.0
 11
-738.98499000000004
 21
458.23660000000001
 31
0.0
  0
LINE
  5
7D5
  8
0
  6
CONTINUOUS
 62
     7
 10
-764.38317999999981
 20
467.92657000000003
 30
0.0
 11
-763.10315000000003
 21
459.92667
 31
0.0
  0
LINE
  5
7D6
  8
0
  6
CONTINUOUS
 62
     7
 10
-764.38311999999985
 20
466.58663999999987
 30
0.0
 11
-763.37390000000005
 21
459.93645999999961
 31
0.0
  0
LINE
  5
7D7
  8
0
  6
CONTINUOUS
 62
     7
 10
-764.38311999999985
 20
466.58663999999987
 30
0.0
 11
-763.45763999999986
 21
459.96005000000002
 31
0.0
  0
LINE
  5
7D8
  8
0
  6
CONTINUOUS
 62
     7
 10
-658.17737
 20
478.04775999999998
 30
0.0
 11
-662.32312000000002
 21
462.56662
 31
0.0
  0
LINE
  5
7D9
  8
0
  6
CONTINUOUS
 62
     7
 10
-661.84105999999986
 20
464.36660999999992
 30
0.0
 11
-656.38317999999981
 21
464.36660999999992
 31
0.0
  0
LINE
  5
7DA
  8
0
  6
CONTINUOUS
 62
     7
 10
-656.38317999999981
 20
485.42667
 30
0.0
 11
-612.29076999999995
 21
485.42667
 31
0.0
  0
LINE
  5
7DB
  8
0
  6
CONTINUOUS
 62
     3
 10
-737.38311999999985
 20
452.86657999999989
 30
0.0
 11
-737.59833000000003
 21
461.08663999999987
 31
0.0
  0
LINE
  5
7DC
  8
0
  6
CONTINUOUS
 62
     3
 10
-677.38311999999996
 20
452.86660999999992
 30
0.0
 11
-677.16791000000001
 21
461.08667000000003
 31
0.0
  0
LINE
  5
7DD
  8
0
  6
CONTINUOUS
 62
     3
 10
-657.38311999999985
 20
464.36660999999992
 30
0.0
 11
-663.10888999999986
 21
455.54970999999989
 31
0.0
  0
LINE
  5
7DE
  8
0
  6
CONTINUOUS
 62
     7
 10
-677.38317999999981
 20
452.86660999999992
 30
0.0
 11
-737.38317999999958
 21
452.86660999999992
 31
0.0
  0
LINE
  5
7DF
  8
0
  6
CONTINUOUS
 62
     7
 10
-675.86950999999965
 20
454.86660999999998
 30
0.0
 11
-664.36694
 21
454.86660999999998
 31
0.0
  0
LINE
  5
7E0
  8
0
  6
CONTINUOUS
 62
     7
 10
-678.40307999999982
 20
544.86657999999966
 30
0.0
 11
-678.40307999999982
 21
549.72655999999995
 31
0.0
  0
LINE
  5
7E1
  8
0
  6
CONTINUOUS
 62
     7
 10
-694.36315999999965
 20
544.86657999999966
 30
0.0
 11
-694.36315999999965
 21
549.72655999999995
 31
0.0
  0
LINE
  5
7E2
  8
0
  6
CONTINUOUS
 62
     7
 10
-678.8831799999997
 20
544.86657999999966
 30
0.0
 11
-678.8831799999997
 21
549.86658
 31
0.0
  0
LINE
  5
7E3
  8
0
  6
CONTINUOUS
 62
     7
 10
-693.88317999999981
 20
544.86657999999966
 30
0.0
 11
-693.88317999999981
 21
549.86658
 31
0.0
  0
LINE
  5
7E4
  8
0
  6
CONTINUOUS
 62
     7
 10
-722.38317999999981
 20
530.36658
 30
0.0
 11
-659.38317999999981
 21
530.36658
 31
0.0
  0
LINE
  5
7E5
  8
0
  6
CONTINUOUS
 62
     7
 10
-722.38317999999981
 20
496.86660999999998
 30
0.0
 11
-659.38317999999981
 21
496.86660999999998
 31
0.0
  0
LINE
  5
7E6
  8
0
  6
CONTINUOUS
 62
     7
 10
-722.38317999999981
 20
537.86658
 30
0.0
 11
-659.38317999999981
 21
537.86658
 31
0.0
  0
LINE
  5
7E7
  8
0
  6
CONTINUOUS
 62
     3
 10
-659.38317999999981
 20
537.86658
 30
0.0
 11
-659.38317999999981
 21
496.86660999999998
 31
0.0
  0
LINE
  5
7E8
  8
0
  6
CONTINUOUS
 62
     3
 10
-722.38317999999981
 20
537.86658
 30
0.0
 11
-722.38317999999981
 21
496.86660999999998
 31
0.0
  0
LINE
  5
7E9
  8
0
  6
CONTINUOUS
 62
     7
 10
-677.38317999999981
 20
543.85657000000003
 30
0.0
 11
-659.33739999999977
 21
543.85657000000003
 31
0.0
  0
LINE
  5
7EA
  8
0
  6
CONTINUOUS
 62
     7
 10
-677.38317999999981
 20
490.8866299999998
 30
0.0
 11
-659.34888000000001
 21
490.8866299999998
 31
0.0
  0
LINE
  5
7EB
  8
0
  6
CONTINUOUS
 62
     7
 10
-678.40307999999982
 20
489.86660999999981
 30
0.0
 11
-678.40307999999982
 21
485.00661999999988
 31
0.0
  0
LINE
  5
7EC
  8
0
  6
CONTINUOUS
 62
     7
 10
-694.36315999999965
 20
489.86660999999981
 30
0.0
 11
-694.36315999999965
 21
485.00661999999988
 31
0.0
  0
LINE
  5
7ED
  8
0
  6
CONTINUOUS
 62
     7
 10
-678.8831799999997
 20
489.86660999999981
 30
0.0
 11
-678.8831799999997
 21
484.86660999999992
 31
0.0
  0
LINE
  5
7EE
  8
0
  6
CONTINUOUS
 62
     7
 10
-693.88317999999981
 20
489.86660999999981
 30
0.0
 11
-693.88317999999981
 21
484.86660999999992
 31
0.0
  0
LINE
  5
7EF
  8
0
  6
CONTINUOUS
 62
     7
 10
-663.05029000000002
 20
491.36660999999992
 30
0.0
 11
-677.38317999999981
 21
491.36660999999992
 31
0.0
  0
LINE
  5
7F0
  8
0
  6
CONTINUOUS
 62
     7
 10
-663.03600999999981
 20
543.36657999999989
 30
0.0
 11
-677.38317999999981
 21
543.36657999999989
 31
0.0
  0
LINE
  5
7F1
  8
0
  6
CONTINUOUS
 62
     3
 10
-677.40307999999982
 20
550.72655999999995
 30
0.0
 11
-659.56311000000017
 21
550.72655999999995
 31
0.0
  0
LINE
  5
7F2
  8
0
  6
CONTINUOUS
 62
     7
 10
-517.88311999999985
 20
211.7332499999998
 30
0.0
 11
-527.88317999999981
 21
211.7332499999998
 31
0.0
  0
LINE
  5
7F3
  8
0
  6
CONTINUOUS
 62
     7
 10
-527.88317999999981
 20
276.35876000000002
 30
0.0
 11
-517.88311999999985
 21
276.35876000000002
 31
0.0
  0
ARC
  5
7F4
  8
0
  6
CONTINUOUS
 62
     7
 10
-145.2809399999999
 20
209.54793000000001
 30
0.0
 40
16.0
 50
108.20996
 51
71.790052000000003
  0
CIRCLE
  5
7F5
  8
0
  6
CONTINUOUS
 62
     7
 10
-145.2809399999999
 20
209.54793000000001
 30
0.0
 40
4.0
  0
CIRCLE
  5
7F6
  8
0
  6
CONTINUOUS
 62
     7
 10
-145.2809399999999
 20
209.54793000000001
 30
0.0
 40
2.75
  0
ARC
  5
7F7
  8
0
  6
CONTINUOUS
 62
     7
 10
-527.88317999999981
 20
69.547927999999985
 30
0.0
 40
2.0
 50
90.000003000000007
 51
180.00001
  0
ARC
  5
7F8
  8
0
  6
CONTINUOUS
 62
     7
 10
-214.28095999999999
 20
83.547919999999976
 30
0.0
 40
4.0
 50
0.0
 51
90.000003000000007
  0
ARC
  5
7F9
  8
0
  6
CONTINUOUS
 62
     7
 10
-532.80297999999993
 20
91.547934999999995
 30
0.0
 40
4.0
 50
270.0
 51
342.2553299999999
  0
ARC
  5
7FA
  8
0
  6
CONTINUOUS
 62
     7
 10
-517.88311999999985
 20
138.17234999999991
 30
0.0
 40
4.0
 50
342.2553299999999
 51
0.0
  0
ARC
  5
7FB
  8
0
  6
CONTINUOUS
 62
     7
 10
-437.88315
 20
102.54794
 30
0.0
 40
15.0
 50
179.99998999999991
 51
270.0
  0
ARC
  5
7FC
  8
0
  6
CONTINUOUS
 62
     7
 10
-444.88314999999989
 20
240.99065999999991
 30
0.0
 40
8.0
 50
90.000003000000007
 51
180.00001
  0
ARC
  5
7FD
  8
0
  6
CONTINUOUS
 62
     7
 10
-257.28093999999999
 20
84.547927999999985
 30
0.0
 40
3.0
 50
90.000003000000007
 51
180.00001
  0
ARC
  5
7FE
  8
0
  6
CONTINUOUS
 62
     7
 10
-33.28094500000001
 20
84.547927999999985
 30
0.0
 40
3.0
 50
0.0
 51
90.000003000000007
  0
ARC
  5
7FF
  8
0
  6
CONTINUOUS
 62
     7
 10
-76.280945000000003
 20
83.547919999999976
 30
0.0
 40
4.0
 50
90.000003000000007
 51
180.00001
  0
ARC
  5
800
  8
0
  6
CONTINUOUS
 62
     7
 10
-145.2809399999999
 20
143.2852
 30
0.0
 40
77.0
 50
179.99998999999991
 51
212.4183899999997
  0
ARC
  5
801
  8
0
  6
CONTINUOUS
 62
     7
 10
-408.88315
 20
174.77444
 30
0.0
 40
3.0
 50
119.9999999999999
 51
180.00001
  0
ARC
  5
802
  8
0
  6
CONTINUOUS
 62
     7
 10
-408.88315
 20
244.32144
 30
0.0
 40
3.0
 50
179.99998999999991
 51
240.00001
  0
ARC
  5
803
  8
0
  6
CONTINUOUS
 62
     7
 10
-407.88314999999989
 20
236.8158699999999
 30
0.0
 40
3.0
 50
0.0
 51
60.000002000000002
  0
ARC
  5
804
  8
0
  6
CONTINUOUS
 62
     7
 10
-407.88314999999989
 20
182.2799999999998
 30
0.0
 40
3.0
 50
300.0
 51
0.0
  0
ARC
  5
805
  8
0
  6
CONTINUOUS
 62
     7
 10
-440.88314999999989
 20
271.02886999999998
 30
0.0
 40
8.0
 50
0.0
 51
88.499996999999965
  0
ARC
  5
806
  8
0
  6
CONTINUOUS
 62
     7
 10
-225.2809399999999
 20
102.54794
 30
0.0
 40
15.0
 50
270.0
 51
0.0
  0
ARC
  5
807
  8
0
  6
CONTINUOUS
 62
     7
 10
-563.88317999999981
 20
85.547934999999981
 30
0.0
 40
2.0
 50
90.000003000000007
 51
180.00001
  0
ARC
  5
808
  8
0
  6
CONTINUOUS
 62
     7
 10
-406.88311999999991
 20
85.547934999999981
 30
0.0
 40
2.0
 50
0.0
 51
90.000003000000007
  0
ARC
  5
809
  8
0
  6
CONTINUOUS
 62
     7
 10
-440.88314999999989
 20
110.00566000000001
 30
0.0
 40
8.0
 50
270.0
 51
0.0
  0
ARC
  5
80A
  8
0
  6
CONTINUOUS
 62
     7
 10
-82.280945000000003
 20
69.547927999999985
 30
0.0
 40
2.0
 50
0.0
 51
90.000003000000007
  0
ARC
  5
80B
  8
0
  6
CONTINUOUS
 62
     7
 10
-208.28095999999999
 20
69.547927999999985
 30
0.0
 40
2.0
 50
90.000003000000007
 51
180.00001
  0
ARC
  5
80C
  8
0
  6
CONTINUOUS
 62
     7
 10
-424.88312000000002
 20
265.54793999999998
 30
0.0
 40
8.0
 50
179.99998999999991
 51
270.0
  0
ARC
  5
80D
  8
0
  6
CONTINUOUS
 62
     7
 10
-145.2809399999999
 20
192.54794000000001
 30
0.0
 40
65.0
 50
0.0
 51
180.00001
  0
ARC
  5
80E
  8
0
  6
CONTINUOUS
 62
     7
 10
-145.2809399999999
 20
181.5479399999999
 30
0.0
 40
99.500000000000014
 50
8.4654901000000002
 51
171.53450000000001
  0
ARC
  5
80F
  8
0
  6
CONTINUOUS
 62
     7
 10
-403.88312000000002
 20
95.087326000000004
 30
0.0
 40
8.0
 50
179.99998999999991
 51
252.54239000000001
  0
ARC
  5
810
  8
0
  6
CONTINUOUS
 62
     7
 10
-78.459350999999998
 20
248.36954
 30
0.0
 40
16.0
 50
17.079463000000001
 51
72.920534000000004
  0
ARC
  5
811
  8
0
  6
CONTINUOUS
 62
     7
 10
-65.280944999999988
 20
102.54794
 30
0.0
 40
15.0
 50
179.99998999999991
 51
270.0
  0
ARC
  5
812
  8
0
  6
CONTINUOUS
 62
     7
 10
-145.2809399999999
 20
143.2852
 30
0.0
 40
77.0
 50
327.58159999999992
 51
0.0
  0
ARC
  5
813
  8
0
  6
CONTINUOUS
 62
     7
 10
-211.74898999999991
 20
248.01598000000001
 30
0.0
 40
16.0
 50
107.07946
 51
162.92053000000001
  0
ARC
  5
814
  8
0
  6
CONTINUOUS
 62
     7
 10
-442.88312000000002
 20
69.547927999999985
 30
0.0
 40
2.0
 50
0.0
 51
90.000003000000007
  0
ARC
  5
815
  8
0
  6
CONTINUOUS
 62
     7
 10
-76.280945000000003
 20
241.64161999999999
 30
0.0
 40
8.0
 50
0.0
 51
41.053350999999999
  0
ARC
  5
816
  8
0
  6
CONTINUOUS
 62
     7
 10
-214.28095999999999
 20
241.64161999999999
 30
0.0
 40
8.0
 50
138.94665000000001
 51
180.00001
  0
ARC
  5
817
  8
0
  6
CONTINUOUS
 62
     7
 10
-415.88311999999979
 20
253.5479399999999
 30
0.0
 40
4.0
 50
0.0
 51
90.000003000000007
  0
CIRCLE
  5
818
  8
0
  6
CONTINUOUS
 62
     7
 10
-145.2809399999999
 20
209.54793000000001
 30
0.0
 40
29.0
  0
ARC
  5
819
  8
0
  6
CONTINUOUS
 62
     7
 10
-529.88311999999985
 20
277.81948999999992
 30
0.0
 40
2.0
 50
272.0
 51
0.0
  0
ARC
  5
81A
  8
0
  6
CONTINUOUS
 62
     7
 10
-536.88317999999992
 20
272.57198999999991
 30
0.0
 40
3.0
 50
91.999998000000005
 51
180.00001
  0
ARC
  5
81B
  8
0
  6
CONTINUOUS
 62
     7
 10
-536.88317999999992
 20
90.524490000000014
 30
0.0
 40
3.0
 50
179.99998999999991
 51
268.00000999999992
  0
ARC
  5
81C
  8
0
  6
CONTINUOUS
 62
     7
 10
-525.88311999999985
 20
278.76732999999979
 30
0.0
 40
2.0
 50
91.999998000000005
 51
180.00001
  0
ARC
  5
81D
  8
0
  6
CONTINUOUS
 62
     7
 10
-542.88317999999992
 20
103.94611
 30
0.0
 40
3.0
 50
0.0
 51
88.0
  0
ARC
  5
81E
  8
0
  6
CONTINUOUS
 62
     7
 10
-542.88317999999992
 20
259.14977999999991
 30
0.0
 40
3.0
 50
272.0
 51
0.0
  0
ARC
  5
81F
  8
0
  6
CONTINUOUS
 62
     7
 10
-529.88311999999985
 20
245.88003999999981
 30
0.0
 40
2.0
 50
0.0
 51
90.000003000000007
  0
ARC
  5
820
  8
0
  6
CONTINUOUS
 62
     7
 10
-537.88311999999985
 20
249.88002
 30
0.0
 40
2.0
 50
179.99998999999991
 51
270.0
  0
ARC
  5
821
  8
0
  6
CONTINUOUS
 62
     7
 10
-529.88311999999985
 20
266.8505899999999
 30
0.0
 40
2.0
 50
270.0
 51
0.0
  0
ARC
  5
822
  8
0
  6
CONTINUOUS
 62
     7
 10
-537.88311999999985
 20
262.8505899999999
 30
0.0
 40
2.0
 50
90.000003000000007
 51
180.00001
  0
ARC
  5
823
  8
0
  6
CONTINUOUS
 62
     7
 10
-529.88311999999985
 20
99.130156999999997
 30
0.0
 40
2.0
 50
0.0
 51
90.000003000000007
  0
ARC
  5
824
  8
0
  6
CONTINUOUS
 62
     7
 10
-529.88311999999985
 20
123.80526999999979
 30
0.0
 40
2.0
 50
270.0
 51
0.0
  0
ARC
  5
825
  8
0
  6
CONTINUOUS
 62
     7
 10
-537.88311999999985
 20
103.13014
 30
0.0
 40
2.0
 50
179.99998999999991
 51
270.0
  0
ARC
  5
826
  8
0
  6
CONTINUOUS
 62
     7
 10
-529.88311999999985
 20
119.68855000000001
 30
0.0
 40
2.0
 50
270.0
 51
0.0
  0
ARC
  5
827
  8
0
  6
CONTINUOUS
 62
     7
 10
-537.88311999999985
 20
123.80526999999979
 30
0.0
 40
2.0
 50
179.99998999999991
 51
270.0
  0
ARC
  5
828
  8
0
  6
CONTINUOUS
 62
     3
 10
-684.88311999999985
 20
131.04818999999981
 30
0.0
 40
5.5
 50
84.784087999999983
 51
185.21596
  0
ARC
  5
829
  8
0
  6
CONTINUOUS
 62
     7
 10
-761.11474999999984
 20
94.570510999999996
 30
0.0
 40
2.0
 50
188.6433899999999
 51
270.0
  0
ARC
  5
82A
  8
0
  6
CONTINUOUS
 62
     7
 10
-761.12810999999999
 20
96.418296999999995
 30
0.0
 40
2.0
 50
189.08497
 51
270.0
  0
ARC
  5
82B
  8
0
  6
CONTINUOUS
 62
     7
 10
-761.17675999999983
 20
99.264671000000007
 30
0.0
 40
2.0
 50
190.71569
 51
270.0
  0
ARC
  5
82C
  8
0
  6
CONTINUOUS
 62
     7
 10
-773.88317999999981
 20
103.29855000000001
 30
0.0
 40
0.5
 50
0.0
 51
90.000003000000007
  0
ARC
  5
82D
  8
0
  6
CONTINUOUS
 62
     7
 10
-773.88317999999981
 20
105.44485
 30
0.0
 40
0.5
 50
270.0
 51
0.0
  0
ARC
  5
82E
  8
0
  6
CONTINUOUS
 62
     7
 10
-774.38311999999985
 20
108.0462999999999
 30
0.0
 40
1.0
 50
270.0
 51
0.0
  0
ARC
  5
82F
  8
0
  6
CONTINUOUS
 62
     7
 10
-774.38311999999985
 20
112.5629999999999
 30
0.0
 40
1.0
 50
270.0
 51
0.0
  0
ARC
  5
830
  8
0
  6
CONTINUOUS
 62
     7
 10
-777.38311999999985
 20
107.67258
 30
0.0
 40
1.0
 50
179.99998999999991
 51
239.0334
  0
ARC
  5
831
  8
0
  6
CONTINUOUS
 62
     7
 10
-777.38311999999985
 20
108.70815
 30
0.0
 40
1.0
 50
179.99998999999991
 51
242.07341
  0
ARC
  5
832
  8
0
  6
CONTINUOUS
 62
     7
 10
-777.38311999999985
 20
112.27457
 30
0.0
 40
1.0
 50
179.99998999999991
 51
236.74527999999981
  0
ARC
  5
833
  8
0
  6
CONTINUOUS
 62
     7
 10
-777.38311999999985
 20
113.30768999999999
 30
0.0
 40
1.0
 50
179.99998999999991
 51
239.64048999999989
  0
ARC
  5
834
  8
0
  6
CONTINUOUS
 62
     7
 10
-776.11181999999985
 20
112.5629999999999
 30
0.0
 40
1.0
 50
239.6405
 51
270.0
  0
ARC
  5
835
  8
0
  6
CONTINUOUS
 62
     7
 10
-776.08452999999975
 20
111.4229899999999
 30
0.0
 40
1.0
 50
236.74527
 51
270.0
  0
ARC
  5
836
  8
0
  6
CONTINUOUS
 62
     7
 10
-776.13451999999984
 20
108.0462999999999
 30
0.0
 40
1.0
 50
242.07339999999999
 51
270.0
  0
ARC
  5
837
  8
0
  6
CONTINUOUS
 62
     7
 10
-776.10613999999987
 20
106.90628
 30
0.0
 40
1.0
 50
239.0334
 51
270.0
  0
ARC
  5
838
  8
0
  6
CONTINUOUS
 62
     7
 10
-776.1438599999999
 20
105.9448399999999
 30
0.0
 40
1.0
 50
243.08874
 51
270.0
  0
ARC
  5
839
  8
0
  6
CONTINUOUS
 62
     7
 10
-776.11492999999984
 20
104.79855000000001
 30
0.0
 40
1.0
 50
239.9736
 51
270.0
  0
ARC
  5
83A
  8
0
  6
CONTINUOUS
 62
     7
 10
-777.38311999999985
 20
106.57388
 30
0.0
 40
1.0
 50
179.99998999999991
 51
243.08874999999981
  0
ARC
  5
83B
  8
0
  6
CONTINUOUS
 62
     7
 10
-777.38311999999985
 20
105.53152
 30
0.0
 40
1.0
 50
179.99998999999991
 51
239.97361000000001
  0
ARC
  5
83C
  8
0
  6
CONTINUOUS
 62
     7
 10
-727.38317999999981
 20
96.418296999999995
 30
0.0
 40
2.0
 50
270.0
 51
0.0
  0
ARC
  5
83D
  8
0
  6
CONTINUOUS
 62
     7
 10
-727.38317999999981
 20
94.570510999999996
 30
0.0
 40
2.0
 50
270.0
 51
0.0
  0
ARC
  5
83E
  8
0
  6
CONTINUOUS
 62
     7
 10
-664.25702000000001
 20
99.264671000000007
 30
0.0
 40
2.0
 50
270.0
 51
345.0
  0
ARC
  5
83F
  8
0
  6
CONTINUOUS
 62
     7
 10
-727.38317999999981
 20
93.659987999999984
 30
0.0
 40
2.0
 50
270.0
 51
0.0
  0
ARC
  5
840
  8
0
  6
CONTINUOUS
 62
     7
 10
-761.09343999999965
 20
93.659987999999984
 30
0.0
 40
2.0
 50
187.9440399999998
 51
270.0
  0
ARC
  5
841
  8
0
  6
CONTINUOUS
 62
     7
 10
-656.73212000000001
 20
193.27094999999991
 30
0.0
 40
1.5
 50
195.00001
 51
270.0
  0
ARC
  5
842
  8
0
  6
CONTINUOUS
 62
     7
 10
-664.25702000000001
 20
207.83121
 30
0.0
 40
2.0
 50
15.0
 51
90.000003000000007
  0
ARC
  5
843
  8
0
  6
CONTINUOUS
 62
     7
 10
-727.38317999999981
 20
213.43581
 30
0.0
 40
2.0
 50
0.0
 51
90.000003000000007
  0
ARC
  5
844
  8
0
  6
CONTINUOUS
 62
     7
 10
-727.38317999999981
 20
212.5252799999999
 30
0.0
 40
2.0
 50
0.0
 51
90.000003000000007
  0
ARC
  5
845
  8
0
  6
CONTINUOUS
 62
     7
 10
-727.38317999999981
 20
210.67757
 30
0.0
 40
2.0
 50
0.0
 51
90.000003000000007
  0
ARC
  5
846
  8
0
  6
CONTINUOUS
 62
     7
 10
-761.09343999999965
 20
213.43581
 30
0.0
 40
2.0
 50
90.000003000000007
 51
172.05596
  0
ARC
  5
847
  8
0
  6
CONTINUOUS
 62
     7
 10
-761.11474999999984
 20
212.5252799999999
 30
0.0
 40
2.0
 50
90.000003000000007
 51
171.3566099999999
  0
ARC
  5
848
  8
0
  6
CONTINUOUS
 62
     7
 10
-761.12810999999999
 20
210.67757
 30
0.0
 40
2.0
 50
90.000003000000007
 51
170.91503
  0
ARC
  5
849
  8
0
  6
CONTINUOUS
 62
     7
 10
-738.88311999999985
 20
190.27095
 30
0.0
 40
1.5
 50
90.000003000000007
 51
180.00001
  0
ARC
  5
84A
  8
0
  6
CONTINUOUS
 62
     7
 10
-761.17675999999983
 20
207.83121
 30
0.0
 40
2.0
 50
90.000003000000007
 51
169.28431
  0
ARC
  5
84B
  8
0
  6
CONTINUOUS
 62
     7
 10
-777.38311999999985
 20
113.30768999999999
 30
0.0
 40
1.0
 50
179.99998999999991
 51
239.64048999999989
  0
ARC
  5
84C
  8
0
  6
CONTINUOUS
 62
     7
 10
-774.38311999999985
 20
112.5629999999999
 30
0.0
 40
1.0
 50
334.63675999999998
 51
0.0
  0
ARC
  5
84D
  8
0
  6
CONTINUOUS
 62
     7
 10
-762.70519999999988
 20
118.5027599999999
 30
0.0
 40
1.6779174999999991
 50
90.000003000000007
 51
270.0
  0
ARC
  5
84E
  8
0
  6
CONTINUOUS
 62
     7
 10
-762.92156999999975
 20
128.52320999999969
 30
0.0
 40
1.461502099999997
 50
90.000003000000007
 51
270.0
  0
ARC
  5
84F
  8
0
  6
CONTINUOUS
 62
     7
 10
-763.05218999999988
 20
138.53537
 30
0.0
 40
1.330932599999999
 50
90.000003000000007
 51
270.0
  0
ARC
  5
850
  8
0
  6
CONTINUOUS
 62
     7
 10
-763.11419999999964
 20
148.54403999999991
 30
0.0
 40
1.268920899999999
 50
90.000003000000007
 51
270.0
  0
ARC
  5
851
  8
0
  6
CONTINUOUS
 62
     7
 10
-763.11419999999964
 20
158.55177
 30
0.0
 40
1.268920899999999
 50
90.000003000000007
 51
270.0
  0
ARC
  5
852
  8
0
  6
CONTINUOUS
 62
     7
 10
-763.05218999999988
 20
168.56049999999991
 30
0.0
 40
1.330932599999999
 50
90.000003000000007
 51
270.0
  0
ARC
  5
853
  8
0
  6
CONTINUOUS
 62
     7
 10
-762.92162999999982
 20
178.57259999999991
 30
0.0
 40
1.4614868000000001
 50
90.000003000000007
 51
270.0
  0
ARC
  5
854
  8
0
  6
CONTINUOUS
 62
     7
 10
-761.83374000000003
 20
128.54793000000001
 30
0.0
 40
1.0
 50
90.000003000000007
 51
270.0
  0
ARC
  5
855
  8
0
  6
CONTINUOUS
 62
     7
 10
-761.83374000000003
 20
138.5479399999999
 30
0.0
 40
1.0
 50
90.000003000000007
 51
270.0
  0
ARC
  5
856
  8
0
  6
CONTINUOUS
 62
     7
 10
-761.83374000000003
 20
148.54793999999981
 30
0.0
 40
1.0
 50
90.000003000000007
 51
270.0
  0
ARC
  5
857
  8
0
  6
CONTINUOUS
 62
     7
 10
-761.83374000000003
 20
158.54793000000001
 30
0.0
 40
1.0
 50
90.000003000000007
 51
270.0
  0
ARC
  5
858
  8
0
  6
CONTINUOUS
 62
     7
 10
-761.83374000000003
 20
168.54794000000001
 30
0.0
 40
1.0
 50
90.000003000000007
 51
270.0
  0
ARC
  5
859
  8
0
  6
CONTINUOUS
 62
     7
 10
-761.83374000000003
 20
178.5479399999999
 30
0.0
 40
1.0
 50
90.000003000000007
 51
270.0
  0
ARC
  5
85A
  8
0
  6
CONTINUOUS
 62
     7
 10
-761.83374000000003
 20
188.54793000000001
 30
0.0
 40
1.0
 50
90.000003000000007
 51
270.0
  0
ARC
  5
85B
  8
0
  6
CONTINUOUS
 62
     7
 10
-762.70587
 20
188.59305000000001
 30
0.0
 40
1.6779127
 50
90.000003000000007
 51
270.0
  0
ARC
  5
85C
  8
0
  6
CONTINUOUS
 62
     7
 10
-678.88311999999985
 20
182.0479399999999
 30
0.0
 40
1.5
 50
0.0
 51
90.000003000000007
  0
ARC
  5
85D
  8
0
  6
CONTINUOUS
 62
     7
 10
-678.88311999999985
 20
125.0479399999999
 30
0.0
 40
1.5
 50
270.0
 51
0.0
  0
ARC
  5
85E
  8
0
  6
CONTINUOUS
 62
     7
 10
-774.38311999999985
 20
136.5479399999999
 30
0.0
 40
1.0
 50
0.0
 51
90.000003000000007
  0
ARC
  5
85F
  8
0
  6
CONTINUOUS
 62
     7
 10
-774.38311999999985
 20
140.54793000000001
 30
0.0
 40
1.0
 50
270.0
 51
0.0
  0
ARC
  5
860
  8
0
  6
CONTINUOUS
 62
     7
 10
-774.38311999999985
 20
146.54793000000001
 30
0.0
 40
1.0
 50
0.0
 51
90.000003000000007
  0
ARC
  5
861
  8
0
  6
CONTINUOUS
 62
     7
 10
-774.38311999999985
 20
150.54793999999981
 30
0.0
 40
1.0
 50
270.0
 51
0.0
  0
ARC
  5
862
  8
0
  6
CONTINUOUS
 62
     7
 10
-777.38311999999985
 20
148.54793999999981
 30
0.0
 40
1.0
 50
90.000003000000007
 51
180.00001
  0
ARC
  5
863
  8
0
  6
CONTINUOUS
 62
     7
 10
-777.38311999999985
 20
148.54793999999981
 30
0.0
 40
1.0
 50
179.99998999999991
 51
270.0
  0
ARC
  5
864
  8
0
  6
CONTINUOUS
 62
     7
 10
-777.38311999999985
 20
138.5479399999999
 30
0.0
 40
1.0
 50
90.000003000000007
 51
180.00001
  0
ARC
  5
865
  8
0
  6
CONTINUOUS
 62
     7
 10
-777.38311999999985
 20
138.5479399999999
 30
0.0
 40
1.0
 50
179.99998999999991
 51
270.0
  0
ARC
  5
866
  8
0
  6
CONTINUOUS
 62
     7
 10
-777.38311999999985
 20
128.54793000000001
 30
0.0
 40
1.0
 50
90.000003000000007
 51
180.00001
  0
ARC
  5
867
  8
0
  6
CONTINUOUS
 62
     7
 10
-777.38311999999985
 20
128.54793000000001
 30
0.0
 40
1.0
 50
179.99998999999991
 51
270.0
  0
ARC
  5
868
  8
0
  6
CONTINUOUS
 62
     7
 10
-777.38311999999985
 20
119.3732
 30
0.0
 40
1.0
 50
179.99998999999991
 51
246.8729799999999
  0
ARC
  5
869
  8
0
  6
CONTINUOUS
 62
     7
 10
-777.38311999999985
 20
121.15866
 30
0.0
 40
1.0
 50
179.99998999999991
 51
252.90236999999999
  0
ARC
  5
86A
  8
0
  6
CONTINUOUS
 62
     7
 10
-776.23284999999964
 20
120.80476
 30
0.0
 40
1.0
 50
252.90236999999999
 51
270.0
  0
ARC
  5
86B
  8
0
  6
CONTINUOUS
 62
     7
 10
-776.17846999999983
 20
118.8586699999999
 30
0.0
 40
1.0
 50
246.87297000000001
 51
270.0
  0
ARC
  5
86C
  8
0
  6
CONTINUOUS
 62
     7
 10
-774.08318999999983
 20
117.15872
 30
0.0
 40
0.6999999900000004
 50
0.0
 51
90.000003000000007
  0
ARC
  5
86D
  8
0
  6
CONTINUOUS
 62
     7
 10
-774.38311999999985
 20
126.54794
 30
0.0
 40
1.0
 50
0.0
 51
90.000003000000007
  0
ARC
  5
86E
  8
0
  6
CONTINUOUS
 62
     7
 10
-774.38311999999985
 20
130.54793999999981
 30
0.0
 40
1.0
 50
270.0
 51
0.0
  0
ARC
  5
86F
  8
0
  6
CONTINUOUS
 62
     7
 10
-774.38311999999985
 20
120.80476
 30
0.0
 40
1.0
 50
270.0
 51
0.0
  0
ARC
  5
870
  8
0
  6
CONTINUOUS
 62
     7
 10
-659.5610999999999
 20
118.5027599999999
 30
0.0
 40
1.6779127
 50
270.0
 51
90.000003000000007
  0
ARC
  5
871
  8
0
  6
CONTINUOUS
 62
     7
 10
-663.03881999999965
 20
118.5479399999999
 30
0.0
 40
1.0
 50
270.0
 51
90.000003000000007
  0
ARC
  5
872
  8
0
  6
CONTINUOUS
 62
     7
 10
-663.03881999999965
 20
188.54793000000001
 30
0.0
 40
1.0
 50
270.0
 51
90.000003000000007
  0
ARC
  5
873
  8
0
  6
CONTINUOUS
 62
     7
 10
-659.5610999999999
 20
188.59305000000001
 30
0.0
 40
1.6779127
 50
270.0
 51
90.000003000000007
  0
ARC
  5
874
  8
0
  6
CONTINUOUS
 62
     7
 10
-676.08312999999976
 20
121.18068
 30
0.0
 40
1.0
 50
179.99998999999991
 51
270.0
  0
ARC
  5
875
  8
0
  6
CONTINUOUS
 62
     7
 10
-676.08312999999976
 20
185.91513
 30
0.0
 40
1.0
 50
90.000003000000007
 51
180.00001
  0
ARC
  5
876
  8
0
  6
CONTINUOUS
 62
     7
 10
-761.83374000000003
 20
118.5479399999999
 30
0.0
 40
1.0
 50
90.000003000000007
 51
270.0
  0
ARC
  5
877
  8
0
  6
CONTINUOUS
 62
     7
 10
-773.88317999999981
 20
203.7973199999999
 30
0.0
 40
0.5
 50
270.0
 51
0.0
  0
ARC
  5
878
  8
0
  6
CONTINUOUS
 62
     7
 10
-773.88317999999981
 20
201.65102999999991
 30
0.0
 40
0.5
 50
0.0
 51
90.000003000000007
  0
ARC
  5
879
  8
0
  6
CONTINUOUS
 62
     7
 10
-774.38311999999985
 20
199.04957999999991
 30
0.0
 40
1.0
 50
0.0
 51
90.000003000000007
  0
ARC
  5
87A
  8
0
  6
CONTINUOUS
 62
     7
 10
-774.08318999999983
 20
189.9371499999998
 30
0.0
 40
0.6999999900000004
 50
270.0
 51
0.0
  0
ARC
  5
87B
  8
0
  6
CONTINUOUS
 62
     7
 10
-774.38311999999985
 20
194.53287
 30
0.0
 40
1.0
 50
0.0
 51
90.000003000000007
  0
ARC
  5
87C
  8
0
  6
CONTINUOUS
 62
     7
 10
-774.38311999999985
 20
186.29105000000001
 30
0.0
 40
1.0
 50
0.0
 51
90.000003000000007
  0
ARC
  5
87D
  8
0
  6
CONTINUOUS
 62
     7
 10
-774.38311999999985
 20
180.5479399999999
 30
0.0
 40
1.0
 50
270.0
 51
0.0
  0
ARC
  5
87E
  8
0
  6
CONTINUOUS
 62
     7
 10
-774.38311999999985
 20
176.54793000000001
 30
0.0
 40
1.0
 50
0.0
 51
90.000003000000007
  0
ARC
  5
87F
  8
0
  6
CONTINUOUS
 62
     7
 10
-774.38311999999985
 20
170.54793000000001
 30
0.0
 40
1.0
 50
270.0
 51
0.0
  0
ARC
  5
880
  8
0
  6
CONTINUOUS
 62
     7
 10
-774.38311999999985
 20
166.5479399999999
 30
0.0
 40
1.0
 50
0.0
 51
90.000003000000007
  0
ARC
  5
881
  8
0
  6
CONTINUOUS
 62
     7
 10
-774.38311999999985
 20
160.5479399999999
 30
0.0
 40
1.0
 50
270.0
 51
0.0
  0
ARC
  5
882
  8
0
  6
CONTINUOUS
 62
     7
 10
-774.38311999999985
 20
156.5479399999999
 30
0.0
 40
1.0
 50
0.0
 51
90.000003000000007
  0
ARC
  5
883
  8
0
  6
CONTINUOUS
 62
     7
 10
-777.38311999999985
 20
158.54793000000001
 30
0.0
 40
1.0
 50
179.99998999999991
 51
270.0
  0
ARC
  5
884
  8
0
  6
CONTINUOUS
 62
     7
 10
-777.38311999999985
 20
158.54793000000001
 30
0.0
 40
1.0
 50
90.000003000000007
 51
180.00001
  0
ARC
  5
885
  8
0
  6
CONTINUOUS
 62
     7
 10
-777.38311999999985
 20
168.54794000000001
 30
0.0
 40
1.0
 50
179.99998999999991
 51
270.0
  0
ARC
  5
886
  8
0
  6
CONTINUOUS
 62
     7
 10
-777.38311999999985
 20
168.54794000000001
 30
0.0
 40
1.0
 50
90.000003000000007
 51
180.00001
  0
ARC
  5
887
  8
0
  6
CONTINUOUS
 62
     7
 10
-777.38311999999985
 20
178.5479399999999
 30
0.0
 40
1.0
 50
179.99998999999991
 51
270.0
  0
ARC
  5
888
  8
0
  6
CONTINUOUS
 62
     7
 10
-777.38311999999985
 20
178.5479399999999
 30
0.0
 40
1.0
 50
90.000003000000007
 51
180.00001
  0
ARC
  5
889
  8
0
  6
CONTINUOUS
 62
     7
 10
-777.38311999999985
 20
187.72266999999991
 30
0.0
 40
1.0
 50
113.12703
 51
180.00001
  0
ARC
  5
88A
  8
0
  6
CONTINUOUS
 62
     7
 10
-777.38311999999985
 20
185.93720999999991
 30
0.0
 40
1.0
 50
107.0976299999999
 51
180.00001
  0
ARC
  5
88B
  8
0
  6
CONTINUOUS
 62
     7
 10
-776.23284999999964
 20
186.29105000000001
 30
0.0
 40
1.0
 50
90.000003000000007
 51
107.0976299999999
  0
ARC
  5
88C
  8
0
  6
CONTINUOUS
 62
     7
 10
-776.17846999999983
 20
188.2371499999999
 30
0.0
 40
1.0
 50
90.000003000000007
 51
113.12703
  0
ARC
  5
88D
  8
0
  6
CONTINUOUS
 62
     7
 10
-777.38311999999985
 20
199.42325
 30
0.0
 40
1.0
 50
120.9666
 51
180.00001
  0
ARC
  5
88E
  8
0
  6
CONTINUOUS
 62
     7
 10
-777.38311999999985
 20
198.38765000000001
 30
0.0
 40
1.0
 50
117.92659999999979
 51
180.00001
  0
ARC
  5
88F
  8
0
  6
CONTINUOUS
 62
     7
 10
-777.38311999999985
 20
194.82125999999991
 30
0.0
 40
1.0
 50
123.25473
 51
180.00001
  0
ARC
  5
890
  8
0
  6
CONTINUOUS
 62
     7
 10
-777.38311999999985
 20
193.78818000000001
 30
0.0
 40
1.0
 50
120.3594999999999
 51
180.00001
  0
ARC
  5
891
  8
0
  6
CONTINUOUS
 62
     7
 10
-776.11181999999985
 20
194.53287
 30
0.0
 40
1.0
 50
90.000003000000007
 51
120.3594999999999
  0
ARC
  5
892
  8
0
  6
CONTINUOUS
 62
     7
 10
-776.08452999999975
 20
195.67282
 30
0.0
 40
1.0
 50
90.000003000000007
 51
123.25473
  0
ARC
  5
893
  8
0
  6
CONTINUOUS
 62
     7
 10
-776.13451999999984
 20
199.04957999999991
 30
0.0
 40
1.0
 50
90.000003000000007
 51
117.92659999999979
  0
ARC
  5
894
  8
0
  6
CONTINUOUS
 62
     7
 10
-776.10613999999987
 20
200.18953999999991
 30
0.0
 40
1.0
 50
90.000003000000007
 51
120.9666
  0
ARC
  5
895
  8
0
  6
CONTINUOUS
 62
     7
 10
-776.1438599999999
 20
201.15102999999991
 30
0.0
 40
1.0
 50
90.000003000000007
 51
116.91126
  0
ARC
  5
896
  8
0
  6
CONTINUOUS
 62
     7
 10
-776.11492999999984
 20
202.29732000000001
 30
0.0
 40
1.0
 50
90.000003000000007
 51
120.0264
  0
ARC
  5
897
  8
0
  6
CONTINUOUS
 62
     7
 10
-777.38311999999985
 20
200.52199999999999
 30
0.0
 40
1.0
 50
116.91126
 51
180.00001
  0
ARC
  5
898
  8
0
  6
CONTINUOUS
 62
     7
 10
-777.38311999999985
 20
201.5642999999998
 30
0.0
 40
1.0
 50
120.0264
 51
180.00001
  0
ARC
  5
899
  8
0
  6
CONTINUOUS
 62
     3
 10
-729.88311999999985
 20
176.04768000000001
 30
0.0
 40
5.5
 50
264.78411999999992
 51
5.2159094000000001
  0
ARC
  5
89A
  8
0
  6
CONTINUOUS
 62
     7
 10
-630.34247000000005
 20
214.6803699999999
 30
0.0
 40
4.0
 50
272.0
 51
309.62979000000001
  0
ARC
  5
89B
  8
0
  6
CONTINUOUS
 62
     7
 10
-580.38317999999981
 20
111.7599
 30
0.0
 40
4.0
 50
211.07233999999991
 51
268.0
  0
ARC
  5
89C
  8
0
  6
CONTINUOUS
 62
     7
 10
-580.38317999999981
 20
251.33597999999989
 30
0.0
 40
4.0
 50
91.999998000000005
 51
180.93198000000001
  0
ARC
  5
89D
  8
0
  6
CONTINUOUS
 62
     7
 10
-587.23528999999996
 20
107.6309399999999
 30
0.0
 40
4.0
 50
31.072340999999991
 51
88.0
  0
ARC
  5
89E
  8
0
  6
CONTINUOUS
 62
     7
 10
-589.79480000000001
 20
249.79314999999991
 30
0.0
 40
4.0
 50
272.0
 51
315.0
  0
ARC
  5
89F
  8
0
  6
CONTINUOUS
 62
     7
 10
-588.38207999999975
 20
251.20583999999991
 30
0.0
 40
4.0
 50
315.0
 51
0.9319899799999999
  0
ARC
  5
8A0
  8
0
  6
CONTINUOUS
 62
     7
 10
-628.3831799999997
 20
215.00461000000001
 30
0.0
 40
3.0
 50
309.62979000000001
 51
0.0
  0
ARC
  5
8A1
  8
0
  6
CONTINUOUS
 62
     7
 10
-624.38311999999985
 20
108.9281799999999
 30
0.0
 40
4.0
 50
88.0
 51
180.00001
  0
ARC
  5
8A2
  8
0
  6
CONTINUOUS
 62
     7
 10
-632.38311999999985
 20
101.60911
 30
0.0
 40
4.0
 50
272.0
 51
0.0
  0
ARC
  5
8A3
  8
0
  6
CONTINUOUS
 62
     7
 10
-622.38317999999981
 20
241.65085999999991
 30
0.0
 40
3.0
 50
91.999998000000005
 51
180.00001
  0
ARC
  5
8A4
  8
0
  6
CONTINUOUS
 62
     7
 10
-624.71094000000016
 20
214.87702999999991
 30
0.0
 40
4.0
 50
272.0
 51
315.0
  0
ARC
  5
8A5
  8
0
  6
CONTINUOUS
 62
     7
 10
-623.38311999999996
 20
132.05241000000001
 30
0.0
 40
5.0
 50
90.000003000000007
 51
180.00001
  0
ARC
  5
8A6
  8
0
  6
CONTINUOUS
 62
     7
 10
-603.28008999999975
 20
196.5479399999999
 30
0.0
 40
3.0
 50
315.0
 51
90.000003000000007
  0
ARC
  5
8A7
  8
0
  6
CONTINUOUS
 62
     7
 10
-561.88317999999992
 20
410.75632000000002
 30
0.0
 40
4.0
 50
180.00001
 51
265.00000999999992
  0
ARC
  5
8A8
  8
0
  6
CONTINUOUS
 62
     7
 10
-407.88312000000002
 20
456.30385999999987
 30
0.0
 40
4.0
 50
180.00001
 51
262.81925000000001
  0
ARC
  5
8A9
  8
0
  6
CONTINUOUS
 62
     7
 10
-408.88312000000002
 20
409.96587999999991
 30
0.0
 40
4.0
 50
272.0
 51
0.0
  0
ARC
  5
8AA
  8
0
  6
CONTINUOUS
 62
     7
 10
-517.88317999999992
 20
621.80346999999995
 30
0.0
 40
4.0
 50
0.0
 51
95.000001999999995
  0
ARC
  5
8AB
  8
0
  6
CONTINUOUS
 62
     7
 10
-526.88317999999992
 20
628.04285000000004
 30
0.0
 40
3.0
 50
95.000001999999995
 51
275.0
  0
ARC
  5
8AC
  8
0
  6
CONTINUOUS
 62
     7
 10
-444.88314999999989
 20
622.02202999999997
 30
0.0
 40
8.0
 50
88.0
 51
180.00001
  0
ARC
  5
8AD
  8
0
  6
CONTINUOUS
 62
     7
 10
-517.88317999999992
 20
412.92974999999979
 30
0.0
 40
4.0
 50
265.00000999999992
 51
0.00000068324543
  0
ARC
  5
8AE
  8
0
  6
CONTINUOUS
 62
     7
 10
-561.88317999999992
 20
599.90515000000005
 30
0.0
 40
4.0
 50
180.00001
 51
254.99998999999991
  0
ARC
  5
8AF
  8
0
  6
CONTINUOUS
 62
     7
 10
-408.88312000000002
 20
586.36657999999966
 30
0.0
 40
4.0
 50
277.18074999999988
 51
0.0
  0
ARC
  5
8B0
  8
0
  6
CONTINUOUS
 62
     7
 10
-407.88312000000002
 20
578.42931999999985
 30
0.0
 40
4.0
 50
97.180758000000012
 51
180.00001
  0
CIRCLE
  5
8B1
  8
0
  6
CONTINUOUS
 62
     7
 10
-422.88312000000002
 20
422.36660999999992
 30
0.0
 40
7.5
  0
ARC
  5
8B2
  8
0
  6
CONTINUOUS
 62
     7
 10
-408.88312000000002
 20
448.36660999999992
 30
0.0
 40
4.0
 50
0.0
 51
82.819247000000004
  0
CIRCLE
  5
8B3
  8
0
  6
CONTINUOUS
 62
     7
 10
-547.88317999999992
 20
422.36660999999992
 30
0.0
 40
7.5
  0
ARC
  5
8B4
  8
0
  6
CONTINUOUS
 62
     7
 10
-526.88317999999992
 20
406.69040000000001
 30
0.0
 40
3.0
 50
85.000004000000004
 51
265.0
  0
ARC
  5
8B5
  8
0
  6
CONTINUOUS
 62
     7
 10
-561.88317999999992
 20
623.97686999999985
 30
0.0
 40
4.0
 50
95.000001999999995
 51
180.00001
  0
ARC
  5
8B6
  8
0
  6
CONTINUOUS
 62
     7
 10
-561.88317999999992
 20
434.82805999999988
 30
0.0
 40
4.0
 50
105.0
 51
180.00001
  0
ARC
  5
8B7
  8
0
  6
CONTINUOUS
 62
     7
 10
-387.88315
 20
517.36658
 30
0.0
 40
4.9999924
 50
90.000003000000007
 51
270.0
  0
ARC
  5
8B8
  8
0
  6
CONTINUOUS
 62
     7
 10
-415.88311999999979
 20
456.26324
 30
0.0
 40
4.0
 50
271.49999999999972
 51
0.0
  0
ARC
  5
8B9
  8
0
  6
CONTINUOUS
 62
     7
 10
-425.43090999999993
 20
590.72411999999963
 30
0.0
 40
8.0
 50
195.03579999999991
 51
268.5
  0
ARC
  5
8BA
  8
0
  6
CONTINUOUS
 62
     7
 10
-444.88314999999989
 20
412.71117999999967
 30
0.0
 40
8.0
 50
180.00001
 51
271.99998999999991
  0
ARC
  5
8BB
  8
0
  6
CONTINUOUS
 62
     7
 10
-408.88312000000002
 20
482.59313999999989
 30
0.0
 40
3.0
 50
119.9999999999999
 51
180.00001
  0
ARC
  5
8BC
  8
0
  6
CONTINUOUS
 62
     7
 10
-408.88312000000002
 20
552.14014000000009
 30
0.0
 40
3.0
 50
179.99998999999991
 51
240.00001
  0
ARC
  5
8BD
  8
0
  6
CONTINUOUS
 62
     7
 10
-407.88314999999989
 20
544.63458000000003
 30
0.0
 40
3.0
 50
0.0
 51
60.000002000000002
  0
ARC
  5
8BE
  8
0
  6
CONTINUOUS
 62
     7
 10
-407.88314999999989
 20
490.09868999999992
 30
0.0
 40
3.0
 50
300.00000999999997
 51
0.0
  0
ARC
  5
8BF
  8
0
  6
CONTINUOUS
 62
     7
 10
-415.88311999999979
 20
578.46996999999988
 30
0.0
 40
4.0
 50
0.0
 51
88.499996999999965
  0
ARC
  5
8C0
  8
0
  6
CONTINUOUS
 62
     7
 10
-536.88317999999992
 20
597.25665000000004
 30
0.0
 40
3.0
 50
90.000003000000007
 51
180.00001
  0
ARC
  5
8C1
  8
0
  6
CONTINUOUS
 62
     7
 10
-530.88317999999992
 20
603.25665000000004
 30
0.0
 40
3.0
 50
269.99998999999991
 51
0.00000068324516
  0
ARC
  5
8C2
  8
0
  6
CONTINUOUS
 62
     7
 10
-530.84595000000002
 20
420.44549999999998
 30
0.0
 40
3.0
 50
6.3862994000000004
 51
90.000003000000007
  0
CIRCLE
  5
8C3
  8
0
  6
CONTINUOUS
 62
     7
 10
-422.88312000000002
 20
612.36658
 30
0.0
 40
7.5
  0
CIRCLE
  5
8C4
  8
0
  6
CONTINUOUS
 62
     7
 10
-547.88317999999992
 20
612.36658
 30
0.0
 40
7.5
  0
ARC
  5
8C5
  8
0
  6
CONTINUOUS
 62
     7
 10
-530.88317999999992
 20
582.43884000000003
 30
0.0
 40
3.0
 50
0.0
 51
90.000003000000007
  0
ARC
  5
8C6
  8
0
  6
CONTINUOUS
 62
     7
 10
-536.88317999999992
 20
437.47658999999982
 30
0.0
 40
3.0
 50
180.00001
 51
270.0
  0
ARC
  5
8C7
  8
0
  6
CONTINUOUS
 62
     7
 10
-530.84595000000002
 20
614.28772000000004
 30
0.0
 40
3.0
 50
269.99998999999991
 51
353.61368999999979
  0
ARC
  5
8C8
  8
0
  6
CONTINUOUS
 62
     7
 10
-440.88314999999989
 20
606.58019999999965
 30
0.0
 40
12.0
 50
180.00001
 51
268.5
  0
ARC
  5
8C9
  8
0
  6
CONTINUOUS
 62
     7
 10
-408.88312000000002
 20
624.76733000000002
 30
0.0
 40
4.0
 50
0.0
 51
88.0
  0
ARC
  5
8CA
  8
0
  6
CONTINUOUS
 62
     7
 10
-530.88317999999992
 20
452.29439999999988
 30
0.0
 40
3.0
 50
269.99998999999991
 51
0.00000068324516
  0
ARC
  5
8CB
  8
0
  6
CONTINUOUS
 62
     7
 10
-524.88317999999992
 20
421.11288000000002
 30
0.0
 40
3.0
 50
180.00001
 51
268.0
  0
ARC
  5
8CC
  8
0
  6
CONTINUOUS
 62
     7
 10
-530.88317999999992
 20
431.47658999999999
 30
0.0
 40
3.0
 50
0.0
 51
90.000003000000007
  0
ARC
  5
8CD
  8
0
  6
CONTINUOUS
 62
     7
 10
-536.88317999999992
 20
426.44549999999981
 30
0.0
 40
3.0
 50
180.00001
 51
270.0
  0
ARC
  5
8CE
  8
0
  6
CONTINUOUS
 62
     7
 10
-536.88317999999992
 20
608.28772000000004
 30
0.0
 40
3.0
 50
90.000003000000007
 51
180.00001
  0
ARC
  5
8CF
  8
0
  6
CONTINUOUS
 62
     7
 10
-518.88317999999992
 20
626.73510999999985
 30
0.0
 40
5.0
 50
0.0
 51
95.000001999999995
  0
ARC
  5
8D0
  8
0
  6
CONTINUOUS
 62
     7
 10
-518.88317999999992
 20
407.99811
 30
0.0
 40
5.0
 50
265.00000999999992
 51
0.0000006832456
  0
ARC
  5
8D1
  8
0
  6
CONTINUOUS
 62
     7
 10
-440.88312000000002
 20
448.15985000000001
 30
0.0
 40
8.0
 50
271.49999999999972
 51
0.0
  0
ARC
  5
8D2
  8
0
  6
CONTINUOUS
 62
     7
 10
-440.88314999999989
 20
428.15302000000003
 30
0.0
 40
12.0
 50
91.500000999999969
 51
180.00001
  0
ARC
  5
8D3
  8
0
  6
CONTINUOUS
 62
     7
 10
-542.88317999999992
 20
439.76477
 30
0.0
 40
3.0
 50
0.0
 51
88.0
  0
ARC
  5
8D4
  8
0
  6
CONTINUOUS
 62
     7
 10
-542.88317999999992
 20
594.96843999999965
 30
0.0
 40
3.0
 50
272.0
 51
0.0
  0
ARC
  5
8D5
  8
0
  6
CONTINUOUS
 62
     7
 10
-425.43090999999993
 20
444.00909000000001
 30
0.0
 40
8.0
 50
91.500000999999969
 51
164.96420000000001
  0
ARC
  5
8D6
  8
0
  6
CONTINUOUS
 62
     7
 10
-440.88312000000002
 20
586.57335999999975
 30
0.0
 40
8.0
 50
0.0
 51
88.499996999999965
  0
ARC
  5
8D7
  8
0
  6
CONTINUOUS
 62
     7
 10
-524.88317999999992
 20
613.62035999999989
 30
0.0
 40
3.0
 50
91.999998000000005
 51
180.00001
  0
ARC
  5
8D8
  8
0
  6
CONTINUOUS
 62
     7
 10
-580.38317999999981
 20
448.07855000000001
 30
0.0
 40
4.0
 50
180.00001
 51
268.0
  0
ARC
  5
8D9
  8
0
  6
CONTINUOUS
 62
     7
 10
-580.38317999999981
 20
586.65459999999985
 30
0.0
 40
4.0
 50
91.999998000000005
 51
180.00001
  0
ARC
  5
8DA
  8
0
  6
CONTINUOUS
 62
     7
 10
-622.38317999999981
 20
507.36660999999992
 30
0.0
 40
3.0
 50
180.00001
 51
270.0
  0
ARC
  5
8DB
  8
0
  6
CONTINUOUS
 62
     7
 10
-622.38317999999981
 20
527.36657999999977
 30
0.0
 40
3.0
 50
90.000003000000007
 51
180.00001
  0
ARC
  5
8DC
  8
0
  6
CONTINUOUS
 62
     7
 10
-591.08043999999995
 20
501.36660999999998
 30
0.0
 40
3.0
 50
0.0
 51
90.000003000000007
  0
ARC
  5
8DD
  8
0
  6
CONTINUOUS
 62
     7
 10
-591.08043999999995
 20
533.36658
 30
0.0
 40
3.0
 50
270.0
 51
0.0
  0
ARC
  5
8DE
  8
0
  6
CONTINUOUS
 62
     7
 10
-596.1263399999998
 20
454.03869999999989
 30
0.0
 40
5.0
 50
44.999997999999998
 51
88.0
  0
ARC
  5
8DF
  8
0
  6
CONTINUOUS
 62
     7
 10
-596.1263399999998
 20
580.69452000000001
 30
0.0
 40
5.0
 50
272.0
 51
315.0
  0
ARC
  5
8E0
  8
0
  6
CONTINUOUS
 62
     7
 10
-589.34569999999985
 20
447.25805999999989
 30
0.0
 40
5.0
 50
5.2307202000000004
 51
44.999997999999998
  0
ARC
  5
8E1
  8
0
  6
CONTINUOUS
 62
     7
 10
-589.34569999999985
 20
587.47515999999985
 30
0.0
 40
5.0
 50
315.0
 51
354.76906000000002
  0
ARC
  5
8E2
  8
0
  6
CONTINUOUS
 62
     7
 10
-607.04040999999995
 20
560.36663999999985
 30
0.0
 40
3.0
 50
324.42424
 51
90.000003000000007
  0
ARC
  5
8E3
  8
0
  6
CONTINUOUS
 62
     7
 10
-607.04040999999995
 20
474.36660999999992
 30
0.0
 40
3.0
 50
270.0
 51
35.57575700000001
  0
ARC
  5
8E4
  8
0
  6
CONTINUOUS
 62
     3
 10
-743.65600999999981
 20
440.86660999999992
 30
0.0
 40
7.5
 50
179.99997999999991
 51
0.000010017913
  0
ARC
  5
8E5
  8
0
  6
CONTINUOUS
 62
     3
 10
-743.65600999999981
 20
440.86660999999992
 30
0.0
 40
4.0
 50
179.99997999999991
 51
0.000010017912
  0
ARC
  5
8E6
  8
0
  6
CONTINUOUS
 62
     7
 10
-656.7298599999998
 20
562.69933999999989
 30
0.0
 40
1.502775999999999
 50
194.75642999999991
 51
269.87757999999991
  0
ARC
  5
8E7
  8
0
  6
CONTINUOUS
 62
     7
 10
-656.7298599999998
 20
561.78930999999977
 30
0.0
 40
1.502775999999999
 50
194.75642999999991
 51
269.87757999999991
  0
ARC
  5
8E8
  8
0
  6
CONTINUOUS
 62
     7
 10
-656.7298599999998
 20
559.93932999999993
 30
0.0
 40
1.502775999999999
 50
194.75642999999991
 51
269.87757999999991
  0
ARC
  5
8E9
  8
0
  6
CONTINUOUS
 62
     7
 10
-664.25792999999999
 20
577.2518299999997
 30
0.0
 40
2.0047290000000002
 50
15.173496
 51
89.861677999999998
  0
ARC
  5
8EA
  8
0
  6
CONTINUOUS
 62
     7
 10
-664.25792999999999
 20
576.34180000000003
 30
0.0
 40
2.0047290000000002
 50
15.173496
 51
89.861677999999998
  0
ARC
  5
8EB
  8
0
  6
CONTINUOUS
 62
     7
 10
-664.25792999999999
 20
574.49181999999985
 30
0.0
 40
2.0047290000000002
 50
15.173496
 51
89.861677999999998
  0
ARC
  5
8EC
  8
0
  6
CONTINUOUS
 62
     7
 10
-656.7298599999998
 20
477.64382999999992
 30
0.0
 40
1.502775999999999
 50
90.122413000000037
 51
165.24357000000001
  0
ARC
  5
8ED
  8
0
  6
CONTINUOUS
 62
     7
 10
-777.38989000000004
 20
565.38452000000007
 30
0.0
 40
0.99319202
 50
119.77338
 51
179.87958999999981
  0
ARC
  5
8EE
  8
0
  6
CONTINUOUS
 62
     7
 10
-777.38756999999964
 20
564.3463099999999
 30
0.0
 40
0.995579
 50
116.5870899999999
 51
179.98264
  0
ARC
  5
8EF
  8
0
  6
CONTINUOUS
 62
     7
 10
-776.12108999999998
 20
566.12072999999998
 30
0.0
 40
0.9959030199999999
 50
89.541267000000005
 51
119.60717
  0
ARC
  5
8F0
  8
0
  6
CONTINUOUS
 62
     7
 10
-776.15832999999975
 20
564.97253000000001
 30
0.0
 40
0.99411702
 50
89.122643999999966
 51
115.93498
  0
ARC
  5
8F1
  8
0
  6
CONTINUOUS
 62
     7
 10
-776.11425999999983
 20
564.01232999999979
 30
0.0
 40
0.99427301
 50
89.356065999999984
 51
120.78091000000001
  0
ARC
  5
8F2
  8
0
  6
CONTINUOUS
 62
     7
 10
-776.14806999999985
 20
562.87121999999977
 30
0.0
 40
0.99545902
 50
89.141291000000024
 51
117.20381999999999
  0
ARC
  5
8F3
  8
0
  6
CONTINUOUS
 62
     7
 10
-776.07654000000002
 20
559.50036999999986
 30
0.0
 40
0.99617702
 50
90.381317999999979
 51
123.9704899999999
  0
ARC
  5
8F4
  8
0
  6
CONTINUOUS
 62
     7
 10
-776.10375999999985
 20
558.36010999999996
 30
0.0
 40
0.99648702
 50
90.540720999999976
 51
120.74377
  0
ARC
  5
8F5
  8
0
  6
CONTINUOUS
 62
     7
 10
-777.38903999999968
 20
557.60973999999999
 30
0.0
 40
0.99404597
 50
120.4682
 51
180.18563999999989
  0
ARC
  5
8F6
  8
0
  6
CONTINUOUS
 62
     7
 10
-777.38830999999982
 20
558.64417000000003
 30
0.0
 40
0.9948369899999999
 50
123.20496
 51
180.4378599999998
  0
ARC
  5
8F7
  8
0
  6
CONTINUOUS
 62
     7
 10
-777.38989000000004
 20
562.20800999999994
 30
0.0
 40
0.9932109699999999
 50
117.7993199999999
 51
180.08187000000001
  0
ARC
  5
8F8
  8
0
  6
CONTINUOUS
 62
     7
 10
-777.38867000000005
 20
563.24561000000006
 30
0.0
 40
0.9944329899999999
 50
121.15213
 51
179.9405099999999
  0
ARC
  5
8F9
  8
0
  6
CONTINUOUS
 62
     7
 10
-776.18213000000003
 20
552.06115999999986
 30
0.0
 40
0.9954450099999999
 50
90.056905000000043
 51
113.1274499999999
  0
ARC
  5
8FA
  8
0
  6
CONTINUOUS
 62
     7
 10
-776.24401999999998
 20
550.11388999999986
 30
0.0
 40
0.9927430199999999
 50
89.374555000000001
 51
106.33207
  0
ARC
  5
8FB
  8
0
  6
CONTINUOUS
 62
     7
 10
-777.38684000000001
 20
549.76232999999979
 30
0.0
 40
0.9962710099999999
 50
106.69792
 51
180.3300499999998
  0
ARC
  5
8FC
  8
0
  6
CONTINUOUS
 62
     7
 10
-777.38671999999985
 20
551.54809999999998
 30
0.0
 40
0.9963999999999998
 50
112.81735999999979
 51
180.09041999999991
  0
ARC
  5
8FD
  8
0
  6
CONTINUOUS
 62
     7
 10
-777.38806
 20
542.37145999999996
 30
0.0
 40
0.99507803
 50
89.715886999999981
 51
180.28411
  0
ARC
  5
8FE
  8
0
  6
CONTINUOUS
 62
     7
 10
-777.38292999999999
 20
542.36681999999985
 30
0.0
 40
1.000203
 50
180.01165
 51
269.98835000000003
  0
ARC
  5
8FF
  8
0
  6
CONTINUOUS
 62
     7
 10
-777.38806
 20
532.37145999999996
 30
0.0
 40
0.99508202
 50
89.716099
 51
180.28390999999991
  0
ARC
  5
900
  8
0
  6
CONTINUOUS
 62
     7
 10
-777.38292999999999
 20
532.36682000000008
 30
0.0
 40
1.0001999999999991
 50
180.0114299999999
 51
269.98856999999992
  0
ARC
  5
901
  8
0
  6
CONTINUOUS
 62
     7
 10
-777.38806
 20
522.37145999999996
 30
0.0
 40
0.9950849999999999
 50
89.716311000000005
 51
180.28368999999981
  0
ARC
  5
902
  8
0
  6
CONTINUOUS
 62
     7
 10
-777.38292999999999
 20
522.36681999999985
 30
0.0
 40
1.0001959999999981
 50
180.01122000000001
 51
269.98877999999991
  0
ARC
  5
903
  8
0
  6
CONTINUOUS
 62
     7
 10
-774.38292999999965
 20
520.36670000000004
 30
0.0
 40
0.9998249999999999
 50
359.98995000000002
 51
90.010050000000007
  0
ARC
  5
904
  8
0
  6
CONTINUOUS
 62
     7
 10
-774.38805999999988
 20
524.37145999999996
 30
0.0
 40
1.0049469
 50
270.28134999999992
 51
359.71866
  0
ARC
  5
905
  8
0
  6
CONTINUOUS
 62
     7
 10
-774.38292999999965
 20
530.36670000000004
 30
0.0
 40
0.9998210099999999
 50
359.98975000000002
 51
90.010255000000001
  0
ARC
  5
906
  8
0
  6
CONTINUOUS
 62
     7
 10
-774.38805999999988
 20
534.37145999999996
 30
0.0
 40
1.004939
 50
270.28091000000001
 51
359.71910000000008
  0
ARC
  5
907
  8
0
  6
CONTINUOUS
 62
     7
 10
-774.38292999999965
 20
540.36670000000004
 30
0.0
 40
0.9998289899999999
 50
359.99018999999993
 51
90.009810999999985
  0
ARC
  5
908
  8
0
  6
CONTINUOUS
 62
     7
 10
-774.38805999999988
 20
544.37145999999996
 30
0.0
 40
1.004942999999999
 50
270.28111000000001
 51
359.71888999999987
  0
ARC
  5
909
  8
0
  6
CONTINUOUS
 62
     7
 10
-774.38134999999988
 20
550.10828000000004
 30
0.0
 40
0.9982839799999999
 50
359.90141999999992
 51
90.098575999999994
  0
ARC
  5
90A
  8
0
  6
CONTINUOUS
 62
     7
 10
-774.38549999999987
 20
558.35424999999998
 30
0.0
 40
1.002353
 50
0.13432682
 51
89.865673000000001
  0
ARC
  5
90B
  8
0
  6
CONTINUOUS
 62
     7
 10
-774.08765000000005
 20
553.76110999999992
 30
0.0
 40
0.704566
 50
270.37009999999992
 51
359.62990999999982
  0
ARC
  5
90C
  8
0
  6
CONTINUOUS
 62
     7
 10
-774.38207999999986
 20
562.86755000000005
 30
0.0
 40
0.9990100299999999
 50
359.94319000000002
 51
90.056808999999959
  0
ARC
  5
90D
  8
0
  6
CONTINUOUS
 62
     7
 10
-773.88147000000004
 20
565.46825999999999
 30
0.0
 40
0.4983060100000002
 50
359.80489
 51
90.195107000000007
  0
ARC
  5
90E
  8
0
  6
CONTINUOUS
 62
     7
 10
-773.8877
 20
567.62121999999999
 30
0.0
 40
0.50463498
 50
270.52382999999992
 51
359.47617000000002
  0
ARC
  5
90F
  8
0
  6
CONTINUOUS
 62
     7
 10
-761.83849999999984
 20
482.36660999999992
 30
0.0
 40
1.000013899999999
 50
89.691659999999985
 51
270.30833999999999
  0
ARC
  5
910
  8
0
  6
CONTINUOUS
 62
     7
 10
-659.56311000000017
 20
552.41161999999986
 30
0.0
 40
1.6750020000000001
 50
269.99998999999991
 51
90.000003000000007
  0
ARC
  5
911
  8
0
  6
CONTINUOUS
 62
     7
 10
-663.04309000000001
 20
552.36657999999977
 30
0.0
 40
1.0
 50
269.99998999999991
 51
90.000003000000007
  0
ARC
  5
912
  8
0
  6
CONTINUOUS
 62
     7
 10
-663.04309000000001
 20
482.36660999999992
 30
0.0
 40
1.0
 50
269.99998999999991
 51
90.000003000000007
  0
ARC
  5
913
  8
0
  6
CONTINUOUS
 62
     7
 10
-659.56311000000017
 20
482.32155999999998
 30
0.0
 40
1.6750020000000001
 50
269.99998999999991
 51
90.000003000000007
  0
ARC
  5
914
  8
0
  6
CONTINUOUS
 62
     7
 10
-774.38647000000003
 20
484.62990999999988
 30
0.0
 40
1.003352
 50
270.19110999999992
 51
359.80889999999982
  0
ARC
  5
915
  8
0
  6
CONTINUOUS
 62
     7
 10
-774.38805999999988
 20
494.37148999999988
 30
0.0
 40
1.0049469
 50
270.28136999999992
 51
359.71863000000002
  0
ARC
  5
916
  8
0
  6
CONTINUOUS
 62
     7
 10
-774.38292999999965
 20
490.36672999999962
 30
0.0
 40
0.9998239899999999
 50
359.98991999999993
 51
90.010076999999981
  0
ARC
  5
917
  8
0
  6
CONTINUOUS
 62
     7
 10
-774.08252000000005
 20
480.97719999999993
 30
0.0
 40
0.6994530000000001
 50
359.95517000000001
 51
90.044829000000021
  0
ARC
  5
918
  8
0
  6
CONTINUOUS
 62
     7
 10
-776.18017999999984
 20
482.68178999999992
 30
0.0
 40
1.005233
 50
246.98638999999989
 51
269.82924999999989
  0
ARC
  5
919
  8
0
  6
CONTINUOUS
 62
     7
 10
-776.24255000000005
 20
484.6293
 30
0.0
 40
1.002699
 50
253.7527199999999
 51
270.54064
  0
ARC
  5
91A
  8
0
  6
CONTINUOUS
 62
     7
 10
-777.38671999999985
 20
484.98099000000002
 30
0.0
 40
0.99638802
 50
180.24991
 51
253.29664
  0
ARC
  5
91B
  8
0
  6
CONTINUOUS
 62
     7
 10
-777.38660000000004
 20
483.19510000000002
 30
0.0
 40
0.9965090199999998
 50
179.91374999999999
 51
247.17845
  0
ARC
  5
91C
  8
0
  6
CONTINUOUS
 62
     7
 10
-777.38292999999999
 20
492.36684999999989
 30
0.0
 40
1.0001959999999981
 50
180.01124999999999
 51
269.98874999999992
  0
ARC
  5
91D
  8
0
  6
CONTINUOUS
 62
     7
 10
-777.38806
 20
492.37148999999999
 30
0.0
 40
0.9950849999999999
 50
89.716282999999976
 51
180.2837199999999
  0
ARC
  5
91E
  8
0
  6
CONTINUOUS
 62
     7
 10
-777.38292999999999
 20
502.36685
 30
0.0
 40
1.0001999999999991
 50
180.01146
 51
269.98853999999972
  0
ARC
  5
91F
  8
0
  6
CONTINUOUS
 62
     7
 10
-777.38806
 20
502.37148999999988
 30
0.0
 40
0.9950810099999999
 50
89.716071999999997
 51
180.28391999999999
  0
ARC
  5
920
  8
0
  6
CONTINUOUS
 62
     7
 10
-777.38292999999999
 20
512.36681999999996
 30
0.0
 40
1.0002040000000001
 50
180.01166000000001
 51
269.9883200000001
  0
ARC
  5
921
  8
0
  6
CONTINUOUS
 62
     7
 10
-777.38806
 20
512.37145999999996
 30
0.0
 40
0.9950770099999999
 50
89.715860000000006
 51
180.28413999999989
  0
ARC
  5
922
  8
0
  6
CONTINUOUS
 62
     7
 10
-774.38805999999988
 20
514.37145999999996
 30
0.0
 40
1.004942999999999
 50
270.28113999999988
 51
359.71886999999992
  0
ARC
  5
923
  8
0
  6
CONTINUOUS
 62
     7
 10
-774.38292999999965
 20
510.36672999999968
 30
0.0
 40
0.9998279799999998
 50
359.99015999999978
 51
90.009838000000002
  0
ARC
  5
924
  8
0
  6
CONTINUOUS
 62
     7
 10
-774.38805999999988
 20
504.37148999999999
 30
0.0
 40
1.004939
 50
270.28093999999999
 51
359.71906999999999
  0
ARC
  5
925
  8
0
  6
CONTINUOUS
 62
     7
 10
-774.38292999999965
 20
500.36673000000002
 30
0.0
 40
0.9998210099999999
 50
359.98971999999998
 51
90.010281999999961
  0
ARC
  5
926
  8
0
  6
CONTINUOUS
 62
     7
 10
-762.71056999999985
 20
552.41161999999986
 30
0.0
 40
1.6750160000000001
 50
89.746144999999984
 51
270.25387000000001
  0
ARC
  5
927
  8
0
  6
CONTINUOUS
 62
     7
 10
-761.83849999999984
 20
552.36657999999977
 30
0.0
 40
1.000013899999999
 50
89.691659999999985
 51
270.30833999999999
  0
ARC
  5
928
  8
0
  6
CONTINUOUS
 62
     7
 10
-761.83849999999984
 20
542.36658
 30
0.0
 40
1.000013899999999
 50
89.691659999999985
 51
270.30833999999999
  0
ARC
  5
929
  8
0
  6
CONTINUOUS
 62
     7
 10
-761.83849999999984
 20
532.36657999999966
 30
0.0
 40
1.000013899999999
 50
89.691659999999985
 51
270.30833999999999
  0
ARC
  5
92A
  8
0
  6
CONTINUOUS
 62
     7
 10
-761.83849999999984
 20
522.36658
 30
0.0
 40
1.000013899999999
 50
89.691659999999985
 51
270.30833999999999
  0
ARC
  5
92B
  8
0
  6
CONTINUOUS
 62
     7
 10
-761.83849999999984
 20
512.36658
 30
0.0
 40
1.000013899999999
 50
89.691659999999985
 51
270.30833999999999
  0
ARC
  5
92C
  8
0
  6
CONTINUOUS
 62
     7
 10
-761.83849999999984
 20
502.36660999999981
 30
0.0
 40
1.000013899999999
 50
89.691659999999985
 51
270.30833999999999
  0
ARC
  5
92D
  8
0
  6
CONTINUOUS
 62
     7
 10
-761.83849999999984
 20
492.36660999999998
 30
0.0
 40
1.000013899999999
 50
89.691659999999985
 51
270.30833999999999
  0
ARC
  5
92E
  8
0
  6
CONTINUOUS
 62
     7
 10
-762.92309999999975
 20
542.39160000000004
 30
0.0
 40
1.465004
 50
90.000003000000007
 51
270.0
  0
ARC
  5
92F
  8
0
  6
CONTINUOUS
 62
     7
 10
-763.05309999999974
 20
532.37658999999985
 30
0.0
 40
1.3300049999999981
 50
90.000003000000007
 51
270.0
  0
ARC
  5
930
  8
0
  6
CONTINUOUS
 62
     7
 10
-763.11901999999975
 20
522.37157999999988
 30
0.0
 40
1.2650129999999991
 50
89.735579000000016
 51
270.26441
  0
ARC
  5
931
  8
0
  6
CONTINUOUS
 62
     7
 10
-763.11901999999975
 20
512.36658
 30
0.0
 40
1.2700129999999981
 50
89.736616999999995
 51
270.26337000000001
  0
ARC
  5
932
  8
0
  6
CONTINUOUS
 62
     7
 10
-763.05309999999974
 20
502.35660000000001
 30
0.0
 40
1.3300049999999981
 50
90.000003000000007
 51
270.0
  0
ARC
  5
933
  8
0
  6
CONTINUOUS
 62
     7
 10
-762.92309999999975
 20
492.34157999999991
 30
0.0
 40
1.465004
 50
90.000003000000007
 51
270.0
  0
ARC
  5
934
  8
0
  6
CONTINUOUS
 62
     7
 10
-762.70995999999946
 20
482.32155999999998
 30
0.0
 40
1.675014
 50
89.766498999999982
 51
270.23351000000002
  0
ARC
  5
935
  8
0
  6
CONTINUOUS
 62
     7
 10
-774.38634999999988
 20
476.39333999999991
 30
0.0
 40
1.0032760000000001
 50
334.19810000000001
 51
359.61810999999977
  0
ARC
  5
936
  8
0
  6
CONTINUOUS
 62
     7
 10
-777.38463999999999
 20
477.12589000000003
 30
0.0
 40
0.9984580299999999
 50
179.9595799999999
 51
239.38657000000001
  0
ARC
  5
937
  8
0
  6
CONTINUOUS
 62
     7
 10
-761.18444999999986
 20
571.65246999999988
 30
0.0
 40
1.994108999999999
 50
89.675548000000006
 51
169.18777
  0
ARC
  5
938
  8
0
  6
CONTINUOUS
 62
     7
 10
-761.13292999999999
 20
574.50134000000003
 30
0.0
 40
1.995282999999997
 50
90.006203999999983
 51
170.90835000000001
  0
ARC
  5
939
  8
0
  6
CONTINUOUS
 62
     7
 10
-761.11852999999985
 20
576.34984999999995
 30
0.0
 40
1.9967330000000001
 50
89.843967000000006
 51
171.45387999999991
  0
ARC
  5
93A
  8
0
  6
CONTINUOUS
 62
     7
 10
-761.09655999999984
 20
577.26098999999988
 30
0.0
 40
1.995633
 50
89.899708000000004
 51
172.06112999999991
  0
ARC
  5
93B
  8
0
  6
CONTINUOUS
 62
     7
 10
-664.25305000000003
 20
571.64831999999979
 30
0.0
 40
1.9982919999999991
 50
15.032547999999981
 51
90.002631999999977
  0
ARC
  5
93C
  8
0
  6
CONTINUOUS
 62
     7
 10
-656.7298599999998
 20
557.08936000000006
 30
0.0
 40
1.502775999999999
 50
194.75642999999991
 51
269.87757999999991
  0
ARC
  5
93D
  8
0
  6
CONTINUOUS
 62
     7
 10
-664.25792999999999
 20
463.09134
 30
0.0
 40
2.0047290000000002
 50
270.13832000000002
 51
344.82650000000001
  0
ARC
  5
93E
  8
0
  6
CONTINUOUS
 62
     7
 10
-777.38549999999998
 20
469.35122999999999
 30
0.0
 40
0.9976310099999999
 50
180.26780999999991
 51
240.07924
  0
ARC
  5
93F
  8
0
  6
CONTINUOUS
 62
     7
 10
-777.38744999999983
 20
470.39699999999988
 30
0.0
 40
0.9956849800000001
 50
180.02112999999991
 51
243.40913999999981
  0
ARC
  5
940
  8
0
  6
CONTINUOUS
 62
     7
 10
-776.10242000000005
 20
468.61770999999999
 30
0.0
 40
1.001123999999999
 50
239.32782000000009
 51
269.38767999999988
  0
ARC
  5
941
  8
0
  6
CONTINUOUS
 62
     7
 10
-776.13733000000002
 20
469.76589999999987
 30
0.0
 40
0.9993420200000001
 50
242.86199999999999
 51
269.66546
  0
ARC
  5
942
  8
0
  6
CONTINUOUS
 62
     7
 10
-776.11168999999984
 20
470.73025999999999
 30
0.0
 40
1.0037439999999991
 50
239.37112999999999
 51
270.49189999999987
  0
ARC
  5
943
  8
0
  6
CONTINUOUS
 62
     7
 10
-776.12792999999988
 20
471.86721999999992
 30
0.0
 40
1.0006820000000001
 50
241.65062
 51
269.7039299999999
  0
ARC
  5
944
  8
0
  6
CONTINUOUS
 62
     7
 10
-776.09032999999988
 20
475.24709999999988
 30
0.0
 40
1.000521999999999
 50
237.14617999999999
 51
270.41343999999998
  0
ARC
  5
945
  8
0
  6
CONTINUOUS
 62
     7
 10
-776.11974999999984
 20
476.38760000000002
 30
0.0
 40
1.0010449999999991
 50
240.47187
 51
270.37970999999999
  0
ARC
  5
946
  8
0
  6
CONTINUOUS
 62
     7
 10
-777.38463999999999
 20
477.12589000000003
 30
0.0
 40
0.9984580299999999
 50
179.9595799999999
 51
239.38657000000001
  0
ARC
  5
947
  8
0
  6
CONTINUOUS
 62
     7
 10
-777.38402999999983
 20
476.09134
 30
0.0
 40
0.9990889999999998
 50
179.69508999999991
 51
236.66209000000001
  0
ARC
  5
948
  8
0
  6
CONTINUOUS
 62
     7
 10
-777.38537999999983
 20
472.52785999999998
 30
0.0
 40
0.9977070099999998
 50
180.0740199999999
 51
242.04481000000001
  0
ARC
  5
949
  8
0
  6
CONTINUOUS
 62
     7
 10
-777.38440000000003
 20
471.49014
 30
0.0
 40
0.9987969999999998
 50
179.62728000000001
 51
238.70795000000001
  0
ARC
  5
94A
  8
0
  6
CONTINUOUS
 62
     7
 10
-774.38562000000002
 20
476.38907
 30
0.0
 40
1.002470999999999
 50
270.14107000000001
 51
359.85892999999987
  0
ARC
  5
94B
  8
0
  6
CONTINUOUS
 62
     7
 10
-774.38720999999987
 20
471.87076000000002
 30
0.0
 40
1.004119999999999
 50
270.23460999999992
 51
359.76538999999991
  0
ARC
  5
94C
  8
0
  6
CONTINUOUS
 62
     7
 10
-773.88647000000003
 20
469.27004999999991
 30
0.0
 40
0.5033929900000002
 50
270.38490999999982
 51
359.61509999999993
  0
ARC
  5
94D
  8
0
  6
CONTINUOUS
 62
     7
 10
-773.88269000000003
 20
467.11709999999999
 30
0.0
 40
0.49952301
 50
359.94522999999992
 51
90.054773999999981
  0
ARC
  5
94E
  8
0
  6
CONTINUOUS
 62
     7
 10
-761.17822000000001
 20
463.08584999999999
 30
0.0
 40
1.9992490000000001
 50
190.64309999999981
 51
270.14742999999999
  0
ARC
  5
94F
  8
0
  6
CONTINUOUS
 62
     7
 10
-761.12694999999985
 20
460.23696999999993
 30
0.0
 40
2.000420099999999
 50
188.92681999999991
 51
269.82270999999992
  0
ARC
  5
950
  8
0
  6
CONTINUOUS
 62
     7
 10
-675.86950999999965
 20
453.36660999999992
 30
0.0
 40
1.5
 50
90.000003000000007
 51
178.5
  0
ARC
  5
951
  8
0
  6
CONTINUOUS
 62
     3
 10
-664.36694
 20
456.36660999999981
 30
0.0
 40
1.5
 50
269.99998999999991
 51
327.0
  0
ARC
  5
952
  8
0
  6
CONTINUOUS
 62
     7
 10
-761.39647999999988
 20
460.23659999999978
 30
0.0
 40
2.0
 50
188.6296199999999
 51
269.99998999999991
  0
ARC
  5
953
  8
0
  6
CONTINUOUS
 62
     7
 10
-761.47692999999981
 20
460.23659999999978
 30
0.0
 40
2.0
 50
187.9504399999999
 51
269.99998999999991
  0
ARC
  5
954
  8
0
  6
CONTINUOUS
 62
     7
 10
-738.98499000000004
 20
456.73659999999978
 30
0.0
 40
1.5
 50
1.500002699999998
 51
90.000003000000007
  0
ARC
  5
955
  8
0
  6
CONTINUOUS
 62
     7
 10
-727.94445999999971
 20
532.36657999999966
 30
0.0
 40
1.0000056999999991
 50
269.99998999999991
 51
90.000003000000007
  0
ARC
  5
956
  8
0
  6
CONTINUOUS
 62
     7
 10
-727.94445999999971
 20
522.36658
 30
0.0
 40
1.0000056999999991
 50
269.99998999999991
 51
90.000003000000007
  0
ARC
  5
957
  8
0
  6
CONTINUOUS
 62
     7
 10
-727.94445999999971
 20
512.36658
 30
0.0
 40
1.0000056999999991
 50
269.99998999999991
 51
90.000003000000007
  0
ARC
  5
958
  8
0
  6
CONTINUOUS
 62
     7
 10
-727.94445999999971
 20
502.36660999999981
 30
0.0
 40
1.0000056999999991
 50
269.99998999999991
 51
90.000003000000007
  0
ARC
  5
959
  8
0
  6
CONTINUOUS
 62
     7
 10
-677.38317999999981
 20
484.86660999999992
 30
0.0
 40
1.5
 50
179.99998999999991
 51
270.0
  0
ARC
  5
95A
  8
0
  6
CONTINUOUS
 62
     7
 10
-695.3831799999997
 20
484.86660999999992
 30
0.0
 40
1.5
 50
269.99998999999991
 51
0.00000068324516
  0
ARC
  5
95B
  8
0
  6
CONTINUOUS
 62
     7
 10
-695.36315999999999
 20
485.00661999999988
 30
0.0
 40
1.0
 50
269.99998999999991
 51
0.00000068324625
  0
ARC
  5
95C
  8
0
  6
CONTINUOUS
 62
     7
 10
-677.40307999999982
 20
485.00661999999988
 30
0.0
 40
1.0
 50
179.99998999999991
 51
270.0
  0
CIRCLE
  5
95D
  8
0
  6
CONTINUOUS
 62
     3
 10
-688.88317999999981
 20
545.86658
 30
0.0
 40
1.1000000000000001
  0
CIRCLE
  5
95E
  8
0
  6
CONTINUOUS
 62
     3
 10
-688.88317999999981
 20
545.86658
 30
0.0
 40
1.149999999999999
  0
CIRCLE
  5
95F
  8
0
  6
CONTINUOUS
 62
     3
 10
-683.88317999999981
 20
545.86658
 30
0.0
 40
1.0
  0
ARC
  5
960
  8
0
  6
CONTINUOUS
 62
     7
 10
-695.3831799999997
 20
544.86657999999966
 30
0.0
 40
1.02
 50
269.99998999999991
 51
0.00000068324403
  0
ARC
  5
961
  8
0
  6
CONTINUOUS
 62
     7
 10
-677.38317999999981
 20
544.86657999999966
 30
0.0
 40
1.02
 50
179.99998999999991
 51
270.0
  0
ARC
  5
962
  8
0
  6
CONTINUOUS
 62
     7
 10
-695.3831799999997
 20
544.86657999999966
 30
0.0
 40
1.5
 50
269.99998999999991
 51
0.00000068324733
  0
ARC
  5
963
  8
0
  6
CONTINUOUS
 62
     7
 10
-677.38317999999981
 20
544.86657999999966
 30
0.0
 40
1.5
 50
179.99998999999991
 51
270.0
  0
CIRCLE
  5
964
  8
0
  6
CONTINUOUS
 62
     3
 10
-683.88317999999981
 20
488.86660999999998
 30
0.0
 40
1.0
  0
CIRCLE
  5
965
  8
0
  6
CONTINUOUS
 62
     3
 10
-688.88317999999981
 20
488.86660999999998
 30
0.0
 40
1.149999999999999
  0
CIRCLE
  5
966
  8
0
  6
CONTINUOUS
 62
     3
 10
-688.88317999999981
 20
488.86660999999998
 30
0.0
 40
1.1000000000000001
  0
ARC
  5
967
  8
0
  6
CONTINUOUS
 62
     7
 10
-695.3831799999997
 20
489.86660999999981
 30
0.0
 40
1.02
 50
0.0
 51
90.000003000000007
  0
ARC
  5
968
  8
0
  6
CONTINUOUS
 62
     7
 10
-677.38317999999981
 20
489.86660999999981
 30
0.0
 40
1.02
 50
90.000003000000007
 51
180.00001
  0
ARC
  5
969
  8
0
  6
CONTINUOUS
 62
     7
 10
-695.3831799999997
 20
489.86660999999981
 30
0.0
 40
1.5
 50
0.0
 51
90.000003000000007
  0
ARC
  5
96A
  8
0
  6
CONTINUOUS
 62
     7
 10
-677.38317999999981
 20
489.86660999999981
 30
0.0
 40
1.5
 50
90.000003000000007
 51
180.00001
  0
ARC
  5
96B
  8
0
  6
CONTINUOUS
 62
     7
 10
-726.71813999999983
 20
502.35660000000001
 30
0.0
 40
1.3300148000000001
 50
269.72941999999989
 51
90.270567000000014
  0
ARC
  5
96C
  8
0
  6
CONTINUOUS
 62
     7
 10
-726.65625
 20
512.36658
 30
0.0
 40
1.2700266
 50
269.62931999999989
 51
90.370669999999961
  0
ARC
  5
96D
  8
0
  6
CONTINUOUS
 62
     7
 10
-726.65625
 20
522.37658999999996
 30
0.0
 40
1.2700266
 50
269.62931999999989
 51
90.370669999999961
  0
ARC
  5
96E
  8
0
  6
CONTINUOUS
 62
     7
 10
-726.71813999999983
 20
532.38158999999985
 30
0.0
 40
1.3350147999999991
 50
269.73043000000001
 51
90.269555999999994
  0
ARC
  5
96F
  8
0
  6
CONTINUOUS
 62
     7
 10
-663.04309000000001
 20
542.36658
 30
0.0
 40
1.0000255999999981
 50
269.58947000000001
 51
90.410531000000006
  0
ARC
  5
970
  8
0
  6
CONTINUOUS
 62
     7
 10
-659.34313999999995
 20
542.39661000000001
 30
0.0
 40
1.460011199999999
 50
269.77525000000003
 51
90.224749999999986
  0
ARC
  5
971
  8
0
  6
CONTINUOUS
 62
     7
 10
-663.04309000000001
 20
492.36660999999998
 30
0.0
 40
1.0000255999999981
 50
269.58947000000001
 51
90.410531000000006
  0
ARC
  5
972
  8
0
  6
CONTINUOUS
 62
     7
 10
-659.34313999999995
 20
492.33658000000003
 30
0.0
 40
1.460011199999999
 50
269.77525000000003
 51
90.224749999999986
  0
ARC
  5
973
  8
0
  6
CONTINUOUS
 62
     7
 10
-677.40307999999982
 20
549.72655999999995
 30
0.0
 40
1.0
 50
90.000003000000007
 51
180.00001
  0
ARC
  5
974
  8
0
  6
CONTINUOUS
 62
     7
 10
-677.38317999999981
 20
549.86658
 30
0.0
 40
1.5
 50
90.000003000000007
 51
180.00001
  0
ARC
  5
975
  8
0
  6
CONTINUOUS
 62
     7
 10
-695.3831799999997
 20
549.86658
 30
0.0
 40
1.5
 50
0.0
 51
90.000003000000007
  0
ARC
  5
976
  8
0
  6
CONTINUOUS
 62
     7
 10
-695.36315999999999
 20
549.72655999999995
 30
0.0
 40
1.0
 50
0.0
 51
90.000003000000007
  0
ARC
  5
977
  8
0
  6
CONTINUOUS
 62
     7
 10
-612.29076999999995
 20
482.42666999999989
 30
0.0
 40
3.0
 50
30.468077000000001
 51
90.000003000000007
  0
ARC
  5
978
  8
0
  6
CONTINUOUS
 62
     7
 10
-612.29076999999995
 20
552.30651999999986
 30
0.0
 40
3.0
 50
270.0
 51
329.53192000000001
  0
POLYLINE
  5
979
  8
0
  6
CONTINUOUS
 62
     7
 66
     1
 10
0.0
 20
0.0
 30
0.0
  0
VERTEX
  5
97A
  8
0
  6
CONTINUOUS
 62
     7
 10
-490.11516999999981
 20
237.01912999999999
 30
0.0
 42
0.038756923
  0
VERTEX
  5
97B
  8
0
  6
CONTINUOUS
 62
     7
 10
-487.36716999999999
 20
239.92982000000001
 30
0.0
 42
0.045303537
  0
VERTEX
  5
97C
  8
0
  6
CONTINUOUS
 62
     7
 10
-485.14472999999998
 20
243.25736000000001
 30
0.0
 42
0.052102721
  0
VERTEX
  5
97D
  8
0
  6
CONTINUOUS
 62
     7
 10
-483.60908000000001
 20
246.95045999999999
 30
0.0
 42
0.057245123
  0
VERTEX
  5
97E
  8
0
  6
CONTINUOUS
 62
     7
 10
-482.91343999999998
 20
250.8878999999998
 30
0.0
 42
0.058435545
  0
VERTEX
  5
97F
  8
0
  6
CONTINUOUS
 62
     7
 10
-483.14281999999992
 20
254.87832
 30
0.0
 42
0.055063666
  0
VERTEX
  5
980
  8
0
  6
CONTINUOUS
 62
     7
 10
-484.26754
 20
258.71462000000002
 30
0.0
 42
0.048817071
  0
VERTEX
  5
981
  8
0
  6
CONTINUOUS
 62
     7
 10
-486.16117000000003
 20
262.23786000000001
 30
0.0
 42
0.041970357
  0
VERTEX
  5
982
  8
0
  6
CONTINUOUS
 62
     7
 10
-488.66007000000002
 20
265.36277000000001
 30
0.0
 42
0.035917002
  0
VERTEX
  5
983
  8
0
  6
CONTINUOUS
 62
     7
 10
-491.61365000000001
 20
268.06423000000001
 30
0.0
 42
0.031073452
  0
VERTEX
  5
984
  8
0
  6
CONTINUOUS
 62
     7
 10
-494.90188000000001
 20
270.34885000000003
 30
0.0
 42
0.027379113
  0
VERTEX
  5
985
  8
0
  6
CONTINUOUS
 62
     7
 10
-498.43397999999979
 20
272.23561999999998
 30
0.0
 42
0.024645384
  0
VERTEX
  5
986
  8
0
  6
CONTINUOUS
 62
     7
 10
-502.14310999999998
 20
273.74642999999992
 30
0.0
 42
0.022676135
  0
VERTEX
  5
987
  8
0
  6
CONTINUOUS
 62
     7
 10
-505.97857999999991
 20
274.90079999999989
 30
0.0
 42
0.021320556
  0
VERTEX
  5
988
  8
0
  6
CONTINUOUS
 62
     7
 10
-509.9010599999998
 20
275.71435000000002
 30
0.0
 42
0.020470534
  0
VERTEX
  5
989
  8
0
  6
CONTINUOUS
 62
     7
 10
-513.87797999999998
 20
276.19812999999982
 30
0.0
 42
0.02005884
  0
VERTEX
  5
98A
  8
0
  6
CONTINUOUS
 62
     7
 10
-517.88070000000005
 20
276.35876000000002
 30
0.0
  0
SEQEND
  5
98B
  8
0
 62
     7
  0
POLYLINE
  5
98C
  8
0
  6
CONTINUOUS
 62
     7
 66
     1
 10
0.0
 20
0.0
 30
0.0
  0
VERTEX
  5
98D
  8
0
  6
CONTINUOUS
 62
     7
 10
-484.42714999999993
 20
254.1898299999998
 30
0.0
 42
0.046361966
  0
VERTEX
  5
98E
  8
0
  6
CONTINUOUS
 62
     7
 10
-486.28160000000003
 20
255.24851000000001
 30
0.0
 42
0.024111994
  0
VERTEX
  5
98F
  8
0
  6
CONTINUOUS
 62
     7
 10
-488.26353999999981
 20
256.04887000000002
 30
0.0
 42
0.015472906
  0
VERTEX
  5
990
  8
0
  6
CONTINUOUS
 62
     7
 10
-490.30187999999993
 20
256.69353999999998
 30
0.0
 42
0.011171192
  0
VERTEX
  5
991
  8
0
  6
CONTINUOUS
 62
     7
 10
-492.37220999999988
 20
257.2303
 30
0.0
 42
0.0086838962
  0
VERTEX
  5
992
  8
0
  6
CONTINUOUS
 62
     7
 10
-494.46188999999998
 20
257.68504000000001
 30
0.0
 42
0.0071076667
  0
VERTEX
  5
993
  8
0
  6
CONTINUOUS
 62
     7
 10
-496.56485999999973
 20
258.07391999999999
 30
0.0
 42
0.0060432581
  0
VERTEX
  5
994
  8
0
  6
CONTINUOUS
 62
     7
 10
-498.67762999999979
 20
258.40762000000001
 30
0.0
 42
0.0052890212
  0
VERTEX
  5
995
  8
0
  6
CONTINUOUS
 62
     7
 10
-500.79691999999989
 20
258.69341999999989
 30
0.0
 42
0.0047417436
  0
VERTEX
  5
996
  8
0
  6
CONTINUOUS
 62
     7
 10
-502.92207000000002
 20
258.93679999999989
 30
0.0
 42
0.00433496
  0
VERTEX
  5
997
  8
0
  6
CONTINUOUS
 62
     7
 10
-505.05178000000001
 20
259.14166999999992
 30
0.0
 42
0.0040290458
  0
VERTEX
  5
998
  8
0
  6
CONTINUOUS
 62
     7
 10
-507.18459000000001
 20
259.31094000000002
 30
0.0
 42
0.0038003144
  0
VERTEX
  5
999
  8
0
  6
CONTINUOUS
 62
     7
 10
-509.31983000000002
 20
259.44682999999992
 30
0.0
 42
0.003632296
  0
VERTEX
  5
99A
  8
0
  6
CONTINUOUS
 62
     7
 10
-511.45692000000003
 20
259.55099999999987
 30
0.0
 42
0.0035140999
  0
VERTEX
  5
99B
  8
0
  6
CONTINUOUS
 62
     7
 10
-513.59532999999965
 20
259.62464
 30
0.0
 42
0.0034386687
  0
VERTEX
  5
99C
  8
0
  6
CONTINUOUS
 62
     7
 10
-515.7345499999999
 20
259.66856000000001
 30
0.0
 42
0.0034018291
  0
VERTEX
  5
99D
  8
0
  6
CONTINUOUS
 62
     7
 10
-517.87414999999999
 20
259.68322999999992
 30
0.0
  0
SEQEND
  5
99E
  8
0
 62
     7
  0
POLYLINE
  5
99F
  8
0
  6
CONTINUOUS
 62
     7
 66
     1
 10
0.0
 20
0.0
 30
0.0
  0
VERTEX
  5
9A0
  8
0
  6
CONTINUOUS
 62
     7
 10
-760.52097999999989
 20
180.0348699999999
 30
0.0
  0
VERTEX
  5
9A1
  8
0
  6
CONTINUOUS
 62
     7
 10
-759.56050000000005
 20
186.91650999999999
 30
0.0
 42
-1.0
  0
SEQEND
  5
9A2
  8
0
 62
     7
  0
POLYLINE
  5
9A3
  8
0
  6
CONTINUOUS
 62
     7
 66
     1
 10
0.0
 20
0.0
 30
0.0
  0
VERTEX
  5
9A4
  8
0
  6
CONTINUOUS
 62
     7
 10
-761.50272999999981
 20
169.89049
 30
0.0
  0
VERTEX
  5
9A5
  8
0
  6
CONTINUOUS
 62
     7
 10
-760.85667999999998
 20
177.11141000000001
 30
0.0
 42
-1.0
  0
SEQEND
  5
9A6
  8
0
 62
     7
  0
POLYLINE
  5
9A7
  8
0
  6
CONTINUOUS
 62
     7
 66
     1
 10
0.0
 20
0.0
 30
0.0
  0
VERTEX
  5
9A8
  8
0
  6
CONTINUOUS
 62
     7
 10
-761.97439999999983
 20
159.81923
 30
0.0
  0
VERTEX
  5
9A9
  8
0
  6
CONTINUOUS
 62
     7
 10
-761.6757299999997
 20
167.22926000000001
 30
0.0
 42
-1.0
  0
SEQEND
  5
9AA
  8
0
 62
     7
  0
POLYLINE
  5
9AB
  8
0
  6
CONTINUOUS
 62
     7
 66
     1
 10
0.0
 20
0.0
 30
0.0
  0
VERTEX
  5
9AC
  8
0
  6
CONTINUOUS
 62
     7
 10
-762.01775999999984
 20
153.54793999999981
 30
0.0
  0
VERTEX
  5
9AD
  8
0
  6
CONTINUOUS
 62
     7
 10
-762.01503999999989
 20
157.28041999999999
 30
0.0
 42
-1.0
  0
SEQEND
  5
9AE
  8
0
 62
     7
  0
POLYLINE
  5
9AF
  8
0
  6
CONTINUOUS
 62
     7
 66
     1
 10
0.0
 20
0.0
 30
0.0
  0
VERTEX
  5
9B0
  8
0
  6
CONTINUOUS
 62
     7
 10
-760.52097999999989
 20
127.06095000000001
 30
0.0
  0
VERTEX
  5
9B1
  8
0
  6
CONTINUOUS
 62
     7
 10
-759.56050000000005
 20
120.17936
 30
0.0
 42
-1.0
  0
SEQEND
  5
9B2
  8
0
 62
     7
  0
POLYLINE
  5
9B3
  8
0
  6
CONTINUOUS
 62
     7
 66
     1
 10
0.0
 20
0.0
 30
0.0
  0
VERTEX
  5
9B4
  8
0
  6
CONTINUOUS
 62
     7
 10
-761.50272999999981
 20
137.20535000000001
 30
0.0
  0
VERTEX
  5
9B5
  8
0
  6
CONTINUOUS
 62
     7
 10
-760.85667999999998
 20
129.98441
 30
0.0
 42
-1.0
  0
SEQEND
  5
9B6
  8
0
 62
     7
  0
POLYLINE
  5
9B7
  8
0
  6
CONTINUOUS
 62
     7
 66
     1
 10
0.0
 20
0.0
 30
0.0
  0
VERTEX
  5
9B8
  8
0
  6
CONTINUOUS
 62
     7
 10
-761.97439999999983
 20
147.27664999999979
 30
0.0
  0
VERTEX
  5
9B9
  8
0
  6
CONTINUOUS
 62
     7
 10
-761.6757299999997
 20
139.86659
 30
0.0
 42
-1.0
  0
SEQEND
  5
9BA
  8
0
 62
     7
  0
POLYLINE
  5
9BB
  8
0
  6
CONTINUOUS
 62
     7
 66
     1
 10
0.0
 20
0.0
 30
0.0
  0
VERTEX
  5
9BC
  8
0
  6
CONTINUOUS
 62
     7
 10
-762.01775999999984
 20
153.54793999999981
 30
0.0
  0
VERTEX
  5
9BD
  8
0
  6
CONTINUOUS
 62
     7
 10
-762.01503999999989
 20
149.81547
 30
0.0
 42
-1.0
  0
SEQEND
  5
9BE
  8
0
 62
     7
  0
POLYLINE
  5
9BF
  8
0
  6
CONTINUOUS
 62
     7
 66
     1
 10
0.0
 20
0.0
 30
0.0
  0
VERTEX
  5
9C0
  8
0
  6
CONTINUOUS
 62
     7
 10
-517.88317999999992
 20
594.78339000000005
 30
0.0
 42
-0.040442832
  0
VERTEX
  5
9C1
  8
0
  6
CONTINUOUS
 62
     7
 10
-506.35500000000002
 20
594.56003999999996
 30
0.0
 42
-0.042469875
  0
VERTEX
  5
9C2
  8
0
  6
CONTINUOUS
 62
     7
 10
-495.02127999999999
 20
592.44655999999975
 30
0.0
 42
-0.022671837
  0
VERTEX
  5
9C3
  8
0
  6
CONTINUOUS
 62
     7
 10
-489.53679
 20
590.65561999999977
 30
0.0
  0
VERTEX
  5
9C4
  8
0
  6
CONTINUOUS
 62
     7
 10
-484.23117000000002
 20
588.38679000000002
 30
0.0
 42
-1.0
  0
SEQEND
  5
9C5
  8
0
 62
     7
  0
POLYLINE
  5
9C6
  8
0
  6
CONTINUOUS
 62
     7
 66
     1
 10
0.0
 20
0.0
 30
0.0
  0
VERTEX
  5
9C7
  8
0
  6
CONTINUOUS
 62
     7
 10
-517.88317999999992
 20
439.94982999999991
 30
0.0
 42
0.040442845
  0
VERTEX
  5
9C8
  8
0
  6
CONTINUOUS
 62
     7
 10
-506.35498999999987
 20
440.17317000000003
 30
0.0
 42
0.04246989
  0
VERTEX
  5
9C9
  8
0
  6
CONTINUOUS
 62
     7
 10
-495.02127999999999
 20
442.28665000000001
 30
0.0
 42
0.022672802
  0
VERTEX
  5
9CA
  8
0
  6
CONTINUOUS
 62
     7
 10
-489.53677999999979
 20
444.07760000000002
 30
0.0
  0
VERTEX
  5
9CB
  8
0
  6
CONTINUOUS
 62
     7
 10
-484.23117000000002
 20
446.34645999999998
 30
0.0
 42
-1.0
  0
SEQEND
  5
9CC
  8
0
 62
     7
  0
POLYLINE
  5
9CD
  8
0
  6
CONTINUOUS
 62
     7
 66
     1
 10
0.0
 20
0.0
 30
0.0
  0
VERTEX
  5
9CE
  8
0
  6
CONTINUOUS
 62
     7
 10
-517.88317999999992
 20
487.09017999999992
 30
0.0
 42
-0.070055462
  0
VERTEX
  5
9CF
  8
0
  6
CONTINUOUS
 62
     7
 10
-491.52250999999978
 20
466.89283999999992
 30
0.0
 42
-0.27110597
  0
VERTEX
  5
9D0
  8
0
  6
CONTINUOUS
 62
     7
 10
-482.88314999999989
 20
447.00949000000003
 30
0.0
 42
-0.2130317
  0
VERTEX
  5
9D1
  8
0
  6
CONTINUOUS
 62
     7
 10
-502.47360999999989
 20
428.87467999999961
 30
0.0
  0
VERTEX
  5
9D2
  8
0
  6
CONTINUOUS
 62
     7
 10
-517.88317999999992
 20
422.57641999999993
 30
0.0
 42
-1.0
  0
SEQEND
  5
9D3
  8
0
 62
     7
  0
POLYLINE
  5
9D4
  8
0
  6
CONTINUOUS
 62
     7
 66
     1
 10
0.0
 20
0.0
 30
0.0
  0
VERTEX
  5
9D5
  8
0
  6
CONTINUOUS
 62
     7
 10
-517.88317999999992
 20
547.64306999999985
 30
0.0
 42
0.070055443
  0
VERTEX
  5
9D6
  8
0
  6
CONTINUOUS
 62
     7
 10
-491.52250999999978
 20
567.84040999999979
 30
0.0
 42
0.27110593
  0
VERTEX
  5
9D7
  8
0
  6
CONTINUOUS
 62
     7
 10
-482.88314999999989
 20
587.72374999999965
 30
0.0
 42
0.21303199
  0
VERTEX
  5
9D8
  8
0
  6
CONTINUOUS
 62
     7
 10
-502.47360999999989
 20
605.85854000000006
 30
0.0
  0
VERTEX
  5
9D9
  8
0
  6
CONTINUOUS
 62
     7
 10
-517.88317999999992
 20
612.15679999999986
 30
0.0
 42
-1.0
  0
SEQEND
  5
9DA
  8
0
 62
     7
  0
POLYLINE
  5
9DB
  8
0
  6
CONTINUOUS
 62
     7
 66
     1
 10
0.0
 20
0.0
 30
0.0
  0
VERTEX
  5
9DC
  8
0
  6
CONTINUOUS
 62
     7
 10
-621.41357000000005
 20
530.36631
 30
0.0
  0
VERTEX
  5
9DD
  8
0
  6
CONTINUOUS
 62
     7
 10
-613.98631
 20
549.30574000000001
 30
0.0
 42
-1.0
  0
SEQEND
  5
9DE
  8
0
 62
     7
  0
POLYLINE
  5
9DF
  8
0
  6
CONTINUOUS
 62
     7
 66
     1
 10
0.0
 20
0.0
 30
0.0
  0
VERTEX
  5
9E0
  8
0
  6
CONTINUOUS
 62
     7
 10
-605.26337999999976
 20
562.78471999999965
 30
0.0
 42
-0.011693563
  0
VERTEX
  5
9E1
  8
0
  6
CONTINUOUS
 62
     7
 10
-601.70050000000003
 20
567.28108999999995
 30
0.0
 42
-0.011216838
  0
VERTEX
  5
9E2
  8
0
  6
CONTINUOUS
 62
     7
 10
-597.93561999999963
 20
571.60985000000005
 30
0.0
 42
-0.011000316
  0
VERTEX
  5
9E3
  8
0
  6
CONTINUOUS
 62
     7
 10
-593.98352
 20
575.76629999999989
 30
0.0
  0
SEQEND
  5
9E4
  8
0
 62
     7
  0
POLYLINE
  5
9E5
  8
0
  6
CONTINUOUS
 62
     7
 66
     1
 10
0.0
 20
0.0
 30
0.0
  0
VERTEX
  5
9E6
  8
0
  6
CONTINUOUS
 62
     7
 10
-609.70510000000002
 20
550.78536999999994
 30
0.0
 42
-0.0058779419
  0
VERTEX
  5
9E7
  8
0
  6
CONTINUOUS
 62
     7
 10
-608.49547999999982
 20
552.78695000000005
 30
0.0
 42
-0.0056588802
  0
VERTEX
  5
9E8
  8
0
  6
CONTINUOUS
 62
     7
 10
-607.24000999999998
 20
554.76011000000005
 30
0.0
 42
-0.0054619308
  0
VERTEX
  5
9E9
  8
0
  6
CONTINUOUS
 62
     7
 10
-605.94096999999977
 20
556.70486000000005
 30
0.0
 42
-0.0052861438
  0
VERTEX
  5
9EA
  8
0
  6
CONTINUOUS
 62
     7
 10
-604.60044000000005
 20
558.62126000000001
 30
0.0
  0
SEQEND
  5
9EB
  8
0
 62
     7
  0
POLYLINE
  5
9EC
  8
0
  6
CONTINUOUS
 62
     7
 66
     1
 10
0.0
 20
0.0
 30
0.0
  0
VERTEX
  5
9ED
  8
0
  6
CONTINUOUS
 62
     7
 10
-621.41357000000005
 20
504.36684999999989
 30
0.0
  0
VERTEX
  5
9EE
  8
0
  6
CONTINUOUS
 62
     7
 10
-613.98631
 20
485.42745000000002
 30
0.0
 42
-1.0
  0
SEQEND
  5
9EF
  8
0
 62
     7
  0
POLYLINE
  5
9F0
  8
0
  6
CONTINUOUS
 62
     7
 66
     1
 10
0.0
 20
0.0
 30
0.0
  0
VERTEX
  5
9F1
  8
0
  6
CONTINUOUS
 62
     7
 10
-605.26337999999976
 20
471.94848999999999
 30
0.0
 42
0.011693535
  0
VERTEX
  5
9F2
  8
0
  6
CONTINUOUS
 62
     7
 10
-601.70050000000003
 20
467.45211999999998
 30
0.0
 42
0.011216789
  0
VERTEX
  5
9F3
  8
0
  6
CONTINUOUS
 62
     7
 10
-597.93561999999963
 20
463.12335999999988
 30
0.0
 42
0.011000239
  0
VERTEX
  5
9F4
  8
0
  6
CONTINUOUS
 62
     7
 10
-593.98352
 20
458.96692000000002
 30
0.0
  0
SEQEND
  5
9F5
  8
0
 62
     7
  0
POLYLINE
  5
9F6
  8
0
  6
CONTINUOUS
 62
     7
 66
     1
 10
0.0
 20
0.0
 30
0.0
  0
VERTEX
  5
9F7
  8
0
  6
CONTINUOUS
 62
     7
 10
-609.70510000000002
 20
483.94781999999998
 30
0.0
 42
0.0058779451
  0
VERTEX
  5
9F8
  8
0
  6
CONTINUOUS
 62
     7
 10
-608.49547999999982
 20
481.94623999999988
 30
0.0
 42
0.0056588807
  0
VERTEX
  5
9F9
  8
0
  6
CONTINUOUS
 62
     7
 10
-607.24000999999998
 20
479.97309000000001
 30
0.0
 42
0.0054619285
  0
VERTEX
  5
9FA
  8
0
  6
CONTINUOUS
 62
     7
 10
-605.94096999999977
 20
478.02834000000001
 30
0.0
 42
0.0052861386
  0
VERTEX
  5
9FB
  8
0
  6
CONTINUOUS
 62
     7
 10
-604.60044000000005
 20
476.11194000000012
 30
0.0
  0
SEQEND
  5
9FC
  8
0
 62
     7
  0
POLYLINE
  5
9FD
  8
0
  6
CONTINUOUS
 62
     7
 66
     1
 10
0.0
 20
0.0
 30
0.0
  0
VERTEX
  5
9FE
  8
0
  6
CONTINUOUS
 62
     7
 10
-762.02306999999985
 20
517.36658
 30
0.0
 42
0.00034747624
  0
VERTEX
  5
9FF
  8
0
  6
CONTINUOUS
 62
     7
 10
-762.02547000000004
 20
517.05544000000009
 30
0.0
 42
0.00040574226
  0
VERTEX
  5
A00
  8
0
  6
CONTINUOUS
 62
     7
 10
-762.02737999999988
 20
516.74433999999985
 30
0.0
 42
0.00039705228
  0
VERTEX
  5
A01
  8
0
  6
CONTINUOUS
 62
     7
 10
-762.02880999999979
 20
516.43322999999987
 30
0.0
 42
0.00038766499
  0
VERTEX
  5
A02
  8
0
  6
CONTINUOUS
 62
     7
 10
-762.02973999999983
 20
516.12208999999996
 30
0.0
 42
0.00040613775
  0
VERTEX
  5
A03
  8
0
  6
CONTINUOUS
 62
     7
 10
-762.03018999999983
 20
515.81097999999997
 30
0.0
 42
0.0003557185
  0
VERTEX
  5
A04
  8
0
  6
CONTINUOUS
 62
     7
 10
-762.03015000000005
 20
515.49987999999985
 30
0.0
 42
0.00034187241
  0
VERTEX
  5
A05
  8
0
  6
CONTINUOUS
 62
     7
 10
-762.02970000000005
 20
515.18874000000005
 30
0.0
 42
0.00040586797
  0
VERTEX
  5
A06
  8
0
  6
CONTINUOUS
 62
     7
 10
-762.02875999999981
 20
514.87764000000004
 30
0.0
 42
0.00040118612
  0
VERTEX
  5
A07
  8
0
  6
CONTINUOUS
 62
     7
 10
-762.02733999999998
 20
514.56641000000002
 30
0.0
 42
0.00038319875
  0
VERTEX
  5
A08
  8
0
  6
CONTINUOUS
 62
     7
 10
-762.02543000000003
 20
514.25527
 30
0.0
 42
0.00040742134
  0
VERTEX
  5
A09
  8
0
  6
CONTINUOUS
 62
     7
 10
-762.02302999999984
 20
513.94403999999986
 30
0.0
 42
0.00035780707
  0
VERTEX
  5
A0A
  8
0
  6
CONTINUOUS
 62
     7
 10
-762.02013999999986
 20
513.63292999999976
 30
0.0
  0
SEQEND
  5
A0B
  8
0
 62
     7
  0
POLYLINE
  5
A0C
  8
0
  6
CONTINUOUS
 62
     7
 66
     1
 10
0.0
 20
0.0
 30
0.0
  0
VERTEX
  5
A0D
  8
0
  6
CONTINUOUS
 62
     7
 10
-761.97899999999981
 20
511.09622000000002
 30
0.0
 42
0.00074501045
  0
VERTEX
  5
A0E
  8
0
  6
CONTINUOUS
 62
     7
 10
-761.96424999999999
 20
510.47845999999998
 30
0.0
 42
0.00078382358
  0
VERTEX
  5
A0F
  8
0
  6
CONTINUOUS
 62
     7
 10
-761.94760999999983
 20
509.86085999999989
 30
0.0
 42
0.00074332135
  0
VERTEX
  5
A10
  8
0
  6
CONTINUOUS
 62
     7
 10
-761.92907999999989
 20
509.24319000000003
 30
0.0
 42
0.0007514447
  0
VERTEX
  5
A11
  8
0
  6
CONTINUOUS
 62
     7
 10
-761.90870999999981
 20
508.62558999999999
 30
0.0
 42
0.00073475781
  0
VERTEX
  5
A12
  8
0
  6
CONTINUOUS
 62
     7
 10
-761.88648999999998
 20
508.0081599999998
 30
0.0
 42
0.00077737158
  0
VERTEX
  5
A13
  8
0
  6
CONTINUOUS
 62
     7
 10
-761.86243000000002
 20
507.39077999999989
 30
0.0
 42
0.00075773232
  0
VERTEX
  5
A14
  8
0
  6
CONTINUOUS
 62
     7
 10
-761.83645000000001
 20
506.77337999999997
 30
0.0
 42
0.00073477315
  0
VERTEX
  5
A15
  8
0
  6
CONTINUOUS
 62
     7
 10
-761.80860999999982
 20
506.1559899999998
 30
0.0
 42
0.00077014563
  0
VERTEX
  5
A16
  8
0
  6
CONTINUOUS
 62
     7
 10
-761.77892999999983
 20
505.53859999999992
 30
0.0
 42
0.00077088287
  0
VERTEX
  5
A17
  8
0
  6
CONTINUOUS
 62
     7
 10
-761.74733000000003
 20
504.92147
 30
0.0
 42
0.0007348301
  0
VERTEX
  5
A18
  8
0
  6
CONTINUOUS
 62
     7
 10
-761.71388999999999
 20
504.30444
 30
0.0
 42
0.00075616136
  0
VERTEX
  5
A19
  8
0
  6
CONTINUOUS
 62
     7
 10
-761.67858999999987
 20
503.68740999999989
 30
0.0
  0
SEQEND
  5
A1A
  8
0
 62
     7
  0
POLYLINE
  5
A1B
  8
0
  6
CONTINUOUS
 62
     7
 66
     1
 10
0.0
 20
0.0
 30
0.0
  0
VERTEX
  5
A1C
  8
0
  6
CONTINUOUS
 62
     7
 10
-761.50487999999984
 20
501.02602999999988
 30
0.0
 42
0.00073721998
  0
VERTEX
  5
A1D
  8
0
  6
CONTINUOUS
 62
     7
 10
-761.46073000000001
 20
500.42362000000003
 30
0.0
 42
0.00074398494
  0
VERTEX
  5
A1E
  8
0
  6
CONTINUOUS
 62
     7
 10
-761.41480000000001
 20
499.82135
 30
0.0
 42
0.00073322622
  0
VERTEX
  5
A1F
  8
0
  6
CONTINUOUS
 62
     7
 10
-761.36707000000001
 20
499.21902
 30
0.0
 42
0.00071357031
  0
VERTEX
  5
A20
  8
0
  6
CONTINUOUS
 62
     7
 10
-761.31763000000001
 20
498.61703
 30
0.0
 42
0.00079961878
  0
VERTEX
  5
A21
  8
0
  6
CONTINUOUS
 62
     7
 10
-761.26635999999985
 20
498.01517000000001
 30
0.0
 42
0.00070980539
  0
VERTEX
  5
A22
  8
0
  6
CONTINUOUS
 62
     7
 10
-761.21325999999988
 20
497.41336000000001
 30
0.0
 42
0.0007418407
  0
VERTEX
  5
A23
  8
0
  6
CONTINUOUS
 62
     7
 10
-761.15842999999984
 20
496.81182999999987
 30
0.0
 42
0.00069469606
  0
VERTEX
  5
A24
  8
0
  6
CONTINUOUS
 62
     7
 10
-761.10187999999982
 20
496.2106
 30
0.0
 42
0.00077213468
  0
VERTEX
  5
A25
  8
0
  6
CONTINUOUS
 62
     7
 10
-761.04358000000002
 20
495.60940999999991
 30
0.0
 42
0.00076522242
  0
VERTEX
  5
A26
  8
0
  6
CONTINUOUS
 62
     7
 10
-760.98338000000001
 20
495.00839000000002
 30
0.0
 42
0.0006989821
  0
VERTEX
  5
A27
  8
0
  6
CONTINUOUS
 62
     7
 10
-760.92145999999957
 20
494.40764000000001
 30
0.0
 42
0.00074640581
  0
VERTEX
  5
A28
  8
0
  6
CONTINUOUS
 62
     7
 10
-760.85779000000002
 20
493.80703999999992
 30
0.0
  0
SEQEND
  5
A29
  8
0
 62
     7
  0
POLYLINE
  5
A2A
  8
0
  6
CONTINUOUS
 62
     7
 66
     1
 10
0.0
 20
0.0
 30
0.0
  0
VERTEX
  5
A2B
  8
0
  6
CONTINUOUS
 62
     7
 10
-760.52221999999983
 20
490.88357999999999
 30
0.0
 42
0.0006890002
  0
VERTEX
  5
A2C
  8
0
  6
CONTINUOUS
 62
     7
 10
-760.45133999999985
 20
490.30882000000003
 30
0.0
 42
0.00067934106
  0
VERTEX
  5
A2D
  8
0
  6
CONTINUOUS
 62
     7
 10
-760.37885000000006
 20
489.73414000000002
 30
0.0
 42
0.00071569314
  0
VERTEX
  5
A2E
  8
0
  6
CONTINUOUS
 62
     7
 10
-760.30480999999975
 20
489.15982000000002
 30
0.0
 42
0.00069587808
  0
VERTEX
  5
A2F
  8
0
  6
CONTINUOUS
 62
     7
 10
-760.22912999999983
 20
488.58567999999991
 30
0.0
 42
0.00071687036
  0
VERTEX
  5
A30
  8
0
  6
CONTINUOUS
 62
     7
 10
-760.15182000000004
 20
488.01167999999973
 30
0.0
 42
0.00069759108
  0
VERTEX
  5
A31
  8
0
  6
CONTINUOUS
 62
     7
 10
-760.07287999999983
 20
487.43790000000001
 30
0.0
 42
0.000733212
  0
VERTEX
  5
A32
  8
0
  6
CONTINUOUS
 62
     7
 10
-759.99229000000003
 20
486.8644299999998
 30
0.0
 42
0.00064546132
  0
VERTEX
  5
A33
  8
0
  6
CONTINUOUS
 62
     7
 10
-759.91015000000004
 20
486.29131999999998
 30
0.0
 42
0.00074206151
  0
VERTEX
  5
A34
  8
0
  6
CONTINUOUS
 62
     7
 10
-759.82641999999998
 20
485.71829000000002
 30
0.0
 42
0.00073581337
  0
VERTEX
  5
A35
  8
0
  6
CONTINUOUS
 62
     7
 10
-759.74095
 20
485.14553000000001
 30
0.0
 42
0.0006891394
  0
VERTEX
  5
A36
  8
0
  6
CONTINUOUS
 62
     7
 10
-759.65389999999979
 20
484.57317999999998
 30
0.0
 42
0.00072290801
  0
VERTEX
  5
A37
  8
0
  6
CONTINUOUS
 62
     7
 10
-759.56519000000003
 20
484.00088999999991
 30
0.0
  0
SEQEND
  5
A38
  8
0
 62
     7
  0
POLYLINE
  5
A39
  8
0
  6
CONTINUOUS
 62
     7
 66
     1
 10
0.0
 20
0.0
 30
0.0
  0
VERTEX
  5
A3A
  8
0
  6
CONTINUOUS
 62
     7
 10
-762.02306999999985
 20
517.36658
 30
0.0
 42
-0.00034747674
  0
VERTEX
  5
A3B
  8
0
  6
CONTINUOUS
 62
     7
 10
-762.02547000000004
 20
517.67770999999993
 30
0.0
 42
-0.00040573838
  0
VERTEX
  5
A3C
  8
0
  6
CONTINUOUS
 62
     7
 10
-762.02737999999988
 20
517.98882000000003
 30
0.0
 42
-0.00039706109
  0
VERTEX
  5
A3D
  8
0
  6
CONTINUOUS
 62
     7
 10
-762.02880999999979
 20
518.29993000000002
 30
0.0
 42
-0.00038765727
  0
VERTEX
  5
A3E
  8
0
  6
CONTINUOUS
 62
     7
 10
-762.02973999999983
 20
518.61107000000004
 30
0.0
 42
-0.00040613428
  0
VERTEX
  5
A3F
  8
0
  6
CONTINUOUS
 62
     7
 10
-762.03018999999983
 20
518.92217000000005
 30
0.0
 42
-0.00035573428
  0
VERTEX
  5
A40
  8
0
  6
CONTINUOUS
 62
     7
 10
-762.03015000000005
 20
519.23328000000004
 30
0.0
 42
-0.00034185757
  0
VERTEX
  5
A41
  8
0
  6
CONTINUOUS
 62
     7
 10
-762.02970000000005
 20
519.54440999999986
 30
0.0
 42
-0.00040586499
  0
VERTEX
  5
A42
  8
0
  6
CONTINUOUS
 62
     7
 10
-762.02875999999981
 20
519.85551999999996
 30
0.0
 42
-0.00040120776
  0
VERTEX
  5
A43
  8
0
  6
CONTINUOUS
 62
     7
 10
-762.02733999999998
 20
520.16674999999998
 30
0.0
 42
-0.00038317826
  0
VERTEX
  5
A44
  8
0
  6
CONTINUOUS
 62
     7
 10
-762.02543000000003
 20
520.47788999999989
 30
0.0
 42
-0.0004074186
  0
VERTEX
  5
A45
  8
0
  6
CONTINUOUS
 62
     7
 10
-762.02302999999984
 20
520.78912000000003
 30
0.0
 42
-0.00035783321
  0
VERTEX
  5
A46
  8
0
  6
CONTINUOUS
 62
     7
 10
-762.02013999999986
 20
521.10022000000004
 30
0.0
  0
SEQEND
  5
A47
  8
0
 62
     7
  0
POLYLINE
  5
A48
  8
0
  6
CONTINUOUS
 62
     7
 66
     1
 10
0.0
 20
0.0
 30
0.0
  0
VERTEX
  5
A49
  8
0
  6
CONTINUOUS
 62
     7
 10
-761.97899999999981
 20
523.63695999999993
 30
0.0
 42
-0.00074497799
  0
VERTEX
  5
A4A
  8
0
  6
CONTINUOUS
 62
     7
 10
-761.96424999999999
 20
524.25473
 30
0.0
 42
-0.00078382106
  0
VERTEX
  5
A4B
  8
0
  6
CONTINUOUS
 62
     7
 10
-761.94760999999983
 20
524.87231999999995
 30
0.0
 42
-0.0007433568
  0
VERTEX
  5
A4C
  8
0
  6
CONTINUOUS
 62
     7
 10
-761.92907999999989
 20
525.48999000000003
 30
0.0
 42
-0.00075141079
  0
VERTEX
  5
A4D
  8
0
  6
CONTINUOUS
 62
     7
 10
-761.90870999999981
 20
526.10758999999985
 30
0.0
 42
-0.00073282875
  0
VERTEX
  5
A4E
  8
0
  6
CONTINUOUS
 62
     7
 10
-761.88648999999998
 20
526.72501999999986
 30
0.0
 42
-0.00077904702
  0
VERTEX
  5
A4F
  8
0
  6
CONTINUOUS
 62
     7
 10
-761.86243000000002
 20
527.34253000000001
 30
0.0
 42
-0.00075975985
  0
VERTEX
  5
A50
  8
0
  6
CONTINUOUS
 62
     7
 10
-761.83644000000004
 20
527.95991999999978
 30
0.0
 42
-0.0007324004
  0
VERTEX
  5
A51
  8
0
  6
CONTINUOUS
 62
     7
 10
-761.80860999999982
 20
528.57719999999995
 30
0.0
 42
-0.00077017552
  0
VERTEX
  5
A52
  8
0
  6
CONTINUOUS
 62
     7
 10
-761.77892999999983
 20
529.19457999999986
 30
0.0
 42
-0.00077085244
  0
VERTEX
  5
A53
  8
0
  6
CONTINUOUS
 62
     7
 10
-761.74733000000003
 20
529.81170999999995
 30
0.0
 42
-0.00073483086
  0
VERTEX
  5
A54
  8
0
  6
CONTINUOUS
 62
     7
 10
-761.71388999999999
 20
530.42873999999995
 30
0.0
 42
-0.00075618795
  0
VERTEX
  5
A55
  8
0
  6
CONTINUOUS
 62
     7
 10
-761.67858999999987
 20
531.04578000000004
 30
0.0
  0
SEQEND
  5
A56
  8
0
 62
     7
  0
POLYLINE
  5
A57
  8
0
  6
CONTINUOUS
 62
     7
 66
     1
 10
0.0
 20
0.0
 30
0.0
  0
VERTEX
  5
A58
  8
0
  6
CONTINUOUS
 62
     7
 10
-761.50487999999984
 20
533.70714999999996
 30
0.0
 42
-0.00073370515
  0
VERTEX
  5
A59
  8
0
  6
CONTINUOUS
 62
     7
 10
-761.46073999999965
 20
534.30957000000001
 30
0.0
 42
-0.0007521132
  0
VERTEX
  5
A5A
  8
0
  6
CONTINUOUS
 62
     7
 10
-761.41479000000004
 20
534.91195999999979
 30
0.0
 42
-0.00072974907
  0
VERTEX
  5
A5B
  8
0
  6
CONTINUOUS
 62
     7
 10
-761.36707000000001
 20
535.51415999999995
 30
0.0
 42
-0.00071355786
  0
VERTEX
  5
A5C
  8
0
  6
CONTINUOUS
 62
     7
 10
-761.31763000000001
 20
536.11615999999992
 30
0.0
 42
-0.00079962051
  0
VERTEX
  5
A5D
  8
0
  6
CONTINUOUS
 62
     7
 10
-761.26635999999985
 20
536.71801000000005
 30
0.0
 42
-0.00070981156
  0
VERTEX
  5
A5E
  8
0
  6
CONTINUOUS
 62
     7
 10
-761.21325999999988
 20
537.31982000000005
 30
0.0
 42
-0.00073754173
  0
VERTEX
  5
A5F
  8
0
  6
CONTINUOUS
 62
     7
 10
-761.15844000000004
 20
537.92136000000005
 30
0.0
 42
-0.00070466633
  0
VERTEX
  5
A60
  8
0
  6
CONTINUOUS
 62
     7
 10
-761.10186999999985
 20
538.52272000000005
 30
0.0
 42
-0.00076787225
  0
VERTEX
  5
A61
  8
0
  6
CONTINUOUS
 62
     7
 10
-761.04358000000002
 20
539.12377999999978
 30
0.0
 42
-0.00076521763
  0
VERTEX
  5
A62
  8
0
  6
CONTINUOUS
 62
     7
 10
-760.98338000000001
 20
539.72479999999985
 30
0.0
 42
-0.00069898529
  0
VERTEX
  5
A63
  8
0
  6
CONTINUOUS
 62
     7
 10
-760.92145999999957
 20
540.32555000000002
 30
0.0
 42
-0.00074640664
  0
VERTEX
  5
A64
  8
0
  6
CONTINUOUS
 62
     7
 10
-760.85779000000002
 20
540.92615000000001
 30
0.0
  0
SEQEND
  5
A65
  8
0
 62
     7
  0
POLYLINE
  5
A66
  8
0
  6
CONTINUOUS
 62
     7
 66
     1
 10
0.0
 20
0.0
 30
0.0
  0
VERTEX
  5
A67
  8
0
  6
CONTINUOUS
 62
     7
 10
-760.52221999999983
 20
543.84960999999998
 30
0.0
 42
-0.00068898293
  0
VERTEX
  5
A68
  8
0
  6
CONTINUOUS
 62
     7
 10
-760.45133999999985
 20
544.42435999999998
 30
0.0
 42
-0.00067933813
  0
VERTEX
  5
A69
  8
0
  6
CONTINUOUS
 62
     7
 10
-760.37885000000006
 20
544.99905000000001
 30
0.0
 42
-0.000715718
  0
VERTEX
  5
A6A
  8
0
  6
CONTINUOUS
 62
     7
 10
-760.30480999999975
 20
545.57335999999998
 30
0.0
 42
-0.0006958567
  0
VERTEX
  5
A6B
  8
0
  6
CONTINUOUS
 62
     7
 10
-760.22912999999983
 20
546.14750000000004
 30
0.0
 42
-0.00071687214
  0
VERTEX
  5
A6C
  8
0
  6
CONTINUOUS
 62
     7
 10
-760.15182000000004
 20
546.72149999999999
 30
0.0
 42
-0.00069760017
  0
VERTEX
  5
A6D
  8
0
  6
CONTINUOUS
 62
     7
 10
-760.07287999999983
 20
547.29529000000002
 30
0.0
 42
-0.00073320365
  0
VERTEX
  5
A6E
  8
0
  6
CONTINUOUS
 62
     7
 10
-759.99229000000003
 20
547.86875999999995
 30
0.0
 42
-0.00064546479
  0
VERTEX
  5
A6F
  8
0
  6
CONTINUOUS
 62
     7
 10
-759.91015000000004
 20
548.44185999999968
 30
0.0
 42
-0.00074205583
  0
VERTEX
  5
A70
  8
0
  6
CONTINUOUS
 62
     7
 10
-759.82641999999998
 20
549.01489000000004
 30
0.0
 42
-0.00073582106
  0
VERTEX
  5
A71
  8
0
  6
CONTINUOUS
 62
     7
 10
-759.74095
 20
549.58765000000005
 30
0.0
 42
-0.00068913793
  0
VERTEX
  5
A72
  8
0
  6
CONTINUOUS
 62
     7
 10
-759.65389999999979
 20
550.15999999999985
 30
0.0
 42
-0.00072288972
  0
VERTEX
  5
A73
  8
0
  6
CONTINUOUS
 62
     7
 10
-759.56519000000003
 20
550.73230000000001
 30
0.0
  0
SEQEND
  5
A74
  8
0
 62
     7
  0
TEXT
  5
D4C
  8
0
  6
CONTINUOUS
 62
     0
 10
-242.70542709786949
 20
501.84833869950791
 30
0.0
 40
10.0
  1
VX02-240M~VX02-600M
  0
ENDSEC
  0
EOF
