  0
SECTION
  2
HEADER
  9
$ACADVER
  1
AC1009
  9
$INSBASE
 10
0.0
 20
0.0
 30
0.0
  9
$EXTMIN
 10
-968.76342635669641
 20
107.5410695035996
 30
-0.0000000000112498
  9
$EXTMAX
 10
-75.22153905845289
 20
826.87889121347075
 30
0.0000000000002956
  9
$LIMMIN
 10
0.0
 20
0.0
  9
$LIMMAX
 10
12.0
 20
9.0
  9
$ORTHOMODE
 70
     0
  9
$REGENMODE
 70
     1
  9
$FILLMODE
 70
     1
  9
$QTEXTMODE
 70
     0
  9
$MIRRTEXT
 70
     1
  9
$DRAGMODE
 70
     2
  9
$LTSCALE
 40
1.0
  9
$OSMODE
 70
   551
  9
$ATTMODE
 70
     1
  9
$TEXTSIZE
 40
0.2
  9
$TRACEWID
 40
0.05
  9
$TEXTSTYLE
  7
STANDARD
  9
$CLAYER
  8
0
  9
$CELTYPE
  6
CONTINUOUS
  9
$CECOLOR
 62
   256
  9
$DIMSCALE
 40
1.0
  9
$DIMASZ
 40
0.18
  9
$DIMEXO
 40
0.0625
  9
$DIMDLI
 40
0.38
  9
$DIMRND
 40
0.0
  9
$DIMDLE
 40
0.0
  9
$DIMEXE
 40
0.18
  9
$DIMTP
 40
0.0
  9
$DIMTM
 40
0.0
  9
$DIMTXT
 40
0.18
  9
$DIMCEN
 40
0.09
  9
$DIMTSZ
 40
0.0
  9
$DIMTOL
 70
     0
  9
$DIMLIM
 70
     0
  9
$DIMTIH
 70
     1
  9
$DIMTOH
 70
     1
  9
$DIMSE1
 70
     0
  9
$DIMSE2
 70
     0
  9
$DIMTAD
 70
     0
  9
$DIMZIN
 70
     0
  9
$DIMBLK
  1

  9
$DIMASO
 70
     1
  9
$DIMSHO
 70
     1
  9
$DIMPOST
  1

  9
$DIMAPOST
  1

  9
$DIMALT
 70
     0
  9
$DIMALTD
 70
     2
  9
$DIMALTF
 40
25.399999999999999
  9
$DIMLFAC
 40
1.0
  9
$DIMTOFL
 70
     0
  9
$DIMTVP
 40
0.0
  9
$DIMTIX
 70
     0
  9
$DIMSOXD
 70
     0
  9
$DIMSAH
 70
     0
  9
$DIMBLK1
  1

  9
$DIMBLK2
  1

  9
$DIMSTYLE
  2
STANDARD
  9
$DIMCLRD
 70
     0
  9
$DIMCLRE
 70
     0
  9
$DIMCLRT
 70
     0
  9
$DIMTFAC
 40
1.0
  9
$DIMGAP
 40
0.09
  9
$LUNITS
 70
     2
  9
$LUPREC
 70
     4
  9
$SKETCHINC
 40
0.1
  9
$FILLETRAD
 40
0.0
  9
$AUNITS
 70
     0
  9
$AUPREC
 70
     0
  9
$MENU
  1
.
  9
$ELEVATION
 40
0.0
  9
$PELEVATION
 40
0.0
  9
$THICKNESS
 40
0.0
  9
$LIMCHECK
 70
     0
  9
$BLIPMODE
 70
     0
  9
$CHAMFERA
 40
0.0
  9
$CHAMFERB
 40
0.0
  9
$SKPOLY
 70
     0
  9
$TDCREATE
 40
2452300.4271947341
  9
$TDUPDATE
 40
2458540.6781806829
  9
$TDINDWG
 40
0.0220695602
  9
$TDUSRTIMER
 40
0.0220693287
  9
$USRTIMER
 70
     1
  9
$ANGBASE
 50
0.0
  9
$ANGDIR
 70
     0
  9
$PDMODE
 70
     0
  9
$PDSIZE
 40
0.0
  9
$PLINEWID
 40
0.0
  9
$COORDS
 70
     1
  9
$SPLFRAME
 70
     0
  9
$SPLINETYPE
 70
     6
  9
$SPLINESEGS
 70
     8
  9
$ATTDIA
 70
     1
  9
$ATTREQ
 70
     1
  9
$HANDLING
 70
     1
  9
$HANDSEED
  5
DFE
  9
$SURFTAB1
 70
     6
  9
$SURFTAB2
 70
     6
  9
$SURFTYPE
 70
     6
  9
$SURFU
 70
     6
  9
$SURFV
 70
     6
  9
$UCSNAME
  2

  9
$UCSORG
 10
0.0
 20
0.0
 30
0.0
  9
$UCSXDIR
 10
1.0
 20
0.0
 30
0.0
  9
$UCSYDIR
 10
0.0
 20
1.0
 30
0.0
  9
$PUCSNAME
  2

  9
$PUCSORG
 10
0.0
 20
0.0
 30
0.0
  9
$PUCSXDIR
 10
1.0
 20
0.0
 30
0.0
  9
$PUCSYDIR
 10
0.0
 20
1.0
 30
0.0
  9
$USERI1
 70
     0
  9
$USERI2
 70
     0
  9
$USERI3
 70
     0
  9
$USERI4
 70
     0
  9
$USERI5
 70
     0
  9
$USERR1
 40
0.0
  9
$USERR2
 40
0.0
  9
$USERR3
 40
0.0
  9
$USERR4
 40
0.0
  9
$USERR5
 40
0.0
  9
$WORLDVIEW
 70
     1
  9
$SHADEDGE
 70
     3
  9
$SHADEDIF
 70
    70
  9
$TILEMODE
 70
     1
  9
$MAXACTVP
 70
    64
  9
$PLIMCHECK
 70
     0
  9
$PEXTMIN
 10
1.0000000000000000E+020
 20
1.0000000000000000E+020
 30
1.0000000000000000E+020
  9
$PEXTMAX
 10
-1.0000000000000000E+020
 20
-1.0000000000000000E+020
 30
-1.0000000000000000E+020
  9
$PLIMMIN
 10
0.0
 20
0.0
  9
$PLIMMAX
 10
12.0
 20
9.0
  9
$UNITMODE
 70
     0
  9
$VISRETAIN
 70
     1
  9
$PLINEGEN
 70
     0
  9
$PSLTSCALE
 70
     1
  0
ENDSEC
  0
SECTION
  2
TABLES
  0
TABLE
  2
VPORT
 70
     1
  0
VPORT
  2
*ACTIVE
 70
     0
 10
0.0
 20
0.0
 11
1.0
 21
1.0
 12
-521.99248270757471
 22
467.20998035853518
 13
0.0
 23
0.0
 14
1.0
 24
1.0
 15
0.0
 25
0.0
 16
0.0
 26
0.0
 36
1.0
 17
0.0
 27
0.0
 37
0.0
 40
724.27606762549954
 41
1.7571592210767459
 42
50.0
 43
0.0
 44
0.0
 50
0.0
 51
0.0
 71
     0
 72
   100
 73
     1
 74
     1
 75
     0
 76
     0
 77
     0
 78
     0
  0
ENDTAB
  0
TABLE
  2
LTYPE
 70
    20
  0
LTYPE
  2
CONTINUOUS
 70
     0
  3
Solid line
 72
    65
 73
     0
 40
0.0
  0
LTYPE
  2
DASHED
 70
     0
  3
__ __ __ __ __ __ __ __ __ __ __ __ __ __ __
 72
    65
 73
     2
 40
3.5
 49
2.0
 49
-1.5
  0
LTYPE
  2
CENTER
 70
     0
  3
____ _ ____ _ ____ _ ____ _ ____ _ ____ _ ____
 72
    65
 73
     4
 40
17.5
 49
13.0
 49
-1.5
 49
1.5
 49
-1.5
  0
LTYPE
  2
PHANTOM
 70
     0
  3
_____ _ _ _____ _ _ _____ _ _ _____ _ _ ____  
 72
    65
 73
     6
 40
15.5
 49
8.0
 49
-1.5
 49
1.5
 49
-1.5
 49
1.5
 49
-1.5
  0
LTYPE
  2
DOT
 70
     0
  3
. . . . . . . . . . . . . . . . . . . . . . . .
 72
    65
 73
     2
 40
0.25
 49
0.0
 49
-0.25
  0
LTYPE
  2
AM_ISO02W050
 70
     0
  3
__ __ __ __ __ __ __ __ __ __ __ __ __ __ __
 72
    65
 73
     2
 40
7.5
 49
6.0
 49
-1.5
  0
LTYPE
  2
AM_ISO08W050
 70
     0
  3
____ . ____ . ____ . ____ . ____ . ____ . ____
 72
    65
 73
     4
 40
18.0
 49
12.0
 49
-1.5
 49
3.0
 49
-1.5
  0
LTYPE
  2
AM_ISO09W050
 70
     0
  3
_____ . . _____ . . _____ . . ____ .. ____
 72
    65
 73
     6
 40
22.5
 49
12.0
 49
-1.5
 49
3.0
 49
-1.5
 49
3.0
 49
-1.5
  0
LTYPE
  2
AMCONSTR
 70
     0
  3
_______________________
 72
    65
 73
     2
 40
9999.0
 49
9999.0
 49
0.0
  0
LTYPE
  2
AM_ISO08W050X2
 70
     0
  3
__ . __ . __ . __ . __ . __
 72
    65
 73
     4
 40
9.0
 49
6.0
 49
-0.75
 49
1.5
 49
-0.75
  0
LTYPE
  2
AM_ISO02W050X2
 70
     0
  3
 _ _ _ _ _ _ _ _ _ _ _ _
 72
    65
 73
     2
 40
3.75
 49
3.0
 49
-0.75
  0
LTYPE
  2
AMZIGZAG
 70
     0
  3
/\/-/\/-/\/-/\/-/\/-/\/
 72
    65
 73
     2
 40
11.000099999999991
 49
0.0001
 49
-11.0
  0
LTYPE
  2
HIDDEN
 70
     0
  3
Hidden __ __ __ __ __ __ __ __ __ __ __ __ __ _
 72
    65
 73
     2
 40
0.375
 49
0.25
 49
-0.125
  0
LTYPE
  2
PHANTOM2
 70
     0
  3
Phantom (.5x) ___ _ _ ___ _ _ ___ _ _ ___ _ _
 72
    65
 73
     6
 40
1.25
 49
0.625
 49
-0.125
 49
0.125
 49
-0.125
 49
0.125
 49
-0.125
  0
LTYPE
  2
CENTER2
 70
     0
  3
Center (.5x) ___ _ ___ _ ___ _ ___ _ ___ _ ___
 72
    65
 73
     4
 40
1.125
 49
0.75
 49
-0.125
 49
0.125
 49
-0.125
  0
LTYPE
  2
HIDDEN2
 70
     0
  3
Hidden (.5x) _ _ _ _ _ _ _ _ _ _ _ _ _ _ _ _ _
 72
    65
 73
     2
 40
0.1875
 49
0.125
 49
-0.0625
  0
LTYPE
  2
AMZIGZAG2
 70
     0
  3
/\/-/\/-/\/-/\/-/\/-/\/
 72
    65
 73
     2
 40
0.4401
 49
0.0001
 49
-0.4400000000000003
  0
LTYPE
  2
ACANSTGB
 70
     0
  3
__ . . __ . .
 72
    65
 73
     6
 40
0.35433070866
 49
0.15748031496
 49
-0.03937007874
 49
0.03937007874
 49
-0.03937007874
 49
0.03937007874
 49
-0.03937007874
  0
LTYPE
  2
ACANSTGL
 70
     0
  3
_ _ _ _ _
 72
    65
 73
     2
 40
0.11811023622
 49
0.07874015748
 49
-0.03937007874
  0
ENDTAB
  0
TABLE
  2
LAYER
 70
     1
  0
LAYER
  2
0
 70
     0
 62
     7
  6
CONTINUOUS
  0
ENDTAB
  0
TABLE
  2
STYLE
 70
     5
  0
STYLE
  2
STANDARD
 70
     0
 40
0.0
 41
1.0
 50
0.0
 71
     0
 42
0.2
  3
txt
  4

  0
STYLE
  2
ANNOTATIVE
 70
     0
 40
0.0
 41
1.0
 50
0.0
 71
     0
 42
0.2
  3
txt
  4

  0
STYLE
  2

 70
     1
 40
0.0
 41
1.0
 50
0.0
 71
     0
 42
0.2
  3
ltypeshp.shx
  4

  0
STYLE
  2
ACANSTS
 70
     0
 40
1.0
 41
1.0
 50
0.0
 71
     0
 42
0.2
  3
romans.shx
  4
extfont.shx
  0
STYLE
  2
ACANSGDT
 70
     0
 40
0.0
 41
1.0
 50
0.0
 71
     0
 42
0.2
  3
amgdt.shx
  4

  0
ENDTAB
  0
TABLE
  2
VIEW
 70
     0
  0
ENDTAB
  0
TABLE
  2
UCS
 70
     0
  0
ENDTAB
  0
TABLE
  2
APPID
 70
    11
  0
APPID
  2
ACAD
 70
     0
  0
APPID
  2
ACADANNOTATIVE
 70
     0
  0
APPID
  2
MCAD_NO_VIS
 70
     0
  0
APPID
  2
ACAD_TEMP_GRAPHIC
 70
     0
  0
APPID
  2
ACATTRIBSERVICES
 70
     0
  0
APPID
  2
DESIGNERASSEMBLIES
 70
     0
  0
APPID
  2
ACAD_DSTYLE_DIMBREAK
 70
     0
  0
APPID
  2
ACAD_DSTYLE_DIMJAG
 70
     0
  0
APPID
  2
ACAD_NAV_VCDISPLAY
 70
     0
  0
APPID
  2
ACAD_EXEMPT_FROM_CAD_STANDARDS
 70
     0
  0
APPID
  2
ACAD_MLEADERVER
 70
     0
  0
ENDTAB
  0
TABLE
  2
DIMSTYLE
 70
     8
  0
DIMSTYLE
  2
STANDARD
 70
     0
  3

  4

  5

  6

  7

 40
1.0
 41
0.18
 42
0.0625
 43
0.38
 44
0.18
 45
0.0
 46
0.0
 47
0.0
 48
0.0
140
0.18
141
0.09
142
0.0
143
25.399999999999999
144
1.0
145
0.0
146
1.0
147
0.09
 71
     0
 72
     0
 73
     1
 74
     1
 75
     0
 76
     0
 77
     0
 78
     0
170
     0
171
     2
172
     0
173
     0
174
     0
175
     0
176
     0
177
     0
178
     0
  0
DIMSTYLE
  2
ANNOTATIVE
 70
     0
  3

  4

  5

  6

  7

 40
1.0
 41
0.18
 42
0.0625
 43
0.38
 44
0.18
 45
0.0
 46
0.0
 47
0.0
 48
0.0
140
0.18
141
0.09
142
0.0
143
25.399999999999999
144
1.0
145
0.0
146
1.0
147
0.09
 71
     0
 72
     0
 73
     1
 74
     1
 75
     0
 76
     0
 77
     0
 78
     0
170
     0
171
     2
172
     0
173
     0
174
     0
175
     0
176
     0
177
     0
178
     0
  0
DIMSTYLE
  2
AM_ANSI
 70
     0
  3

  4
mm
  5

  6

  7

 40
1.0
 41
0.1
 42
0.05
 43
0.5
 44
0.1
 45
0.0
 46
0.0
 47
0.1
 48
0.1
140
0.12
141
0.0
142
0.0
143
25.399999999999999
144
1.0
145
0.0
146
0.71
147
0.06
 71
     0
 72
     0
 73
     1
 74
     1
 75
     0
 76
     0
 77
     0
 78
     7
170
     0
171
     2
172
     0
173
     0
174
     0
175
     0
176
   256
177
   256
178
     2
  0
DIMSTYLE
  2
AM_ANSI$3
 70
     0
  3

  4
mm
  5

  6

  7

 40
1.0
 41
0.1
 42
0.05
 43
0.5
 44
0.1
 45
0.0
 46
0.0
 47
0.1
 48
0.1
140
0.12
141
0.0
142
0.0
143
25.399999999999999
144
1.0
145
0.0
146
0.71
147
0.06
 71
     0
 72
     0
 73
     1
 74
     1
 75
     0
 76
     0
 77
     0
 78
     7
170
     0
171
     2
172
     0
173
     0
174
     0
175
     0
176
   256
177
   256
178
     2
  0
DIMSTYLE
  2
AM_ANSI$4
 70
     0
  3

  4
mm
  5

  6

  7

 40
1.0
 41
0.1
 42
0.05
 43
0.5
 44
0.1
 45
0.0
 46
0.0
 47
0.1
 48
0.1
140
0.12
141
0.0
142
0.0
143
25.399999999999999
144
1.0
145
0.0
146
0.71
147
0.06
 71
     0
 72
     0
 73
     1
 74
     1
 75
     0
 76
     0
 77
     0
 78
     7
170
     0
171
     2
172
     0
173
     0
174
     0
175
     0
176
   256
177
   256
178
     2
  0
DIMSTYLE
  2
AM_ANSI$7
 70
     0
  3

  4
mm
  5

  6

  7

 40
1.0
 41
0.1
 42
0.05
 43
0.5
 44
0.1
 45
0.0
 46
0.0
 47
0.1
 48
0.1
140
0.24
141
0.0
142
0.0
143
25.399999999999999
144
1.0
145
0.0
146
0.71
147
0.06
 71
     0
 72
     0
 73
     1
 74
     1
 75
     0
 76
     0
 77
     0
 78
     7
170
     0
171
     2
172
     0
173
     0
174
     0
175
     0
176
   256
177
   256
178
     2
  0
DIMSTYLE
  2
AM_ANSI$SF
 70
     0
  3

  4
mm
  5

  6

  7

 40
1.0
 41
0.1
 42
0.05
 43
0.5
 44
0.1
 45
0.0
 46
0.0
 47
0.1
 48
0.1
140
0.12
141
0.0
142
0.0
143
25.399999999999999
144
1.0
145
0.0
146
0.71
147
0.06
 71
     0
 72
     0
 73
     1
 74
     1
 75
     1
 76
     1
 77
     0
 78
     7
170
     0
171
     2
172
     0
173
     0
174
     0
175
     0
176
   256
177
   256
178
     2
  0
DIMSTYLE
  2
AM_ANSI$SH
 70
     0
  3

  4
mm
  5

  6

  7

 40
1.0
 41
0.1
 42
0.05
 43
0.5
 44
0.1
 45
0.0
 46
0.0
 47
0.1
 48
0.1
140
0.12
141
0.0
142
0.0
143
25.399999999999999
144
1.0
145
0.0
146
0.71
147
0.06
 71
     0
 72
     0
 73
     1
 74
     1
 75
     1
 76
     1
 77
     0
 78
     7
170
     0
171
     2
172
     0
173
     1
174
     0
175
     0
176
   256
177
   256
178
     2
  0
ENDTAB
  0
ENDSEC
  0
SECTION
  2
BLOCKS
  0
BLOCK
  8
0
  2
$MODEL_SPACE
 70
     0
 10
0.0
 20
0.0
 30
0.0
  3
$MODEL_SPACE
  1

  0
ENDBLK
  5
D0A
  8
0
  0
BLOCK
 67
     1
  8
0
  2
$PAPER_SPACE
 70
     0
 10
0.0
 20
0.0
 30
0.0
  3
$PAPER_SPACE
  1

  0
ENDBLK
  5
D06
 67
     1
  8
0
  0
BLOCK
  8
0
  2
GENAXEH
 70
     0
 10
0.0
 20
0.0
 30
0.0
  3
GENAXEH
  1

  0
LINE
  5
5DE
  8
0
 10
-1.0
 20
0.0
 30
0.0
 11
1.0
 21
0.0
 31
0.0
  0
ENDBLK
  5
5DF
  8
0
  0
BLOCK
  8
0
  2
_ACMFILLEDHALF
 70
     0
 10
0.0
 20
0.0
 30
0.0
  3
_ACMFILLEDHALF
  1

  0
TRACE
  5
C0C
  8
0
  6
CONTINUOUS
 62
     0
 10
-0.8
 20
0.0
 30
0.0
 11
-1.0
 21
0.166666666
 31
0.0
 12
0.0
 22
0.0
 32
0.0
 13
0.0
 23
0.0
 33
0.0
  0
LINE
  5
C0D
  8
0
  6
CONTINUOUS
 62
     0
 10
-1.0
 20
0.0
 30
0.0
 11
-0.8
 21
0.0
 31
0.0
  0
ENDBLK
  5
C0B
  8
0
  0
BLOCK
  8
0
  2
*U4
 70
     1
 10
0.0
 20
0.0
 30
0.0
  3
*U4
  1

  0
TEXT
  5
C93
  8
0
  6
CONTINUOUS
 62
     0
 10
4.1999993754229852
 20
4.4356759791489822
 30
0.0
 40
10.0
  1
ＶＸ０１－２４０Ｍ～ＶＸ０１－６００Ｍ
  0
ENDBLK
  5
C95
  8
0
  0
BLOCK
  8
0
  2
*U5
 70
     1
 10
0.0
 20
0.0
 30
0.0
  3
*U5
  1

  0
TEXT
  5
C97
  8
0
  6
CONTINUOUS
 62
     0
 10
-401.12854563138671
 20
515.62576307683105
 30
0.0
 40
15.0
  1
ＶＸ０２－８００Ｍ～ＶＸ０２－Ｋ２０Ｍ
  0
ENDBLK
  5
C99
  8
0
  0
ENDSEC
  0
SECTION
  2
ENTITIES
  0
LINE
  5
5E0
  8
0
  6
CENTER
 62
     1
 10
-215.2809399999999
 20
109.06672999999979
 30
0.0
 11
-215.2809399999999
 21
429.45864999999998
 31
0.0
  0
LINE
  5
5E1
  8
0
  6
CENTER
 62
     7
 10
-351.36525999999992
 20
251.5479399999999
 30
0.0
 11
-77.763351
 21
251.5479399999999
 31
0.0
  0
LINE
  5
5E2
  8
0
  6
CENTER
 62
     7
 10
-271.31018
 20
289.54793999999993
 30
0.0
 11
-157.81843999999981
 21
289.54793999999993
 31
0.0
  0
LINE
  5
5E3
  8
0
  6
CENTER
 62
     7
 10
-968.74846999999966
 20
686.86626999999976
 30
0.0
 11
-492.22980000000001
 21
686.86626999999976
 31
0.0
  0
LINE
  5
5E4
  8
0
  6
CONTINUOUS
 62
     3
 10
-757.24377000000004
 20
748.44488999999999
 30
0.0
 11
-722.74377000000004
 21
748.44488999999999
 31
0.0
  0
LINE
  5
5E5
  8
0
  6
CONTINUOUS
 62
     7
 10
-757.24377000000004
 20
726.34094000000005
 30
0.0
 11
-722.74377000000004
 21
726.34094000000005
 31
0.0
  0
LINE
  5
5E6
  8
0
  6
CONTINUOUS
 62
     7
 10
-706.81353999999999
 20
815.61005
 30
0.0
 11
-695.74377000000004
 21
815.99663999999984
 31
0.0
  0
LINE
  5
5E7
  8
0
  6
CONTINUOUS
 62
     7
 10
-722.74377000000004
 20
572.75829999999996
 30
0.0
 11
-722.74377000000004
 21
682.86626999999964
 31
0.0
  0
LINE
  5
5E8
  8
0
  6
CONTINUOUS
 62
     7
 10
-708.74383999999986
 20
550.65648999999985
 30
0.0
 11
-708.74383999999986
 21
677.32683999999995
 31
0.0
  0
LINE
  5
5E9
  8
0
  6
CONTINUOUS
 62
     7
 10
-720.26470999999981
 20
803.94524999999987
 30
0.0
 11
-711.22284000000002
 21
805.5396099999997
 31
0.0
  0
LINE
  5
5EA
  8
0
  6
CONTINUOUS
 62
     7
 10
-757.24377000000004
 20
760.36626999999999
 30
0.0
 11
-727.56934000000001
 21
761.40252999999984
 31
0.0
  0
LINE
  5
5EB
  8
0
  6
CONTINUOUS
 62
     7
 10
-582.86499000000003
 20
646.74492999999995
 30
0.0
 11
-578.62230999999986
 21
650.98761000000002
 31
0.0
  0
LINE
  5
5EC
  8
0
  6
CONTINUOUS
 62
     7
 10
-582.86499000000003
 20
732.9876099999999
 30
0.0
 11
-578.62230999999986
 21
728.74492999999984
 31
0.0
  0
LINE
  5
5ED
  8
0
  6
CONTINUOUS
 62
     7
 10
-573.74377000000004
 20
707.86626999999964
 30
0.0
 11
-503.74376999999993
 21
707.86626999999964
 31
0.0
  0
LINE
  5
5EE
  8
0
  6
CONTINUOUS
 62
     7
 10
-573.74377000000004
 20
665.86626999999976
 30
0.0
 11
-503.74376999999993
 21
665.86626999999976
 31
0.0
  0
LINE
  5
5EF
  8
0
  6
CONTINUOUS
 62
     7
 10
-577.74370999999985
 20
709.36626999999999
 30
0.0
 11
-573.74377000000004
 21
709.36626999999999
 31
0.0
  0
LINE
  5
5F0
  8
0
  6
CONTINUOUS
 62
     7
 10
-577.74370999999985
 20
664.36626999999999
 30
0.0
 11
-573.74377000000004
 21
664.36626999999999
 31
0.0
  0
LINE
  5
5F1
  8
0
  6
CONTINUOUS
 62
     7
 10
-573.74377000000004
 20
664.36626999999999
 30
0.0
 11
-573.74377000000004
 21
709.36626999999999
 31
0.0
  0
LINE
  5
5F2
  8
0
  6
CONTINUOUS
 62
     7
 10
-503.74376999999993
 20
665.86626999999976
 30
0.0
 11
-503.74376999999993
 21
707.86626999999964
 31
0.0
  0
LINE
  5
5F3
  8
0
  6
CONTINUOUS
 62
     7
 10
-559.74377000000004
 20
692.86626999999999
 30
0.0
 11
-559.74377000000004
 21
680.86626999999999
 31
0.0
  0
LINE
  5
5F4
  8
0
  6
CONTINUOUS
 62
     7
 10
-769.74377000000004
 20
818.93017999999995
 30
0.0
 11
-769.74377000000004
 21
782.44317999999998
 31
0.0
  0
LINE
  5
5F5
  8
0
  6
CONTINUOUS
 62
     7
 10
-577.74377000000004
 20
819.0575
 30
0.0
 11
-577.74377000000004
 21
779.67505000000006
 31
0.0
  0
LINE
  5
5F6
  8
0
  6
CONTINUOUS
 62
     7
 10
-690.74370999999996
 20
826.86626999999999
 30
0.0
 11
-581.60413000000005
 21
823.05505000000005
 31
0.0
  0
LINE
  5
5F7
  8
0
  6
CONTINUOUS
 62
     7
 10
-765.95318999999984
 20
822.92467999999985
 30
0.0
 11
-690.74384000000009
 21
826.86626999999999
 31
0.0
  0
LINE
  5
5F8
  8
0
  6
CENTER
 62
     7
 10
-765.74377000000004
 20
801.86626999999999
 30
0.0
 11
-732.24377000000004
 21
801.86626999999999
 31
0.0
  0
LINE
  5
5F9
  8
0
  6
CENTER
 62
     7
 10
-748.74377000000004
 20
818.36626999999987
 30
0.0
 11
-748.74377000000004
 21
785.36626999999999
 31
0.0
  0
LINE
  5
5FA
  8
0
  6
CENTER
 62
     7
 10
-598.74377000000004
 20
818.36626999999987
 30
0.0
 11
-598.74377000000004
 21
785.36626999999999
 31
0.0
  0
LINE
  5
5FB
  8
0
  6
CONTINUOUS
 62
     7
 10
-583.74377000000004
 20
772.74688999999989
 30
0.0
 11
-583.74377000000004
 21
600.9857199999999
 31
0.0
  0
LINE
  5
5FC
  8
0
  6
CONTINUOUS
 62
     7
 10
-766.09240999999986
 20
778.45843999999988
 30
0.0
 11
-722.74377000000004
 21
774.66588999999988
 31
0.0
  0
LINE
  5
5FD
  8
0
  6
CONTINUOUS
 62
     7
 10
-766.0923499999999
 20
595.27410999999995
 30
0.0
 11
-722.74370999999985
 21
599.06664999999975
 31
0.0
  0
LINE
  5
5FE
  8
0
  6
CONTINUOUS
 62
     7
 10
-765.95312999999999
 20
550.80786000000001
 30
0.0
 11
-690.74377000000004
 21
546.86626999999999
 31
0.0
  0
LINE
  5
5FF
  8
0
  6
CONTINUOUS
 62
     7
 10
-690.74384000000009
 20
546.86626999999999
 30
0.0
 11
-581.60424999999998
 21
550.67754999999977
 31
0.0
  0
LINE
  5
600
  8
0
  6
CONTINUOUS
 62
     7
 10
-577.74377000000004
 20
554.67505000000006
 30
0.0
 11
-577.74377000000004
 21
594.05749999999989
 31
0.0
  0
LINE
  5
601
  8
0
  6
CONTINUOUS
 62
     7
 10
-769.74377000000004
 20
554.80236999999988
 30
0.0
 11
-769.74377000000004
 21
591.28930999999977
 31
0.0
  0
LINE
  5
602
  8
0
  6
CONTINUOUS
 62
     7
 10
-695.74377000000004
 20
547.12829999999985
 30
0.0
 11
-695.74377000000004
 21
682.86626999999964
 31
0.0
  0
LINE
  5
603
  8
0
  6
CONTINUOUS
 62
     7
 10
-577.74377000000004
 20
726.62365999999986
 30
0.0
 11
-577.74377000000004
 21
653.1088900000002
 31
0.0
  0
LINE
  5
604
  8
0
  6
CONTINUOUS
 62
     7
 10
-651.65337999999986
 20
810.04040999999984
 30
0.0
 11
-633.46454000000017
 21
809.40521000000001
 31
0.0
  0
LINE
  5
605
  8
0
  6
CONTINUOUS
 62
     7
 10
-625.74377000000004
 20
795.86626999999964
 30
0.0
 11
-625.74377000000004
 21
801.41010000000006
 31
0.0
  0
LINE
  5
606
  8
0
  6
CONTINUOUS
 62
     7
 10
-598.41869999999994
 20
773.40796
 30
0.0
 11
-588.56920999999988
 21
773.06403
 31
0.0
  0
LINE
  5
607
  8
0
  6
CONTINUOUS
 62
     7
 10
-667.92730999999958
 20
823.02965999999992
 30
0.0
 11
-658.56023999999979
 21
813.15295000000003
 31
0.0
  0
LINE
  5
608
  8
0
  6
CONTINUOUS
 62
     7
 10
-708.74383999999986
 20
816.61321999999984
 30
0.0
 11
-716.12230999999986
 21
817.53747999999985
 31
0.0
  0
LINE
  5
609
  8
0
  6
CONTINUOUS
 62
     7
 10
-625.74377000000004
 20
819.41875999999968
 30
0.0
 11
-625.74377000000004
 21
801.41010000000006
 31
0.0
  0
LINE
  5
60A
  8
0
  6
CONTINUOUS
 62
     7
 10
-721.74377000000004
 20
824.26147000000003
 30
0.0
 11
-721.74377000000004
 21
816.41272000000015
 31
0.0
  0
LINE
  5
60B
  8
0
  6
CONTINUOUS
 62
     7
 10
-615.74377000000004
 20
785.86626999999999
 30
0.0
 11
-613.74377000000004
 21
785.86626999999999
 31
0.0
  0
LINE
  5
60C
  8
0
  6
CENTER
 62
     7
 10
-615.24377000000004
 20
801.86626999999999
 30
0.0
 11
-581.74377000000004
 21
801.86626999999999
 31
0.0
  0
LINE
  5
60D
  8
0
  6
CENTER
 62
     7
 10
-765.74377000000004
 20
571.86626999999999
 30
0.0
 11
-732.24377000000004
 21
571.86626999999999
 31
0.0
  0
LINE
  5
60E
  8
0
  6
CENTER
 62
     7
 10
-748.74377000000004
 20
555.36626999999999
 30
0.0
 11
-748.74377000000004
 21
588.36626999999999
 31
0.0
  0
LINE
  5
60F
  8
0
  6
CENTER
 62
     7
 10
-598.74377000000004
 20
555.36626999999999
 30
0.0
 11
-598.74377000000004
 21
588.36626999999999
 31
0.0
  0
LINE
  5
610
  8
0
  6
CENTER
 62
     7
 10
-615.24377000000004
 20
571.86626999999999
 30
0.0
 11
-581.74377000000004
 21
571.86626999999999
 31
0.0
  0
LINE
  5
611
  8
0
  6
CONTINUOUS
 62
     7
 10
-651.65344000000016
 20
563.69213999999999
 30
0.0
 11
-633.46460000000002
 21
564.32732999999985
 31
0.0
  0
LINE
  5
612
  8
0
  6
CONTINUOUS
 62
     7
 10
-625.74377000000004
 20
577.86626999999987
 30
0.0
 11
-625.74377000000004
 21
572.32244999999966
 31
0.0
  0
LINE
  5
613
  8
0
  6
CONTINUOUS
 62
     7
 10
-598.41875999999979
 20
600.32457999999997
 30
0.0
 11
-588.56934000000001
 21
600.66851999999994
 31
0.0
  0
LINE
  5
614
  8
0
  6
CONTINUOUS
 62
     7
 10
-667.92737
 20
550.70288000000005
 30
0.0
 11
-658.56017999999995
 21
560.57965000000002
 31
0.0
  0
LINE
  5
615
  8
0
  6
CONTINUOUS
 62
     7
 10
-625.74377000000004
 20
554.31377999999995
 30
0.0
 11
-625.74377000000004
 21
572.32244999999966
 31
0.0
  0
LINE
  5
616
  8
0
  6
CONTINUOUS
 62
     7
 10
-615.74377000000004
 20
587.86626999999964
 30
0.0
 11
-613.74377000000004
 21
587.86626999999964
 31
0.0
  0
LINE
  5
617
  8
0
  6
CONTINUOUS
 62
     7
 10
-605.74377000000004
 20
595.86626999999964
 30
0.0
 11
-605.74377000000004
 21
777.86626999999987
 31
0.0
  0
LINE
  5
618
  8
0
  6
CONTINUOUS
 62
     7
 10
-680.74377000000004
 20
560.19110000000001
 30
0.0
 11
-680.74377000000004
 21
607.30047999999965
 31
0.0
  0
LINE
  5
619
  8
0
  6
CONTINUOUS
 62
     7
 10
-678.81353999999976
 20
564.30682000000002
 30
0.0
 11
-654.21056999999985
 21
565.16602
 31
0.0
  0
LINE
  5
61A
  8
0
  6
CONTINUOUS
 62
     7
 10
-695.74383999999998
 20
557.73590000000002
 30
0.0
 11
-682.67394999999999
 21
558.19232
 31
0.0
  0
LINE
  5
61B
  8
0
  6
CONTINUOUS
 62
     7
 10
-680.74377000000004
 20
637.30175999999994
 30
0.0
 11
-680.74377000000004
 21
736.43079
 31
0.0
  0
LINE
  5
61C
  8
0
  6
CONTINUOUS
 62
     7
 10
-676.24377000000004
 20
609.30047999999999
 30
0.0
 11
-676.24377000000004
 21
635.30175999999994
 31
0.0
  0
LINE
  5
61D
  8
0
  6
CONTINUOUS
 62
     7
 10
-708.74383999999986
 20
609.30047999999999
 30
0.0
 11
-682.74377000000004
 21
609.30047999999999
 31
0.0
  0
LINE
  5
61E
  8
0
  6
CONTINUOUS
 62
     7
 10
-708.74383999999986
 20
635.30175999999994
 30
0.0
 11
-682.74377000000004
 21
635.30175999999994
 31
0.0
  0
LINE
  5
61F
  8
0
  6
CONTINUOUS
 62
     7
 10
-676.24377000000004
 20
764.43206999999984
 30
0.0
 11
-676.24377000000004
 21
738.43079
 31
0.0
  0
LINE
  5
620
  8
0
  6
CONTINUOUS
 62
     7
 10
-678.81353999999976
 20
809.42571999999973
 30
0.0
 11
-654.21051
 21
808.56652999999983
 31
0.0
  0
LINE
  5
621
  8
0
  6
CONTINUOUS
 62
     7
 10
-695.74377000000004
 20
815.99663999999984
 30
0.0
 11
-682.67389000000003
 21
815.54021999999986
 31
0.0
  0
LINE
  5
622
  8
0
  6
CONTINUOUS
 62
     7
 10
-708.74383999999986
 20
738.43079
 30
0.0
 11
-682.74377000000004
 21
738.43079
 31
0.0
  0
LINE
  5
623
  8
0
  6
CONTINUOUS
 62
     7
 10
-680.74377000000004
 20
813.54143999999985
 30
0.0
 11
-680.74377000000004
 21
766.43206999999984
 31
0.0
  0
LINE
  5
624
  8
0
  6
CONTINUOUS
 62
     7
 10
-708.74383999999986
 20
764.43206999999984
 30
0.0
 11
-682.74377000000004
 21
764.43206999999984
 31
0.0
  0
LINE
  5
625
  8
0
  6
CONTINUOUS
 62
     7
 10
-559.74377000000004
 20
680.86626999999999
 30
0.0
 11
-503.74376999999993
 21
680.86626999999999
 31
0.0
  0
LINE
  5
626
  8
0
  6
CONTINUOUS
 62
     7
 10
-559.74377000000004
 20
692.86626999999999
 30
0.0
 11
-503.74376999999993
 21
692.86626999999999
 31
0.0
  0
LINE
  5
627
  8
0
  6
CONTINUOUS
 62
     3
 10
-757.24377000000004
 20
625.2876
 30
0.0
 11
-722.74377000000004
 21
625.2876
 31
0.0
  0
LINE
  5
628
  8
0
  6
CONTINUOUS
 62
     7
 10
-757.24377000000004
 20
647.39160000000004
 30
0.0
 11
-722.74377000000004
 21
647.39160000000004
 31
0.0
  0
LINE
  5
629
  8
0
  6
CONTINUOUS
 62
     7
 10
-706.81353999999999
 20
558.12249999999995
 30
0.0
 11
-695.74370999999985
 21
557.73590000000002
 31
0.0
  0
LINE
  5
62A
  8
0
  6
CONTINUOUS
 62
     7
 10
-720.26476999999988
 20
569.78728999999998
 30
0.0
 11
-711.22284000000002
 21
568.19292999999982
 31
0.0
  0
LINE
  5
62B
  8
0
  6
CONTINUOUS
 62
     7
 10
-757.24377000000004
 20
613.36626999999999
 30
0.0
 11
-727.56921
 21
612.33001999999999
 31
0.0
  0
LINE
  5
62C
  8
0
  6
CONTINUOUS
 62
     7
 10
-708.74377000000004
 20
557.11932000000002
 30
0.0
 11
-716.12230999999986
 21
556.19506999999965
 31
0.0
  0
LINE
  5
62D
  8
0
  6
CONTINUOUS
 62
     7
 10
-721.74377000000004
 20
549.47107000000005
 30
0.0
 11
-721.74377000000004
 21
557.31982000000005
 31
0.0
  0
LINE
  5
62E
  8
0
  6
CONTINUOUS
 62
     7
 10
-757.2438400000002
 20
613.36626999999999
 30
0.0
 11
-757.2438400000002
 21
760.36632999999983
 31
0.0
  0
LINE
  5
62F
  8
0
  6
CENTER
 62
     7
 10
-711.74370999999996
 20
670.15790000000004
 30
0.0
 11
-711.74370999999996
 21
701.47118999999986
 31
0.0
  0
LINE
  5
630
  8
0
  6
CONTINUOUS
 62
     7
 10
-728.24370999999985
 20
682.86626999999964
 30
0.0
 11
-695.24370999999996
 21
682.86626999999964
 31
0.0
  0
LINE
  5
631
  8
0
  6
CONTINUOUS
 62
     7
 10
-728.24370999999985
 20
690.86620999999968
 30
0.0
 11
-695.24370999999996
 21
690.86620999999968
 31
0.0
  0
LINE
  5
632
  8
0
  6
CONTINUOUS
 62
     7
 10
-695.74377000000004
 20
690.86620999999968
 30
0.0
 11
-695.74377000000004
 21
826.60424999999987
 31
0.0
  0
LINE
  5
633
  8
0
  6
CONTINUOUS
 62
     7
 10
-708.74383999999986
 20
696.40570000000002
 30
0.0
 11
-708.74383999999986
 21
823.07605000000001
 31
0.0
  0
LINE
  5
634
  8
0
  6
CONTINUOUS
 62
     7
 10
-722.74377000000004
 20
690.86620999999968
 30
0.0
 11
-722.74377000000004
 21
801.00744999999984
 31
0.0
  0
LINE
  5
635
  8
0
  6
CONTINUOUS
 62
     7
 10
-676.24377000000004
 20
550.62914999999975
 30
0.0
 11
-676.24377000000004
 21
562.66150000000005
 31
0.0
  0
LINE
  5
636
  8
0
  6
CONTINUOUS
 62
     7
 10
-676.24377000000004
 20
811.14612
 30
0.0
 11
-676.24377000000004
 21
823.09960999999998
 31
0.0
  0
LINE
  5
637
  8
0
  6
CONTINUOUS
 62
     3
 10
-767.24383999999975
 20
625.2876
 30
0.0
 11
-757.2438400000002
 21
625.2876
 31
0.0
  0
LINE
  5
638
  8
0
  6
CONTINUOUS
 62
     3
 10
-767.24383999999975
 20
748.44494999999984
 30
0.0
 11
-757.2438400000002
 21
748.44494999999984
 31
0.0
  0
LINE
  5
639
  8
0
  6
CONTINUOUS
 62
     7
 10
-767.24383999999975
 20
726.34094000000005
 30
0.0
 11
-757.2438400000002
 21
726.34094000000005
 31
0.0
  0
LINE
  5
63A
  8
0
  6
CONTINUOUS
 62
     7
 10
-767.24383999999975
 20
647.39160000000004
 30
0.0
 11
-757.2438400000002
 21
647.39160000000004
 31
0.0
  0
LINE
  5
63B
  8
0
  6
CONTINUOUS
 62
     7
 10
-763.38341999999989
 20
613.58062999999981
 30
0.0
 11
-757.24377000000004
 21
613.36626999999999
 31
0.0
  0
LINE
  5
63C
  8
0
  6
CONTINUOUS
 62
     7
 10
-763.38341999999989
 20
760.15185999999983
 30
0.0
 11
-757.2438400000002
 21
760.36626999999999
 31
0.0
  0
LINE
  5
63D
  8
0
  6
CONTINUOUS
 62
     7
 10
-831.24384000000009
 20
732.86626999999964
 30
0.0
 11
-789.90111999999999
 21
732.86626999999964
 31
0.0
  0
LINE
  5
63E
  8
0
  6
CONTINUOUS
 62
     7
 10
-767.24383999999975
 20
617.57825000000003
 30
0.0
 11
-767.24383999999975
 21
756.15430000000003
 31
0.0
  0
LINE
  5
63F
  8
0
  6
CONTINUOUS
 62
     7
 10
-831.24384000000009
 20
640.86626999999976
 30
0.0
 11
-789.90111999999999
 21
640.86626999999976
 31
0.0
  0
LINE
  5
640
  8
0
  6
CONTINUOUS
 62
     7
 10
-805.24384000000009
 20
699.86626999999964
 30
0.0
 11
-773.94115999999985
 21
699.86626999999964
 31
0.0
  0
LINE
  5
641
  8
0
  6
CONTINUOUS
 62
     7
 10
-768.67078000000004
 20
620.29320999999982
 30
0.0
 11
-775.45147999999983
 21
627.07384999999999
 31
0.0
  0
LINE
  5
642
  8
0
  6
CONTINUOUS
 62
     7
 10
-805.24384000000009
 20
673.86626999999987
 30
0.0
 11
-773.94115999999985
 21
673.86626999999987
 31
0.0
  0
LINE
  5
643
  8
0
  6
CONTINUOUS
 62
     7
 10
-808.24383999999986
 20
676.86626999999999
 30
0.0
 11
-808.24383999999986
 21
696.86626999999999
 31
0.0
  0
LINE
  5
644
  8
0
  6
CONTINUOUS
 62
     7
 10
-831.24384000000009
 20
630.36626999999999
 30
0.0
 11
-831.24384000000009
 21
743.36626999999999
 31
0.0
  0
LINE
  5
645
  8
0
  6
CONTINUOUS
 62
     7
 10
-775.45141999999998
 20
746.65863000000002
 30
0.0
 11
-768.67078000000004
 21
753.43926999999985
 31
0.0
  0
LINE
  5
646
  8
0
  6
CONTINUOUS
 62
     7
 10
-770.94115999999985
 20
676.09777999999994
 30
0.0
 11
-770.94115999999985
 21
698.09833000000003
 31
0.0
  0
LINE
  5
647
  8
0
  6
CONTINUOUS
 62
     7
 10
-831.24384000000009
 20
743.36626999999999
 30
0.0
 11
-778.81249999999989
 21
745.19719999999984
 31
0.0
  0
LINE
  5
648
  8
0
  6
CONTINUOUS
 62
     7
 10
-778.81249999999989
 20
628.53533999999979
 30
0.0
 11
-831.24377000000004
 21
630.36626999999999
 31
0.0
  0
LINE
  5
649
  8
0
  6
CONTINUOUS
 62
     7
 10
-831.24384000000009
 20
718.80620999999985
 30
0.0
 11
-795.15148999999985
 21
718.80620999999985
 31
0.0
  0
LINE
  5
64A
  8
0
  6
CONTINUOUS
 62
     7
 10
-831.24384000000009
 20
654.92632999999978
 30
0.0
 11
-795.15148999999985
 21
654.92632999999978
 31
0.0
  0
LINE
  5
64B
  8
0
  6
CONTINUOUS
 62
     7
 10
-559.74377000000004
 20
313.54793999999993
 30
0.0
 11
-503.74376999999993
 21
313.54793999999993
 31
0.0
  0
LINE
  5
64C
  8
0
  6
CONTINUOUS
 62
     7
 10
-559.74377000000004
 20
313.54793999999993
 30
0.0
 11
-559.74377000000004
 21
310.54793999999998
 31
0.0
  0
LINE
  5
64D
  8
0
  6
CONTINUOUS
 62
     7
 10
-221.28095999999991
 20
305.54793999999993
 30
0.0
 11
-209.28095999999991
 21
305.54793999999993
 31
0.0
  0
LINE
  5
64E
  8
0
  6
CONTINUOUS
 62
     7
 10
-209.28095999999991
 20
313.54793999999993
 30
0.0
 11
-209.28095999999991
 21
305.54793999999993
 31
0.0
  0
LINE
  5
64F
  8
0
  6
CONTINUOUS
 62
     7
 10
-221.28095999999991
 20
313.54793999999993
 30
0.0
 11
-221.28095999999991
 21
305.54793999999993
 31
0.0
  0
LINE
  5
650
  8
0
  6
CONTINUOUS
 62
     7
 10
-221.28095999999991
 20
313.54793999999993
 30
0.0
 11
-209.28095999999991
 21
313.54793999999993
 31
0.0
  0
LINE
  5
651
  8
0
  6
CONTINUOUS
 62
     7
 10
-503.74376999999993
 20
268.54793999999998
 30
0.0
 11
-503.74376999999993
 21
313.54793999999993
 31
0.0
  0
LINE
  5
652
  8
0
  6
CONTINUOUS
 62
     7
 10
-573.74377000000004
 20
267.04793999999998
 30
0.0
 11
-573.74377000000004
 21
312.04793999999993
 31
0.0
  0
LINE
  5
653
  8
0
  6
CONTINUOUS
 62
     7
 10
-577.74370999999985
 20
267.04793999999998
 30
0.0
 11
-573.74377000000004
 21
267.04793999999998
 31
0.0
  0
LINE
  5
654
  8
0
  6
CONTINUOUS
 62
     7
 10
-577.74370999999985
 20
312.04793999999993
 30
0.0
 11
-573.74377000000004
 21
312.04793999999993
 31
0.0
  0
LINE
  5
655
  8
0
  6
CONTINUOUS
 62
     7
 10
-573.74377000000004
 20
268.54793999999998
 30
0.0
 11
-503.74376999999993
 21
268.54793999999998
 31
0.0
  0
LINE
  5
656
  8
0
  6
CONTINUOUS
 62
     7
 10
-573.74377000000004
 20
310.54793999999998
 30
0.0
 11
-503.74376999999993
 21
310.54793999999998
 31
0.0
  0
LINE
  5
657
  8
0
  6
CONTINUOUS
 62
     7
 10
-695.74370999999985
 20
173.09632999999991
 30
0.0
 11
-695.74370999999985
 21
381.54793999999998
 31
0.0
  0
LINE
  5
658
  8
0
  6
CENTER
 62
     7
 10
-100.28094
 20
143.39812000000001
 30
0.0
 11
-100.28094
 21
107.57241999999999
 31
0.0
  0
LINE
  5
659
  8
0
  6
CENTER
 62
     7
 10
-330.28093999999999
 20
144.05584999999991
 30
0.0
 11
-330.28093999999999
 21
109.65631
 31
0.0
  0
LINE
  5
65A
  8
0
  6
CONTINUOUS
 62
     7
 10
-677.98614999999995
 20
233.63307
 30
0.0
 11
-664.75031000000001
 21
243.54306
 31
0.0
  0
LINE
  5
65B
  8
0
  6
CONTINUOUS
 62
     7
 10
-675.34704999999985
 20
272.03548999999992
 30
0.0
 11
-663.20844
 21
258.12212999999991
 31
0.0
  0
LINE
  5
65C
  8
0
  6
CONTINUOUS
 62
     7
 10
-679.37725999999975
 20
345.94173999999992
 30
0.0
 11
-667.57599000000005
 21
349.88315
 31
0.0
  0
LINE
  5
65D
  8
0
  6
CONTINUOUS
 62
     7
 10
-675.54480000000001
 20
373.72497999999979
 30
0.0
 11
-665.71869000000004
 21
368.01382000000001
 31
0.0
  0
LINE
  5
65E
  8
0
  6
CONTINUOUS
 62
     7
 10
-695.74370999999985
 20
355.87218999999999
 30
0.0
 11
-683.74377000000004
 21
355.87218999999999
 31
0.0
  0
LINE
  5
65F
  8
0
  6
CONTINUOUS
 62
     7
 10
-695.74370999999985
 20
374.13126
 30
0.0
 11
-677.05224999999984
 21
374.13126
 31
0.0
  0
LINE
  5
660
  8
0
  6
CONTINUOUS
 62
     7
 10
-289.94018999999992
 20
366.71947999999992
 30
0.0
 11
-294.82294000000002
 21
348.49682999999987
 31
0.0
  0
LINE
  5
661
  8
0
  6
CONTINUOUS
 62
     7
 10
-152.86913000000001
 20
373.79047000000003
 30
0.0
 11
-171.09176999999991
 21
368.90770999999989
 31
0.0
  0
LINE
  5
662
  8
0
  6
CONTINUOUS
 62
     7
 10
-78.209877000000006
 20
258.61901999999992
 30
0.0
 11
-91.549750999999986
 21
271.95889
 31
0.0
  0
LINE
  5
663
  8
0
  6
CONTINUOUS
 62
     7
 10
-78.209877000000006
 20
244.47687999999991
 30
0.0
 11
-86.020859000000002
 21
236.66591
 31
0.0
  0
LINE
  5
664
  8
0
  6
CONTINUOUS
 62
     7
 10
-352.35201999999998
 20
258.61901999999992
 30
0.0
 11
-339.01211999999992
 21
271.95891999999992
 31
0.0
  0
LINE
  5
665
  8
0
  6
CONTINUOUS
 62
     7
 10
-610.68542000000002
 20
333.72078999999991
 30
0.0
 11
-615.74370999999996
 21
333.72078999999991
 31
0.0
  0
LINE
  5
666
  8
0
  6
CONTINUOUS
 62
     7
 10
-126.58096
 20
135.54795999999999
 30
0.0
 11
-126.58096
 21
114.5479399999999
 31
0.0
  0
LINE
  5
667
  8
0
  6
CONTINUOUS
 62
     7
 10
-613.74377000000004
 20
185.14581000000001
 30
0.0
 11
-622.26044000000002
 21
185.14581000000001
 31
0.0
  0
LINE
  5
668
  8
0
  6
CONTINUOUS
 62
     7
 10
-140.62166999999991
 20
366.71938999999998
 30
0.0
 11
-135.7389499999999
 21
348.49680000000001
 31
0.0
  0
LINE
  5
669
  8
0
  6
CONTINUOUS
 62
     7
 10
-691.79169000000002
 20
178.1957899999999
 30
0.0
 11
-719.34174000000019
 21
142.64737
 31
0.0
  0
LINE
  5
66A
  8
0
  6
CONTINUOUS
 62
     7
 10
-695.74370999999985
 20
266.55972000000003
 30
0.0
 11
-683.74377000000004
 21
266.55972000000003
 31
0.0
  0
LINE
  5
66B
  8
0
  6
CONTINUOUS
 62
     7
 10
-130.2809399999999
 20
114.5479399999999
 30
0.0
 11
-75.280945000000003
 21
114.5479399999999
 31
0.0
  0
LINE
  5
66C
  8
0
  6
CONTINUOUS
 62
     7
 10
-277.69274999999982
 20
373.79052999999988
 30
0.0
 11
-259.47012000000001
 21
368.90780999999993
 31
0.0
  0
LINE
  5
66D
  8
0
  6
CONTINUOUS
 62
     7
 10
-690.74370999999996
 20
225.35986
 30
0.0
 11
-680.74370999999985
 21
225.35986
 31
0.0
  0
LINE
  5
66E
  8
0
  6
CONTINUOUS
 62
     7
 10
-676.24377000000004
 20
351.02361999999999
 30
0.0
 11
-676.24377000000004
 21
372.19681000000003
 31
0.0
  0
LINE
  5
66F
  8
0
  6
CONTINUOUS
 62
     7
 10
-300.28093999999982
 20
115.54796
 30
0.0
 11
-300.28093999999982
 21
114.5479399999999
 31
0.0
  0
LINE
  5
670
  8
0
  6
CONTINUOUS
 62
     7
 10
-680.74370999999985
 20
269.55972000000003
 30
0.0
 11
-680.74370999999985
 21
352.87222000000008
 31
0.0
  0
LINE
  5
671
  8
0
  6
CONTINUOUS
 62
     7
 10
-676.24377000000004
 20
264.03577000000001
 30
0.0
 11
-676.24377000000004
 21
236.92361
 31
0.0
  0
LINE
  5
672
  8
0
  6
CONTINUOUS
 62
     7
 10
-680.74370999999985
 20
231.93762000000001
 30
0.0
 11
-680.74370999999985
 21
225.35986
 31
0.0
  0
LINE
  5
673
  8
0
  6
CONTINUOUS
 62
     7
 10
-355.28093999999999
 20
134.54793999999981
 30
0.0
 11
-355.28093999999999
 21
114.5479399999999
 31
0.0
  0
LINE
  5
674
  8
0
  6
CONTINUOUS
 62
     7
 10
-296.28098
 20
119.5479399999999
 30
0.0
 11
-133.91517999999999
 21
119.5479399999999
 31
0.0
  0
LINE
  5
675
  8
0
  6
CONTINUOUS
 62
     7
 10
-119.28095999999979
 20
139.5479399999999
 30
0.0
 11
-80.280944999999988
 21
139.5479399999999
 31
0.0
  0
LINE
  5
676
  8
0
  6
DASHED
 62
     7
 10
-90.780959999999993
 20
139.5479399999999
 30
0.0
 11
-90.780959999999993
 21
114.5479399999999
 31
0.0
  0
LINE
  5
677
  8
0
  6
DASHED
 62
     7
 10
-339.78093999999982
 20
139.5479399999999
 30
0.0
 11
-339.78093999999982
 21
114.5479399999999
 31
0.0
  0
LINE
  5
678
  8
0
  6
CONTINUOUS
 62
     7
 10
-303.98092999999989
 20
135.54795999999999
 30
0.0
 11
-303.98092999999989
 21
114.5479399999999
 31
0.0
  0
LINE
  5
679
  8
0
  6
DASHED
 62
     7
 10
-109.78095
 20
139.5479399999999
 30
0.0
 11
-109.78095
 21
114.5479399999999
 31
0.0
  0
LINE
  5
67A
  8
0
  6
DASHED
 62
     7
 10
-320.78093999999982
 20
139.5479399999999
 30
0.0
 11
-320.78093999999982
 21
114.5479399999999
 31
0.0
  0
LINE
  5
67B
  8
0
  6
CONTINUOUS
 62
     7
 10
-130.2809399999999
 20
115.54796
 30
0.0
 11
-130.2809399999999
 21
114.5479399999999
 31
0.0
  0
LINE
  5
67C
  8
0
  6
CONTINUOUS
 62
     7
 10
-75.280945000000003
 20
134.54793999999981
 30
0.0
 11
-75.280945000000003
 21
114.5479399999999
 31
0.0
  0
LINE
  5
67D
  8
0
  6
CONTINUOUS
 62
     7
 10
-355.28093999999999
 20
114.5479399999999
 30
0.0
 11
-300.28093999999982
 21
114.5479399999999
 31
0.0
  0
LINE
  5
67E
  8
0
  6
CONTINUOUS
 62
     7
 10
-352.35201999999998
 20
244.47687999999991
 30
0.0
 11
-344.54104999999993
 21
236.66592
 31
0.0
  0
LINE
  5
67F
  8
0
  6
CONTINUOUS
 62
     7
 10
-350.28093999999987
 20
139.5479399999999
 30
0.0
 11
-307.98095999999993
 21
139.5479399999999
 31
0.0
  0
LINE
  5
680
  8
0
  6
CONTINUOUS
 62
     7
 10
-597.74370999999985
 20
349.54793999999993
 30
0.0
 11
-586.74370999999996
 21
349.54793999999993
 31
0.0
  0
LINE
  5
681
  8
0
  6
CONTINUOUS
 62
     7
 10
-695.74370999999985
 20
234.93764999999991
 30
0.0
 11
-683.74377000000004
 21
234.93764999999991
 31
0.0
  0
LINE
  5
682
  8
0
  6
CONTINUOUS
 62
     7
 10
-690.74370999999996
 20
225.35986
 30
0.0
 11
-690.74370999999996
 21
181.2586399999999
 31
0.0
  0
LINE
  5
683
  8
0
  6
CONTINUOUS
 62
     7
 10
-338.82587000000001
 20
266.93950999999998
 30
0.0
 11
-355.24257999999992
 21
135.16607999999991
 31
0.0
  0
LINE
  5
684
  8
0
  6
CONTINUOUS
 62
     7
 10
-582.86517000000003
 20
335.66931
 30
0.0
 11
-578.62249999999995
 21
331.42663999999991
 31
0.0
  0
LINE
  5
685
  8
0
  6
CONTINUOUS
 62
     7
 10
-625.74370999999985
 20
323.72078999999991
 30
0.0
 11
-625.74370999999985
 21
147.54796999999991
 31
0.0
  0
LINE
  5
686
  8
0
  6
CONTINUOUS
 62
     7
 10
-680.74370999999985
 20
374.13126
 30
0.0
 11
-680.74370999999985
 21
379.09276999999992
 31
0.0
  0
LINE
  5
687
  8
0
  6
CONTINUOUS
 62
     7
 10
-583.74377000000004
 20
289.54793999999993
 30
0.0
 11
-583.74377000000004
 21
143.2939299999999
 31
0.0
  0
LINE
  5
688
  8
0
  6
CONTINUOUS
 62
     7
 10
-678.81353999999976
 20
375.67052999999999
 30
0.0
 11
-613.46460000000002
 21
373.38848999999999
 31
0.0
  0
LINE
  5
689
  8
0
  6
CONTINUOUS
 62
     7
 10
-582.86505
 20
249.42662000000001
 30
0.0
 11
-578.62243999999998
 21
253.66927000000001
 31
0.0
  0
LINE
  5
68A
  8
0
  6
DASHED
 62
     7
 10
-608.24370999999985
 20
139.5479399999999
 30
0.0
 11
-608.24370999999985
 21
114.5479399999999
 31
0.0
  0
LINE
  5
68B
  8
0
  6
CONTINUOUS
 62
     7
 10
-577.74370999999985
 20
135.54795999999999
 30
0.0
 11
-577.74370999999985
 21
114.5479399999999
 31
0.0
  0
LINE
  5
68C
  8
0
  6
DASHED
 62
     7
 10
-589.24370999999985
 20
139.5479399999999
 30
0.0
 11
-589.24370999999985
 21
114.5479399999999
 31
0.0
  0
LINE
  5
68D
  8
0
  6
CONTINUOUS
 62
     7
 10
-617.74370999999985
 20
139.5479399999999
 30
0.0
 11
-581.74370999999985
 21
139.5479399999999
 31
0.0
  0
LINE
  5
68E
  8
0
  6
CONTINUOUS
 62
     7
 10
-695.74370999999985
 20
381.54791
 30
0.0
 11
-682.67394999999999
 21
381.09152
 31
0.0
  0
LINE
  5
68F
  8
0
  6
CONTINUOUS
 62
     7
 10
-605.74370999999985
 20
193.14581000000001
 30
0.0
 11
-605.74370999999985
 21
365.39333999999991
 31
0.0
  0
LINE
  5
690
  8
0
  6
CONTINUOUS
 62
     7
 10
-583.74377000000004
 20
289.54793999999993
 30
0.0
 11
-583.74377000000004
 21
346.54793999999993
 31
0.0
  0
LINE
  5
691
  8
0
  6
CONTINUOUS
 62
     7
 10
-309.28093999999999
 20
333.18279999999982
 30
0.0
 11
-309.28093999999999
 21
217.5380899999999
 31
0.0
  0
LINE
  5
692
  8
0
  6
CONTINUOUS
 62
     7
 10
-577.74370999999985
 20
289.54793999999993
 30
0.0
 11
-577.74370999999985
 21
329.30532999999991
 31
0.0
  0
LINE
  5
693
  8
0
  6
CONTINUOUS
 62
     7
 10
-577.74370999999985
 20
289.54793999999993
 30
0.0
 11
-577.74370999999985
 21
255.79057
 31
0.0
  0
LINE
  5
694
  8
0
  6
CONTINUOUS
 62
     7
 10
-769.74377000000004
 20
114.5479399999999
 30
0.0
 11
-577.74370999999985
 21
114.5479399999999
 31
0.0
  0
LINE
  5
695
  8
0
  6
CONTINUOUS
 62
     7
 10
-765.74370999999985
 20
139.5479399999999
 30
0.0
 11
-725.6649799999999
 21
139.5479399999999
 31
0.0
  0
LINE
  5
696
  8
0
  6
CONTINUOUS
 62
     7
 10
-769.74377000000004
 20
135.54795999999999
 30
0.0
 11
-769.74377000000004
 21
114.5479399999999
 31
0.0
  0
LINE
  5
697
  8
0
  6
CONTINUOUS
 62
     7
 10
-91.736023000000003
 20
266.93953999999991
 30
0.0
 11
-75.319305
 21
135.16611
 31
0.0
  0
LINE
  5
698
  8
0
  6
CONTINUOUS
 62
     7
 10
-303.28093999999999
 20
251.5479399999999
 30
0.0
 11
-303.28093999999999
 21
147.54796999999991
 31
0.0
  0
LINE
  5
699
  8
0
  6
CONTINUOUS
 62
     7
 10
-127.28095
 20
261.54793999999998
 30
0.0
 11
-127.28095
 21
147.54796999999991
 31
0.0
  0
LINE
  5
69A
  8
0
  6
CONTINUOUS
 62
     7
 10
-121.28095
 20
333.18279999999982
 30
0.0
 11
-121.28095
 21
213.93332000000001
 31
0.0
  0
LINE
  5
69B
  8
0
  6
DASHED
 62
     7
 10
-739.24370999999985
 20
139.5479399999999
 30
0.0
 11
-739.24370999999985
 21
114.5479399999999
 31
0.0
  0
LINE
  5
69C
  8
0
  6
DASHED
 62
     7
 10
-758.24370999999985
 20
139.5479399999999
 30
0.0
 11
-758.24370999999985
 21
114.5479399999999
 31
0.0
  0
LINE
  5
69D
  8
0
  6
CENTER
 62
     7
 10
-742.71118000000001
 20
289.54793999999993
 30
0.0
 11
-499.27233999999999
 21
289.54793999999993
 31
0.0
  0
LINE
  5
69E
  8
0
  6
CENTER
 62
     7
 10
-598.74377000000004
 20
141.50835000000001
 30
0.0
 11
-598.74377000000004
 21
111.79021
 31
0.0
  0
LINE
  5
69F
  8
0
  6
CENTER
 62
     7
 10
-748.74377000000004
 20
141.50835000000001
 30
0.0
 11
-748.74377000000004
 21
111.79021
 31
0.0
  0
LINE
  5
6A0
  8
0
  6
CONTINUOUS
 62
     7
 10
-282.28093999999999
 20
134.54793999999981
 30
0.0
 11
-148.28093999999979
 21
134.54793999999981
 31
0.0
  0
LINE
  5
6A1
  8
0
  6
CONTINUOUS
 62
     7
 10
-285.63540999999992
 20
129.27862999999991
 30
0.0
 11
-144.92647999999991
 21
129.27862999999991
 31
0.0
  0
LINE
  5
6A2
  8
0
  6
CONTINUOUS
 62
     7
 10
-219.28095999999991
 20
418.54793999999998
 30
0.0
 11
-219.28095999999991
 21
385.04797000000002
 31
0.0
  0
LINE
  5
6A3
  8
0
  6
CONTINUOUS
 62
     7
 10
-211.28097999999989
 20
418.54793999999998
 30
0.0
 11
-211.28097999999989
 21
385.04797000000002
 31
0.0
  0
LINE
  5
6A4
  8
0
  6
CONTINUOUS
 62
     7
 10
-225.24952999999999
 20
381.16516000000001
 30
0.0
 11
-223.5687299999999
 21
387.43801999999999
 31
0.0
  0
LINE
  5
6A5
  8
0
  6
CONTINUOUS
 62
     7
 10
-205.31236000000001
 20
381.16519
 30
0.0
 11
-206.9931599999999
 21
387.43804999999998
 31
0.0
  0
LINE
  5
6A6
  8
0
  6
CONTINUOUS
 62
     7
 10
-219.2809399999999
 20
388.80941999999988
 30
0.0
 11
-222.78437999999991
 21
388.1626
 31
0.0
  0
LINE
  5
6A7
  8
0
  6
CONTINUOUS
 62
     7
 10
-211.28095999999991
 20
388.80945000000003
 30
0.0
 11
-207.77755999999991
 21
388.16262999999992
 31
0.0
  0
LINE
  5
6A8
  8
0
  6
CONTINUOUS
 62
     7
 10
-708.74377000000004
 20
236.53615999999991
 30
0.0
 11
-695.74370999999985
 21
236.53615999999991
 31
0.0
  0
LINE
  5
6A9
  8
0
  6
CONTINUOUS
 62
     7
 10
-708.74377000000004
 20
266.55972000000003
 30
0.0
 11
-695.74370999999985
 21
266.55972000000003
 31
0.0
  0
LINE
  5
6AA
  8
0
  6
CONTINUOUS
 62
     7
 10
-708.74377000000004
 20
355.87218999999999
 30
0.0
 11
-695.74370999999985
 21
355.87218999999999
 31
0.0
  0
LINE
  5
6AB
  8
0
  6
CONTINUOUS
 62
     7
 10
-708.74377000000004
 20
374.13126
 30
0.0
 11
-695.74370999999985
 21
374.13126
 31
0.0
  0
LINE
  5
6AC
  8
0
  6
CONTINUOUS
 62
     7
 10
-697.74370999999985
 20
381.54797000000002
 30
0.0
 11
-695.74370999999985
 21
381.54797000000002
 31
0.0
  0
LINE
  5
6AD
  8
0
  6
CONTINUOUS
 62
     7
 10
-719.56084999999985
 20
388.048
 30
0.0
 11
-703.92664000000002
 21
388.048
 31
0.0
  0
LINE
  5
6AE
  8
0
  6
CONTINUOUS
 62
     7
 10
-722.06659000000002
 20
381.04797000000002
 30
0.0
 11
-707.41107
 21
381.04797000000002
 31
0.0
  0
LINE
  5
6AF
  8
0
  6
CONTINUOUS
 62
     7
 10
-721.74383999999975
 20
381.048
 30
0.0
 11
-720.03161999999975
 21
387.43810999999988
 31
0.0
  0
LINE
  5
6B0
  8
0
  6
CONTINUOUS
 62
     7
 10
-711.74377000000004
 20
389.54797000000002
 30
0.0
 11
-704.24030000000005
 21
388.16262999999992
 31
0.0
  0
LINE
  5
6B1
  8
0
  6
CONTINUOUS
 62
     7
 10
-719.24712999999997
 20
388.16266000000002
 30
0.0
 11
-711.74370999999996
 21
389.548
 31
0.0
  0
LINE
  5
6B2
  8
0
  6
CONTINUOUS
 62
     7
 10
-831.24370999999985
 20
167.04796999999999
 30
0.0
 11
-815.10412999999994
 21
167.6115699999998
 31
0.0
  0
LINE
  5
6B3
  8
0
  6
CONTINUOUS
 62
     7
 10
-749.50525000000005
 20
168.80835999999991
 30
0.0
 11
-725.48235999999986
 21
166.7066299999999
 31
0.0
  0
LINE
  5
6B4
  8
0
  6
CONTINUOUS
 62
     7
 10
-752.24377000000004
 20
171.79693999999981
 30
0.0
 11
-752.24377000000004
 21
189.5479399999999
 31
0.0
  0
LINE
  5
6B5
  8
0
  6
CONTINUOUS
 62
     7
 10
-757.24377000000004
 20
325.04797000000002
 30
0.0
 11
-727.56921
 21
326.08422999999999
 31
0.0
  0
LINE
  5
6B6
  8
0
  6
CONTINUOUS
 62
     7
 10
-757.2438400000002
 20
178.0479599999999
 30
0.0
 11
-755.13909999999964
 21
177.97445999999991
 31
0.0
  0
LINE
  5
6B7
  8
0
  6
CONTINUOUS
 62
     7
 10
-697.74370999999985
 20
381.47811999999999
 30
0.0
 11
-697.74370999999985
 21
381.54797000000002
 31
0.0
  0
LINE
  5
6B8
  8
0
  6
CONTINUOUS
 62
     7
 10
-767.24377000000004
 20
212.07327000000001
 30
0.0
 11
-722.74370999999985
 21
212.07327000000001
 31
0.0
  0
LINE
  5
6B9
  8
0
  6
CONTINUOUS
 62
     7
 10
-720.26476999999988
 20
368.62695000000002
 30
0.0
 11
-711.22284000000002
 21
370.22127999999992
 31
0.0
  0
LINE
  5
6BA
  8
0
  6
CONTINUOUS
 62
     7
 10
-708.74377000000004
 20
156.32216
 30
0.0
 11
-708.74377000000004
 21
379.16259999999988
 31
0.0
  0
LINE
  5
6BB
  8
0
  6
CONTINUOUS
 62
     7
 10
-722.74370999999985
 20
140.10039
 30
0.0
 11
-722.74370999999985
 21
379.54797000000002
 31
0.0
  0
LINE
  5
6BC
  8
0
  6
CONTINUOUS
 62
     7
 10
-706.81353999999999
 20
381.16140999999988
 30
0.0
 11
-695.74377000000004
 21
381.54797000000002
 31
0.0
  0
LINE
  5
6BD
  8
0
  6
CONTINUOUS
 62
     7
 10
-701.82085999999981
 20
381.33577999999989
 30
0.0
 11
-703.45599000000004
 21
387.43801999999999
 31
0.0
  0
LINE
  5
6BE
  8
0
  6
CONTINUOUS
 62
     7
 10
-767.24377000000004
 20
291.02260999999999
 30
0.0
 11
-722.74370999999985
 21
291.02260999999999
 31
0.0
  0
LINE
  5
6BF
  8
0
  6
CONTINUOUS
 62
     3
 10
-767.24377000000004
 20
313.12658999999979
 30
0.0
 11
-722.74370999999985
 21
313.12658999999979
 31
0.0
  0
LINE
  5
6C0
  8
0
  6
CONTINUOUS
 62
     3
 10
-767.24377000000004
 20
189.96931000000001
 30
0.0
 11
-722.74370999999985
 21
189.96931000000001
 31
0.0
  0
LINE
  5
6C1
  8
0
  6
CONTINUOUS
 62
     7
 10
-831.24377000000004
 20
280.04797000000002
 30
0.0
 11
-813.06353999999988
 21
280.68282999999991
 31
0.0
  0
LINE
  5
6C2
  8
0
  6
CONTINUOUS
 62
     7
 10
-813.06353999999988
 20
280.68282999999991
 30
0.0
 11
-807.43187999999998
 21
280.87948999999992
 31
0.0
  0
LINE
  5
6C3
  8
0
  6
CONTINUOUS
 62
     7
 10
-804.74315999999988
 20
282.04865000000001
 30
0.0
 11
-769.82703000000004
 21
316.96474999999992
 31
0.0
  0
LINE
  5
6C4
  8
0
  6
CONTINUOUS
 62
     7
 10
-805.85724000000005
 20
280.93441999999988
 30
0.0
 11
-799.48090000000002
 21
269.54793999999998
 31
0.0
  0
LINE
  5
6C5
  8
0
  6
CONTINUOUS
 62
     7
 10
-808.24370999999985
 20
311.65084999999999
 30
0.0
 11
-808.24370999999985
 21
285.00463999999999
 31
0.0
  0
LINE
  5
6C6
  8
0
  6
CONTINUOUS
 62
     7
 10
-831.24377000000004
 20
167.04793999999981
 30
0.0
 11
-831.24377000000004
 21
280.04797000000002
 31
0.0
  0
LINE
  5
6C7
  8
0
  6
CONTINUOUS
 62
     7
 10
-811.24377000000004
 20
202.05239999999989
 30
0.0
 11
-811.24377000000004
 21
171.60912999999991
 31
0.0
  0
LINE
  5
6C8
  8
0
  6
CONTINUOUS
 62
     7
 10
-769.82703000000004
 20
316.96474999999992
 30
0.0
 11
-768.41431
 21
318.37747000000002
 31
0.0
  0
LINE
  5
6C9
  8
0
  6
CONTINUOUS
 62
     7
 10
-805.34844999999973
 20
314.64907999999991
 30
0.0
 11
-772.51580999999965
 21
315.79561999999999
 31
0.0
  0
LINE
  5
6CA
  8
0
  6
CONTINUOUS
 62
     7
 10
-763.38335999999981
 20
325.33355999999992
 30
0.0
 11
-757.24377000000004
 21
325.54797000000002
 31
0.0
  0
LINE
  5
6CB
  8
0
  6
CONTINUOUS
 62
     7
 10
-839.24370999999985
 20
256.35376000000002
 30
0.0
 11
-792.09222
 21
256.35376000000002
 31
0.0
  0
LINE
  5
6CC
  8
0
  6
CENTER
 62
     1
 10
-722.74370999999985
 20
223.54795999999999
 30
0.0
 11
-967.82390999999984
 21
223.54795999999999
 31
0.0
  0
LINE
  5
6CD
  8
0
  6
CONTINUOUS
 62
     7
 10
-792.09229000000005
 20
256.35379
 30
0.0
 11
-767.24377000000004
 21
211.9809599999999
 31
0.0
  0
LINE
  5
6CE
  8
0
  6
CONTINUOUS
 62
     7
 10
-757.24377000000004
 20
177.54796999999991
 30
0.0
 11
-757.24377000000004
 21
325.54793999999998
 31
0.0
  0
LINE
  5
6CF
  8
0
  6
CONTINUOUS
 62
     7
 10
-809.33032000000014
 20
282.69405999999998
 30
0.0
 11
-810.65179000000001
 21
281.59966999999989
 31
0.0
  0
LINE
  5
6D0
  8
0
  6
CONTINUOUS
 62
     7
 10
-807.10419000000002
 20
182.92574999999991
 30
0.0
 11
-769.95630000000006
 21
181.62852000000001
 31
0.0
  0
LINE
  5
6D1
  8
0
  6
CONTINUOUS
 62
     7
 10
-806.24377000000004
 20
207.05240000000001
 30
0.0
 11
-767.24377000000004
 21
207.05240000000001
 31
0.0
  0
LINE
  5
6D2
  8
0
  6
CONTINUOUS
 62
     7
 10
-767.24377000000004
 20
180.43547000000001
 30
0.0
 11
-767.24377000000004
 21
321.11385999999982
 31
0.0
  0
LINE
  5
6D3
  8
0
  6
CONTINUOUS
 62
     7
 10
-763.38335999999981
 20
177.76236
 30
0.0
 11
-757.24370999999985
 21
177.5479599999999
 31
0.0
  0
LINE
  5
6D4
  8
0
  6
CONTINUOUS
 62
     7
 10
-831.24377000000004
 20
269.54793999999998
 30
0.0
 11
-786.14068999999984
 21
269.54793999999998
 31
0.0
  0
LINE
  5
6D5
  8
0
  6
CONTINUOUS
 62
     7
 10
-858.74376999999981
 20
253.5479399999999
 30
0.0
 11
-849.47374999999988
 21
253.5479399999999
 31
0.0
  0
LINE
  5
6D6
  8
0
  6
CONTINUOUS
 62
     3
 10
-940.74419999999986
 20
216.0477299999998
 30
0.0
 11
-940.74419999999986
 21
231.0477299999998
 31
0.0
  0
LINE
  5
6D7
  8
0
  6
CONTINUOUS
 62
     3
 10
-940.74419999999986
 20
231.0477299999998
 30
0.0
 11
-937.24419999999986
 21
231.0477299999998
 31
0.0
  0
LINE
  5
6D8
  8
0
  6
CONTINUOUS
 62
     3
 10
-933.24419999999998
 20
257.04770000000002
 30
0.0
 11
-933.24419999999998
 21
253.54771
 31
0.0
  0
LINE
  5
6D9
  8
0
  6
CONTINUOUS
 62
     3
 10
-933.24419999999998
 20
257.04770000000002
 30
0.0
 11
-918.24370999999985
 21
257.04770000000002
 31
0.0
  0
LINE
  5
6DA
  8
0
  6
CONTINUOUS
 62
     3
 10
-918.24370999999985
 20
257.04770000000002
 30
0.0
 11
-918.24370999999985
 21
253.54771
 31
0.0
  0
LINE
  5
6DB
  8
0
  6
CONTINUOUS
 62
     3
 10
-937.24419999999986
 20
193.54818999999989
 30
0.0
 11
-937.24419999999986
 21
253.54771
 31
0.0
  0
LINE
  5
6DC
  8
0
  6
CONTINUOUS
 62
     3
 10
-860.24370999999985
 20
195.04796999999991
 30
0.0
 11
-860.24370999999985
 21
252.04792999999981
 31
0.0
  0
LINE
  5
6DD
  8
0
  6
CONTINUOUS
 62
     3
 10
-937.24419999999986
 20
253.54771
 30
0.0
 11
-861.74370999999985
 21
253.54771
 31
0.0
  0
LINE
  5
6DE
  8
0
  6
CONTINUOUS
 62
     3
 10
-908.04369999999994
 20
205.74773999999991
 30
0.0
 11
-908.04369999999994
 21
241.35172
 31
0.0
  0
LINE
  5
6DF
  8
0
  6
CONTINUOUS
 62
     3
 10
-872.44372999999985
 20
205.74773999999991
 30
0.0
 11
-872.44372999999985
 21
241.35172
 31
0.0
  0
LINE
  5
6E0
  8
0
  6
CONTINUOUS
 62
     3
 10
-908.04369999999994
 20
205.74773999999991
 30
0.0
 11
-872.44372999999985
 21
205.74773999999991
 31
0.0
  0
LINE
  5
6E1
  8
0
  6
CONTINUOUS
 62
     3
 10
-908.04369999999994
 20
241.35172
 30
0.0
 11
-872.44372999999985
 21
241.35172
 31
0.0
  0
LINE
  5
6E2
  8
0
  6
CONTINUOUS
 62
     3
 10
-869.87170000000003
 20
201.04818999999981
 30
0.0
 11
-865.66669000000013
 21
201.04818999999981
 31
0.0
  0
LINE
  5
6E3
  8
0
  6
CONTINUOUS
 62
     3
 10
-867.74370999999985
 20
198.98618999999999
 30
0.0
 11
-867.74370999999985
 21
203.01214999999991
 31
0.0
  0
LINE
  5
6E4
  8
0
  6
CONTINUOUS
 62
     3
 10
-938.74419999999998
 20
192.04819999999981
 30
0.0
 11
-933.24419999999998
 21
192.04819999999981
 31
0.0
  0
LINE
  5
6E5
  8
0
  6
CONTINUOUS
 62
     3
 10
-938.74419999999998
 20
255.04769999999991
 30
0.0
 11
-933.24419999999998
 21
255.04769999999991
 31
0.0
  0
LINE
  5
6E6
  8
0
  6
CONTINUOUS
 62
     3
 10
-913.24370999999996
 20
200.54818999999989
 30
0.0
 11
-873.22173999999973
 21
200.54818999999989
 31
0.0
  0
LINE
  5
6E7
  8
0
  6
CONTINUOUS
 62
     3
 10
-907.26671999999974
 20
246.54771
 30
0.0
 11
-867.2437699999997
 21
246.54771
 31
0.0
  0
LINE
  5
6E8
  8
0
  6
CONTINUOUS
 62
     3
 10
-858.74376999999981
 20
192.04819999999981
 30
0.0
 11
-858.74376999999981
 21
255.04769999999991
 31
0.0
  0
LINE
  5
6E9
  8
0
  6
CONTINUOUS
 62
     3
 10
-867.2437699999997
 20
206.52566999999991
 30
0.0
 11
-867.2437699999997
 21
246.54771
 31
0.0
  0
LINE
  5
6EA
  8
0
  6
CONTINUOUS
 62
     3
 10
-913.24370999999996
 20
200.54818999999989
 30
0.0
 11
-913.24370999999996
 21
240.57074
 31
0.0
  0
LINE
  5
6EB
  8
0
  6
CONTINUOUS
 62
     3
 10
-938.74419999999998
 20
192.04819999999981
 30
0.0
 11
-938.74419999999998
 21
216.0477299999998
 31
0.0
  0
LINE
  5
6EC
  8
0
  6
CONTINUOUS
 62
     3
 10
-938.74419999999998
 20
231.0477299999998
 30
0.0
 11
-938.74419999999998
 21
255.04769999999991
 31
0.0
  0
LINE
  5
6ED
  8
0
  6
CONTINUOUS
 62
     3
 10
-912.74370999999985
 20
243.98568999999981
 30
0.0
 11
-912.74370999999985
 21
248.01168999999999
 31
0.0
  0
LINE
  5
6EE
  8
0
  6
CONTINUOUS
 62
     3
 10
-914.87170000000015
 20
246.04772999999989
 30
0.0
 11
-910.66669000000002
 21
246.04772999999989
 31
0.0
  0
LINE
  5
6EF
  8
0
  6
CONTINUOUS
 62
     3
 10
-937.24419999999986
 20
193.54818999999989
 30
0.0
 11
-861.74370999999985
 21
193.54818999999989
 31
0.0
  0
LINE
  5
6F0
  8
0
  6
CONTINUOUS
 62
     7
 10
-858.74376999999981
 20
193.5479599999999
 30
0.0
 11
-849.47374999999988
 21
193.5479599999999
 31
0.0
  0
LINE
  5
6F1
  8
0
  6
CONTINUOUS
 62
     7
 10
-921.74370999999974
 20
185.32486999999981
 30
0.0
 11
-839.24370999999985
 21
185.32486999999981
 31
0.0
  0
LINE
  5
6F2
  8
0
  6
CONTINUOUS
 62
     7
 10
-923.24370999999996
 20
186.82486
 30
0.0
 11
-923.24370999999996
 21
186.82486
 31
0.0
  0
LINE
  5
6F3
  8
0
  6
CONTINUOUS
 62
     7
 10
-844.70325000000003
 20
170.5479599999999
 30
0.0
 11
-839.24370999999985
 21
170.5479599999999
 31
0.0
  0
LINE
  5
6F4
  8
0
  6
CONTINUOUS
 62
     7
 10
-840.74376999999993
 20
185.32493999999991
 30
0.0
 11
-845.18579
 21
168.74707000000001
 31
0.0
  0
LINE
  5
6F5
  8
0
  6
CONTINUOUS
 62
     7
 10
-908.24370999999985
 20
163.66003000000001
 30
0.0
 11
-908.24370999999985
 21
167.26469
 31
0.0
  0
LINE
  5
6F6
  8
0
  6
CONTINUOUS
 62
     7
 10
-947.24376999999981
 20
172.76311000000001
 30
0.0
 11
-945.93493999999998
 21
163.3836499999999
 31
0.0
  0
LINE
  5
6F7
  8
0
  6
CONTINUOUS
 62
     7
 10
-947.24390000000005
 20
172.76311000000001
 30
0.0
 11
-945.95281999999986
 21
164.26997
 31
0.0
  0
LINE
  5
6F8
  8
0
  6
CONTINUOUS
 62
     7
 10
-947.24376999999981
 20
174.1076799999999
 30
0.0
 11
-945.96367999999995
 21
166.10250999999991
 31
0.0
  0
LINE
  5
6F9
  8
0
  6
CONTINUOUS
 62
     7
 10
-943.95403999999996
 20
161.66002
 30
0.0
 11
-910.24370999999985
 21
161.66002
 31
0.0
  0
LINE
  5
6FA
  8
0
  6
CONTINUOUS
 62
     7
 10
-943.97540000000004
 20
162.57056
 30
0.0
 11
-910.24370999999985
 21
162.57056
 31
0.0
  0
LINE
  5
6FB
  8
0
  6
CONTINUOUS
 62
     7
 10
-943.98876999999993
 20
164.41831999999999
 30
0.0
 11
-910.24370999999985
 21
164.41831999999999
 31
0.0
  0
LINE
  5
6FC
  8
0
  6
CONTINUOUS
 62
     7
 10
-947.24376999999981
 20
175.45221000000001
 30
0.0
 11
-946.00249999999994
 21
168.89281
 31
0.0
  0
LINE
  5
6FD
  8
0
  6
CONTINUOUS
 62
     7
 10
-944.03734999999995
 20
167.26469
 30
0.0
 11
-847.11755000000005
 21
167.26469
 31
0.0
  0
LINE
  5
6FE
  8
0
  6
CONTINUOUS
 62
     7
 10
-839.24370999999985
 20
167.54796999999991
 30
0.0
 11
-831.24377000000004
 21
167.54796999999991
 31
0.0
  0
LINE
  5
6FF
  8
0
  6
CONTINUOUS
 62
     7
 10
-839.24370999999985
 20
190.74213
 30
0.0
 11
-811.24377000000004
 21
190.74213
 31
0.0
  0
LINE
  5
700
  8
0
  6
CONTINUOUS
 62
     7
 10
-839.24370999999985
 20
177.54796999999991
 30
0.0
 11
-831.24377000000004
 21
177.54796999999991
 31
0.0
  0
LINE
  5
701
  8
0
  6
CONTINUOUS
 62
     7
 10
-954.54558999999995
 20
180.3565099999999
 30
0.0
 11
-948.31586000000004
 21
180.3565099999999
 31
0.0
  0
LINE
  5
702
  8
0
  6
CONTINUOUS
 62
     7
 10
-955.24370999999996
 20
170.5479599999999
 30
0.0
 11
-947.24376999999981
 21
170.5479599999999
 31
0.0
  0
LINE
  5
703
  8
0
  6
CONTINUOUS
 62
     7
 10
-956.24377000000004
 20
173.5479599999999
 30
0.0
 11
-955.24370999999996
 21
173.5479599999999
 31
0.0
  0
LINE
  5
704
  8
0
  6
CONTINUOUS
 62
     7
 10
-959.24370999999974
 20
174.0517999999999
 30
0.0
 11
-959.24370999999974
 21
174.57755
 31
0.0
  0
LINE
  5
705
  8
0
  6
CONTINUOUS
 62
     7
 10
-959.24370999999974
 20
176.15141
 30
0.0
 11
-959.24370999999974
 21
176.69745
 31
0.0
  0
LINE
  5
706
  8
0
  6
CONTINUOUS
 62
     7
 10
-959.24370999999974
 20
180.71753000000001
 30
0.0
 11
-959.24370999999974
 21
181.18964
 31
0.0
  0
LINE
  5
707
  8
0
  6
CONTINUOUS
 62
     7
 10
-959.46344000000022
 20
177.16273000000001
 30
0.0
 11
-960.71209999999985
 21
177.82463000000001
 31
0.0
  0
LINE
  5
708
  8
0
  6
CONTINUOUS
 62
     7
 10
-959.45708999999999
 20
175.05321000000001
 30
0.0
 11
-960.69635000000005
 21
175.68223999999989
 31
0.0
  0
LINE
  5
709
  8
0
  6
CONTINUOUS
 62
     7
 10
-959.47790999999995
 20
181.70013
 30
0.0
 11
-960.74920999999995
 21
182.4447899999999
 31
0.0
  0
LINE
  5
70A
  8
0
  6
CONTINUOUS
 62
     7
 10
-959.00445999999999
 20
174.9448499999998
 30
0.0
 11
-956.74370999999985
 21
174.9448499999998
 31
0.0
  0
LINE
  5
70B
  8
0
  6
CONTINUOUS
 62
     7
 10
-958.99505999999985
 20
177.0463
 30
0.0
 11
-957.24377000000004
 21
177.0463
 31
0.0
  0
LINE
  5
70C
  8
0
  6
CONTINUOUS
 62
     7
 10
-958.97240999999974
 20
181.56301999999999
 30
0.0
 11
-957.24377000000004
 21
181.56301999999999
 31
0.0
  0
LINE
  5
70D
  8
0
  6
CONTINUOUS
 62
     7
 10
-958.94512999999995
 20
180.42303000000001
 30
0.0
 11
-956.24377000000004
 21
180.42303000000001
 31
0.0
  0
LINE
  5
70E
  8
0
  6
CONTINUOUS
 62
     7
 10
-958.96666999999979
 20
175.90628000000001
 30
0.0
 11
-956.24377000000004
 21
175.90628000000001
 31
0.0
  0
LINE
  5
70F
  8
0
  6
CONTINUOUS
 62
     7
 10
-959.49352999999985
 20
180.58678999999989
 30
0.0
 11
-960.79210999999998
 21
181.43831999999981
 31
0.0
  0
LINE
  5
710
  8
0
  6
CONTINUOUS
 62
     7
 10
-959.48131999999987
 20
176.04886999999991
 30
0.0
 11
-960.75829999999985
 21
176.81515999999991
 31
0.0
  0
LINE
  5
711
  8
0
  6
CONTINUOUS
 62
     7
 10
-959.47600999999997
 20
173.93282999999991
 30
0.0
 11
-960.74425999999983
 21
174.66579999999999
 31
0.0
  0
LINE
  5
712
  8
0
  6
CONTINUOUS
 62
     7
 10
-958.97551999999985
 20
173.7985799999999
 30
0.0
 11
-956.74370999999985
 21
173.7985799999999
 31
0.0
  0
LINE
  5
713
  8
0
  6
CONTINUOUS
 62
     7
 10
-961.24377000000004
 20
175.53152
 30
0.0
 11
-961.24377000000004
 21
218.5479599999999
 31
0.0
  0
LINE
  5
714
  8
0
  6
CONTINUOUS
 62
     7
 10
-844.70325000000003
 20
276.54793999999998
 30
0.0
 11
-839.24370999999985
 21
276.54793999999998
 31
0.0
  0
LINE
  5
715
  8
0
  6
CONTINUOUS
 62
     7
 10
-841.04156
 20
262.88277999999991
 30
0.0
 11
-845.18573000000004
 21
278.34885000000003
 31
0.0
  0
LINE
  5
716
  8
0
  6
CONTINUOUS
 62
     7
 10
-908.24370999999985
 20
283.43581999999998
 30
0.0
 11
-908.24370999999985
 21
279.83120999999988
 31
0.0
  0
LINE
  5
717
  8
0
  6
CONTINUOUS
 62
     7
 10
-947.24384000000009
 20
274.33278999999999
 30
0.0
 11
-945.93493999999998
 21
283.71224999999993
 31
0.0
  0
LINE
  5
718
  8
0
  6
CONTINUOUS
 62
     7
 10
-947.24376999999981
 20
274.33278999999999
 30
0.0
 11
-945.9527599999999
 21
282.82589999999999
 31
0.0
  0
LINE
  5
719
  8
0
  6
CONTINUOUS
 62
     7
 10
-947.24376999999981
 20
272.98818999999992
 30
0.0
 11
-945.96374999999989
 21
280.99337999999989
 31
0.0
  0
LINE
  5
71A
  8
0
  6
CONTINUOUS
 62
     7
 10
-943.95403999999996
 20
285.43585000000002
 30
0.0
 11
-910.24370999999985
 21
285.43585000000002
 31
0.0
  0
LINE
  5
71B
  8
0
  6
CONTINUOUS
 62
     7
 10
-943.97540000000004
 20
284.5252999999999
 30
0.0
 11
-910.24370999999985
 21
284.5252999999999
 31
0.0
  0
LINE
  5
71C
  8
0
  6
CONTINUOUS
 62
     7
 10
-943.98876999999993
 20
282.67757999999992
 30
0.0
 11
-910.24370999999985
 21
282.67757999999992
 31
0.0
  0
LINE
  5
71D
  8
0
  6
CONTINUOUS
 62
     7
 10
-921.74370999999974
 20
261.77099999999967
 30
0.0
 11
-839.24370999999985
 21
261.77099999999967
 31
0.0
  0
LINE
  5
71E
  8
0
  6
CONTINUOUS
 62
     7
 10
-941.87836000000004
 20
186.89671000000001
 30
0.0
 11
-947.24376999999981
 21
175.4522399999999
 31
0.0
  0
LINE
  5
71F
  8
0
  6
CONTINUOUS
 62
     7
 10
-941.87836000000004
 20
260.19909999999987
 30
0.0
 11
-947.24376999999981
 21
271.64355
 31
0.0
  0
LINE
  5
720
  8
0
  6
CONTINUOUS
 62
     7
 10
-947.24384000000009
 20
271.64367999999968
 30
0.0
 11
-946.00249999999994
 21
278.20308999999992
 31
0.0
  0
LINE
  5
721
  8
0
  6
CONTINUOUS
 62
     7
 10
-944.03734999999995
 20
279.83120999999988
 30
0.0
 11
-847.11755000000005
 21
279.83120999999988
 31
0.0
  0
LINE
  5
722
  8
0
  6
CONTINUOUS
 62
     7
 10
-923.24370999999996
 20
186.82486
 30
0.0
 11
-923.24370999999996
 21
185.32486999999981
 31
0.0
  0
LINE
  5
723
  8
0
  6
CONTINUOUS
 62
     7
 10
-923.24370999999996
 20
260.27096999999992
 30
0.0
 11
-923.24370999999996
 21
260.27096999999992
 31
0.0
  0
LINE
  5
724
  8
0
  6
CONTINUOUS
 62
     7
 10
-839.24370999999985
 20
279.54793999999998
 30
0.0
 11
-831.24377000000004
 21
279.54793999999998
 31
0.0
  0
LINE
  5
725
  8
0
  6
CONTINUOUS
 62
     7
 10
-831.24377000000004
 20
177.54796999999991
 30
0.0
 11
-811.24377000000004
 21
177.54796999999991
 31
0.0
  0
LINE
  5
726
  8
0
  6
CONTINUOUS
 62
     7
 10
-839.24370999999985
 20
269.54793999999998
 30
0.0
 11
-831.24377000000004
 21
269.54793999999998
 31
0.0
  0
LINE
  5
727
  8
0
  6
CONTINUOUS
 62
     7
 10
-954.54558999999995
 20
266.73935
 30
0.0
 11
-948.31586000000004
 21
266.73935
 31
0.0
  0
LINE
  5
728
  8
0
  6
CONTINUOUS
 62
     7
 10
-955.24370999999996
 20
276.54793999999998
 30
0.0
 11
-947.24376999999981
 21
276.54793999999998
 31
0.0
  0
LINE
  5
729
  8
0
  6
CONTINUOUS
 62
     7
 10
-955.24370999999996
 20
276.54793999999998
 30
0.0
 11
-955.24370999999996
 21
170.5479599999999
 31
0.0
  0
LINE
  5
72A
  8
0
  6
CONTINUOUS
 62
     7
 10
-956.24377000000004
 20
273.54793999999998
 30
0.0
 11
-955.24370999999996
 21
273.54793999999998
 31
0.0
  0
LINE
  5
72B
  8
0
  6
CONTINUOUS
 62
     7
 10
-956.24377000000004
 20
273.54793999999998
 30
0.0
 11
-956.24377000000004
 21
172.42471
 31
0.0
  0
LINE
  5
72C
  8
0
  6
CONTINUOUS
 62
     7
 10
-960.7491500000001
 20
182.44481999999991
 30
0.0
 11
-960.77282999999989
 21
182.45866000000001
 31
0.0
  0
LINE
  5
72D
  8
0
  6
CONTINUOUS
 62
     7
 10
-947.24376999999981
 20
276.54793999999998
 30
0.0
 11
-947.24376999999981
 21
174.10773
 31
0.0
  0
LINE
  5
72E
  8
0
  6
CONTINUOUS
 62
     7
 10
-890.24370999999985
 20
186.82486
 30
0.0
 11
-842.42169000000013
 21
186.82486
 31
0.0
  0
LINE
  5
72F
  8
0
  6
CONTINUOUS
 62
     7
 10
-945.56579999999974
 20
190.18073000000001
 30
0.0
 11
-933.24419999999998
 21
190.18073000000001
 31
0.0
  0
LINE
  5
730
  8
0
  6
CONTINUOUS
 62
     7
 10
-890.24370999999985
 20
187.54796999999991
 30
0.0
 11
-944.87835999999982
 21
187.54796999999991
 31
0.0
  0
LINE
  5
731
  8
0
  6
CONTINUOUS
 62
     7
 10
-890.24370999999985
 20
189.5479399999999
 30
0.0
 11
-944.87835999999982
 21
189.5479399999999
 31
0.0
  0
LINE
  5
732
  8
0
  6
CONTINUOUS
 62
     7
 10
-962.74370999999985
 20
206.26592999999991
 30
0.0
 11
-961.24377000000004
 21
206.26592999999991
 31
0.0
  0
LINE
  5
733
  8
0
  6
CONTINUOUS
 62
     7
 10
-962.74370999999985
 20
208.39791999999991
 30
0.0
 11
-959.45001000000013
 21
208.39791999999991
 31
0.0
  0
LINE
  5
734
  8
0
  6
CONTINUOUS
 62
     7
 10
-959.24370999999974
 20
217.93466000000001
 30
0.0
 11
-959.24370999999974
 21
219.09555
 31
0.0
  0
LINE
  5
735
  8
0
  6
CONTINUOUS
 62
     7
 10
-962.74370999999985
 20
203.5479599999999
 30
0.0
 11
-961.24370999999985
 21
203.41673
 31
0.0
  0
LINE
  5
736
  8
0
  6
CONTINUOUS
 62
     7
 10
-962.74370999999985
 20
203.5479599999999
 30
0.0
 11
-962.74370999999985
 21
223.54795999999999
 31
0.0
  0
LINE
  5
737
  8
0
  6
CONTINUOUS
 62
     7
 10
-959.24370999999974
 20
188.15508
 30
0.0
 11
-959.24370999999974
 21
189.2149999999998
 31
0.0
  0
LINE
  5
738
  8
0
  6
CONTINUOUS
 62
     7
 10
-959.24370999999974
 20
197.9217399999998
 30
0.0
 11
-959.24370999999974
 21
199.28457999999981
 31
0.0
  0
LINE
  5
739
  8
0
  6
CONTINUOUS
 62
     7
 10
-959.24370999999974
 20
207.94083999999981
 30
0.0
 11
-959.24370999999974
 21
209.15221
 31
0.0
  0
LINE
  5
73A
  8
0
  6
CONTINUOUS
 62
     7
 10
-957.24377000000004
 20
219.5479399999999
 30
0.0
 11
-960.24370999999985
 21
219.5479399999999
 31
0.0
  0
LINE
  5
73B
  8
0
  6
CONTINUOUS
 62
     7
 10
-957.24377000000004
 20
217.54796999999991
 30
0.0
 11
-960.24370999999985
 21
217.54796999999991
 31
0.0
  0
LINE
  5
73C
  8
0
  6
CONTINUOUS
 62
     7
 10
-957.24377000000004
 20
209.5479399999999
 30
0.0
 11
-960.24370999999985
 21
209.5479399999999
 31
0.0
  0
LINE
  5
73D
  8
0
  6
CONTINUOUS
 62
     7
 10
-957.24377000000004
 20
207.54796999999991
 30
0.0
 11
-960.24370999999985
 21
207.54796999999991
 31
0.0
  0
LINE
  5
73E
  8
0
  6
CONTINUOUS
 62
     7
 10
-957.24377000000004
 20
199.5479399999999
 30
0.0
 11
-960.24370999999985
 21
199.5479399999999
 31
0.0
  0
LINE
  5
73F
  8
0
  6
CONTINUOUS
 62
     7
 10
-957.24377000000004
 20
197.54796999999991
 30
0.0
 11
-960.24370999999985
 21
197.54796999999991
 31
0.0
  0
LINE
  5
740
  8
0
  6
CONTINUOUS
 62
     7
 10
-959.38744999999994
 20
189.84900999999999
 30
0.0
 11
-960.53777999999988
 21
190.2028699999999
 31
0.0
  0
LINE
  5
741
  8
0
  6
CONTINUOUS
 62
     7
 10
-959.0934400000001
 20
189.80477999999999
 30
0.0
 11
-957.24377000000004
 21
189.80477999999999
 31
0.0
  0
LINE
  5
742
  8
0
  6
CONTINUOUS
 62
     7
 10
-959.43200999999999
 20
187.9390699999999
 30
0.0
 11
-960.63660000000004
 21
188.45355000000001
 31
0.0
  0
LINE
  5
743
  8
0
  6
CONTINUOUS
 62
     7
 10
-959.03912000000003
 20
187.8586699999999
 30
0.0
 11
-956.94379000000004
 21
187.8586699999999
 31
0.0
  0
LINE
  5
744
  8
0
  6
CONTINUOUS
 62
     7
 10
-842.42169000000013
 20
190.18073000000001
 30
0.0
 11
-858.94372999999985
 21
190.18073000000001
 31
0.0
  0
LINE
  5
745
  8
0
  6
CONTINUOUS
 62
     7
 10
-859.94372999999985
 20
191.18071
 30
0.0
 11
-859.94372999999985
 21
192.04819999999981
 31
0.0
  0
LINE
  5
746
  8
0
  6
CONTINUOUS
 62
     7
 10
-858.74384000000009
 20
193.28233
 30
0.0
 11
-849.47381999999982
 21
193.54794000000001
 31
0.0
  0
LINE
  5
747
  8
0
  6
CONTINUOUS
 62
     7
 10
-945.56579999999974
 20
186.82486
 30
0.0
 11
-890.24370999999985
 21
186.82486
 31
0.0
  0
LINE
  5
748
  8
0
  6
CONTINUOUS
 62
     7
 10
-845.89935000000003
 20
187.54796999999991
 30
0.0
 11
-890.24370999999985
 21
187.54796999999991
 31
0.0
  0
LINE
  5
749
  8
0
  6
CONTINUOUS
 62
     7
 10
-845.89935000000003
 20
189.5479399999999
 30
0.0
 11
-890.24370999999985
 21
189.5479399999999
 31
0.0
  0
LINE
  5
74A
  8
0
  6
CONTINUOUS
 62
     7
 10
-945.78216999999995
 20
197.0617499999999
 30
0.0
 11
-938.74419999999998
 21
197.0617499999999
 31
0.0
  0
LINE
  5
74B
  8
0
  6
CONTINUOUS
 62
     7
 10
-938.74419999999998
 20
197.54796999999991
 30
0.0
 11
-944.87835999999982
 21
197.54796999999991
 31
0.0
  0
LINE
  5
74C
  8
0
  6
CONTINUOUS
 62
     7
 10
-945.78216999999995
 20
199.98473000000001
 30
0.0
 11
-938.74419999999998
 21
199.98473000000001
 31
0.0
  0
LINE
  5
74D
  8
0
  6
CONTINUOUS
 62
     7
 10
-938.74419999999998
 20
199.5479399999999
 30
0.0
 11
-944.87835999999982
 21
199.5479399999999
 31
0.0
  0
LINE
  5
74E
  8
0
  6
CONTINUOUS
 62
     7
 10
-945.91278
 20
207.20445000000001
 30
0.0
 11
-938.74419999999998
 21
207.20445000000001
 31
0.0
  0
LINE
  5
74F
  8
0
  6
CONTINUOUS
 62
     7
 10
-938.74419999999998
 20
207.54796999999991
 30
0.0
 11
-944.87835999999982
 21
207.54796999999991
 31
0.0
  0
LINE
  5
750
  8
0
  6
CONTINUOUS
 62
     7
 10
-938.74419999999998
 20
209.5479399999999
 30
0.0
 11
-944.87835999999982
 21
209.5479399999999
 31
0.0
  0
LINE
  5
751
  8
0
  6
CONTINUOUS
 62
     7
 10
-945.91278
 20
209.86632
 30
0.0
 11
-938.74419999999998
 21
209.86632
 31
0.0
  0
LINE
  5
752
  8
0
  6
CONTINUOUS
 62
     7
 10
-945.97484999999995
 20
217.27514999999991
 30
0.0
 11
-940.74419999999986
 21
217.27514999999991
 31
0.0
  0
LINE
  5
753
  8
0
  6
CONTINUOUS
 62
     7
 10
-940.74419999999986
 20
217.54796999999991
 30
0.0
 11
-944.87835999999982
 21
217.54796999999991
 31
0.0
  0
LINE
  5
754
  8
0
  6
CONTINUOUS
 62
     7
 10
-940.74419999999986
 20
219.5479399999999
 30
0.0
 11
-944.87835999999982
 21
219.5479399999999
 31
0.0
  0
LINE
  5
755
  8
0
  6
CONTINUOUS
 62
     7
 10
-945.97484999999995
 20
219.81299000000001
 30
0.0
 11
-940.74419999999986
 21
219.81299000000001
 31
0.0
  0
LINE
  5
756
  8
0
  6
CONTINUOUS
 62
     7
 10
-859.94372999999985
 20
255.91512
 30
0.0
 11
-859.94372999999985
 21
255.04769999999991
 31
0.0
  0
LINE
  5
757
  8
0
  6
CONTINUOUS
 62
     7
 10
-842.42169000000013
 20
256.91512999999992
 30
0.0
 11
-858.94372999999985
 21
256.91512999999992
 31
0.0
  0
LINE
  5
758
  8
0
  6
CONTINUOUS
 62
     7
 10
-945.97484999999995
 20
227.28287999999981
 30
0.0
 11
-940.74419999999986
 21
227.28287999999981
 31
0.0
  0
LINE
  5
759
  8
0
  6
CONTINUOUS
 62
     7
 10
-945.97484999999995
 20
229.82071999999991
 30
0.0
 11
-940.74419999999986
 21
229.82071999999991
 31
0.0
  0
LINE
  5
75A
  8
0
  6
CONTINUOUS
 62
     7
 10
-945.91278
 20
237.22959999999989
 30
0.0
 11
-938.74419999999998
 21
237.22959999999989
 31
0.0
  0
LINE
  5
75B
  8
0
  6
CONTINUOUS
 62
     7
 10
-945.91278
 20
239.89144999999999
 30
0.0
 11
-938.74419999999998
 21
239.89144999999999
 31
0.0
  0
LINE
  5
75C
  8
0
  6
CONTINUOUS
 62
     7
 10
-945.7822900000001
 20
247.11110999999991
 30
0.0
 11
-938.74419999999998
 21
247.11110999999991
 31
0.0
  0
LINE
  5
75D
  8
0
  6
CONTINUOUS
 62
     7
 10
-945.7822900000001
 20
250.03408999999991
 30
0.0
 11
-938.74419999999998
 21
250.03408999999991
 31
0.0
  0
LINE
  5
75E
  8
0
  6
CONTINUOUS
 62
     7
 10
-945.56640999999991
 20
256.91512999999992
 30
0.0
 11
-933.24419999999998
 21
256.91512999999992
 31
0.0
  0
LINE
  5
75F
  8
0
  6
CONTINUOUS
 62
     7
 10
-945.56640999999991
 20
260.27096999999992
 30
0.0
 11
-842.42169000000013
 21
260.27096999999992
 31
0.0
  0
LINE
  5
760
  8
0
  6
CONTINUOUS
 62
     7
 10
-940.74419999999986
 20
227.54796999999991
 30
0.0
 11
-944.87835999999982
 21
227.54796999999991
 31
0.0
  0
LINE
  5
761
  8
0
  6
CONTINUOUS
 62
     7
 10
-940.74419999999986
 20
229.54794000000001
 30
0.0
 11
-944.87835999999982
 21
229.54794000000001
 31
0.0
  0
LINE
  5
762
  8
0
  6
CONTINUOUS
 62
     7
 10
-938.74419999999998
 20
237.54796999999999
 30
0.0
 11
-944.87835999999982
 21
237.54796999999999
 31
0.0
  0
LINE
  5
763
  8
0
  6
CONTINUOUS
 62
     7
 10
-938.74419999999998
 20
239.5479399999999
 30
0.0
 11
-944.87835999999982
 21
239.5479399999999
 31
0.0
  0
LINE
  5
764
  8
0
  6
CONTINUOUS
 62
     7
 10
-938.74419999999998
 20
247.54796999999999
 30
0.0
 11
-944.87835999999982
 21
247.54796999999999
 31
0.0
  0
LINE
  5
765
  8
0
  6
CONTINUOUS
 62
     7
 10
-938.74419999999998
 20
249.5479399999999
 30
0.0
 11
-944.87835999999982
 21
249.5479399999999
 31
0.0
  0
LINE
  5
766
  8
0
  6
CONTINUOUS
 62
     7
 10
-845.89935000000003
 20
257.54797000000002
 30
0.0
 11
-944.87835999999982
 21
257.54797000000002
 31
0.0
  0
LINE
  5
767
  8
0
  6
CONTINUOUS
 62
     7
 10
-845.89935000000003
 20
259.54793999999998
 30
0.0
 11
-944.87835999999982
 21
259.54793999999998
 31
0.0
  0
LINE
  5
768
  8
0
  6
CONTINUOUS
 62
     7
 10
-962.74370999999985
 20
240.82993999999999
 30
0.0
 11
-961.24377000000004
 21
240.82993999999999
 31
0.0
  0
LINE
  5
769
  8
0
  6
CONTINUOUS
 62
     7
 10
-962.74370999999985
 20
238.6979799999998
 30
0.0
 11
-958.06628000000001
 21
238.6979799999998
 31
0.0
  0
LINE
  5
76A
  8
0
  6
CONTINUOUS
 62
     7
 10
-962.74383999999998
 20
243.5479399999999
 30
0.0
 11
-961.24383999999998
 21
243.67917
 31
0.0
  0
LINE
  5
76B
  8
0
  6
CONTINUOUS
 62
     7
 10
-962.74370999999985
 20
243.5479599999999
 30
0.0
 11
-962.74370999999985
 21
223.54795999999999
 31
0.0
  0
LINE
  5
76C
  8
0
  6
CONTINUOUS
 62
     7
 10
-959.24370999999974
 20
273.04410000000001
 30
0.0
 11
-959.24370999999974
 21
272.51837
 31
0.0
  0
LINE
  5
76D
  8
0
  6
CONTINUOUS
 62
     7
 10
-959.24370999999974
 20
270.94448999999992
 30
0.0
 11
-959.24370999999974
 21
270.39841000000001
 31
0.0
  0
LINE
  5
76E
  8
0
  6
CONTINUOUS
 62
     7
 10
-959.24370999999974
 20
266.3783899999998
 30
0.0
 11
-959.24370999999974
 21
265.90622000000002
 31
0.0
  0
LINE
  5
76F
  8
0
  6
CONTINUOUS
 62
     7
 10
-959.24370999999974
 20
258.94083000000001
 30
0.0
 11
-959.24370999999974
 21
257.88092
 31
0.0
  0
LINE
  5
770
  8
0
  6
CONTINUOUS
 62
     7
 10
-959.24370999999974
 20
249.17410000000001
 30
0.0
 11
-959.24370999999974
 21
247.81134
 31
0.0
  0
LINE
  5
771
  8
0
  6
CONTINUOUS
 62
     7
 10
-959.24370999999974
 20
229.16115999999991
 30
0.0
 11
-959.24370999999974
 21
228.00027
 31
0.0
  0
LINE
  5
772
  8
0
  6
CONTINUOUS
 62
     7
 10
-959.24370999999974
 20
239.15505999999991
 30
0.0
 11
-959.24370999999974
 21
237.94363000000001
 31
0.0
  0
LINE
  5
773
  8
0
  6
CONTINUOUS
 62
     7
 10
-957.24377000000004
 20
227.54796999999991
 30
0.0
 11
-960.24370999999985
 21
227.54796999999991
 31
0.0
  0
LINE
  5
774
  8
0
  6
CONTINUOUS
 62
     7
 10
-957.24377000000004
 20
229.54794000000001
 30
0.0
 11
-960.24370999999985
 21
229.54794000000001
 31
0.0
  0
LINE
  5
775
  8
0
  6
CONTINUOUS
 62
     7
 10
-957.24377000000004
 20
237.54796999999999
 30
0.0
 11
-960.24370999999985
 21
237.54796999999999
 31
0.0
  0
LINE
  5
776
  8
0
  6
CONTINUOUS
 62
     7
 10
-957.24377000000004
 20
239.5479399999999
 30
0.0
 11
-960.24370999999985
 21
239.5479399999999
 31
0.0
  0
LINE
  5
777
  8
0
  6
CONTINUOUS
 62
     7
 10
-957.24377000000004
 20
247.54796999999999
 30
0.0
 11
-960.24370999999985
 21
247.54796999999999
 31
0.0
  0
LINE
  5
778
  8
0
  6
CONTINUOUS
 62
     7
 10
-957.24377000000004
 20
249.5479399999999
 30
0.0
 11
-960.24370999999985
 21
249.5479399999999
 31
0.0
  0
LINE
  5
779
  8
0
  6
CONTINUOUS
 62
     7
 10
-959.46349999999995
 20
269.93311
 30
0.0
 11
-960.71203999999989
 21
269.27127000000002
 31
0.0
  0
LINE
  5
77A
  8
0
  6
CONTINUOUS
 62
     7
 10
-959.45708999999999
 20
272.04275999999987
 30
0.0
 11
-960.69635000000005
 21
271.41372999999987
 31
0.0
  0
LINE
  5
77B
  8
0
  6
CONTINUOUS
 62
     7
 10
-959.38750999999991
 20
257.24689000000001
 30
0.0
 11
-960.53777999999988
 21
256.89307000000002
 31
0.0
  0
LINE
  5
77C
  8
0
  6
CONTINUOUS
 62
     7
 10
-959.47797000000003
 20
265.39571999999998
 30
0.0
 11
-960.74926999999991
 21
264.65105999999992
 31
0.0
  0
LINE
  5
77D
  8
0
  6
CONTINUOUS
 62
     7
 10
-959.00445999999999
 20
272.15102999999982
 30
0.0
 11
-956.74370999999985
 21
272.15102999999982
 31
0.0
  0
LINE
  5
77E
  8
0
  6
CONTINUOUS
 62
     7
 10
-958.99505999999985
 20
270.04958999999991
 30
0.0
 11
-957.24377000000004
 21
270.04958999999991
 31
0.0
  0
LINE
  5
77F
  8
0
  6
CONTINUOUS
 62
     7
 10
-958.97240999999974
 20
265.53289999999998
 30
0.0
 11
-957.24377000000004
 21
265.53289999999998
 31
0.0
  0
LINE
  5
780
  8
0
  6
CONTINUOUS
 62
     7
 10
-959.0934400000001
 20
257.29104999999998
 30
0.0
 11
-957.24377000000004
 21
257.29104999999998
 31
0.0
  0
LINE
  5
781
  8
0
  6
CONTINUOUS
 62
     7
 10
-958.94512999999995
 20
266.67282
 30
0.0
 11
-956.24377000000004
 21
266.67282
 31
0.0
  0
LINE
  5
782
  8
0
  6
CONTINUOUS
 62
     7
 10
-958.96666999999979
 20
271.18953999999991
 30
0.0
 11
-956.24377000000004
 21
271.18953999999991
 31
0.0
  0
LINE
  5
783
  8
0
  6
CONTINUOUS
 62
     7
 10
-959.43188000000009
 20
259.15692000000001
 30
0.0
 11
-960.63653999999985
 21
258.64242999999999
 31
0.0
  0
LINE
  5
784
  8
0
  6
CONTINUOUS
 62
     7
 10
-959.49352999999985
 20
266.50911999999983
 30
0.0
 11
-960.79217999999992
 21
265.65753000000001
 31
0.0
  0
LINE
  5
785
  8
0
  6
CONTINUOUS
 62
     7
 10
-959.48131999999987
 20
271.04703000000001
 30
0.0
 11
-960.75835999999993
 21
270.28072999999989
 31
0.0
  0
LINE
  5
786
  8
0
  6
CONTINUOUS
 62
     7
 10
-959.47600999999997
 20
273.16309000000001
 30
0.0
 11
-960.74419999999998
 21
272.43011000000001
 31
0.0
  0
LINE
  5
787
  8
0
  6
CONTINUOUS
 62
     7
 10
-959.03912000000003
 20
259.23714999999999
 30
0.0
 11
-956.94379000000004
 21
259.23714999999999
 31
0.0
  0
LINE
  5
788
  8
0
  6
CONTINUOUS
 62
     7
 10
-958.97551999999985
 20
273.29732999999987
 30
0.0
 11
-956.74370999999985
 21
273.29732999999987
 31
0.0
  0
LINE
  5
789
  8
0
  6
CONTINUOUS
 62
     7
 10
-961.24377000000004
 20
271.5643
 30
0.0
 11
-961.24377000000004
 21
228.5479599999999
 31
0.0
  0
LINE
  5
78A
  8
0
  6
CONTINUOUS
 62
     7
 10
-849.47374999999988
 20
253.5479399999999
 30
0.0
 11
-849.47374999999988
 21
193.5479599999999
 31
0.0
  0
LINE
  5
78B
  8
0
  6
CONTINUOUS
 62
     7
 10
-839.24370999999985
 20
279.54793999999998
 30
0.0
 11
-839.24370999999985
 21
167.54796999999991
 31
0.0
  0
LINE
  5
78C
  8
0
  6
CONTINUOUS
 62
     3
 10
-918.24370999999985
 20
190.04820000000001
 30
0.0
 11
-933.24419999999998
 21
190.04820000000001
 31
0.0
  0
LINE
  5
78D
  8
0
  6
CONTINUOUS
 62
     3
 10
-940.74419999999986
 20
216.0477299999998
 30
0.0
 11
-937.24419999999986
 21
216.0477299999998
 31
0.0
  0
LINE
  5
78E
  8
0
  6
CONTINUOUS
 62
     3
 10
-918.24370999999985
 20
255.04769999999991
 30
0.0
 11
-858.74376999999981
 21
255.04769999999991
 31
0.0
  0
LINE
  5
78F
  8
0
  6
CONTINUOUS
 62
     3
 10
-918.24370999999985
 20
192.04819999999981
 30
0.0
 11
-858.74376999999981
 21
192.04819999999981
 31
0.0
  0
LINE
  5
790
  8
0
  6
CONTINUOUS
 62
     3
 10
-918.24370999999985
 20
190.04820000000001
 30
0.0
 11
-918.24370999999985
 21
193.54818999999989
 31
0.0
  0
LINE
  5
791
  8
0
  6
CENTER
 62
     7
 10
-890.24370999999985
 20
262.14181999999988
 30
0.0
 11
-890.24370999999985
 21
180.89525
 31
0.0
  0
LINE
  5
792
  8
0
  6
CONTINUOUS
 62
     3
 10
-933.24419999999998
 20
190.04820000000001
 30
0.0
 11
-933.24419999999998
 21
193.54818999999989
 31
0.0
  0
LINE
  5
793
  8
0
  6
CONTINUOUS
 62
     7
 10
-792.09229000000005
 20
256.35381999999998
 30
0.0
 11
-784.01940999999988
 21
264.42667
 31
0.0
  0
LINE
  5
794
  8
0
  6
CONTINUOUS
 62
     3
 10
-939.51671999999985
 20
621.36626999999999
 30
0.0
 11
-859.51684999999975
 21
621.36626999999999
 31
0.0
  0
LINE
  5
795
  8
0
  6
CONTINUOUS
 62
     3
 10
-859.51684999999975
 20
621.36626999999999
 30
0.0
 11
-859.51684999999975
 21
614.36626999999999
 31
0.0
  0
LINE
  5
796
  8
0
  6
CONTINUOUS
 62
     3
 10
-861.01684999999998
 20
597.86626999999999
 30
0.0
 11
-861.01684999999998
 21
614.36626999999999
 31
0.0
  0
LINE
  5
797
  8
0
  6
CONTINUOUS
 62
     3
 10
-919.01684999999998
 20
610.36626999999999
 30
0.0
 11
-919.01684999999998
 21
617.86626999999999
 31
0.0
  0
LINE
  5
798
  8
0
  6
CONTINUOUS
 62
     3
 10
-934.01671999999985
 20
617.86626999999999
 30
0.0
 11
-934.01671999999985
 21
610.36626999999999
 31
0.0
  0
LINE
  5
799
  8
0
  6
CONTINUOUS
 62
     3
 10
-938.01671999999996
 20
617.86626999999999
 30
0.0
 11
-938.01671999999996
 21
597.86626999999999
 31
0.0
  0
LINE
  5
79A
  8
0
  6
CONTINUOUS
 62
     3
 10
-908.81682999999987
 20
594.86626999999976
 30
0.0
 11
-873.21685999999988
 21
594.86626999999976
 31
0.0
  0
LINE
  5
79B
  8
0
  6
CONTINUOUS
 62
     3
 10
-938.01671999999996
 20
597.86626999999999
 30
0.0
 11
-861.01684999999998
 21
597.86626999999999
 31
0.0
  0
LINE
  5
79C
  8
0
  6
CONTINUOUS
 62
     3
 10
-938.01671999999996
 20
614.36626999999999
 30
0.0
 11
-934.01671999999985
 21
614.36626999999999
 31
0.0
  0
LINE
  5
79D
  8
0
  6
CONTINUOUS
 62
     3
 10
-868.01684999999998
 20
597.8662099999998
 30
0.0
 11
-873.21685999999988
 21
594.8662099999998
 31
0.0
  0
LINE
  5
79E
  8
0
  6
CONTINUOUS
 62
     3
 10
-908.81688999999994
 20
594.86632999999995
 30
0.0
 11
-914.01691000000005
 21
597.86632999999995
 31
0.0
  0
LINE
  5
79F
  8
0
  6
CONTINUOUS
 62
     3
 10
-941.51671999999985
 20
617.86626999999999
 30
0.0
 11
-941.51671999999985
 21
602.86724999999979
 31
0.0
  0
LINE
  5
7A0
  8
0
  6
CONTINUOUS
 62
     3
 10
-938.01671999999996
 20
602.86724999999979
 30
0.0
 11
-941.51671999999985
 21
602.86724999999979
 31
0.0
  0
LINE
  5
7A1
  8
0
  6
CONTINUOUS
 62
     3
 10
-922.51684999999998
 20
617.86626999999999
 30
0.0
 11
-922.51684999999998
 21
610.36626999999999
 31
0.0
  0
LINE
  5
7A2
  8
0
  6
CONTINUOUS
 62
     3
 10
-930.51671999999974
 20
617.86626999999999
 30
0.0
 11
-930.51671999999974
 21
610.36626999999999
 31
0.0
  0
LINE
  5
7A3
  8
0
  6
CONTINUOUS
 62
     3
 10
-919.01684999999998
 20
614.36626999999999
 30
0.0
 11
-859.51684999999975
 21
614.36626999999999
 31
0.0
  0
LINE
  5
7A4
  8
0
  6
CONTINUOUS
 62
     3
 10
-941.51671999999985
 20
617.86626999999999
 30
0.0
 11
-859.51684999999975
 21
617.86626999999999
 31
0.0
  0
LINE
  5
7A5
  8
0
  6
CONTINUOUS
 62
     3
 10
-939.51671999999985
 20
621.36626999999999
 30
0.0
 11
-939.51671999999985
 21
617.86626999999999
 31
0.0
  0
LINE
  5
7A6
  8
0
  6
CONTINUOUS
 62
     7
 10
-860.74384000000032
 20
622.36626999999999
 30
0.0
 11
-860.74384000000032
 21
621.36626999999999
 31
0.0
  0
LINE
  5
7A7
  8
0
  6
CONTINUOUS
 62
     7
 10
-919.7438400000002
 20
622.36626999999999
 30
0.0
 11
-919.7438400000002
 21
621.36626999999999
 31
0.0
  0
LINE
  5
7A8
  8
0
  6
CONTINUOUS
 62
     7
 10
-841.0380899999999
 20
731.79516999999998
 30
0.0
 11
-845.18383999999969
 21
747.27630999999985
 31
0.0
  0
LINE
  5
7A9
  8
0
  6
CONTINUOUS
 62
     7
 10
-841.0380899999999
 20
730.88513
 30
0.0
 11
-845.18383999999969
 21
746.36626999999999
 31
0.0
  0
LINE
  5
7AA
  8
0
  6
CONTINUOUS
 62
     7
 10
-841.0380899999999
 20
729.03521999999998
 30
0.0
 11
-845.18383999999969
 21
744.51635999999985
 31
0.0
  0
LINE
  5
7AB
  8
0
  6
CONTINUOUS
 62
     7
 10
-839.24384000000009
 20
742.86626999999999
 30
0.0
 11
-839.24384000000009
 21
630.86626999999999
 31
0.0
  0
LINE
  5
7AC
  8
0
  6
CONTINUOUS
 62
     7
 10
-961.24383999999998
 20
734.88629000000003
 30
0.0
 11
-961.24383999999998
 21
691.86626999999964
 31
0.0
  0
LINE
  5
7AD
  8
0
  6
CONTINUOUS
 62
     7
 10
-958.97388000000012
 20
736.61626999999999
 30
0.0
 11
-956.74383999999998
 21
736.61626999999999
 31
0.0
  0
LINE
  5
7AE
  8
0
  6
CONTINUOUS
 62
     7
 10
-959.04381999999987
 20
722.55620999999985
 30
0.0
 11
-956.94385
 21
722.55620999999985
 31
0.0
  0
LINE
  5
7AF
  8
0
  6
CONTINUOUS
 62
     7
 10
-959.47388000000001
 20
736.48620999999969
 30
0.0
 11
-960.74384000000032
 21
735.74621999999999
 31
0.0
  0
LINE
  5
7B0
  8
0
  6
CONTINUOUS
 62
     7
 10
-959.48388999999986
 20
734.36632999999983
 30
0.0
 11
-960.76385000000005
 21
733.59631000000002
 31
0.0
  0
LINE
  5
7B1
  8
0
  6
CONTINUOUS
 62
     7
 10
-959.49390000000005
 20
729.82623000000001
 30
0.0
 11
-960.79387999999994
 21
728.97625999999946
 31
0.0
  0
LINE
  5
7B2
  8
0
  6
CONTINUOUS
 62
     7
 10
-959.43389999999988
 20
722.47625999999968
 30
0.0
 11
-960.63385000000005
 21
721.96624999999983
 31
0.0
  0
LINE
  5
7B3
  8
0
  6
CONTINUOUS
 62
     7
 10
-958.96387000000004
 20
734.50629000000004
 30
0.0
 11
-956.24384000000032
 21
734.50629000000004
 31
0.0
  0
LINE
  5
7B4
  8
0
  6
CONTINUOUS
 62
     7
 10
-958.94384999999988
 20
729.99627999999984
 30
0.0
 11
-956.24384000000032
 21
729.99627999999984
 31
0.0
  0
LINE
  5
7B5
  8
0
  6
CONTINUOUS
 62
     7
 10
-959.09386999999981
 20
720.60625999999979
 30
0.0
 11
-957.2438400000002
 21
720.60625999999979
 31
0.0
  0
LINE
  5
7B6
  8
0
  6
CONTINUOUS
 62
     7
 10
-958.97388000000012
 20
728.85625999999968
 30
0.0
 11
-957.2438400000002
 21
728.85625999999968
 31
0.0
  0
LINE
  5
7B7
  8
0
  6
CONTINUOUS
 62
     7
 10
-958.9938400000002
 20
733.36626999999964
 30
0.0
 11
-957.2438400000002
 21
733.36626999999964
 31
0.0
  0
LINE
  5
7B8
  8
0
  6
CONTINUOUS
 62
     7
 10
-959.00385000000006
 20
735.46624999999983
 30
0.0
 11
-956.74383999999998
 21
735.46624999999983
 31
0.0
  0
LINE
  5
7B9
  8
0
  6
CONTINUOUS
 62
     7
 10
-959.47388000000001
 20
728.71636999999964
 30
0.0
 11
-960.75385000000006
 21
727.96636999999998
 31
0.0
  0
LINE
  5
7BA
  8
0
  6
CONTINUOUS
 62
     7
 10
-959.38391000000001
 20
720.56627999999967
 30
0.0
 11
-960.53386999999998
 21
720.21630999999968
 31
0.0
  0
LINE
  5
7BB
  8
0
  6
CONTINUOUS
 62
     7
 10
-959.45385999999985
 20
735.36632999999983
 30
0.0
 11
-960.69385
 21
734.73632999999984
 31
0.0
  0
LINE
  5
7BC
  8
0
  6
CONTINUOUS
 62
     7
 10
-959.46375000000012
 20
733.25629000000004
 30
0.0
 11
-960.71380999999997
 21
732.58623999999998
 31
0.0
  0
LINE
  5
7BD
  8
0
  6
CONTINUOUS
 62
     7
 10
-957.2438400000002
 20
712.86626999999964
 30
0.0
 11
-960.24383999999998
 21
712.86626999999964
 31
0.0
  0
LINE
  5
7BE
  8
0
  6
CONTINUOUS
 62
     7
 10
-957.2438400000002
 20
710.86626999999999
 30
0.0
 11
-960.24383999999998
 21
710.86626999999999
 31
0.0
  0
LINE
  5
7BF
  8
0
  6
CONTINUOUS
 62
     7
 10
-957.2438400000002
 20
702.86626999999987
 30
0.0
 11
-960.24383999999998
 21
702.86626999999987
 31
0.0
  0
LINE
  5
7C0
  8
0
  6
CONTINUOUS
 62
     7
 10
-957.2438400000002
 20
700.86626999999999
 30
0.0
 11
-960.24383999999998
 21
700.86626999999999
 31
0.0
  0
LINE
  5
7C1
  8
0
  6
CONTINUOUS
 62
     7
 10
-957.2438400000002
 20
692.86626999999999
 30
0.0
 11
-960.24383999999998
 21
692.86626999999999
 31
0.0
  0
LINE
  5
7C2
  8
0
  6
CONTINUOUS
 62
     7
 10
-957.2438400000002
 20
690.86626999999964
 30
0.0
 11
-960.24383999999998
 21
690.86626999999964
 31
0.0
  0
LINE
  5
7C3
  8
0
  6
CONTINUOUS
 62
     7
 10
-959.24383999999998
 20
702.47625999999968
 30
0.0
 11
-959.24383999999998
 21
701.26629999999955
 31
0.0
  0
LINE
  5
7C4
  8
0
  6
CONTINUOUS
 62
     7
 10
-959.24383999999998
 20
692.47625999999957
 30
0.0
 11
-959.24383999999998
 21
691.31622000000004
 31
0.0
  0
LINE
  5
7C5
  8
0
  6
CONTINUOUS
 62
     7
 10
-959.24383999999998
 20
712.49627999999996
 30
0.0
 11
-959.24383999999998
 21
711.12627999999995
 31
0.0
  0
LINE
  5
7C6
  8
0
  6
CONTINUOUS
 62
     7
 10
-959.24383999999998
 20
722.25629000000004
 30
0.0
 11
-959.24383999999998
 21
721.19623000000001
 31
0.0
  0
LINE
  5
7C7
  8
0
  6
CONTINUOUS
 62
     7
 10
-959.24383999999998
 20
729.69623000000001
 30
0.0
 11
-959.24383999999998
 21
729.22625999999968
 31
0.0
  0
LINE
  5
7C8
  8
0
  6
CONTINUOUS
 62
     7
 10
-959.24383999999998
 20
734.26629999999989
 30
0.0
 11
-959.24383999999998
 21
733.71624999999983
 31
0.0
  0
LINE
  5
7C9
  8
0
  6
CONTINUOUS
 62
     7
 10
-959.24383999999998
 20
736.36626999999987
 30
0.0
 11
-959.24383999999998
 21
735.83623999999975
 31
0.0
  0
LINE
  5
7CA
  8
0
  6
CONTINUOUS
 62
     7
 10
-962.74383999999998
 20
706.86626999999987
 30
0.0
 11
-962.74383999999998
 21
686.86626999999976
 31
0.0
  0
LINE
  5
7CB
  8
0
  6
CONTINUOUS
 62
     7
 10
-962.74390000000005
 20
706.86620999999968
 30
0.0
 11
-961.24383999999998
 21
706.99621999999988
 31
0.0
  0
LINE
  5
7CC
  8
0
  6
CONTINUOUS
 62
     7
 10
-962.74383999999998
 20
702.0163
 30
0.0
 11
-961.24383999999998
 21
702.0163
 31
0.0
  0
LINE
  5
7CD
  8
0
  6
CONTINUOUS
 62
     7
 10
-962.74383999999998
 20
704.1463
 30
0.0
 11
-961.24383999999998
 21
704.1463
 31
0.0
  0
LINE
  5
7CE
  8
0
  6
CONTINUOUS
 62
     7
 10
-845.90386999999976
 20
722.86626999999999
 30
0.0
 11
-944.88385000000005
 21
722.86626999999999
 31
0.0
  0
LINE
  5
7CF
  8
0
  6
CONTINUOUS
 62
     7
 10
-845.90386999999976
 20
720.86626999999964
 30
0.0
 11
-944.88385000000005
 21
720.86626999999964
 31
0.0
  0
LINE
  5
7D0
  8
0
  6
CONTINUOUS
 62
     7
 10
-878.24384000000009
 20
712.86626999999964
 30
0.0
 11
-944.88385000000005
 21
712.86626999999964
 31
0.0
  0
LINE
  5
7D1
  8
0
  6
CONTINUOUS
 62
     7
 10
-845.91101000000003
 20
710.86626999999999
 30
0.0
 11
-944.88385000000005
 21
710.86626999999999
 31
0.0
  0
LINE
  5
7D2
  8
0
  6
CONTINUOUS
 62
     7
 10
-910.80511000000001
 20
702.86626999999987
 30
0.0
 11
-944.88385000000005
 21
702.86626999999987
 31
0.0
  0
LINE
  5
7D3
  8
0
  6
CONTINUOUS
 62
     7
 10
-910.80511000000001
 20
700.86626999999999
 30
0.0
 11
-944.88385000000005
 21
700.86626999999999
 31
0.0
  0
LINE
  5
7D4
  8
0
  6
CONTINUOUS
 62
     7
 10
-910.80511000000001
 20
692.86626999999999
 30
0.0
 11
-944.88385000000005
 21
692.86626999999999
 31
0.0
  0
LINE
  5
7D5
  8
0
  6
CONTINUOUS
 62
     7
 10
-910.80511000000001
 20
690.86626999999964
 30
0.0
 11
-944.88385000000005
 21
690.86626999999964
 31
0.0
  0
LINE
  5
7D6
  8
0
  6
CONTINUOUS
 62
     7
 10
-945.56383999999991
 20
723.5862400000002
 30
0.0
 11
-842.42382999999984
 21
723.5862400000002
 31
0.0
  0
LINE
  5
7D7
  8
0
  6
CONTINUOUS
 62
     7
 10
-945.56383999999991
 20
720.23626999999999
 30
0.0
 11
-878.22382000000005
 21
720.23626999999999
 31
0.0
  0
LINE
  5
7D8
  8
0
  6
CONTINUOUS
 62
     7
 10
-945.78386999999975
 20
713.35625999999957
 30
0.0
 11
-878.24384000000009
 21
713.35625999999957
 31
0.0
  0
LINE
  5
7D9
  8
0
  6
CONTINUOUS
 62
     7
 10
-945.78386999999975
 20
710.42633000000001
 30
0.0
 11
-842.20959000000005
 21
710.42633000000001
 31
0.0
  0
LINE
  5
7DA
  8
0
  6
CONTINUOUS
 62
     7
 10
-945.91381999999965
 20
703.20623999999998
 30
0.0
 11
-909.58514000000002
 21
703.20623999999998
 31
0.0
  0
LINE
  5
7DB
  8
0
  6
CONTINUOUS
 62
     7
 10
-945.91381999999965
 20
700.54633000000001
 30
0.0
 11
-909.58514000000002
 21
700.54633000000001
 31
0.0
  0
LINE
  5
7DC
  8
0
  6
CONTINUOUS
 62
     7
 10
-945.97388000000024
 20
693.13629000000003
 30
0.0
 11
-909.52515000000005
 21
693.13629000000003
 31
0.0
  0
LINE
  5
7DD
  8
0
  6
CONTINUOUS
 62
     7
 10
-945.97388000000024
 20
690.60625999999957
 30
0.0
 11
-909.52515000000005
 21
690.60625999999957
 31
0.0
  0
LINE
  5
7DE
  8
0
  6
CONTINUOUS
 62
     7
 10
-945.97388000000024
 20
683.13629000000003
 30
0.0
 11
-909.52515000000005
 21
683.13629000000003
 31
0.0
  0
LINE
  5
7DF
  8
0
  6
CONTINUOUS
 62
     7
 10
-910.80511000000001
 20
682.86626999999964
 30
0.0
 11
-944.88385000000005
 21
682.86626999999964
 31
0.0
  0
LINE
  5
7E0
  8
0
  6
CONTINUOUS
 62
     7
 10
-910.80511000000001
 20
680.86626999999999
 30
0.0
 11
-944.88385000000005
 21
680.86626999999999
 31
0.0
  0
LINE
  5
7E1
  8
0
  6
CONTINUOUS
 62
     7
 10
-945.97388000000024
 20
680.59625000000005
 30
0.0
 11
-909.52515000000005
 21
680.59625000000005
 31
0.0
  0
LINE
  5
7E2
  8
0
  6
CONTINUOUS
 62
     7
 10
-945.91381999999965
 20
673.18622000000005
 30
0.0
 11
-909.58514000000002
 21
673.18622000000005
 31
0.0
  0
LINE
  5
7E3
  8
0
  6
CONTINUOUS
 62
     7
 10
-910.80511000000001
 20
672.86626999999999
 30
0.0
 11
-944.88385000000005
 21
672.86626999999999
 31
0.0
  0
LINE
  5
7E4
  8
0
  6
CONTINUOUS
 62
     7
 10
-910.80511000000001
 20
670.86626999999964
 30
0.0
 11
-944.88385000000005
 21
670.86626999999964
 31
0.0
  0
LINE
  5
7E5
  8
0
  6
CONTINUOUS
 62
     7
 10
-945.91381999999965
 20
670.52630999999985
 30
0.0
 11
-909.57257000000004
 21
670.52630999999985
 31
0.0
  0
LINE
  5
7E6
  8
0
  6
CONTINUOUS
 62
     7
 10
-845.91101000000003
 20
662.86626999999964
 30
0.0
 11
-944.88385000000005
 21
662.86626999999964
 31
0.0
  0
LINE
  5
7E7
  8
0
  6
CONTINUOUS
 62
     7
 10
-945.78386999999975
 20
663.30620999999996
 30
0.0
 11
-842.20959000000005
 21
663.30620999999996
 31
0.0
  0
LINE
  5
7E8
  8
0
  6
CONTINUOUS
 62
     7
 10
-878.24384000000009
 20
660.86626999999999
 30
0.0
 11
-944.88385000000005
 21
660.86626999999999
 31
0.0
  0
LINE
  5
7E9
  8
0
  6
CONTINUOUS
 62
     7
 10
-945.78386999999975
 20
660.37627999999995
 30
0.0
 11
-878.24384000000009
 21
660.37627999999995
 31
0.0
  0
LINE
  5
7EA
  8
0
  6
CONTINUOUS
 62
     7
 10
-845.90386999999976
 20
652.86626999999987
 30
0.0
 11
-890.2438400000002
 21
652.86626999999987
 31
0.0
  0
LINE
  5
7EB
  8
0
  6
CONTINUOUS
 62
     7
 10
-845.90386999999976
 20
650.86626999999999
 30
0.0
 11
-890.2438400000002
 21
650.86626999999999
 31
0.0
  0
LINE
  5
7EC
  8
0
  6
CONTINUOUS
 62
     7
 10
-945.56383999999991
 20
650.1463
 30
0.0
 11
-890.2438400000002
 21
650.1463
 31
0.0
  0
LINE
  5
7ED
  8
0
  6
CONTINUOUS
 62
     7
 10
-842.42382999999984
 20
653.49627999999996
 30
0.0
 11
-860.26385000000005
 21
653.49627999999996
 31
0.0
  0
LINE
  5
7EE
  8
0
  6
CONTINUOUS
 62
     7
 10
-959.04381999999987
 20
651.17633000000001
 30
0.0
 11
-956.94385
 21
651.17633000000001
 31
0.0
  0
LINE
  5
7EF
  8
0
  6
CONTINUOUS
 62
     7
 10
-959.43377999999996
 20
651.25629000000004
 30
0.0
 11
-960.63379000000009
 21
651.77630999999985
 31
0.0
  0
LINE
  5
7F0
  8
0
  6
CONTINUOUS
 62
     7
 10
-959.09386999999981
 20
653.12627999999995
 30
0.0
 11
-957.2438400000002
 21
653.12627999999995
 31
0.0
  0
LINE
  5
7F1
  8
0
  6
CONTINUOUS
 62
     7
 10
-959.38378999999998
 20
653.16625999999985
 30
0.0
 11
-960.53386999999998
 21
653.52624999999989
 31
0.0
  0
LINE
  5
7F2
  8
0
  6
CONTINUOUS
 62
     7
 10
-957.2438400000002
 20
660.86626999999999
 30
0.0
 11
-960.24383999999998
 21
660.86626999999999
 31
0.0
  0
LINE
  5
7F3
  8
0
  6
CONTINUOUS
 62
     7
 10
-957.2438400000002
 20
662.86626999999964
 30
0.0
 11
-960.24383999999998
 21
662.86626999999964
 31
0.0
  0
LINE
  5
7F4
  8
0
  6
CONTINUOUS
 62
     7
 10
-957.2438400000002
 20
670.86626999999964
 30
0.0
 11
-960.24383999999998
 21
670.86626999999964
 31
0.0
  0
LINE
  5
7F5
  8
0
  6
CONTINUOUS
 62
     7
 10
-957.2438400000002
 20
672.86626999999999
 30
0.0
 11
-960.24383999999998
 21
672.86626999999999
 31
0.0
  0
LINE
  5
7F6
  8
0
  6
CONTINUOUS
 62
     7
 10
-957.2438400000002
 20
680.86626999999999
 30
0.0
 11
-960.24383999999998
 21
680.86626999999999
 31
0.0
  0
LINE
  5
7F7
  8
0
  6
CONTINUOUS
 62
     7
 10
-957.2438400000002
 20
682.86626999999964
 30
0.0
 11
-960.24383999999998
 21
682.86626999999964
 31
0.0
  0
LINE
  5
7F8
  8
0
  6
CONTINUOUS
 62
     7
 10
-959.24383999999998
 20
671.25629000000004
 30
0.0
 11
-959.24383999999998
 21
672.4762599999998
 31
0.0
  0
LINE
  5
7F9
  8
0
  6
CONTINUOUS
 62
     7
 10
-959.24383999999998
 20
681.25629000000004
 30
0.0
 11
-959.24383999999998
 21
682.41632000000004
 31
0.0
  0
LINE
  5
7FA
  8
0
  6
CONTINUOUS
 62
     7
 10
-959.24383999999998
 20
661.23626999999999
 30
0.0
 11
-959.24383999999998
 21
662.60625999999979
 31
0.0
  0
LINE
  5
7FB
  8
0
  6
CONTINUOUS
 62
     7
 10
-959.24383999999998
 20
651.4762599999998
 30
0.0
 11
-959.24383999999998
 21
652.53632000000005
 31
0.0
  0
LINE
  5
7FC
  8
0
  6
CONTINUOUS
 62
     7
 10
-962.74383999999998
 20
666.86626999999964
 30
0.0
 11
-962.74383999999998
 21
686.86626999999976
 31
0.0
  0
LINE
  5
7FD
  8
0
  6
CONTINUOUS
 62
     7
 10
-962.74390000000005
 20
666.86620999999957
 30
0.0
 11
-961.24390000000005
 21
666.7362099999998
 31
0.0
  0
LINE
  5
7FE
  8
0
  6
CONTINUOUS
 62
     7
 10
-962.74383999999998
 20
671.71624999999995
 30
0.0
 11
-961.24383999999998
 21
671.71624999999995
 31
0.0
  0
LINE
  5
7FF
  8
0
  6
CONTINUOUS
 62
     7
 10
-962.74383999999998
 20
669.58624000000009
 30
0.0
 11
-961.24383999999998
 21
669.58624000000009
 31
0.0
  0
LINE
  5
800
  8
0
  6
CONTINUOUS
 62
     7
 10
-945.56383999999991
 20
653.49627999999996
 30
0.0
 11
-878.22382000000005
 21
653.49627999999996
 31
0.0
  0
LINE
  5
801
  8
0
  6
CONTINUOUS
 62
     7
 10
-890.2438400000002
 20
652.86626999999987
 30
0.0
 11
-944.88385000000005
 21
652.86626999999987
 31
0.0
  0
LINE
  5
802
  8
0
  6
CONTINUOUS
 62
     7
 10
-890.2438400000002
 20
650.86626999999999
 30
0.0
 11
-944.88385000000005
 21
650.86626999999999
 31
0.0
  0
LINE
  5
803
  8
0
  6
CONTINUOUS
 62
     7
 10
-890.2438400000002
 20
650.1463
 30
0.0
 11
-842.42382999999984
 21
650.1463
 31
0.0
  0
LINE
  5
804
  8
0
  6
CONTINUOUS
 62
     7
 10
-955.24384000000009
 20
739.86626999999999
 30
0.0
 11
-955.24384000000009
 21
633.86626999999999
 31
0.0
  0
LINE
  5
805
  8
0
  6
CONTINUOUS
 62
     7
 10
-947.24384000000009
 20
739.86626999999999
 30
0.0
 11
-947.24384000000009
 21
633.86626999999999
 31
0.0
  0
LINE
  5
806
  8
0
  6
CONTINUOUS
 62
     7
 10
-960.75391000000002
 20
645.76624000000004
 30
0.0
 11
-960.77392999999995
 21
645.77625
 31
0.0
  0
LINE
  5
807
  8
0
  6
CONTINUOUS
 62
     7
 10
-956.24384000000032
 20
736.86626999999964
 30
0.0
 11
-956.24384000000032
 21
636.86626999999976
 31
0.0
  0
LINE
  5
808
  8
0
  6
CONTINUOUS
 62
     7
 10
-956.24384000000032
 20
736.86626999999964
 30
0.0
 11
-955.24384000000009
 21
736.86626999999964
 31
0.0
  0
LINE
  5
809
  8
0
  6
CONTINUOUS
 62
     7
 10
-955.24384000000009
 20
739.86626999999999
 30
0.0
 11
-947.24384000000009
 21
739.86626999999999
 31
0.0
  0
LINE
  5
80A
  8
0
  6
CONTINUOUS
 62
     7
 10
-954.54381999999987
 20
730.05620999999985
 30
0.0
 11
-948.31383999999991
 21
730.05620999999985
 31
0.0
  0
LINE
  5
80B
  8
0
  6
CONTINUOUS
 62
     7
 10
-839.24384000000009
 20
732.86626999999964
 30
0.0
 11
-831.24384000000009
 21
732.86626999999964
 31
0.0
  0
LINE
  5
80C
  8
0
  6
CONTINUOUS
 62
     7
 10
-839.24384000000009
 20
718.80620999999985
 30
0.0
 11
-831.24384000000009
 21
718.80620999999985
 31
0.0
  0
LINE
  5
80D
  8
0
  6
CONTINUOUS
 62
     7
 10
-839.24384000000009
 20
742.86626999999999
 30
0.0
 11
-831.24384000000009
 21
742.86626999999999
 31
0.0
  0
LINE
  5
80E
  8
0
  6
CONTINUOUS
 62
     7
 10
-944.03386999999975
 20
743.14629999999988
 30
0.0
 11
-847.11383000000012
 21
743.14629999999988
 31
0.0
  0
LINE
  5
80F
  8
0
  6
CONTINUOUS
 62
     7
 10
-947.24376999999981
 20
734.96630999999979
 30
0.0
 11
-946.00378000000023
 21
741.52624999999989
 31
0.0
  0
LINE
  5
810
  8
0
  6
CONTINUOUS
 62
     7
 10
-941.88385000000005
 20
723.51624000000004
 30
0.0
 11
-947.24384000000009
 21
734.96624999999983
 31
0.0
  0
LINE
  5
811
  8
0
  6
CONTINUOUS
 62
     7
 10
-941.8839099999999
 20
650.21624999999995
 30
0.0
 11
-947.24384000000009
 21
638.77637000000004
 31
0.0
  0
LINE
  5
812
  8
0
  6
CONTINUOUS
 62
     7
 10
-943.99383999999998
 20
745.99627999999984
 30
0.0
 11
-847.11383000000012
 21
745.99627999999984
 31
0.0
  0
LINE
  5
813
  8
0
  6
CONTINUOUS
 62
     7
 10
-943.97388000000001
 20
747.84625000000005
 30
0.0
 11
-847.11383000000012
 21
747.84625000000005
 31
0.0
  0
LINE
  5
814
  8
0
  6
CONTINUOUS
 62
     7
 10
-943.95385999999996
 20
748.75629000000004
 30
0.0
 11
-847.11376999999982
 21
748.75629000000004
 31
0.0
  0
LINE
  5
815
  8
0
  6
CONTINUOUS
 62
     7
 10
-947.24384000000009
 20
736.30627000000004
 30
0.0
 11
-945.96387000000016
 21
744.31622000000004
 31
0.0
  0
LINE
  5
816
  8
0
  6
CONTINUOUS
 62
     7
 10
-947.24384000000009
 20
737.65625
 30
0.0
 11
-945.95385999999996
 21
746.14635999999985
 31
0.0
  0
LINE
  5
817
  8
0
  6
CONTINUOUS
 62
     7
 10
-947.24390000000005
 20
737.65625
 30
0.0
 11
-945.93389999999988
 21
747.03632000000005
 31
0.0
  0
LINE
  5
818
  8
0
  6
CONTINUOUS
 62
     7
 10
-841.04375999999979
 20
726.20624000000021
 30
0.0
 11
-845.18377999999984
 21
741.66625999999985
 31
0.0
  0
LINE
  5
819
  8
0
  6
CONTINUOUS
 62
     7
 10
-844.70385999999985
 20
739.86626999999999
 30
0.0
 11
-839.24384000000009
 21
739.86626999999999
 31
0.0
  0
LINE
  5
81A
  8
0
  6
CONTINUOUS
 62
     7
 10
-961.24383999999998
 20
638.84625000000005
 30
0.0
 11
-961.24383999999998
 21
681.86626999999987
 31
0.0
  0
LINE
  5
81B
  8
0
  6
CONTINUOUS
 62
     7
 10
-958.97388000000012
 20
637.11626999999999
 30
0.0
 11
-956.74383999999998
 21
637.11626999999999
 31
0.0
  0
LINE
  5
81C
  8
0
  6
CONTINUOUS
 62
     7
 10
-959.47382000000005
 20
637.25622999999985
 30
0.0
 11
-960.74384000000032
 21
637.98620999999946
 31
0.0
  0
LINE
  5
81D
  8
0
  6
CONTINUOUS
 62
     7
 10
-959.48383000000013
 20
639.36632999999995
 30
0.0
 11
-960.76385000000005
 21
640.13634999999999
 31
0.0
  0
LINE
  5
81E
  8
0
  6
CONTINUOUS
 62
     7
 10
-959.49384000000009
 20
643.90625
 30
0.0
 11
-960.79381999999987
 21
644.75622999999985
 31
0.0
  0
LINE
  5
81F
  8
0
  6
CONTINUOUS
 62
     7
 10
-958.96387000000004
 20
639.22625999999957
 30
0.0
 11
-956.24384000000032
 21
639.22625999999957
 31
0.0
  0
LINE
  5
820
  8
0
  6
CONTINUOUS
 62
     7
 10
-958.94384999999988
 20
643.74627999999996
 30
0.0
 11
-956.24384000000032
 21
643.74627999999996
 31
0.0
  0
LINE
  5
821
  8
0
  6
CONTINUOUS
 62
     7
 10
-958.97388000000012
 20
644.88629000000003
 30
0.0
 11
-957.2438400000002
 21
644.88629000000003
 31
0.0
  0
LINE
  5
822
  8
0
  6
CONTINUOUS
 62
     7
 10
-958.9938400000002
 20
640.36626999999987
 30
0.0
 11
-957.2438400000002
 21
640.36626999999987
 31
0.0
  0
LINE
  5
823
  8
0
  6
CONTINUOUS
 62
     7
 10
-959.00385000000006
 20
638.26629999999989
 30
0.0
 11
-956.74383999999998
 21
638.26629999999989
 31
0.0
  0
LINE
  5
824
  8
0
  6
CONTINUOUS
 62
     7
 10
-959.47388000000001
 20
645.01629999999977
 30
0.0
 11
-960.75385000000006
 21
645.7663
 31
0.0
  0
LINE
  5
825
  8
0
  6
CONTINUOUS
 62
     7
 10
-959.45385999999985
 20
638.37621999999965
 30
0.0
 11
-960.69385
 21
639.00622999999985
 31
0.0
  0
LINE
  5
826
  8
0
  6
CONTINUOUS
 62
     7
 10
-959.46387000000004
 20
640.48626999999976
 30
0.0
 11
-960.71387000000004
 21
641.1463
 31
0.0
  0
LINE
  5
827
  8
0
  6
CONTINUOUS
 62
     7
 10
-959.24383999999998
 20
644.03632000000005
 30
0.0
 11
-959.24383999999998
 21
644.50629000000004
 31
0.0
  0
LINE
  5
828
  8
0
  6
CONTINUOUS
 62
     7
 10
-959.24383999999998
 20
639.46624999999995
 30
0.0
 11
-959.24383999999998
 21
640.0163
 31
0.0
  0
LINE
  5
829
  8
0
  6
CONTINUOUS
 62
     7
 10
-959.24383999999998
 20
637.36626999999964
 30
0.0
 11
-959.24383999999998
 21
637.89629999999966
 31
0.0
  0
LINE
  5
82A
  8
0
  6
CONTINUOUS
 62
     7
 10
-956.24384000000032
 20
636.86626999999976
 30
0.0
 11
-955.24384000000009
 21
636.86626999999976
 31
0.0
  0
LINE
  5
82B
  8
0
  6
CONTINUOUS
 62
     7
 10
-955.24384000000009
 20
633.86626999999999
 30
0.0
 11
-947.24384000000009
 21
633.86626999999999
 31
0.0
  0
LINE
  5
82C
  8
0
  6
CONTINUOUS
 62
     7
 10
-954.54381999999987
 20
643.67632999999989
 30
0.0
 11
-948.31383999999991
 21
643.67632999999989
 31
0.0
  0
LINE
  5
82D
  8
0
  6
CONTINUOUS
 62
     7
 10
-839.24384000000009
 20
640.86626999999976
 30
0.0
 11
-831.24384000000009
 21
640.86626999999976
 31
0.0
  0
LINE
  5
82E
  8
0
  6
CONTINUOUS
 62
     7
 10
-839.24384000000009
 20
630.86626999999999
 30
0.0
 11
-831.24384000000009
 21
630.86626999999999
 31
0.0
  0
LINE
  5
82F
  8
0
  6
CONTINUOUS
 62
     7
 10
-944.03386999999975
 20
630.5862400000002
 30
0.0
 11
-847.11383000000012
 21
630.5862400000002
 31
0.0
  0
LINE
  5
830
  8
0
  6
CONTINUOUS
 62
     7
 10
-947.24390000000005
 20
638.77617999999995
 30
0.0
 11
-946.00391000000013
 21
632.21618999999998
 31
0.0
  0
LINE
  5
831
  8
0
  6
CONTINUOUS
 62
     7
 10
-944.33759000000032
 20
627.73626999999999
 30
0.0
 11
-921.84569999999985
 21
627.73626999999999
 31
0.0
  0
LINE
  5
832
  8
0
  6
CONTINUOUS
 62
     7
 10
-947.24384000000009
 20
637.42627000000005
 30
0.0
 11
-945.96387000000016
 21
629.42632999999989
 31
0.0
  0
LINE
  5
833
  8
0
  6
CONTINUOUS
 62
     7
 10
-947.24384000000009
 20
636.08630000000005
 30
0.0
 11
-946.23455999999999
 21
629.43610000000001
 31
0.0
  0
LINE
  5
834
  8
0
  6
CONTINUOUS
 62
     7
 10
-947.24384000000009
 20
636.08630000000005
 30
0.0
 11
-946.31841999999983
 21
629.45972000000006
 31
0.0
  0
LINE
  5
835
  8
0
  6
CONTINUOUS
 62
     7
 10
-841.03814999999975
 20
647.54741999999976
 30
0.0
 11
-845.18389999999988
 21
632.06628000000001
 31
0.0
  0
LINE
  5
836
  8
0
  6
CONTINUOUS
 62
     7
 10
-844.70183999999995
 20
633.86626999999999
 30
0.0
 11
-839.24384000000009
 21
633.86626999999999
 31
0.0
  0
LINE
  5
837
  8
0
  6
CONTINUOUS
 62
     7
 10
-839.24384000000009
 20
654.92632999999978
 30
0.0
 11
-831.24384000000009
 21
654.92632999999978
 31
0.0
  0
LINE
  5
838
  8
0
  6
CONTINUOUS
 62
     3
 10
-920.24384000000009
 20
622.3662099999998
 30
0.0
 11
-920.45911000000001
 21
630.58630000000016
 31
0.0
  0
LINE
  5
839
  8
0
  6
CONTINUOUS
 62
     3
 10
-860.2437699999997
 20
622.3662099999998
 30
0.0
 11
-860.02855999999986
 21
630.58630000000016
 31
0.0
  0
LINE
  5
83A
  8
0
  6
CONTINUOUS
 62
     3
 10
-840.24390000000005
 20
633.86626999999999
 30
0.0
 11
-845.96960000000001
 21
625.04944
 31
0.0
  0
LINE
  5
83B
  8
0
  6
CONTINUOUS
 62
     7
 10
-860.24383999999998
 20
622.36626999999999
 30
0.0
 11
-920.24384000000009
 21
622.36626999999999
 31
0.0
  0
LINE
  5
83C
  8
0
  6
CONTINUOUS
 62
     7
 10
-858.73021999999958
 20
624.36626999999976
 30
0.0
 11
-847.22766000000001
 21
624.36626999999976
 31
0.0
  0
LINE
  5
83D
  8
0
  6
CONTINUOUS
 62
     7
 10
-861.26385000000005
 20
714.36626999999999
 30
0.0
 11
-861.26385000000005
 21
719.22625999999957
 31
0.0
  0
LINE
  5
83E
  8
0
  6
CONTINUOUS
 62
     7
 10
-877.22382000000005
 20
714.36626999999999
 30
0.0
 11
-877.22382000000005
 21
719.22625999999957
 31
0.0
  0
LINE
  5
83F
  8
0
  6
CONTINUOUS
 62
     7
 10
-861.7438400000002
 20
714.36626999999999
 30
0.0
 11
-861.7438400000002
 21
719.36626999999987
 31
0.0
  0
LINE
  5
840
  8
0
  6
CONTINUOUS
 62
     7
 10
-876.74384000000009
 20
714.36626999999999
 30
0.0
 11
-876.74384000000009
 21
719.36626999999987
 31
0.0
  0
LINE
  5
841
  8
0
  6
CONTINUOUS
 62
     7
 10
-905.24384000000009
 20
699.86626999999964
 30
0.0
 11
-842.24383999999998
 21
699.86626999999964
 31
0.0
  0
LINE
  5
842
  8
0
  6
CONTINUOUS
 62
     7
 10
-905.24384000000009
 20
666.36626999999964
 30
0.0
 11
-842.24383999999998
 21
666.36626999999964
 31
0.0
  0
LINE
  5
843
  8
0
  6
CONTINUOUS
 62
     7
 10
-905.24384000000009
 20
707.36626999999964
 30
0.0
 11
-842.24383999999998
 21
707.36626999999964
 31
0.0
  0
LINE
  5
844
  8
0
  6
CONTINUOUS
 62
     3
 10
-842.24383999999998
 20
707.36626999999964
 30
0.0
 11
-842.24383999999998
 21
666.36626999999964
 31
0.0
  0
LINE
  5
845
  8
0
  6
CONTINUOUS
 62
     3
 10
-905.24384000000009
 20
707.36626999999964
 30
0.0
 11
-905.24384000000009
 21
666.36626999999964
 31
0.0
  0
LINE
  5
846
  8
0
  6
CONTINUOUS
 62
     7
 10
-860.24383999999998
 20
713.35625999999957
 30
0.0
 11
-842.1981199999999
 21
713.35625999999957
 31
0.0
  0
LINE
  5
847
  8
0
  6
CONTINUOUS
 62
     7
 10
-860.24383999999998
 20
660.38629000000003
 30
0.0
 11
-842.20959000000005
 21
660.38629000000003
 31
0.0
  0
LINE
  5
848
  8
0
  6
CONTINUOUS
 62
     7
 10
-861.26385000000005
 20
659.36626999999999
 30
0.0
 11
-861.26385000000005
 21
654.50629000000004
 31
0.0
  0
LINE
  5
849
  8
0
  6
CONTINUOUS
 62
     7
 10
-877.22382000000005
 20
659.36626999999999
 30
0.0
 11
-877.22382000000005
 21
654.50629000000004
 31
0.0
  0
LINE
  5
84A
  8
0
  6
CONTINUOUS
 62
     7
 10
-861.7438400000002
 20
659.36626999999999
 30
0.0
 11
-861.7438400000002
 21
654.36626999999964
 31
0.0
  0
LINE
  5
84B
  8
0
  6
CONTINUOUS
 62
     7
 10
-876.74384000000009
 20
659.36626999999999
 30
0.0
 11
-876.74384000000009
 21
654.36626999999964
 31
0.0
  0
LINE
  5
84C
  8
0
  6
CONTINUOUS
 62
     7
 10
-845.91101000000003
 20
660.86626999999999
 30
0.0
 11
-860.24383999999998
 21
660.86626999999999
 31
0.0
  0
LINE
  5
84D
  8
0
  6
CONTINUOUS
 62
     7
 10
-845.89673000000005
 20
712.86626999999964
 30
0.0
 11
-860.24383999999998
 21
712.86626999999964
 31
0.0
  0
LINE
  5
84E
  8
0
  6
CONTINUOUS
 62
     3
 10
-860.26385000000005
 20
720.22625999999968
 30
0.0
 11
-842.42382999999984
 21
720.22625999999968
 31
0.0
  0
ARC
  5
84F
  8
0
  6
CONTINUOUS
 62
     7
 10
-706.74377000000004
 20
813.61126999999988
 30
0.0
 40
2.0
 50
91.999998000000005
 51
180.00001
  0
ARC
  5
850
  8
0
  6
CONTINUOUS
 62
     7
 10
-719.74377000000004
 20
800.99084000000005
 30
0.0
 40
3.0
 50
100.0
 51
180.00001
  0
ARC
  5
851
  8
0
  6
CONTINUOUS
 62
     7
 10
-711.74377000000004
 20
808.49401999999998
 30
0.0
 40
3.0
 50
280.00000999999992
 51
0.0
  0
ARC
  5
852
  8
0
  6
CONTINUOUS
 62
     7
 10
-727.74377000000004
 20
766.39954
 30
0.0
 40
5.0
 50
272.0
 51
0.0
  0
ARC
  5
853
  8
0
  6
CONTINUOUS
 62
     7
 10
-580.74377000000004
 20
735.10888999999975
 30
0.0
 40
3.0
 50
179.99998999999991
 51
225.0
  0
ARC
  5
854
  8
0
  6
CONTINUOUS
 62
     7
 10
-580.74377000000004
 20
653.1088900000002
 30
0.0
 40
3.0
 50
315.0
 51
0.0
  0
ARC
  5
855
  8
0
  6
CONTINUOUS
 62
     7
 10
-580.74377000000004
 20
726.62365999999986
 30
0.0
 40
3.0
 50
0.0
 51
45.00000099999999
  0
ARC
  5
856
  8
0
  6
CONTINUOUS
 62
     7
 10
-580.74377000000004
 20
644.62365999999975
 30
0.0
 40
3.0
 50
135.0
 51
180.00001
  0
ARC
  5
857
  8
0
  6
CONTINUOUS
 62
     7
 10
-765.74377000000004
 20
818.93017999999995
 30
0.0
 40
4.0
 50
92.999999000000017
 51
180.00001
  0
ARC
  5
858
  8
0
  6
CONTINUOUS
 62
     7
 10
-581.74377000000004
 20
779.67505000000006
 30
0.0
 40
4.0
 50
278.21321999999992
 51
0.0
  0
CIRCLE
  5
859
  8
0
  6
CONTINUOUS
 62
     7
 10
-598.74377000000004
 20
801.86626999999999
 30
0.0
 40
9.5
  0
CIRCLE
  5
85A
  8
0
  6
CONTINUOUS
 62
     7
 10
-748.74377000000004
 20
801.86626999999999
 30
0.0
 40
9.5
  0
ARC
  5
85B
  8
0
  6
CONTINUOUS
 62
     7
 10
-765.74377000000004
 20
782.44317999999998
 30
0.0
 40
4.0
 50
180.00001
 51
265.00000999999992
  0
ARC
  5
85C
  8
0
  6
CONTINUOUS
 62
     7
 10
-581.74377000000004
 20
554.67505000000006
 30
0.0
 40
4.0
 50
272.0
 51
0.0
  0
ARC
  5
85D
  8
0
  6
CONTINUOUS
 62
     7
 10
-765.74377000000004
 20
591.28930999999977
 30
0.0
 40
4.0
 50
95.000001999999995
 51
180.00001
  0
CIRCLE
  5
85E
  8
0
  6
CONTINUOUS
 62
     7
 10
-748.74377000000004
 20
571.86626999999999
 30
0.0
 40
9.5
  0
CIRCLE
  5
85F
  8
0
  6
CONTINUOUS
 62
     7
 10
-598.74377000000004
 20
571.86626999999999
 30
0.0
 40
9.5
  0
ARC
  5
860
  8
0
  6
CONTINUOUS
 62
     7
 10
-581.74377000000004
 20
594.05749999999989
 30
0.0
 40
4.0
 50
0.0
 51
81.786788999999985
  0
ARC
  5
861
  8
0
  6
CONTINUOUS
 62
     7
 10
-765.74377000000004
 20
554.80236999999988
 30
0.0
 40
4.0
 50
180.00001
 51
266.99998999999991
  0
ARC
  5
862
  8
0
  6
CONTINUOUS
 62
     7
 10
-581.74377000000004
 20
819.0575
 30
0.0
 40
4.0
 50
0.0
 51
88.0
  0
ARC
  5
863
  8
0
  6
CONTINUOUS
 62
     7
 10
-580.74377000000004
 20
644.62365999999975
 30
0.0
 40
3.0
 50
135.0
 51
180.00001
  0
ARC
  5
864
  8
0
  6
CONTINUOUS
 62
     7
 10
-580.74377000000004
 20
726.62365999999986
 30
0.0
 40
3.0
 50
0.0
 51
44.999997999999998
  0
ARC
  5
865
  8
0
  6
CONTINUOUS
 62
     7
 10
-580.74377000000004
 20
653.1088900000002
 30
0.0
 40
3.0
 50
315.0
 51
0.0
  0
ARC
  5
866
  8
0
  6
CONTINUOUS
 62
     7
 10
-580.74377000000004
 20
735.10888999999975
 30
0.0
 40
3.0
 50
180.00001
 51
225.0
  0
ARC
  5
867
  8
0
  6
CONTINUOUS
 62
     7
 10
-651.30444
 20
820.03430000000003
 30
0.0
 40
10.0
 50
223.48295999999991
 51
268.0
  0
ARC
  5
868
  8
0
  6
CONTINUOUS
 62
     7
 10
-633.74377000000004
 20
801.41010000000006
 30
0.0
 40
8.0
 50
0.0
 51
88.0
  0
ARC
  5
869
  8
0
  6
CONTINUOUS
 62
     7
 10
-675.18311000000017
 20
816.14824999999985
 30
0.0
 40
10.0
 50
43.482965
 51
88.0
  0
ARC
  5
86A
  8
0
  6
CONTINUOUS
 62
     7
 10
-716.74377000000004
 20
812.5762299999999
 30
0.0
 40
5.0
 50
82.860167000000004
 51
180.00001
  0
ARC
  5
86B
  8
0
  6
CONTINUOUS
 62
     7
 10
-620.74377000000004
 20
819.41875999999968
 30
0.0
 40
5.0
 50
88.0
 51
180.00001
  0
ARC
  5
86C
  8
0
  6
CONTINUOUS
 62
     7
 10
-615.74377000000004
 20
795.86626999999964
 30
0.0
 40
10.0
 50
180.00001
 51
270.0
  0
ARC
  5
86D
  8
0
  6
CONTINUOUS
 62
     7
 10
-588.74377000000004
 20
768.06701999999984
 30
0.0
 40
5.0
 50
0.0
 51
88.0
  0
ARC
  5
86E
  8
0
  6
CONTINUOUS
 62
     7
 10
-580.74377000000004
 20
772.74688999999989
 30
0.0
 40
3.0
 50
98.213208999999992
 51
180.00001
  0
ARC
  5
86F
  8
0
  6
CONTINUOUS
 62
     7
 10
-651.30444
 20
553.69824000000006
 30
0.0
 40
10.0
 50
91.999998000000005
 51
136.51703999999981
  0
ARC
  5
870
  8
0
  6
CONTINUOUS
 62
     7
 10
-633.74377000000004
 20
572.32244999999966
 30
0.0
 40
8.0
 50
272.0
 51
0.0
  0
ARC
  5
871
  8
0
  6
CONTINUOUS
 62
     7
 10
-675.18311000000017
 20
557.58422999999993
 30
0.0
 40
10.0
 50
272.0
 51
316.51704000000001
  0
ARC
  5
872
  8
0
  6
CONTINUOUS
 62
     7
 10
-620.74377000000004
 20
554.31377999999995
 30
0.0
 40
5.0
 50
180.00001
 51
271.99998999999991
  0
ARC
  5
873
  8
0
  6
CONTINUOUS
 62
     7
 10
-615.74377000000004
 20
577.86626999999987
 30
0.0
 40
10.0
 50
90.000003000000007
 51
180.00001
  0
ARC
  5
874
  8
0
  6
CONTINUOUS
 62
     7
 10
-588.74377000000004
 20
605.66552999999999
 30
0.0
 40
5.0
 50
272.0
 51
0.0
  0
ARC
  5
875
  8
0
  6
CONTINUOUS
 62
     7
 10
-580.74377000000004
 20
600.9857199999999
 30
0.0
 40
3.0
 50
180.00001
 51
261.78677999999991
  0
ARC
  5
876
  8
0
  6
CONTINUOUS
 62
     7
 10
-613.74377000000004
 20
595.86626999999964
 30
0.0
 40
8.0
 50
270.0
 51
0.0
  0
ARC
  5
877
  8
0
  6
CONTINUOUS
 62
     7
 10
-598.13958999999977
 20
592.32947000000001
 30
0.0
 40
8.0
 50
91.999998000000005
 51
167.22925000000001
  0
ARC
  5
878
  8
0
  6
CONTINUOUS
 62
     7
 10
-613.74377000000004
 20
777.86626999999987
 30
0.0
 40
8.0
 50
0.0
 51
90.000003000000007
  0
ARC
  5
879
  8
0
  6
CONTINUOUS
 62
     7
 10
-598.13958999999977
 20
781.40307999999982
 30
0.0
 40
8.0
 50
192.77074999999991
 51
268.0
  0
ARC
  5
87A
  8
0
  6
CONTINUOUS
 62
     7
 10
-682.74377000000004
 20
560.19110000000001
 30
0.0
 40
2.0
 50
272.0
 51
0.0
  0
ARC
  5
87B
  8
0
  6
CONTINUOUS
 62
     7
 10
-678.74377000000004
 20
562.30804000000001
 30
0.0
 40
2.0
 50
91.999998000000005
 51
180.00001
  0
ARC
  5
87C
  8
0
  6
CONTINUOUS
 62
     7
 10
-682.74377000000004
 20
607.30047999999965
 30
0.0
 40
2.0
 50
0.0
 51
90.000003000000007
  0
ARC
  5
87D
  8
0
  6
CONTINUOUS
 62
     7
 10
-682.74377000000004
 20
637.30175999999994
 30
0.0
 40
2.0
 50
270.0
 51
0.0
  0
ARC
  5
87E
  8
0
  6
CONTINUOUS
 62
     7
 10
-676.71569999999997
 20
608.92004000000009
 30
0.0
 40
2.0
 50
270.0
 51
296.80020000000002
  0
ARC
  5
87F
  8
0
  6
CONTINUOUS
 62
     7
 10
-677.19415000000004
 20
641.18567000000019
 30
0.0
 40
3.0
 50
54.348323999999998
 51
90.000003000000007
  0
ARC
  5
880
  8
0
  6
CONTINUOUS
 62
     7
 10
-676.71569999999997
 20
764.8125
 30
0.0
 40
2.0
 50
63.199809000000002
 51
90.000003000000007
  0
ARC
  5
881
  8
0
  6
CONTINUOUS
 62
     7
 10
-682.74377000000004
 20
813.54143999999985
 30
0.0
 40
2.0
 50
0.0
 51
88.0
  0
ARC
  5
882
  8
0
  6
CONTINUOUS
 62
     7
 10
-678.74377000000004
 20
811.42449999999985
 30
0.0
 40
2.0
 50
180.00001
 51
268.0
  0
ARC
  5
883
  8
0
  6
CONTINUOUS
 62
     7
 10
-677.19415000000004
 20
732.54687999999999
 30
0.0
 40
3.0
 50
270.0
 51
305.65167000000002
  0
ARC
  5
884
  8
0
  6
CONTINUOUS
 62
     7
 10
-682.74377000000004
 20
766.43206999999984
 30
0.0
 40
2.0
 50
270.0
 51
0.0
  0
ARC
  5
885
  8
0
  6
CONTINUOUS
 62
     7
 10
-682.74377000000004
 20
736.43079
 30
0.0
 40
2.0
 50
0.0
 51
90.000003000000007
  0
ARC
  5
886
  8
0
  6
CONTINUOUS
 62
     7
 10
-559.74377000000004
 20
686.86626999999976
 30
0.0
 40
6.0000037999999991
 50
90.000003000000007
 51
270.0
  0
ARC
  5
887
  8
0
  6
CONTINUOUS
 62
     7
 10
-705.74384000000032
 20
823.07605000000001
 30
0.0
 40
3.0
 50
92.999999000000017
 51
180.00001
  0
ARC
  5
888
  8
0
  6
CONTINUOUS
 62
     7
 10
-706.74377000000004
 20
560.12134000000003
 30
0.0
 40
2.0
 50
179.99998999999991
 51
268.00000999999992
  0
ARC
  5
889
  8
0
  6
CONTINUOUS
 62
     7
 10
-719.74377000000004
 20
572.74170000000004
 30
0.0
 40
3.0
 50
179.99998999999991
 51
260.0
  0
ARC
  5
88A
  8
0
  6
CONTINUOUS
 62
     7
 10
-711.74377000000004
 20
565.23852999999986
 30
0.0
 40
3.0
 50
0.0
 51
79.999998000000005
  0
ARC
  5
88B
  8
0
  6
CONTINUOUS
 62
     7
 10
-727.74377000000004
 20
607.33300999999994
 30
0.0
 40
5.0
 50
0.0
 51
88.0
  0
ARC
  5
88C
  8
0
  6
CONTINUOUS
 62
     7
 10
-705.74384000000032
 20
550.65648999999985
 30
0.0
 40
3.0
 50
180.00001
 51
266.99998999999991
  0
ARC
  5
88D
  8
0
  6
CONTINUOUS
 62
     7
 10
-716.74377000000004
 20
561.15630999999985
 30
0.0
 40
5.0
 50
180.00001
 51
277.1398299999999
  0
ARC
  5
88E
  8
0
  6
CONTINUOUS
 62
     7
 10
-711.74370999999996
 20
686.86626999999976
 30
0.0
 40
10.0
 50
23.578036999999991
 51
156.42196000000001
  0
ARC
  5
88F
  8
0
  6
CONTINUOUS
 62
     7
 10
-728.24370999999985
 20
686.86626999999976
 30
0.0
 40
3.9999962
 50
90.000003000000007
 51
270.0
  0
ARC
  5
890
  8
0
  6
CONTINUOUS
 62
     7
 10
-695.24370999999996
 20
686.86626999999976
 30
0.0
 40
3.9999962
 50
270.0
 51
90.000003000000007
  0
ARC
  5
891
  8
0
  6
CONTINUOUS
 62
     7
 10
-711.74370999999996
 20
686.86626999999976
 30
0.0
 40
10.0
 50
203.57826999999989
 51
336.42171999999999
  0
ARC
  5
892
  8
0
  6
CONTINUOUS
 62
     7
 10
-795.15148999999985
 20
651.92633000000001
 30
0.0
 40
3.0
 50
30.468077000000001
 51
90.000003000000007
  0
ARC
  5
893
  8
0
  6
CONTINUOUS
 62
     7
 10
-789.90111999999999
 20
729.86626999999999
 30
0.0
 40
3.0
 50
324.42424
 51
90.000003000000007
  0
ARC
  5
894
  8
0
  6
CONTINUOUS
 62
     7
 10
-763.24383999999975
 20
756.15430000000003
 30
0.0
 40
4.0
 50
91.999998000000005
 51
180.00001
  0
ARC
  5
895
  8
0
  6
CONTINUOUS
 62
     7
 10
-763.24383999999975
 20
617.57825000000003
 30
0.0
 40
4.0
 50
180.00001
 51
268.0
  0
ARC
  5
896
  8
0
  6
CONTINUOUS
 62
     7
 10
-772.20636000000002
 20
616.75769000000003
 30
0.0
 40
5.0
 50
5.2307202000000004
 51
44.999997999999998
  0
ARC
  5
897
  8
0
  6
CONTINUOUS
 62
     7
 10
-795.15148999999985
 20
721.80620999999985
 30
0.0
 40
3.0
 50
269.99998999999991
 51
329.53192000000001
  0
ARC
  5
898
  8
0
  6
CONTINUOUS
 62
     7
 10
-789.90111999999999
 20
643.86626999999999
 30
0.0
 40
3.0
 50
269.99998999999991
 51
35.57575099999999
  0
ARC
  5
899
  8
0
  6
CONTINUOUS
 62
     7
 10
-805.24384000000009
 20
696.86626999999999
 30
0.0
 40
3.0
 50
90.000003000000007
 51
180.00001
  0
ARC
  5
89A
  8
0
  6
CONTINUOUS
 62
     7
 10
-773.94115999999985
 20
670.86626999999964
 30
0.0
 40
3.0
 50
0.0
 51
90.000003000000007
  0
ARC
  5
89B
  8
0
  6
CONTINUOUS
 62
     7
 10
-773.94115999999985
 20
702.86626999999987
 30
0.0
 40
3.0
 50
269.99998999999991
 51
0.00000068324516
  0
ARC
  5
89C
  8
0
  6
CONTINUOUS
 62
     7
 10
-778.98699999999985
 20
750.19415000000004
 30
0.0
 40
5.0
 50
272.0
 51
315.0
  0
ARC
  5
89D
  8
0
  6
CONTINUOUS
 62
     7
 10
-805.24384000000009
 20
676.86626999999999
 30
0.0
 40
3.0
 50
180.00001
 51
270.0
  0
ARC
  5
89E
  8
0
  6
CONTINUOUS
 62
     7
 10
-778.98699999999985
 20
623.53839000000016
 30
0.0
 40
5.0
 50
44.999997999999998
 51
88.0
  0
ARC
  5
89F
  8
0
  6
CONTINUOUS
 62
     7
 10
-772.20636000000002
 20
756.97484999999983
 30
0.0
 40
5.0
 50
315.0
 51
354.76906000000002
  0
ARC
  5
8A0
  8
0
  6
CONTINUOUS
 62
     7
 10
-215.2809399999999
 20
289.54793999999993
 30
0.0
 40
20.999998000000001
 50
106.60155
 51
73.398452000000006
  0
CIRCLE
  5
8A1
  8
0
  6
CONTINUOUS
 62
     7
 10
-215.2809399999999
 20
289.54793999999993
 30
0.0
 40
3.5
  0
CIRCLE
  5
8A2
  8
0
  6
CONTINUOUS
 62
     7
 10
-215.2809399999999
 20
289.54793999999993
 30
0.0
 40
5.0
  0
ARC
  5
8A3
  8
0
  6
CONTINUOUS
 62
     7
 10
-683.74377000000004
 20
231.93762000000001
 30
0.0
 40
3.0
 50
0.0
 51
90.000003000000007
  0
ARC
  5
8A4
  8
0
  6
CONTINUOUS
 62
     7
 10
-677.60766999999987
 20
270.06322999999992
 30
0.0
 40
3.0
 50
41.102821999999989
 51
90.000003000000007
  0
ARC
  5
8A5
  8
0
  6
CONTINUOUS
 62
     7
 10
-683.74377000000004
 20
352.87222000000008
 30
0.0
 40
3.0
 50
0.0
 51
90.000003000000007
  0
ARC
  5
8A6
  8
0
  6
CONTINUOUS
 62
     7
 10
-683.74377000000004
 20
269.55972000000003
 30
0.0
 40
3.0
 50
270.0
 51
0.0
  0
ARC
  5
8A7
  8
0
  6
CONTINUOUS
 62
     7
 10
-670.74370999999985
 20
251.5479399999999
 30
0.0
 40
10.0
 50
306.82303999999999
 51
41.102821999999989
  0
ARC
  5
8A8
  8
0
  6
CONTINUOUS
 62
     7
 10
-670.74370999999985
 20
359.36810000000008
 30
0.0
 40
10.0
 50
288.46821
 51
59.833878000000013
  0
ARC
  5
8A9
  8
0
  6
CONTINUOUS
 62
     7
 10
-345.28093999999999
 20
251.5479399999999
 30
0.0
 40
10.0
 50
135.0
 51
225.0
  0
ARC
  5
8AA
  8
0
  6
CONTINUOUS
 62
     7
 10
-150.28093999999979
 20
364.13126
 30
0.0
 40
10.0
 50
15.0
 51
105.0
  0
ARC
  5
8AB
  8
0
  6
CONTINUOUS
 62
     7
 10
-85.280944999999988
 20
251.5479399999999
 30
0.0
 40
10.0
 50
315.0
 51
45.00000099999999
  0
ARC
  5
8AC
  8
0
  6
CONTINUOUS
 62
     7
 10
-613.74377000000004
 20
193.14581000000001
 30
0.0
 40
8.0
 50
270.0
 51
0.0
  0
ARC
  5
8AD
  8
0
  6
CONTINUOUS
 62
     7
 10
-307.98095999999993
 20
135.54795999999999
 30
0.0
 40
4.0
 50
0.0
 51
90.000003000000007
  0
ARC
  5
8AE
  8
0
  6
CONTINUOUS
 62
     7
 10
-215.2809399999999
 20
251.5479399999999
 30
0.0
 40
130.0
 50
127.3754999999999
 51
172.62448999999989
  0
ARC
  5
8AF
  8
0
  6
CONTINUOUS
 62
     7
 10
-676.73145
 20
349.98824999999999
 30
0.0
 40
3.0
 50
270.0
 51
288.46821999999992
  0
ARC
  5
8B0
  8
0
  6
CONTINUOUS
 62
     7
 10
-677.05224999999984
 20
371.13125999999988
 30
0.0
 40
3.0
 50
59.833878000000013
 51
90.000003000000007
  0
ARC
  5
8B1
  8
0
  6
CONTINUOUS
 62
     7
 10
-280.28093999999999
 20
364.13126
 30
0.0
 40
10.0
 50
74.999999000000003
 51
164.99999
  0
ARC
  5
8B2
  8
0
  6
CONTINUOUS
 62
     7
 10
-215.2809399999999
 20
251.5479399999999
 30
0.0
 40
124.5
 50
7.1014839000000007
 51
172.89851999999991
  0
ARC
  5
8B3
  8
0
  6
CONTINUOUS
 62
     7
 10
-215.2809399999999
 20
251.5479399999999
 30
0.0
 40
130.0
 50
187.37550999999999
 51
189.62446
  0
ARC
  5
8B4
  8
0
  6
CONTINUOUS
 62
     7
 10
-215.2809399999999
 20
251.5479399999999
 30
0.0
 40
130.0
 50
67.375506000000001
 51
112.62448999999999
  0
ARC
  5
8B5
  8
0
  6
CONTINUOUS
 62
     7
 10
-296.28098
 20
115.54796
 30
0.0
 40
4.0
 50
99.488295999999963
 51
180.00001
  0
ARC
  5
8B6
  8
0
  6
CONTINUOUS
 62
     7
 10
-134.28095999999999
 20
115.54796
 30
0.0
 40
4.0
 50
0.0
 51
80.511701999999985
  0
ARC
  5
8B7
  8
0
  6
CONTINUOUS
 62
     7
 10
-350.28093999999987
 20
134.54793999999981
 30
0.0
 40
5.0
 50
90.000003000000007
 51
180.00001
  0
ARC
  5
8B8
  8
0
  6
CONTINUOUS
 62
     7
 10
-80.280944999999988
 20
134.54793999999981
 30
0.0
 40
5.0
 50
0.0
 51
90.000003000000007
  0
ARC
  5
8B9
  8
0
  6
CONTINUOUS
 62
     7
 10
-615.74370999999996
 20
323.72078999999991
 30
0.0
 40
10.0
 50
90.000003000000007
 51
180.00001
  0
CIRCLE
  5
8BA
  8
0
  6
CONTINUOUS
 62
     7
 10
-215.2809399999999
 20
289.54793999999993
 30
0.0
 40
41.0
  0
ARC
  5
8BB
  8
0
  6
CONTINUOUS
 62
     7
 10
-122.58096
 20
135.54795999999999
 30
0.0
 40
4.0
 50
90.000003000000007
 51
180.00001
  0
ARC
  5
8BC
  8
0
  6
CONTINUOUS
 62
     7
 10
-119.28095999999979
 20
147.54796999999991
 30
0.0
 40
8.0
 50
180.00001
 51
270.0
  0
ARC
  5
8BD
  8
0
  6
CONTINUOUS
 62
     7
 10
-215.2809399999999
 20
261.54793999999998
 30
0.0
 40
88.0
 50
0.0
 51
186.52497999999991
  0
ARC
  5
8BE
  8
0
  6
CONTINUOUS
 62
     7
 10
-215.2809399999999
 20
251.5479399999999
 30
0.0
 40
130.0
 50
7.3755072000000004
 51
52.624493999999991
  0
ARC
  5
8BF
  8
0
  6
CONTINUOUS
 62
     7
 10
-311.28097999999989
 20
147.54796999999991
 30
0.0
 40
8.0
 50
270.0
 51
0.0
  0
ARC
  5
8C0
  8
0
  6
CONTINUOUS
 62
     7
 10
-215.2809399999999
 20
217.5380899999999
 30
0.0
 40
93.999992000000006
 50
179.99998999999991
 51
200.58195999999981
  0
ARC
  5
8C1
  8
0
  6
CONTINUOUS
 62
     7
 10
-617.74370999999985
 20
147.54796999999991
 30
0.0
 40
8.0
 50
180.00001
 51
270.0
  0
ARC
  5
8C2
  8
0
  6
CONTINUOUS
 62
     7
 10
-586.74370999999996
 20
346.54793999999993
 30
0.0
 40
3.0
 50
0.0
 51
90.000003000000007
  0
ARC
  5
8C3
  8
0
  6
CONTINUOUS
 62
     7
 10
-682.74370999999996
 20
379.09276999999992
 30
0.0
 40
2.0
 50
0.0
 51
88.0
  0
ARC
  5
8C4
  8
0
  6
CONTINUOUS
 62
     7
 10
-678.74377000000004
 20
377.66931
 30
0.0
 40
2.0
 50
179.99998999999991
 51
268.00000999999992
  0
ARC
  5
8C5
  8
0
  6
CONTINUOUS
 62
     7
 10
-597.74370999999985
 20
357.54797000000002
 30
0.0
 40
8.0
 50
180.00001
 51
270.0
  0
ARC
  5
8C6
  8
0
  6
CONTINUOUS
 62
     7
 10
-579.74377000000004
 20
143.2939299999999
 30
0.0
 40
4.0
 50
179.99998999999991
 51
255.52249
  0
ARC
  5
8C7
  8
0
  6
CONTINUOUS
 62
     7
 10
-215.2809399999999
 20
251.5479399999999
 30
0.0
 40
130.0
 50
350.37554999999998
 51
352.62448999999998
  0
ARC
  5
8C8
  8
0
  6
CONTINUOUS
 62
     7
 10
-581.74370999999985
 20
135.54795999999999
 30
0.0
 40
4.0
 50
0.0
 51
90.000003000000007
  0
ARC
  5
8C9
  8
0
  6
CONTINUOUS
 62
     7
 10
-215.2809399999999
 20
217.5380899999999
 30
0.0
 40
93.999992000000006
 50
339.95001999999982
 51
20.049976000000001
  0
ARC
  5
8CA
  8
0
  6
CONTINUOUS
 62
     7
 10
-725.6649799999999
 20
147.54796999999991
 30
0.0
 40
8.0
 50
270.0
 51
322.22431999999992
  0
ARC
  5
8CB
  8
0
  6
CONTINUOUS
 62
     7
 10
-122.28095
 20
183.59696999999991
 30
0.0
 40
5.0
 50
159.95003
 51
180.00001
  0
ARC
  5
8CC
  8
0
  6
CONTINUOUS
 62
     7
 10
-122.28095
 20
251.47919999999991
 30
0.0
 40
5.0
 50
179.99998999999991
 51
200.04997
  0
ARC
  5
8CD
  8
0
  6
CONTINUOUS
 62
     7
 10
-695.74370999999985
 20
181.2586399999999
 30
0.0
 40
5.0
 50
322.22431999999992
 51
0.0
  0
ARC
  5
8CE
  8
0
  6
CONTINUOUS
 62
     7
 10
-765.74370999999985
 20
135.54795999999999
 30
0.0
 40
4.0
 50
90.000003000000007
 51
180.00001
  0
ARC
  5
8CF
  8
0
  6
CONTINUOUS
 62
     7
 10
-580.74370999999985
 20
247.30530999999999
 30
0.0
 40
3.0
 50
135.0
 51
180.00001
  0
ARC
  5
8D0
  8
0
  6
CONTINUOUS
 62
     7
 10
-580.74370999999985
 20
329.30532999999991
 30
0.0
 40
3.0
 50
0.0
 51
45.00000099999999
  0
ARC
  5
8D1
  8
0
  6
CONTINUOUS
 62
     7
 10
-580.74370999999985
 20
255.79057
 30
0.0
 40
3.0
 50
315.0
 51
0.0
  0
ARC
  5
8D2
  8
0
  6
CONTINUOUS
 62
     7
 10
-580.74370999999985
 20
337.79059000000001
 30
0.0
 40
3.0
 50
179.99998999999991
 51
225.0
  0
ARC
  5
8D3
  8
0
  6
CONTINUOUS
 62
     7
 10
-298.25911999999983
 20
127.38378
 30
0.0
 40
8.0
 50
279.48829999999998
 51
357.00554
  0
ARC
  5
8D4
  8
0
  6
CONTINUOUS
 62
     7
 10
-282.28093999999999
 20
126.54794
 30
0.0
 40
8.0
 50
90.000003000000007
 51
177.00553999999991
  0
ARC
  5
8D5
  8
0
  6
CONTINUOUS
 62
     7
 10
-148.28093999999979
 20
126.54794
 30
0.0
 40
8.0
 50
2.9944643999999991
 51
90.000003000000007
  0
ARC
  5
8D6
  8
0
  6
CONTINUOUS
 62
     7
 10
-613.74377000000004
 20
365.39333999999991
 30
0.0
 40
8.0
 50
0.0
 51
88.0
  0
ARC
  5
8D7
  8
0
  6
CONTINUOUS
 62
     7
 10
-348.07657
 20
233.13036
 30
0.0
 40
5.0
 50
352.89852000000002
 51
45.00000099999999
  0
ARC
  5
8D8
  8
0
  6
CONTINUOUS
 62
     7
 10
-342.54766999999993
 20
275.49444999999992
 30
0.0
 40
5.0
 50
315.0
 51
349.34381999999982
  0
ARC
  5
8D9
  8
0
  6
CONTINUOUS
 62
     7
 10
-299.65258999999992
 20
349.79088999999999
 30
0.0
 40
5.0
 50
310.65618000000001
 51
345.0
  0
ARC
  5
8DA
  8
0
  6
CONTINUOUS
 62
     7
 10
-258.17602999999991
 20
373.73739999999992
 30
0.0
 40
5.0
 50
255.0
 51
289.34381999999982
  0
ARC
  5
8DB
  8
0
  6
CONTINUOUS
 62
     7
 10
-172.38585999999981
 20
373.73739999999992
 30
0.0
 40
5.0
 50
250.65617999999989
 51
285.0
  0
ARC
  5
8DC
  8
0
  6
CONTINUOUS
 62
     7
 10
-130.90932000000001
 20
349.79088999999999
 30
0.0
 40
5.0
 50
195.00001
 51
229.34381999999991
  0
ARC
  5
8DD
  8
0
  6
CONTINUOUS
 62
     7
 10
-163.34781000000001
 20
376.15915000000001
 30
0.0
 40
5.0
 50
247.37550999999991
 51
285.0
  0
ARC
  5
8DE
  8
0
  6
CONTINUOUS
 62
     7
 10
-88.014235999999968
 20
275.49444999999992
 30
0.0
 40
5.0
 50
190.65618000000001
 51
225.0
  0
ARC
  5
8DF
  8
0
  6
CONTINUOUS
 62
     7
 10
-82.485328999999979
 20
233.13036
 30
0.0
 40
5.0
 50
135.0
 51
187.1014899999999
  0
ARC
  5
8E0
  8
0
  6
CONTINUOUS
 62
     7
 10
-267.21407999999991
 20
376.15915000000001
 30
0.0
 40
5.0
 50
255.0
 51
292.62448999999998
  0
ARC
  5
8E1
  8
0
  6
CONTINUOUS
 62
     7
 10
-133.3310699999999
 20
358.82898
 30
0.0
 40
5.0
 50
195.00001
 51
232.62450000000001
  0
ARC
  5
8E2
  8
0
  6
CONTINUOUS
 62
     7
 10
-81.397925999999984
 20
268.87810999999988
 30
0.0
 40
5.0
 50
187.37550999999999
 51
225.0
  0
ARC
  5
8E3
  8
0
  6
CONTINUOUS
 62
     7
 10
-297.23082999999991
 20
358.82898
 30
0.0
 40
5.0
 50
307.37551000000002
 51
345.0
  0
ARC
  5
8E4
  8
0
  6
CONTINUOUS
 62
     7
 10
-349.16397000000001
 20
268.87810999999988
 30
0.0
 40
5.0
 50
315.0
 51
352.62448999999998
  0
ARC
  5
8E5
  8
0
  6
CONTINUOUS
 62
     7
 10
-349.16397000000001
 20
234.21777
 30
0.0
 40
5.0
 50
7.3755080999999967
 51
45.00000099999999
  0
ARC
  5
8E6
  8
0
  6
CONTINUOUS
 62
     7
 10
-81.397925999999984
 20
234.21777
 30
0.0
 40
5.0
 50
135.0
 51
172.62448999999989
  0
ARC
  5
8E7
  8
0
  6
CONTINUOUS
 62
     7
 10
-132.30279999999991
 20
127.38378
 30
0.0
 40
8.0
 50
182.99446
 51
260.51170000000002
  0
ARC
  5
8E8
  8
0
  6
CONTINUOUS
 62
     7
 10
-285.63540999999992
 20
124.2786199999999
 30
0.0
 40
5.0
 50
90.000003000000007
 51
166.18078
  0
ARC
  5
8E9
  8
0
  6
CONTINUOUS
 62
     7
 10
-144.92647999999991
 20
124.2786199999999
 30
0.0
 40
5.0
 50
13.819217
 51
90.000003000000007
  0
ARC
  5
8EA
  8
0
  6
CONTINUOUS
 62
     7
 10
-215.2809399999999
 20
418.54793999999998
 30
0.0
 40
4.0
 50
359.99998999999991
 51
179.99998999999991
  0
ARC
  5
8EB
  8
0
  6
CONTINUOUS
 62
     7
 10
-221.28095999999991
 20
385.04797000000002
 30
0.0
 40
2.0
 50
270.0
 51
0.0
  0
ARC
  5
8EC
  8
0
  6
CONTINUOUS
 62
     7
 10
-209.28095999999991
 20
385.04797000000002
 30
0.0
 40
2.0
 50
179.99998999999991
 51
270.0
  0
ARC
  5
8ED
  8
0
  6
CONTINUOUS
 62
     7
 10
-222.60279999999989
 20
387.17919999999992
 30
0.0
 40
1.0
 50
100.4607199999999
 51
164.99999
  0
ARC
  5
8EE
  8
0
  6
CONTINUOUS
 62
     7
 10
-207.95908999999989
 20
387.17919999999992
 30
0.0
 40
1.0
 50
15.0
 51
79.539281000000003
  0
CIRCLE
  5
8EF
  8
0
  6
CONTINUOUS
 62
     7
 10
-711.74370999999996
 20
402.04797000000002
 30
0.0
 40
12.5
  0
ARC
  5
8F0
  8
0
  6
CONTINUOUS
 62
     7
 10
-719.06555000000003
 20
387.17922999999979
 30
0.0
 40
1.0
 50
100.4607199999999
 51
164.99999
  0
ARC
  5
8F1
  8
0
  6
CONTINUOUS
 62
     7
 10
-704.42187999999999
 20
387.17922999999979
 30
0.0
 40
1.0
 50
15.0
 51
79.539281000000003
  0
ARC
  5
8F2
  8
0
  6
CONTINUOUS
 62
     7
 10
-725.66070999999999
 20
381.88443000000001
 30
0.0
 40
4.0
 50
347.92932999999999
 51
55.386358999999999
  0
ARC
  5
8F3
  8
0
  6
CONTINUOUS
 62
     7
 10
-727.74370999999985
 20
331.0811799999999
 30
0.0
 40
5.0
 50
272.0
 51
0.0
  0
ARC
  5
8F4
  8
0
  6
CONTINUOUS
 62
     7
 10
-725.74370999999985
 20
163.71805000000001
 30
0.0
 40
3.0
 50
0.0
 51
84.999996999999979
  0
ARC
  5
8F5
  8
0
  6
CONTINUOUS
 62
     7
 10
-749.24370999999985
 20
171.79693999999981
 30
0.0
 40
3.0
 50
179.99998999999991
 51
265.0
  0
ARC
  5
8F6
  8
0
  6
CONTINUOUS
 62
     7
 10
-755.24370999999985
 20
174.97628999999989
 30
0.0
 40
3.0
 50
0.0
 51
88.0
  0
ARC
  5
8F7
  8
0
  6
CONTINUOUS
 62
     7
 10
-697.82677999999999
 20
381.88443000000001
 30
0.0
 40
4.0
 50
124.61365000000001
 51
187.86824999999999
  0
ARC
  5
8F8
  8
0
  6
CONTINUOUS
 62
     7
 10
-720.74370999999985
 20
379.54797000000002
 30
0.0
 40
2.0
 50
131.4096199999999
 51
180.00001
  0
ARC
  5
8F9
  8
0
  6
CONTINUOUS
 62
     7
 10
-711.74370999999996
 20
402.04797000000002
 30
0.0
 40
20.5
 50
304.61363999999992
 51
235.38634999999999
  0
ARC
  5
8FA
  8
0
  6
CONTINUOUS
 62
     7
 10
-711.74370999999996
 20
373.17565999999999
 30
0.0
 40
3.0
 50
280.0
 51
0.0
  0
ARC
  5
8FB
  8
0
  6
CONTINUOUS
 62
     7
 10
-719.74377000000004
 20
365.67252000000002
 30
0.0
 40
3.0
 50
100.0
 51
180.00001
  0
ARC
  5
8FC
  8
0
  6
CONTINUOUS
 62
     7
 10
-706.74370999999985
 20
379.16259999999988
 30
0.0
 40
2.0
 50
91.999998000000005
 51
180.00001
  0
ARC
  5
8FD
  8
0
  6
CONTINUOUS
 62
     7
 10
-770.09582999999986
 20
177.6309399999999
 30
0.0
 40
4.0
 50
31.072340999999991
 51
88.0
  0
ARC
  5
8FE
  8
0
  6
CONTINUOUS
 62
     7
 10
-813.20306000000005
 20
284.68038999999987
 30
0.0
 40
4.0
 50
272.0
 51
309.62979000000001
  0
ARC
  5
8FF
  8
0
  6
CONTINUOUS
 62
     7
 10
-772.65532999999982
 20
319.79315000000008
 30
0.0
 40
4.0
 50
272.0
 51
315.0
  0
ARC
  5
900
  8
0
  6
CONTINUOUS
 62
     7
 10
-763.24370999999985
 20
321.33600000000001
 30
0.0
 40
4.0
 50
91.999998000000005
 51
180.93198000000001
  0
ARC
  5
901
  8
0
  6
CONTINUOUS
 62
     7
 10
-763.24370999999985
 20
181.75992999999991
 30
0.0
 40
4.0
 50
211.07233999999991
 51
268.0
  0
ARC
  5
902
  8
0
  6
CONTINUOUS
 62
     7
 10
-805.24370999999985
 20
311.65084999999999
 30
0.0
 40
3.0
 50
91.999998000000005
 51
180.00001
  0
ARC
  5
903
  8
0
  6
CONTINUOUS
 62
     7
 10
-786.14068999999984
 20
266.54793999999998
 30
0.0
 40
3.0
 50
315.0
 51
90.000003000000007
  0
ARC
  5
904
  8
0
  6
CONTINUOUS
 62
     7
 10
-815.24370999999985
 20
171.60912999999991
 30
0.0
 40
4.0
 50
272.0
 51
0.0
  0
ARC
  5
905
  8
0
  6
CONTINUOUS
 62
     7
 10
-806.24377000000004
 20
202.05239999999989
 30
0.0
 40
5.0
 50
90.000003000000007
 51
180.00001
  0
ARC
  5
906
  8
0
  6
CONTINUOUS
 62
     7
 10
-807.24377000000004
 20
178.92821000000001
 30
0.0
 40
4.0
 50
88.0
 51
180.00001
  0
ARC
  5
907
  8
0
  6
CONTINUOUS
 62
     7
 10
-807.57152999999983
 20
284.87700999999993
 30
0.0
 40
4.0
 50
272.0
 51
315.0
  0
ARC
  5
908
  8
0
  6
CONTINUOUS
 62
     7
 10
-811.24377000000004
 20
285.00463999999999
 30
0.0
 40
3.0
 50
309.62979000000001
 51
0.0
  0
ARC
  5
909
  8
0
  6
CONTINUOUS
 62
     7
 10
-771.24267999999984
 20
321.20587
 30
0.0
 40
4.0
 50
315.0
 51
0.9319899799999999
  0
ARC
  5
90A
  8
0
  6
CONTINUOUS
 62
     3
 10
-867.74370999999985
 20
201.04818999999981
 30
0.0
 40
5.5
 50
84.784087999999983
 51
185.21596
  0
ARC
  5
90B
  8
0
  6
CONTINUOUS
 62
     7
 10
-943.97540000000004
 20
164.57052999999991
 30
0.0
 40
2.0
 50
188.6433899999999
 51
270.0
  0
ARC
  5
90C
  8
0
  6
CONTINUOUS
 62
     7
 10
-943.98876999999993
 20
166.41831999999999
 30
0.0
 40
2.0
 50
189.08497
 51
270.0
  0
ARC
  5
90D
  8
0
  6
CONTINUOUS
 62
     7
 10
-944.03734999999995
 20
169.2646899999998
 30
0.0
 40
2.0
 50
190.71569
 51
270.0
  0
ARC
  5
90E
  8
0
  6
CONTINUOUS
 62
     7
 10
-956.74370999999985
 20
173.29855000000001
 30
0.0
 40
0.5
 50
0.0
 51
90.000003000000007
  0
ARC
  5
90F
  8
0
  6
CONTINUOUS
 62
     7
 10
-956.74370999999985
 20
175.44485
 30
0.0
 40
0.5
 50
270.0
 51
0.0
  0
ARC
  5
910
  8
0
  6
CONTINUOUS
 62
     7
 10
-957.24377000000004
 20
178.04633000000001
 30
0.0
 40
1.0
 50
270.0
 51
0.0
  0
ARC
  5
911
  8
0
  6
CONTINUOUS
 62
     7
 10
-957.24377000000004
 20
182.56303
 30
0.0
 40
1.0
 50
270.0
 51
0.0
  0
ARC
  5
912
  8
0
  6
CONTINUOUS
 62
     7
 10
-960.24370999999985
 20
177.6725899999999
 30
0.0
 40
1.0
 50
179.99998999999991
 51
239.0334
  0
ARC
  5
913
  8
0
  6
CONTINUOUS
 62
     7
 10
-960.24370999999985
 20
178.70817999999991
 30
0.0
 40
1.0
 50
179.99998999999991
 51
242.07341
  0
ARC
  5
914
  8
0
  6
CONTINUOUS
 62
     7
 10
-960.24370999999985
 20
182.2745699999999
 30
0.0
 40
1.0
 50
179.99998999999991
 51
236.74527999999981
  0
ARC
  5
915
  8
0
  6
CONTINUOUS
 62
     7
 10
-960.24370999999985
 20
183.3077099999999
 30
0.0
 40
1.0
 50
179.99998999999991
 51
239.64048999999989
  0
ARC
  5
916
  8
0
  6
CONTINUOUS
 62
     7
 10
-958.97240999999974
 20
182.56303
 30
0.0
 40
1.0
 50
239.6405
 51
270.0
  0
ARC
  5
917
  8
0
  6
CONTINUOUS
 62
     7
 10
-958.94512999999995
 20
181.42302000000001
 30
0.0
 40
1.0
 50
236.74527
 51
270.0
  0
ARC
  5
918
  8
0
  6
CONTINUOUS
 62
     7
 10
-958.99505999999985
 20
178.04633000000001
 30
0.0
 40
1.0
 50
242.07339999999999
 51
270.0
  0
ARC
  5
919
  8
0
  6
CONTINUOUS
 62
     7
 10
-958.96666999999979
 20
176.9062999999999
 30
0.0
 40
1.0
 50
239.0334
 51
270.0
  0
ARC
  5
91A
  8
0
  6
CONTINUOUS
 62
     7
 10
-959.00445999999999
 20
175.9448899999999
 30
0.0
 40
1.0
 50
243.08874
 51
270.0
  0
ARC
  5
91B
  8
0
  6
CONTINUOUS
 62
     7
 10
-958.97551999999985
 20
174.7985699999999
 30
0.0
 40
1.0
 50
239.9736
 51
270.0
  0
ARC
  5
91C
  8
0
  6
CONTINUOUS
 62
     7
 10
-960.24370999999985
 20
176.57388
 30
0.0
 40
1.0
 50
179.99998999999991
 51
243.08874999999981
  0
ARC
  5
91D
  8
0
  6
CONTINUOUS
 62
     7
 10
-960.24370999999985
 20
175.53152
 30
0.0
 40
1.0
 50
179.99998999999991
 51
239.97361000000001
  0
ARC
  5
91E
  8
0
  6
CONTINUOUS
 62
     7
 10
-910.24370999999985
 20
166.41831999999999
 30
0.0
 40
2.0
 50
270.0
 51
0.0
  0
ARC
  5
91F
  8
0
  6
CONTINUOUS
 62
     7
 10
-910.24370999999985
 20
164.57052999999991
 30
0.0
 40
2.0
 50
270.0
 51
0.0
  0
ARC
  5
920
  8
0
  6
CONTINUOUS
 62
     7
 10
-847.11755000000005
 20
169.2646899999998
 30
0.0
 40
2.0
 50
270.0
 51
345.0
  0
ARC
  5
921
  8
0
  6
CONTINUOUS
 62
     7
 10
-910.24370999999985
 20
163.66003000000001
 30
0.0
 40
2.0
 50
270.0
 51
0.0
  0
ARC
  5
922
  8
0
  6
CONTINUOUS
 62
     7
 10
-943.95403999999996
 20
163.66003000000001
 30
0.0
 40
2.0
 50
187.9440399999998
 51
270.0
  0
ARC
  5
923
  8
0
  6
CONTINUOUS
 62
     7
 10
-839.59276999999975
 20
263.27096999999992
 30
0.0
 40
1.5
 50
195.00001
 51
270.0
  0
ARC
  5
924
  8
0
  6
CONTINUOUS
 62
     7
 10
-847.11755000000005
 20
277.83120999999988
 30
0.0
 40
2.0
 50
15.0
 51
90.000003000000007
  0
ARC
  5
925
  8
0
  6
CONTINUOUS
 62
     7
 10
-910.24370999999985
 20
283.43581999999998
 30
0.0
 40
2.0
 50
0.0
 51
90.000003000000007
  0
ARC
  5
926
  8
0
  6
CONTINUOUS
 62
     7
 10
-910.24370999999985
 20
282.52530000000002
 30
0.0
 40
2.0
 50
0.0
 51
90.000003000000007
  0
ARC
  5
927
  8
0
  6
CONTINUOUS
 62
     7
 10
-910.24370999999985
 20
280.67757999999998
 30
0.0
 40
2.0
 50
0.0
 51
90.000003000000007
  0
ARC
  5
928
  8
0
  6
CONTINUOUS
 62
     7
 10
-943.95403999999996
 20
283.43581999999998
 30
0.0
 40
2.0
 50
90.000003000000007
 51
172.05596
  0
ARC
  5
929
  8
0
  6
CONTINUOUS
 62
     7
 10
-943.97540000000004
 20
282.52530000000002
 30
0.0
 40
2.0
 50
90.000003000000007
 51
171.3566099999999
  0
ARC
  5
92A
  8
0
  6
CONTINUOUS
 62
     7
 10
-943.98876999999993
 20
280.67757999999998
 30
0.0
 40
2.0
 50
90.000003000000007
 51
170.91503
  0
ARC
  5
92B
  8
0
  6
CONTINUOUS
 62
     7
 10
-921.74370999999974
 20
260.27096999999992
 30
0.0
 40
1.5
 50
90.000003000000007
 51
180.00001
  0
ARC
  5
92C
  8
0
  6
CONTINUOUS
 62
     7
 10
-944.03734999999995
 20
277.83120999999988
 30
0.0
 40
2.0
 50
90.000003000000007
 51
169.28431
  0
ARC
  5
92D
  8
0
  6
CONTINUOUS
 62
     7
 10
-960.24370999999985
 20
183.3077099999999
 30
0.0
 40
1.0
 50
179.99998999999991
 51
239.64048999999989
  0
ARC
  5
92E
  8
0
  6
CONTINUOUS
 62
     7
 10
-957.24377000000004
 20
182.56303
 30
0.0
 40
1.0
 50
334.63675999999998
 51
0.0
  0
ARC
  5
92F
  8
0
  6
CONTINUOUS
 62
     7
 10
-945.56579999999974
 20
188.50279
 30
0.0
 40
1.6779174999999991
 50
90.000003000000007
 51
270.0
  0
ARC
  5
930
  8
0
  6
CONTINUOUS
 62
     7
 10
-945.78216999999995
 20
198.5232399999999
 30
0.0
 40
1.4615020000000001
 50
90.000003000000007
 51
270.0
  0
ARC
  5
931
  8
0
  6
CONTINUOUS
 62
     7
 10
-945.91278
 20
208.53537
 30
0.0
 40
1.330932599999999
 50
90.000003000000007
 51
270.0
  0
ARC
  5
932
  8
0
  6
CONTINUOUS
 62
     7
 10
-945.97484999999995
 20
218.54407
 30
0.0
 40
1.268920899999999
 50
90.000003000000007
 51
270.0
  0
ARC
  5
933
  8
0
  6
CONTINUOUS
 62
     7
 10
-945.97484999999995
 20
228.5517999999999
 30
0.0
 40
1.268920899999999
 50
90.000003000000007
 51
270.0
  0
ARC
  5
934
  8
0
  6
CONTINUOUS
 62
     7
 10
-945.91278
 20
238.56055000000001
 30
0.0
 40
1.330932599999999
 50
90.000003000000007
 51
270.0
  0
ARC
  5
935
  8
0
  6
CONTINUOUS
 62
     7
 10
-945.7822900000001
 20
248.57259999999999
 30
0.0
 40
1.4614868000000001
 50
90.000003000000007
 51
270.0
  0
ARC
  5
936
  8
0
  6
CONTINUOUS
 62
     7
 10
-944.69439999999997
 20
198.5479599999999
 30
0.0
 40
1.0
 50
90.000003000000007
 51
270.0
  0
ARC
  5
937
  8
0
  6
CONTINUOUS
 62
     7
 10
-944.69439999999997
 20
208.5479599999999
 30
0.0
 40
1.0
 50
90.000003000000007
 51
270.0
  0
ARC
  5
938
  8
0
  6
CONTINUOUS
 62
     7
 10
-944.69439999999997
 20
218.5479599999999
 30
0.0
 40
1.0
 50
90.000003000000007
 51
270.0
  0
ARC
  5
939
  8
0
  6
CONTINUOUS
 62
     7
 10
-944.69439999999997
 20
228.5479599999999
 30
0.0
 40
1.0
 50
90.000003000000007
 51
270.0
  0
ARC
  5
93A
  8
0
  6
CONTINUOUS
 62
     7
 10
-944.69439999999997
 20
238.54795999999999
 30
0.0
 40
1.0
 50
90.000003000000007
 51
270.0
  0
ARC
  5
93B
  8
0
  6
CONTINUOUS
 62
     7
 10
-944.69439999999997
 20
248.54795999999999
 30
0.0
 40
1.0
 50
90.000003000000007
 51
270.0
  0
ARC
  5
93C
  8
0
  6
CONTINUOUS
 62
     7
 10
-944.69439999999997
 20
258.54793999999998
 30
0.0
 40
1.0
 50
90.000003000000007
 51
270.0
  0
ARC
  5
93D
  8
0
  6
CONTINUOUS
 62
     7
 10
-945.56640999999991
 20
258.59304999999989
 30
0.0
 40
1.6779127
 50
90.000003000000007
 51
270.0
  0
ARC
  5
93E
  8
0
  6
CONTINUOUS
 62
     7
 10
-861.74370999999985
 20
252.04792999999981
 30
0.0
 40
1.5
 50
0.0
 51
90.000003000000007
  0
ARC
  5
93F
  8
0
  6
CONTINUOUS
 62
     7
 10
-861.74370999999985
 20
195.04796999999991
 30
0.0
 40
1.5
 50
270.0
 51
0.0
  0
ARC
  5
940
  8
0
  6
CONTINUOUS
 62
     7
 10
-957.24377000000004
 20
206.54794000000001
 30
0.0
 40
1.0
 50
0.0
 51
90.000003000000007
  0
ARC
  5
941
  8
0
  6
CONTINUOUS
 62
     7
 10
-957.24377000000004
 20
210.5479599999999
 30
0.0
 40
1.0
 50
270.0
 51
0.0
  0
ARC
  5
942
  8
0
  6
CONTINUOUS
 62
     7
 10
-957.24377000000004
 20
216.5479399999999
 30
0.0
 40
1.0
 50
0.0
 51
90.000003000000007
  0
ARC
  5
943
  8
0
  6
CONTINUOUS
 62
     7
 10
-957.24377000000004
 20
220.5479599999999
 30
0.0
 40
1.0
 50
270.0
 51
0.0
  0
ARC
  5
944
  8
0
  6
CONTINUOUS
 62
     7
 10
-960.24370999999985
 20
218.5479599999999
 30
0.0
 40
1.0
 50
90.000003000000007
 51
180.00001
  0
ARC
  5
945
  8
0
  6
CONTINUOUS
 62
     7
 10
-960.24370999999985
 20
218.5479599999999
 30
0.0
 40
1.0
 50
179.99998999999991
 51
270.0
  0
ARC
  5
946
  8
0
  6
CONTINUOUS
 62
     7
 10
-960.24370999999985
 20
208.5479599999999
 30
0.0
 40
1.0
 50
90.000003000000007
 51
180.00001
  0
ARC
  5
947
  8
0
  6
CONTINUOUS
 62
     7
 10
-960.24370999999985
 20
208.5479599999999
 30
0.0
 40
1.0
 50
179.99998999999991
 51
270.0
  0
ARC
  5
948
  8
0
  6
CONTINUOUS
 62
     7
 10
-960.24370999999985
 20
198.5479599999999
 30
0.0
 40
1.0
 50
90.000003000000007
 51
180.00001
  0
ARC
  5
949
  8
0
  6
CONTINUOUS
 62
     7
 10
-960.24370999999985
 20
198.5479599999999
 30
0.0
 40
1.0
 50
179.99998999999991
 51
270.0
  0
ARC
  5
94A
  8
0
  6
CONTINUOUS
 62
     7
 10
-960.24370999999985
 20
189.37323000000001
 30
0.0
 40
1.0
 50
179.99998999999991
 51
246.8729799999999
  0
ARC
  5
94B
  8
0
  6
CONTINUOUS
 62
     7
 10
-960.24370999999985
 20
191.15865999999991
 30
0.0
 40
1.0
 50
179.99998999999991
 51
252.90236999999999
  0
ARC
  5
94C
  8
0
  6
CONTINUOUS
 62
     7
 10
-959.0934400000001
 20
190.80481
 30
0.0
 40
1.0
 50
252.90236999999999
 51
270.0
  0
ARC
  5
94D
  8
0
  6
CONTINUOUS
 62
     7
 10
-959.03912000000003
 20
188.8587
 30
0.0
 40
1.0
 50
246.87297000000001
 51
270.0
  0
ARC
  5
94E
  8
0
  6
CONTINUOUS
 62
     7
 10
-956.94379000000004
 20
187.15871999999999
 30
0.0
 40
0.6999999900000004
 50
0.0
 51
90.000003000000007
  0
ARC
  5
94F
  8
0
  6
CONTINUOUS
 62
     7
 10
-957.24377000000004
 20
196.5479399999999
 30
0.0
 40
1.0
 50
0.0
 51
90.000003000000007
  0
ARC
  5
950
  8
0
  6
CONTINUOUS
 62
     7
 10
-957.24377000000004
 20
200.54795999999999
 30
0.0
 40
1.0
 50
270.0
 51
0.0
  0
ARC
  5
951
  8
0
  6
CONTINUOUS
 62
     7
 10
-957.24377000000004
 20
190.80481
 30
0.0
 40
1.0
 50
270.0
 51
0.0
  0
ARC
  5
952
  8
0
  6
CONTINUOUS
 62
     7
 10
-842.42169000000013
 20
188.50279
 30
0.0
 40
1.6779127
 50
270.0
 51
90.000003000000007
  0
ARC
  5
953
  8
0
  6
CONTINUOUS
 62
     7
 10
-845.89935000000003
 20
188.54795999999999
 30
0.0
 40
1.0
 50
270.0
 51
90.000003000000007
  0
ARC
  5
954
  8
0
  6
CONTINUOUS
 62
     7
 10
-845.89935000000003
 20
258.54793999999998
 30
0.0
 40
1.0
 50
270.0
 51
90.000003000000007
  0
ARC
  5
955
  8
0
  6
CONTINUOUS
 62
     7
 10
-842.42169000000013
 20
258.59304999999989
 30
0.0
 40
1.6779127
 50
270.0
 51
90.000003000000007
  0
ARC
  5
956
  8
0
  6
CONTINUOUS
 62
     7
 10
-858.94372999999985
 20
191.18071
 30
0.0
 40
1.0
 50
179.99998999999991
 51
270.0
  0
ARC
  5
957
  8
0
  6
CONTINUOUS
 62
     7
 10
-858.94372999999985
 20
255.91512
 30
0.0
 40
1.0
 50
90.000003000000007
 51
180.00001
  0
ARC
  5
958
  8
0
  6
CONTINUOUS
 62
     7
 10
-944.69439999999997
 20
188.54795999999999
 30
0.0
 40
1.0
 50
90.000003000000007
 51
270.0
  0
ARC
  5
959
  8
0
  6
CONTINUOUS
 62
     7
 10
-956.74370999999985
 20
273.79736000000003
 30
0.0
 40
0.5
 50
270.0
 51
0.0
  0
ARC
  5
95A
  8
0
  6
CONTINUOUS
 62
     7
 10
-956.74370999999985
 20
271.65105999999992
 30
0.0
 40
0.5
 50
0.0
 51
90.000003000000007
  0
ARC
  5
95B
  8
0
  6
CONTINUOUS
 62
     7
 10
-957.24377000000004
 20
269.04958999999991
 30
0.0
 40
1.0
 50
0.0
 51
90.000003000000007
  0
ARC
  5
95C
  8
0
  6
CONTINUOUS
 62
     7
 10
-956.94379000000004
 20
259.93718999999987
 30
0.0
 40
0.6999999900000004
 50
270.0
 51
0.0
  0
ARC
  5
95D
  8
0
  6
CONTINUOUS
 62
     7
 10
-957.24377000000004
 20
264.53286999999972
 30
0.0
 40
1.0
 50
0.0
 51
90.000003000000007
  0
ARC
  5
95E
  8
0
  6
CONTINUOUS
 62
     7
 10
-957.24377000000004
 20
256.29104999999998
 30
0.0
 40
1.0
 50
0.0
 51
90.000003000000007
  0
ARC
  5
95F
  8
0
  6
CONTINUOUS
 62
     7
 10
-957.24377000000004
 20
250.54795999999999
 30
0.0
 40
1.0
 50
270.0
 51
0.0
  0
ARC
  5
960
  8
0
  6
CONTINUOUS
 62
     7
 10
-957.24377000000004
 20
246.5479399999999
 30
0.0
 40
1.0
 50
0.0
 51
90.000003000000007
  0
ARC
  5
961
  8
0
  6
CONTINUOUS
 62
     7
 10
-957.24377000000004
 20
240.54795999999999
 30
0.0
 40
1.0
 50
270.0
 51
0.0
  0
ARC
  5
962
  8
0
  6
CONTINUOUS
 62
     7
 10
-957.24377000000004
 20
236.5479399999999
 30
0.0
 40
1.0
 50
0.0
 51
90.000003000000007
  0
ARC
  5
963
  8
0
  6
CONTINUOUS
 62
     7
 10
-957.24377000000004
 20
230.5479599999999
 30
0.0
 40
1.0
 50
270.0
 51
0.0
  0
ARC
  5
964
  8
0
  6
CONTINUOUS
 62
     7
 10
-957.24377000000004
 20
226.5479399999999
 30
0.0
 40
1.0
 50
0.0
 51
90.000003000000007
  0
ARC
  5
965
  8
0
  6
CONTINUOUS
 62
     7
 10
-960.24370999999985
 20
228.5479599999999
 30
0.0
 40
1.0
 50
179.99998999999991
 51
270.0
  0
ARC
  5
966
  8
0
  6
CONTINUOUS
 62
     7
 10
-960.24370999999985
 20
228.5479599999999
 30
0.0
 40
1.0
 50
90.000003000000007
 51
180.00001
  0
ARC
  5
967
  8
0
  6
CONTINUOUS
 62
     7
 10
-960.24370999999985
 20
238.54795999999999
 30
0.0
 40
1.0
 50
179.99998999999991
 51
270.0
  0
ARC
  5
968
  8
0
  6
CONTINUOUS
 62
     7
 10
-960.24370999999985
 20
238.54795999999999
 30
0.0
 40
1.0
 50
90.000003000000007
 51
180.00001
  0
ARC
  5
969
  8
0
  6
CONTINUOUS
 62
     7
 10
-960.24370999999985
 20
248.54795999999999
 30
0.0
 40
1.0
 50
179.99998999999991
 51
270.0
  0
ARC
  5
96A
  8
0
  6
CONTINUOUS
 62
     7
 10
-960.24370999999985
 20
248.54795999999999
 30
0.0
 40
1.0
 50
90.000003000000007
 51
180.00001
  0
ARC
  5
96B
  8
0
  6
CONTINUOUS
 62
     7
 10
-960.24370999999985
 20
257.72268999999972
 30
0.0
 40
1.0
 50
113.12703
 51
180.00001
  0
ARC
  5
96C
  8
0
  6
CONTINUOUS
 62
     7
 10
-960.24370999999985
 20
255.93723999999989
 30
0.0
 40
1.0
 50
107.0976299999999
 51
180.00001
  0
ARC
  5
96D
  8
0
  6
CONTINUOUS
 62
     7
 10
-959.0934400000001
 20
256.29104999999998
 30
0.0
 40
1.0
 50
90.000003000000007
 51
107.0976299999999
  0
ARC
  5
96E
  8
0
  6
CONTINUOUS
 62
     7
 10
-959.03912000000003
 20
258.23714999999987
 30
0.0
 40
1.0
 50
90.000003000000007
 51
113.12703
  0
ARC
  5
96F
  8
0
  6
CONTINUOUS
 62
     7
 10
-960.24370999999985
 20
269.42327999999992
 30
0.0
 40
1.0
 50
120.9666
 51
180.00001
  0
ARC
  5
970
  8
0
  6
CONTINUOUS
 62
     7
 10
-960.24370999999985
 20
268.38765999999998
 30
0.0
 40
1.0
 50
117.92659999999979
 51
180.00001
  0
ARC
  5
971
  8
0
  6
CONTINUOUS
 62
     7
 10
-960.24370999999985
 20
264.82125999999988
 30
0.0
 40
1.0
 50
123.25473
 51
180.00001
  0
ARC
  5
972
  8
0
  6
CONTINUOUS
 62
     7
 10
-960.24370999999985
 20
263.78820999999999
 30
0.0
 40
1.0
 50
120.3594999999999
 51
180.00001
  0
ARC
  5
973
  8
0
  6
CONTINUOUS
 62
     7
 10
-958.97240999999974
 20
264.53286999999972
 30
0.0
 40
1.0
 50
90.000003000000007
 51
120.3594999999999
  0
ARC
  5
974
  8
0
  6
CONTINUOUS
 62
     7
 10
-958.94512999999995
 20
265.67281999999972
 30
0.0
 40
1.0
 50
90.000003000000007
 51
123.25473
  0
ARC
  5
975
  8
0
  6
CONTINUOUS
 62
     7
 10
-958.99505999999985
 20
269.04958999999991
 30
0.0
 40
1.0
 50
90.000003000000007
 51
117.92659999999979
  0
ARC
  5
976
  8
0
  6
CONTINUOUS
 62
     7
 10
-958.96666999999979
 20
270.18957999999992
 30
0.0
 40
1.0
 50
90.000003000000007
 51
120.9666
  0
ARC
  5
977
  8
0
  6
CONTINUOUS
 62
     7
 10
-959.00445999999999
 20
271.15102999999999
 30
0.0
 40
1.0
 50
90.000003000000007
 51
116.91126
  0
ARC
  5
978
  8
0
  6
CONTINUOUS
 62
     7
 10
-958.97551999999985
 20
272.29732999999999
 30
0.0
 40
1.0
 50
90.000003000000007
 51
120.0264
  0
ARC
  5
979
  8
0
  6
CONTINUOUS
 62
     7
 10
-960.24370999999985
 20
270.52199999999999
 30
0.0
 40
1.0
 50
116.91126
 51
180.00001
  0
ARC
  5
97A
  8
0
  6
CONTINUOUS
 62
     7
 10
-960.24370999999985
 20
271.5643
 30
0.0
 40
1.0
 50
120.0264
 51
180.00001
  0
ARC
  5
97B
  8
0
  6
CONTINUOUS
 62
     3
 10
-912.74370999999985
 20
246.04772999999989
 30
0.0
 40
5.5
 50
264.78411999999992
 51
5.2159094000000001
  0
ARC
  5
97C
  8
0
  6
CONTINUOUS
 62
     3
 10
-926.51671999999996
 20
610.36626999999999
 30
0.0
 40
7.5
 50
179.99997999999991
 51
0.000010017913
  0
ARC
  5
97D
  8
0
  6
CONTINUOUS
 62
     3
 10
-926.51671999999996
 20
610.36626999999999
 30
0.0
 40
4.0
 50
179.99997999999991
 51
0.000010017912
  0
ARC
  5
97E
  8
0
  6
CONTINUOUS
 62
     7
 10
-839.59063999999989
 20
732.19903999999985
 30
0.0
 40
1.502775999999999
 50
194.75642999999991
 51
269.87757999999991
  0
ARC
  5
97F
  8
0
  6
CONTINUOUS
 62
     7
 10
-839.59063999999989
 20
731.28899999999999
 30
0.0
 40
1.502775999999999
 50
194.75642999999991
 51
269.87757999999991
  0
ARC
  5
980
  8
0
  6
CONTINUOUS
 62
     7
 10
-839.59063999999989
 20
729.43902999999989
 30
0.0
 40
1.502775999999999
 50
194.75642999999991
 51
269.87757999999991
  0
ARC
  5
981
  8
0
  6
CONTINUOUS
 62
     7
 10
-847.11870999999985
 20
746.75153
 30
0.0
 40
2.0047290000000002
 50
15.173496
 51
89.861677999999998
  0
ARC
  5
982
  8
0
  6
CONTINUOUS
 62
     7
 10
-847.11870999999985
 20
745.84149000000002
 30
0.0
 40
2.0047290000000002
 50
15.173496
 51
89.861677999999998
  0
ARC
  5
983
  8
0
  6
CONTINUOUS
 62
     7
 10
-847.11870999999985
 20
743.99152000000004
 30
0.0
 40
2.0047290000000002
 50
15.173496
 51
89.861677999999998
  0
ARC
  5
984
  8
0
  6
CONTINUOUS
 62
     7
 10
-839.59063999999989
 20
647.14349000000004
 30
0.0
 40
1.502775999999999
 50
90.122413000000037
 51
165.24357000000001
  0
ARC
  5
985
  8
0
  6
CONTINUOUS
 62
     7
 10
-960.25067000000013
 20
734.8842199999998
 30
0.0
 40
0.99319202
 50
119.77338
 51
179.87958999999981
  0
ARC
  5
986
  8
0
  6
CONTINUOUS
 62
     7
 10
-960.24829
 20
733.84600999999975
 30
0.0
 40
0.995579
 50
116.5870899999999
 51
179.98264
  0
ARC
  5
987
  8
0
  6
CONTINUOUS
 62
     7
 10
-958.98181
 20
735.62041999999985
 30
0.0
 40
0.9959030199999999
 50
89.541267000000005
 51
119.60717
  0
ARC
  5
988
  8
0
  6
CONTINUOUS
 62
     7
 10
-959.01904000000002
 20
734.47222999999985
 30
0.0
 40
0.99411702
 50
89.122643999999966
 51
115.93498
  0
ARC
  5
989
  8
0
  6
CONTINUOUS
 62
     7
 10
-958.97503999999992
 20
733.51202000000001
 30
0.0
 40
0.99427301
 50
89.356065999999984
 51
120.78091000000001
  0
ARC
  5
98A
  8
0
  6
CONTINUOUS
 62
     7
 10
-959.00878999999998
 20
732.37090999999998
 30
0.0
 40
0.99545902
 50
89.141291000000024
 51
117.20381999999999
  0
ARC
  5
98B
  8
0
  6
CONTINUOUS
 62
     7
 10
-958.93718999999987
 20
729.00005999999985
 30
0.0
 40
0.99617702
 50
90.381317999999979
 51
123.9704899999999
  0
ARC
  5
98C
  8
0
  6
CONTINUOUS
 62
     7
 10
-958.96441999999979
 20
727.85979999999984
 30
0.0
 40
0.99648702
 50
90.540720999999976
 51
120.74377
  0
ARC
  5
98D
  8
0
  6
CONTINUOUS
 62
     7
 10
-960.24981999999989
 20
727.10943999999984
 30
0.0
 40
0.99404597
 50
120.4682
 51
180.18563999999989
  0
ARC
  5
98E
  8
0
  6
CONTINUOUS
 62
     7
 10
-960.24901999999997
 20
728.14386000000002
 30
0.0
 40
0.9948369899999999
 50
123.20496
 51
180.4378599999998
  0
ARC
  5
98F
  8
0
  6
CONTINUOUS
 62
     7
 10
-960.25061000000005
 20
731.70770000000005
 30
0.0
 40
0.9932109699999999
 50
117.7993199999999
 51
180.08187000000001
  0
ARC
  5
990
  8
0
  6
CONTINUOUS
 62
     7
 10
-960.24938999999983
 20
732.74530000000004
 30
0.0
 40
0.9944329899999999
 50
121.15213
 51
179.9405099999999
  0
ARC
  5
991
  8
0
  6
CONTINUOUS
 62
     7
 10
-959.04284999999993
 20
721.56084999999985
 30
0.0
 40
0.9954450099999999
 50
90.056905000000043
 51
113.1274499999999
  0
ARC
  5
992
  8
0
  6
CONTINUOUS
 62
     7
 10
-959.10468000000003
 20
719.61359000000004
 30
0.0
 40
0.9927430199999999
 50
89.374555000000001
 51
106.33207
  0
ARC
  5
993
  8
0
  6
CONTINUOUS
 62
     7
 10
-960.24756000000002
 20
719.26202000000001
 30
0.0
 40
0.9962710099999999
 50
106.69792
 51
180.3300499999998
  0
ARC
  5
994
  8
0
  6
CONTINUOUS
 62
     7
 10
-960.24743999999998
 20
721.04778999999985
 30
0.0
 40
0.9963999999999998
 50
112.81735999999979
 51
180.09041999999991
  0
ARC
  5
995
  8
0
  6
CONTINUOUS
 62
     7
 10
-960.24878000000024
 20
711.87114999999994
 30
0.0
 40
0.99507803
 50
89.715886999999981
 51
180.28411
  0
ARC
  5
996
  8
0
  6
CONTINUOUS
 62
     7
 10
-960.24364999999989
 20
711.86652000000004
 30
0.0
 40
1.000203
 50
180.01165
 51
269.98835000000003
  0
ARC
  5
997
  8
0
  6
CONTINUOUS
 62
     7
 10
-960.24878000000024
 20
701.87114999999994
 30
0.0
 40
0.99508202
 50
89.716099
 51
180.28390999999991
  0
ARC
  5
998
  8
0
  6
CONTINUOUS
 62
     7
 10
-960.24364999999989
 20
701.86652000000004
 30
0.0
 40
1.0001999999999991
 50
180.0114299999999
 51
269.98856999999992
  0
ARC
  5
999
  8
0
  6
CONTINUOUS
 62
     7
 10
-960.24878000000024
 20
691.87114999999994
 30
0.0
 40
0.9950849999999999
 50
89.716311000000005
 51
180.28368999999981
  0
ARC
  5
99A
  8
0
  6
CONTINUOUS
 62
     7
 10
-960.24364999999989
 20
691.86652000000004
 30
0.0
 40
1.0001959999999981
 50
180.01122000000001
 51
269.98877999999991
  0
ARC
  5
99B
  8
0
  6
CONTINUOUS
 62
     7
 10
-957.24365
 20
689.86639000000002
 30
0.0
 40
0.9998249999999999
 50
359.98995000000002
 51
90.010050000000007
  0
ARC
  5
99C
  8
0
  6
CONTINUOUS
 62
     7
 10
-957.24878000000012
 20
693.87114999999994
 30
0.0
 40
1.0049469
 50
270.28134999999992
 51
359.71866
  0
ARC
  5
99D
  8
0
  6
CONTINUOUS
 62
     7
 10
-957.24365
 20
699.86639000000002
 30
0.0
 40
0.9998210099999999
 50
359.98975000000002
 51
90.010255000000001
  0
ARC
  5
99E
  8
0
  6
CONTINUOUS
 62
     7
 10
-957.24878000000012
 20
703.87114999999994
 30
0.0
 40
1.004939
 50
270.28091000000001
 51
359.71910000000008
  0
ARC
  5
99F
  8
0
  6
CONTINUOUS
 62
     7
 10
-957.24365
 20
709.86639000000002
 30
0.0
 40
0.9998289899999999
 50
359.99018999999993
 51
90.009810999999985
  0
ARC
  5
9A0
  8
0
  6
CONTINUOUS
 62
     7
 10
-957.24878000000012
 20
713.87114999999994
 30
0.0
 40
1.004942999999999
 50
270.28111000000001
 51
359.71888999999987
  0
ARC
  5
9A1
  8
0
  6
CONTINUOUS
 62
     7
 10
-957.24212999999997
 20
719.60797000000002
 30
0.0
 40
0.9982839799999999
 50
359.90141999999992
 51
90.098575999999994
  0
ARC
  5
9A2
  8
0
  6
CONTINUOUS
 62
     7
 10
-957.24621999999965
 20
727.85393999999985
 30
0.0
 40
1.002353
 50
0.13432682
 51
89.865673000000001
  0
ARC
  5
9A3
  8
0
  6
CONTINUOUS
 62
     7
 10
-956.94843000000003
 20
723.2607999999999
 30
0.0
 40
0.704566
 50
270.37009999999992
 51
359.62990999999982
  0
ARC
  5
9A4
  8
0
  6
CONTINUOUS
 62
     7
 10
-957.24285999999995
 20
732.36725000000001
 30
0.0
 40
0.9990100299999999
 50
359.94319000000002
 51
90.056808999999959
  0
ARC
  5
9A5
  8
0
  6
CONTINUOUS
 62
     7
 10
-956.74213000000032
 20
734.96795999999983
 30
0.0
 40
0.4983060100000002
 50
359.80489
 51
90.195107000000007
  0
ARC
  5
9A6
  8
0
  6
CONTINUOUS
 62
     7
 10
-956.74846999999988
 20
737.12090999999964
 30
0.0
 40
0.50463498
 50
270.52382999999992
 51
359.47617000000002
  0
ARC
  5
9A7
  8
0
  6
CONTINUOUS
 62
     7
 10
-944.69921999999997
 20
651.86626999999999
 30
0.0
 40
1.000013899999999
 50
89.691659999999985
 51
270.30833999999999
  0
ARC
  5
9A8
  8
0
  6
CONTINUOUS
 62
     7
 10
-842.42382999999984
 20
721.91132000000005
 30
0.0
 40
1.6750020000000001
 50
269.99998999999991
 51
90.000003000000007
  0
ARC
  5
9A9
  8
0
  6
CONTINUOUS
 62
     7
 10
-845.90386999999976
 20
721.86626999999999
 30
0.0
 40
1.0
 50
269.99998999999991
 51
90.000003000000007
  0
ARC
  5
9AA
  8
0
  6
CONTINUOUS
 62
     7
 10
-845.90386999999976
 20
651.86626999999999
 30
0.0
 40
1.0
 50
269.99998999999991
 51
90.000003000000007
  0
ARC
  5
9AB
  8
0
  6
CONTINUOUS
 62
     7
 10
-842.42382999999984
 20
651.82123000000001
 30
0.0
 40
1.6750020000000001
 50
269.99998999999991
 51
90.000003000000007
  0
ARC
  5
9AC
  8
0
  6
CONTINUOUS
 62
     7
 10
-957.24719000000005
 20
654.12958000000003
 30
0.0
 40
1.003352
 50
270.19110999999992
 51
359.80889999999982
  0
ARC
  5
9AD
  8
0
  6
CONTINUOUS
 62
     7
 10
-957.24878000000012
 20
663.87114999999994
 30
0.0
 40
1.0049469
 50
270.28136999999992
 51
359.71863000000002
  0
ARC
  5
9AE
  8
0
  6
CONTINUOUS
 62
     7
 10
-957.24365
 20
659.86639000000002
 30
0.0
 40
0.9998239899999999
 50
359.98991999999993
 51
90.010076999999981
  0
ARC
  5
9AF
  8
0
  6
CONTINUOUS
 62
     7
 10
-956.94330000000002
 20
650.47686999999985
 30
0.0
 40
0.6994530000000001
 50
359.95517000000001
 51
90.044829000000021
  0
ARC
  5
9B0
  8
0
  6
CONTINUOUS
 62
     7
 10
-959.04082999999991
 20
652.1814599999999
 30
0.0
 40
1.005233
 50
246.98638999999989
 51
269.82924999999989
  0
ARC
  5
9B1
  8
0
  6
CONTINUOUS
 62
     7
 10
-959.10333000000014
 20
654.12896999999998
 30
0.0
 40
1.002699
 50
253.7527199999999
 51
270.54064
  0
ARC
  5
9B2
  8
0
  6
CONTINUOUS
 62
     7
 10
-960.24743999999998
 20
654.48064999999986
 30
0.0
 40
0.99638802
 50
180.24991
 51
253.29664
  0
ARC
  5
9B3
  8
0
  6
CONTINUOUS
 62
     7
 10
-960.24730999999986
 20
652.69475999999975
 30
0.0
 40
0.9965090199999998
 50
179.91374999999999
 51
247.17845
  0
ARC
  5
9B4
  8
0
  6
CONTINUOUS
 62
     7
 10
-960.24364999999989
 20
661.86652000000004
 30
0.0
 40
1.0001959999999981
 50
180.01124999999999
 51
269.98874999999992
  0
ARC
  5
9B5
  8
0
  6
CONTINUOUS
 62
     7
 10
-960.24878000000024
 20
661.87114999999994
 30
0.0
 40
0.9950849999999999
 50
89.716282999999976
 51
180.2837199999999
  0
ARC
  5
9B6
  8
0
  6
CONTINUOUS
 62
     7
 10
-960.24364999999989
 20
671.86652000000004
 30
0.0
 40
1.0001999999999991
 50
180.01146
 51
269.98853999999972
  0
ARC
  5
9B7
  8
0
  6
CONTINUOUS
 62
     7
 10
-960.24878000000024
 20
671.87114999999994
 30
0.0
 40
0.9950810099999999
 50
89.716071999999997
 51
180.28391999999999
  0
ARC
  5
9B8
  8
0
  6
CONTINUOUS
 62
     7
 10
-960.24364999999989
 20
681.86652000000004
 30
0.0
 40
1.0002040000000001
 50
180.01166000000001
 51
269.9883200000001
  0
ARC
  5
9B9
  8
0
  6
CONTINUOUS
 62
     7
 10
-960.24878000000024
 20
681.87114999999994
 30
0.0
 40
0.9950770099999999
 50
89.715860000000006
 51
180.28413999999989
  0
ARC
  5
9BA
  8
0
  6
CONTINUOUS
 62
     7
 10
-957.24878000000012
 20
683.87114999999994
 30
0.0
 40
1.004942999999999
 50
270.28113999999988
 51
359.71886999999992
  0
ARC
  5
9BB
  8
0
  6
CONTINUOUS
 62
     7
 10
-957.24365
 20
679.86639000000002
 30
0.0
 40
0.9998279799999998
 50
359.99015999999978
 51
90.009838000000002
  0
ARC
  5
9BC
  8
0
  6
CONTINUOUS
 62
     7
 10
-957.24878000000012
 20
673.87114999999994
 30
0.0
 40
1.004939
 50
270.28093999999999
 51
359.71906999999999
  0
ARC
  5
9BD
  8
0
  6
CONTINUOUS
 62
     7
 10
-957.24365
 20
669.86639000000002
 30
0.0
 40
0.9998210099999999
 50
359.98971999999998
 51
90.010281999999961
  0
ARC
  5
9BE
  8
0
  6
CONTINUOUS
 62
     7
 10
-945.57129000000009
 20
721.91132000000005
 30
0.0
 40
1.6750160000000001
 50
89.746144999999984
 51
270.25387000000001
  0
ARC
  5
9BF
  8
0
  6
CONTINUOUS
 62
     7
 10
-944.69921999999997
 20
721.86626999999999
 30
0.0
 40
1.000013899999999
 50
89.691659999999985
 51
270.30833999999999
  0
ARC
  5
9C0
  8
0
  6
CONTINUOUS
 62
     7
 10
-944.69921999999997
 20
711.86626999999964
 30
0.0
 40
1.000013899999999
 50
89.691659999999985
 51
270.30833999999999
  0
ARC
  5
9C1
  8
0
  6
CONTINUOUS
 62
     7
 10
-944.69921999999997
 20
701.86626999999999
 30
0.0
 40
1.000013899999999
 50
89.691659999999985
 51
270.30833999999999
  0
ARC
  5
9C2
  8
0
  6
CONTINUOUS
 62
     7
 10
-944.69921999999997
 20
691.86626999999964
 30
0.0
 40
1.000013899999999
 50
89.691659999999985
 51
270.30833999999999
  0
ARC
  5
9C3
  8
0
  6
CONTINUOUS
 62
     7
 10
-944.69921999999997
 20
681.86626999999987
 30
0.0
 40
1.000013899999999
 50
89.691659999999985
 51
270.30833999999999
  0
ARC
  5
9C4
  8
0
  6
CONTINUOUS
 62
     7
 10
-944.69921999999997
 20
671.86626999999999
 30
0.0
 40
1.000013899999999
 50
89.691659999999985
 51
270.30833999999999
  0
ARC
  5
9C5
  8
0
  6
CONTINUOUS
 62
     7
 10
-944.69921999999997
 20
661.86626999999976
 30
0.0
 40
1.000013899999999
 50
89.691659999999985
 51
270.30833999999999
  0
ARC
  5
9C6
  8
0
  6
CONTINUOUS
 62
     7
 10
-945.78386999999975
 20
711.8913
 30
0.0
 40
1.465004
 50
90.000003000000007
 51
270.0
  0
ARC
  5
9C7
  8
0
  6
CONTINUOUS
 62
     7
 10
-945.91381999999965
 20
701.87627999999995
 30
0.0
 40
1.3300049999999981
 50
90.000003000000007
 51
270.0
  0
ARC
  5
9C8
  8
0
  6
CONTINUOUS
 62
     7
 10
-945.97968000000014
 20
691.87127999999996
 30
0.0
 40
1.2650129999999991
 50
89.735579000000016
 51
270.26441
  0
ARC
  5
9C9
  8
0
  6
CONTINUOUS
 62
     7
 10
-945.97968000000014
 20
681.86626999999987
 30
0.0
 40
1.2700129999999981
 50
89.736616999999995
 51
270.26337000000001
  0
ARC
  5
9CA
  8
0
  6
CONTINUOUS
 62
     7
 10
-945.91381999999965
 20
671.85625999999979
 30
0.0
 40
1.3300049999999981
 50
90.000003000000007
 51
270.0
  0
ARC
  5
9CB
  8
0
  6
CONTINUOUS
 62
     7
 10
-945.78386999999975
 20
661.84124999999995
 30
0.0
 40
1.465004
 50
90.000003000000007
 51
270.0
  0
ARC
  5
9CC
  8
0
  6
CONTINUOUS
 62
     7
 10
-945.57067999999992
 20
651.82123000000001
 30
0.0
 40
1.675014
 50
89.766498999999982
 51
270.23351000000002
  0
ARC
  5
9CD
  8
0
  6
CONTINUOUS
 62
     7
 10
-957.24712999999997
 20
645.89300999999989
 30
0.0
 40
1.0032760000000001
 50
334.19810000000001
 51
359.61810999999977
  0
ARC
  5
9CE
  8
0
  6
CONTINUOUS
 62
     7
 10
-960.24536000000001
 20
646.62554999999986
 30
0.0
 40
0.9984580299999999
 50
179.9595799999999
 51
239.38657000000001
  0
ARC
  5
9CF
  8
0
  6
CONTINUOUS
 62
     7
 10
-944.04516999999964
 20
741.15215999999998
 30
0.0
 40
1.994108999999999
 50
89.675548000000006
 51
169.18777
  0
ARC
  5
9D0
  8
0
  6
CONTINUOUS
 62
     7
 10
-943.99364999999989
 20
744.00103999999999
 30
0.0
 40
1.995282999999997
 50
90.006203999999983
 51
170.90835000000001
  0
ARC
  5
9D1
  8
0
  6
CONTINUOUS
 62
     7
 10
-943.97931000000005
 20
745.84955000000002
 30
0.0
 40
1.9967330000000001
 50
89.843967000000006
 51
171.45387999999991
  0
ARC
  5
9D2
  8
0
  6
CONTINUOUS
 62
     7
 10
-943.95734000000004
 20
746.76067999999964
 30
0.0
 40
1.995633
 50
89.899708000000004
 51
172.06112999999991
  0
ARC
  5
9D3
  8
0
  6
CONTINUOUS
 62
     7
 10
-847.11376999999982
 20
741.14801
 30
0.0
 40
1.9982919999999991
 50
15.032547999999981
 51
90.002631999999977
  0
ARC
  5
9D4
  8
0
  6
CONTINUOUS
 62
     7
 10
-839.59063999999989
 20
726.58905000000004
 30
0.0
 40
1.502775999999999
 50
194.75642999999991
 51
269.87757999999991
  0
ARC
  5
9D5
  8
0
  6
CONTINUOUS
 62
     7
 10
-847.11870999999985
 20
632.59100000000001
 30
0.0
 40
2.0047290000000002
 50
270.13832000000002
 51
344.82650000000001
  0
ARC
  5
9D6
  8
0
  6
CONTINUOUS
 62
     7
 10
-960.24621999999988
 20
638.85089000000005
 30
0.0
 40
0.9976310099999999
 50
180.26780999999991
 51
240.07924
  0
ARC
  5
9D7
  8
0
  6
CONTINUOUS
 62
     7
 10
-960.24816999999996
 20
639.89666999999986
 30
0.0
 40
0.9956849800000001
 50
180.02112999999991
 51
243.40913999999981
  0
ARC
  5
9D8
  8
0
  6
CONTINUOUS
 62
     7
 10
-958.96312999999998
 20
638.11737000000005
 30
0.0
 40
1.001123999999999
 50
239.32782000000009
 51
269.38767999999988
  0
ARC
  5
9D9
  8
0
  6
CONTINUOUS
 62
     7
 10
-958.99798999999985
 20
639.26556000000016
 30
0.0
 40
0.9993420200000001
 50
242.86199999999999
 51
269.66546
  0
ARC
  5
9DA
  8
0
  6
CONTINUOUS
 62
     7
 10
-958.97247000000004
 20
640.22991999999977
 30
0.0
 40
1.0037439999999991
 50
239.37112999999999
 51
270.49189999999987
  0
ARC
  5
9DB
  8
0
  6
CONTINUOUS
 62
     7
 10
-958.98865000000001
 20
641.36688000000004
 30
0.0
 40
1.0006820000000001
 50
241.65062
 51
269.7039299999999
  0
ARC
  5
9DC
  8
0
  6
CONTINUOUS
 62
     7
 10
-958.95105000000012
 20
644.74676999999986
 30
0.0
 40
1.000521999999999
 50
237.14617999999999
 51
270.41343999999998
  0
ARC
  5
9DD
  8
0
  6
CONTINUOUS
 62
     7
 10
-958.98046999999997
 20
645.88726999999994
 30
0.0
 40
1.0010449999999991
 50
240.47187
 51
270.37970999999999
  0
ARC
  5
9DE
  8
0
  6
CONTINUOUS
 62
     7
 10
-960.24536000000001
 20
646.62554999999986
 30
0.0
 40
0.9984580299999999
 50
179.9595799999999
 51
239.38657000000001
  0
ARC
  5
9DF
  8
0
  6
CONTINUOUS
 62
     7
 10
-960.24474999999995
 20
645.59100000000001
 30
0.0
 40
0.9990889999999998
 50
179.69508999999991
 51
236.66209000000001
  0
ARC
  5
9E0
  8
0
  6
CONTINUOUS
 62
     7
 10
-960.24614999999994
 20
642.02752999999996
 30
0.0
 40
0.9977070099999998
 50
180.0740199999999
 51
242.04481000000001
  0
ARC
  5
9E1
  8
0
  6
CONTINUOUS
 62
     7
 10
-960.24505999999985
 20
640.98980999999981
 30
0.0
 40
0.9987969999999998
 50
179.62728000000001
 51
238.70795000000001
  0
ARC
  5
9E2
  8
0
  6
CONTINUOUS
 62
     7
 10
-957.24634000000003
 20
645.88873000000001
 30
0.0
 40
1.002470999999999
 50
270.14107000000001
 51
359.85892999999987
  0
ARC
  5
9E3
  8
0
  6
CONTINUOUS
 62
     7
 10
-957.24798999999985
 20
641.37041999999985
 30
0.0
 40
1.004119999999999
 50
270.23460999999992
 51
359.76538999999991
  0
ARC
  5
9E4
  8
0
  6
CONTINUOUS
 62
     7
 10
-956.74725000000001
 20
638.76970999999958
 30
0.0
 40
0.5033929900000002
 50
270.38490999999982
 51
359.61509999999993
  0
ARC
  5
9E5
  8
0
  6
CONTINUOUS
 62
     7
 10
-956.74334999999985
 20
636.61675999999977
 30
0.0
 40
0.49952301
 50
359.94522999999992
 51
90.054773999999981
  0
ARC
  5
9E6
  8
0
  6
CONTINUOUS
 62
     7
 10
-944.03899999999999
 20
632.58551
 30
0.0
 40
1.9992490000000001
 50
190.64309999999981
 51
270.14742999999999
  0
ARC
  5
9E7
  8
0
  6
CONTINUOUS
 62
     7
 10
-943.98766999999987
 20
629.73662999999999
 30
0.0
 40
2.000420099999999
 50
188.92681999999991
 51
269.82270999999992
  0
ARC
  5
9E8
  8
0
  6
CONTINUOUS
 62
     7
 10
-858.73021999999958
 20
622.86626999999999
 30
0.0
 40
1.5
 50
90.000003000000007
 51
178.5
  0
ARC
  5
9E9
  8
0
  6
CONTINUOUS
 62
     3
 10
-847.22766000000001
 20
625.86626999999999
 30
0.0
 40
1.5
 50
269.99998999999991
 51
327.0
  0
ARC
  5
9EA
  8
0
  6
CONTINUOUS
 62
     7
 10
-944.25725999999997
 20
629.73626999999976
 30
0.0
 40
2.0
 50
188.6296199999999
 51
269.99998999999991
  0
ARC
  5
9EB
  8
0
  6
CONTINUOUS
 62
     7
 10
-944.33759000000032
 20
629.73626999999976
 30
0.0
 40
2.0
 50
187.9504399999999
 51
269.99998999999991
  0
ARC
  5
9EC
  8
0
  6
CONTINUOUS
 62
     7
 10
-921.84569999999985
 20
626.23626999999965
 30
0.0
 40
1.5
 50
1.500002699999998
 51
90.000003000000007
  0
ARC
  5
9ED
  8
0
  6
CONTINUOUS
 62
     7
 10
-910.80511000000001
 20
701.86626999999999
 30
0.0
 40
1.0000056999999991
 50
269.99998999999991
 51
90.000003000000007
  0
ARC
  5
9EE
  8
0
  6
CONTINUOUS
 62
     7
 10
-910.80511000000001
 20
691.86626999999964
 30
0.0
 40
1.0000056999999991
 50
269.99998999999991
 51
90.000003000000007
  0
ARC
  5
9EF
  8
0
  6
CONTINUOUS
 62
     7
 10
-910.80511000000001
 20
681.86626999999987
 30
0.0
 40
1.0000056999999991
 50
269.99998999999991
 51
90.000003000000007
  0
ARC
  5
9F0
  8
0
  6
CONTINUOUS
 62
     7
 10
-910.80511000000001
 20
671.86626999999999
 30
0.0
 40
1.0000056999999991
 50
269.99998999999991
 51
90.000003000000007
  0
ARC
  5
9F1
  8
0
  6
CONTINUOUS
 62
     7
 10
-860.24383999999998
 20
654.36626999999964
 30
0.0
 40
1.5
 50
179.99998999999991
 51
270.0
  0
ARC
  5
9F2
  8
0
  6
CONTINUOUS
 62
     7
 10
-878.24384000000009
 20
654.36626999999964
 30
0.0
 40
1.5
 50
269.99998999999991
 51
0.00000068324733
  0
ARC
  5
9F3
  8
0
  6
CONTINUOUS
 62
     7
 10
-878.22382000000005
 20
654.50629000000004
 30
0.0
 40
1.0
 50
269.99998999999991
 51
0.00000068324299
  0
ARC
  5
9F4
  8
0
  6
CONTINUOUS
 62
     7
 10
-860.26385000000005
 20
654.50629000000004
 30
0.0
 40
1.0
 50
179.99998999999991
 51
270.0
  0
CIRCLE
  5
9F5
  8
0
  6
CONTINUOUS
 62
     3
 10
-871.74383999999998
 20
715.36626999999987
 30
0.0
 40
1.1000000000000001
  0
CIRCLE
  5
9F6
  8
0
  6
CONTINUOUS
 62
     3
 10
-871.74383999999998
 20
715.36626999999987
 30
0.0
 40
1.149999999999999
  0
CIRCLE
  5
9F7
  8
0
  6
CONTINUOUS
 62
     3
 10
-866.74384000000009
 20
715.36626999999987
 30
0.0
 40
1.0
  0
ARC
  5
9F8
  8
0
  6
CONTINUOUS
 62
     7
 10
-878.24384000000009
 20
714.36626999999999
 30
0.0
 40
1.02
 50
269.99998999999991
 51
0.00000068324403
  0
ARC
  5
9F9
  8
0
  6
CONTINUOUS
 62
     7
 10
-860.24383999999998
 20
714.36626999999999
 30
0.0
 40
1.02
 50
179.99998999999991
 51
270.0
  0
ARC
  5
9FA
  8
0
  6
CONTINUOUS
 62
     7
 10
-878.24384000000009
 20
714.36626999999999
 30
0.0
 40
1.5
 50
269.99998999999991
 51
0.00000068324733
  0
ARC
  5
9FB
  8
0
  6
CONTINUOUS
 62
     7
 10
-860.24383999999998
 20
714.36626999999999
 30
0.0
 40
1.5
 50
179.99998999999991
 51
270.0
  0
CIRCLE
  5
9FC
  8
0
  6
CONTINUOUS
 62
     3
 10
-866.74384000000009
 20
658.36626999999964
 30
0.0
 40
1.0
  0
CIRCLE
  5
9FD
  8
0
  6
CONTINUOUS
 62
     3
 10
-871.74383999999998
 20
658.36626999999964
 30
0.0
 40
1.149999999999999
  0
CIRCLE
  5
9FE
  8
0
  6
CONTINUOUS
 62
     3
 10
-871.74383999999998
 20
658.36626999999964
 30
0.0
 40
1.1000000000000001
  0
ARC
  5
9FF
  8
0
  6
CONTINUOUS
 62
     7
 10
-878.24384000000009
 20
659.36626999999999
 30
0.0
 40
1.02
 50
0.0
 51
90.000003000000007
  0
ARC
  5
A00
  8
0
  6
CONTINUOUS
 62
     7
 10
-860.24383999999998
 20
659.36626999999999
 30
0.0
 40
1.02
 50
90.000003000000007
 51
180.00001
  0
ARC
  5
A01
  8
0
  6
CONTINUOUS
 62
     7
 10
-878.24384000000009
 20
659.36626999999999
 30
0.0
 40
1.5
 50
0.0
 51
90.000003000000007
  0
ARC
  5
A02
  8
0
  6
CONTINUOUS
 62
     7
 10
-860.24383999999998
 20
659.36626999999999
 30
0.0
 40
1.5
 50
90.000003000000007
 51
180.00001
  0
ARC
  5
A03
  8
0
  6
CONTINUOUS
 62
     7
 10
-909.57885999999996
 20
671.85625999999979
 30
0.0
 40
1.3300148000000001
 50
269.72941999999989
 51
90.270567000000014
  0
ARC
  5
A04
  8
0
  6
CONTINUOUS
 62
     7
 10
-909.51691000000005
 20
681.86626999999987
 30
0.0
 40
1.2700266
 50
269.62931999999989
 51
90.370669999999961
  0
ARC
  5
A05
  8
0
  6
CONTINUOUS
 62
     7
 10
-909.51691000000005
 20
691.87627999999995
 30
0.0
 40
1.2700266
 50
269.62931999999989
 51
90.370669999999961
  0
ARC
  5
A06
  8
0
  6
CONTINUOUS
 62
     7
 10
-909.57885999999996
 20
701.88129000000004
 30
0.0
 40
1.3350147999999991
 50
269.73043000000001
 51
90.269555999999994
  0
ARC
  5
A07
  8
0
  6
CONTINUOUS
 62
     7
 10
-845.90386999999976
 20
711.86626999999964
 30
0.0
 40
1.0000255999999981
 50
269.58947000000001
 51
90.410531000000006
  0
ARC
  5
A08
  8
0
  6
CONTINUOUS
 62
     7
 10
-842.20385999999985
 20
711.89629999999988
 30
0.0
 40
1.460011199999999
 50
269.77525000000003
 51
90.224749999999986
  0
ARC
  5
A09
  8
0
  6
CONTINUOUS
 62
     7
 10
-845.90386999999976
 20
661.86626999999976
 30
0.0
 40
1.0000255999999981
 50
269.58947000000001
 51
90.410531000000006
  0
ARC
  5
A0A
  8
0
  6
CONTINUOUS
 62
     7
 10
-842.20385999999985
 20
661.8362400000002
 30
0.0
 40
1.460011199999999
 50
269.77525000000003
 51
90.224749999999986
  0
ARC
  5
A0B
  8
0
  6
CONTINUOUS
 62
     7
 10
-860.26385000000005
 20
719.22625999999957
 30
0.0
 40
1.0
 50
90.000003000000007
 51
180.00001
  0
ARC
  5
A0C
  8
0
  6
CONTINUOUS
 62
     7
 10
-860.24383999999998
 20
719.36626999999987
 30
0.0
 40
1.5
 50
90.000003000000007
 51
180.00001
  0
ARC
  5
A0D
  8
0
  6
CONTINUOUS
 62
     7
 10
-878.24384000000009
 20
719.36626999999987
 30
0.0
 40
1.5
 50
0.0
 51
90.000003000000007
  0
ARC
  5
A0E
  8
0
  6
CONTINUOUS
 62
     7
 10
-878.22382000000005
 20
719.22625999999957
 30
0.0
 40
1.0
 50
0.0
 51
90.000003000000007
  0
POLYLINE
  5
A0F
  8
0
  6
CONTINUOUS
 62
     7
 66
     1
 10
0.0
 20
0.0
 30
0.0
  0
VERTEX
  5
A10
  8
0
  6
CONTINUOUS
 62
     7
 10
-675.81407999999965
 20
607.13477999999975
 30
0.0
 42
0.110757
  0
VERTEX
  5
A11
  8
0
  6
CONTINUOUS
 62
     7
 10
-662.93313000000001
 20
617.04251999999985
 30
0.0
 42
0.2037583
  0
VERTEX
  5
A12
  8
0
  6
CONTINUOUS
 62
     7
 10
-660.67541000000006
 20
624.70799
 30
0.0
  0
VERTEX
  5
A13
  8
0
  6
CONTINUOUS
 62
     7
 10
-675.44520999999986
 20
643.62311
 30
0.0
 42
-1.0
  0
SEQEND
  5
A14
  8
0
 62
     7
  0
POLYLINE
  5
A15
  8
0
  6
CONTINUOUS
 62
     7
 66
     1
 10
0.0
 20
0.0
 30
0.0
  0
VERTEX
  5
A16
  8
0
  6
CONTINUOUS
 62
     7
 10
-675.81407999999965
 20
766.59775999999988
 30
0.0
 42
-0.110757
  0
VERTEX
  5
A17
  8
0
  6
CONTINUOUS
 62
     7
 10
-662.93313000000001
 20
756.69002
 30
0.0
 42
-0.2037583
  0
VERTEX
  5
A18
  8
0
  6
CONTINUOUS
 62
     7
 10
-660.67541000000006
 20
749.02454999999998
 30
0.0
  0
VERTEX
  5
A19
  8
0
  6
CONTINUOUS
 62
     7
 10
-675.44520999999986
 20
730.10942999999986
 30
0.0
 42
-1.0
  0
SEQEND
  5
A1A
  8
0
 62
     7
  0
POLYLINE
  5
A1B
  8
0
  6
CONTINUOUS
 62
     7
 66
     1
 10
0.0
 20
0.0
 30
0.0
  0
VERTEX
  5
A1C
  8
0
  6
CONTINUOUS
 62
     7
 10
-788.12405000000001
 20
641.44817999999987
 30
0.0
 42
0.011693477
  0
VERTEX
  5
A1D
  8
0
  6
CONTINUOUS
 62
     7
 10
-784.56115999999975
 20
636.95181999999988
 30
0.0
 42
0.01121672
  0
VERTEX
  5
A1E
  8
0
  6
CONTINUOUS
 62
     7
 10
-780.79628000000002
 20
632.62305000000003
 30
0.0
 42
0.011000161
  0
VERTEX
  5
A1F
  8
0
  6
CONTINUOUS
 62
     7
 10
-776.84417999999982
 20
628.46660999999995
 30
0.0
  0
SEQEND
  5
A20
  8
0
 62
     7
  0
POLYLINE
  5
A21
  8
0
  6
CONTINUOUS
 62
     7
 66
     1
 10
0.0
 20
0.0
 30
0.0
  0
VERTEX
  5
A22
  8
0
  6
CONTINUOUS
 62
     7
 10
-792.56578000000002
 20
653.44752000000005
 30
0.0
 42
0.0058779346
  0
VERTEX
  5
A23
  8
0
  6
CONTINUOUS
 62
     7
 10
-791.35615999999982
 20
651.44593999999995
 30
0.0
 42
0.0056588677
  0
VERTEX
  5
A24
  8
0
  6
CONTINUOUS
 62
     7
 10
-790.10068000000001
 20
649.47279000000003
 30
0.0
 42
0.0054619133
  0
VERTEX
  5
A25
  8
0
  6
CONTINUOUS
 62
     7
 10
-788.80164000000002
 20
647.52804000000003
 30
0.0
 42
0.0052861212
  0
VERTEX
  5
A26
  8
0
  6
CONTINUOUS
 62
     7
 10
-787.46110999999985
 20
645.61163999999985
 30
0.0
  0
SEQEND
  5
A27
  8
0
 62
     7
  0
POLYLINE
  5
A28
  8
0
  6
CONTINUOUS
 62
     7
 66
     1
 10
0.0
 20
0.0
 30
0.0
  0
VERTEX
  5
A29
  8
0
  6
CONTINUOUS
 62
     7
 10
-804.27427999999986
 20
699.86599999999999
 30
0.0
  0
VERTEX
  5
A2A
  8
0
  6
CONTINUOUS
 62
     7
 10
-796.84699999999987
 20
718.80543
 30
0.0
 42
-1.0
  0
SEQEND
  5
A2B
  8
0
 62
     7
  0
POLYLINE
  5
A2C
  8
0
  6
CONTINUOUS
 62
     7
 66
     1
 10
0.0
 20
0.0
 30
0.0
  0
VERTEX
  5
A2D
  8
0
  6
CONTINUOUS
 62
     7
 10
-804.27427999999986
 20
673.86654999999985
 30
0.0
  0
VERTEX
  5
A2E
  8
0
  6
CONTINUOUS
 62
     7
 10
-796.84699999999987
 20
654.92714999999976
 30
0.0
 42
-1.0
  0
SEQEND
  5
A2F
  8
0
 62
     7
  0
POLYLINE
  5
A30
  8
0
  6
CONTINUOUS
 62
     7
 66
     1
 10
0.0
 20
0.0
 30
0.0
  0
VERTEX
  5
A31
  8
0
  6
CONTINUOUS
 62
     7
 10
-788.12405000000001
 20
732.28440999999998
 30
0.0
 42
-0.011693505
  0
VERTEX
  5
A32
  8
0
  6
CONTINUOUS
 62
     7
 10
-784.56115999999975
 20
736.78077999999982
 30
0.0
 42
-0.01121677
  0
VERTEX
  5
A33
  8
0
  6
CONTINUOUS
 62
     7
 10
-780.79628000000002
 20
741.10955000000001
 30
0.0
 42
-0.011000238
  0
VERTEX
  5
A34
  8
0
  6
CONTINUOUS
 62
     7
 10
-776.84417999999982
 20
745.26598999999999
 30
0.0
  0
SEQEND
  5
A35
  8
0
 62
     7
  0
POLYLINE
  5
A36
  8
0
  6
CONTINUOUS
 62
     7
 66
     1
 10
0.0
 20
0.0
 30
0.0
  0
VERTEX
  5
A37
  8
0
  6
CONTINUOUS
 62
     7
 10
-792.56578000000002
 20
720.28505999999959
 30
0.0
 42
-0.0058779314
  0
VERTEX
  5
A38
  8
0
  6
CONTINUOUS
 62
     7
 10
-791.35615999999982
 20
722.28665000000001
 30
0.0
 42
-0.0056588672
  0
VERTEX
  5
A39
  8
0
  6
CONTINUOUS
 62
     7
 10
-790.10068000000001
 20
724.25980000000004
 30
0.0
 42
-0.0054619156
  0
VERTEX
  5
A3A
  8
0
  6
CONTINUOUS
 62
     7
 10
-788.80164000000002
 20
726.20455000000004
 30
0.0
 42
-0.0052861264
  0
VERTEX
  5
A3B
  8
0
  6
CONTINUOUS
 62
     7
 10
-787.46110999999985
 20
728.12094999999999
 30
0.0
  0
SEQEND
  5
A3C
  8
0
 62
     7
  0
POLYLINE
  5
A3D
  8
0
  6
CONTINUOUS
 62
     7
 66
     1
 10
0.0
 20
0.0
 30
0.0
  0
VERTEX
  5
A3E
  8
0
  6
CONTINUOUS
 62
     7
 10
-943.38157999999987
 20
250.0348699999999
 30
0.0
  0
VERTEX
  5
A3F
  8
0
  6
CONTINUOUS
 62
     7
 10
-942.42105000000004
 20
256.91651999999999
 30
0.0
 42
-1.0
  0
SEQEND
  5
A40
  8
0
 62
     7
  0
POLYLINE
  5
A41
  8
0
  6
CONTINUOUS
 62
     7
 66
     1
 10
0.0
 20
0.0
 30
0.0
  0
VERTEX
  5
A42
  8
0
  6
CONTINUOUS
 62
     7
 10
-944.36333000000002
 20
239.89049
 30
0.0
  0
VERTEX
  5
A43
  8
0
  6
CONTINUOUS
 62
     7
 10
-943.71726999999987
 20
247.11141000000001
 30
0.0
 42
-1.0
  0
SEQEND
  5
A44
  8
0
 62
     7
  0
POLYLINE
  5
A45
  8
0
  6
CONTINUOUS
 62
     7
 66
     1
 10
0.0
 20
0.0
 30
0.0
  0
VERTEX
  5
A46
  8
0
  6
CONTINUOUS
 62
     7
 10
-944.83498999999995
 20
229.81924000000001
 30
0.0
  0
VERTEX
  5
A47
  8
0
  6
CONTINUOUS
 62
     7
 10
-944.53632000000005
 20
237.22926000000001
 30
0.0
 42
-1.0
  0
SEQEND
  5
A48
  8
0
 62
     7
  0
POLYLINE
  5
A49
  8
0
  6
CONTINUOUS
 62
     7
 66
     1
 10
0.0
 20
0.0
 30
0.0
  0
VERTEX
  5
A4A
  8
0
  6
CONTINUOUS
 62
     7
 10
-944.87835999999982
 20
223.54795999999999
 30
0.0
  0
VERTEX
  5
A4B
  8
0
  6
CONTINUOUS
 62
     7
 10
-944.87563999999998
 20
227.28044
 30
0.0
 42
-1.0
  0
SEQEND
  5
A4C
  8
0
 62
     7
  0
POLYLINE
  5
A4D
  8
0
  6
CONTINUOUS
 62
     7
 66
     1
 10
0.0
 20
0.0
 30
0.0
  0
VERTEX
  5
A4E
  8
0
  6
CONTINUOUS
 62
     7
 10
-943.38157999999987
 20
197.06094999999991
 30
0.0
  0
VERTEX
  5
A4F
  8
0
  6
CONTINUOUS
 62
     7
 10
-942.42105000000004
 20
190.1793899999999
 30
0.0
 42
-1.0
  0
SEQEND
  5
A50
  8
0
 62
     7
  0
POLYLINE
  5
A51
  8
0
  6
CONTINUOUS
 62
     7
 66
     1
 10
0.0
 20
0.0
 30
0.0
  0
VERTEX
  5
A52
  8
0
  6
CONTINUOUS
 62
     7
 10
-944.36333000000002
 20
207.2053499999999
 30
0.0
  0
VERTEX
  5
A53
  8
0
  6
CONTINUOUS
 62
     7
 10
-943.71726999999987
 20
199.98439999999991
 30
0.0
 42
-1.0
  0
SEQEND
  5
A54
  8
0
 62
     7
  0
POLYLINE
  5
A55
  8
0
  6
CONTINUOUS
 62
     7
 66
     1
 10
0.0
 20
0.0
 30
0.0
  0
VERTEX
  5
A56
  8
0
  6
CONTINUOUS
 62
     7
 10
-944.83498999999995
 20
217.27665999999999
 30
0.0
  0
VERTEX
  5
A57
  8
0
  6
CONTINUOUS
 62
     7
 10
-944.53632000000005
 20
209.8665899999998
 30
0.0
 42
-1.0
  0
SEQEND
  5
A58
  8
0
 62
     7
  0
POLYLINE
  5
A59
  8
0
  6
CONTINUOUS
 62
     7
 66
     1
 10
0.0
 20
0.0
 30
0.0
  0
VERTEX
  5
A5A
  8
0
  6
CONTINUOUS
 62
     7
 10
-944.87835999999982
 20
223.54795999999999
 30
0.0
  0
VERTEX
  5
A5B
  8
0
  6
CONTINUOUS
 62
     7
 10
-944.87563999999998
 20
219.81547999999981
 30
0.0
 42
-1.0
  0
SEQEND
  5
A5C
  8
0
 62
     7
  0
POLYLINE
  5
A5D
  8
0
  6
CONTINUOUS
 62
     7
 66
     1
 10
0.0
 20
0.0
 30
0.0
  0
VERTEX
  5
A5E
  8
0
  6
CONTINUOUS
 62
     7
 10
-944.88385000000005
 20
686.86626999999976
 30
0.0
 42
0.00039106592
  0
VERTEX
  5
A5F
  8
0
  6
CONTINUOUS
 62
     7
 10
-944.88620999999989
 20
686.55514000000005
 30
0.0
 42
0.00035488583
  0
VERTEX
  5
A60
  8
0
  6
CONTINUOUS
 62
     7
 10
-944.88810000000001
 20
686.24402999999995
 30
0.0
 42
0.00039705231
  0
VERTEX
  5
A61
  8
0
  6
CONTINUOUS
 62
     7
 10
-944.88953000000004
 20
685.93291999999985
 30
0.0
 42
0.00038766493
  0
VERTEX
  5
A62
  8
0
  6
CONTINUOUS
 62
     7
 10
-944.89045999999996
 20
685.62177999999994
 30
0.0
 42
0.00035527306
  0
VERTEX
  5
A63
  8
0
  6
CONTINUOUS
 62
     7
 10
-944.89093000000003
 20
685.31067999999982
 30
0.0
 42
0.00039931891
  0
VERTEX
  5
A64
  8
0
  6
CONTINUOUS
 62
     7
 10
-944.89093000000003
 20
684.99956999999995
 30
0.0
 42
0.00038547361
  0
VERTEX
  5
A65
  8
0
  6
CONTINUOUS
 62
     7
 10
-944.8904399999999
 20
684.68842999999981
 30
0.0
 42
0.00040585667
  0
VERTEX
  5
A66
  8
0
  6
CONTINUOUS
 62
     7
 10
-944.88945999999999
 20
684.37733000000003
 30
0.0
 42
0.00035762026
  0
VERTEX
  5
A67
  8
0
  6
CONTINUOUS
 62
     7
 10
-944.88800000000003
 20
684.06609999999978
 30
0.0
 42
0.00038319869
  0
VERTEX
  5
A68
  8
0
  6
CONTINUOUS
 62
     7
 10
-944.88608000000022
 20
683.75495999999998
 30
0.0
 42
0.00035656354
  0
VERTEX
  5
A69
  8
0
  6
CONTINUOUS
 62
     7
 10
-944.88369999999986
 20
683.44372999999985
 30
0.0
 42
0.0004014099
  0
VERTEX
  5
A6A
  8
0
  6
CONTINUOUS
 62
     7
 10
-944.88085999999987
 20
683.13262999999995
 30
0.0
  0
SEQEND
  5
A6B
  8
0
 62
     7
  0
POLYLINE
  5
A6C
  8
0
  6
CONTINUOUS
 62
     7
 66
     1
 10
0.0
 20
0.0
 30
0.0
  0
VERTEX
  5
A6D
  8
0
  6
CONTINUOUS
 62
     7
 10
-944.83978000000002
 20
680.59589000000017
 30
0.0
 42
0.00074501067
  0
VERTEX
  5
A6E
  8
0
  6
CONTINUOUS
 62
     7
 10
-944.82502999999974
 20
679.97811999999988
 30
0.0
 42
0.00078382347
  0
VERTEX
  5
A6F
  8
0
  6
CONTINUOUS
 62
     7
 10
-944.80839000000003
 20
679.36051999999995
 30
0.0
 42
0.00074332124
  0
VERTEX
  5
A70
  8
0
  6
CONTINUOUS
 62
     7
 10
-944.78985999999998
 20
678.74285999999995
 30
0.0
 42
0.00075144491
  0
VERTEX
  5
A71
  8
0
  6
CONTINUOUS
 62
     7
 10
-944.76949000000002
 20
678.12525000000005
 30
0.0
 42
0.00076035095
  0
VERTEX
  5
A72
  8
0
  6
CONTINUOUS
 62
     7
 10
-944.74724999999989
 20
677.50782000000004
 30
0.0
 42
0.00075543153
  0
VERTEX
  5
A73
  8
0
  6
CONTINUOUS
 62
     7
 10
-944.72313999999994
 20
676.89044000000001
 30
0.0
 42
0.00075773253
  0
VERTEX
  5
A74
  8
0
  6
CONTINUOUS
 62
     7
 10
-944.69716000000005
 20
676.2730499999999
 30
0.0
 42
0.00076034584
  0
VERTEX
  5
A75
  8
0
  6
CONTINUOUS
 62
     7
 10
-944.66931
 20
675.65565000000004
 30
0.0
 42
0.00074823141
  0
VERTEX
  5
A76
  8
0
  6
CONTINUOUS
 62
     7
 10
-944.63959
 20
675.03827000000001
 30
0.0
 42
0.00074896608
  0
VERTEX
  5
A77
  8
0
  6
CONTINUOUS
 62
     7
 10
-944.60802999999999
 20
674.42114000000004
 30
0.0
 42
0.00076039762
  0
VERTEX
  5
A78
  8
0
  6
CONTINUOUS
 62
     7
 10
-944.57459999999992
 20
673.80410999999981
 30
0.0
 42
0.00075616125
  0
VERTEX
  5
A79
  8
0
  6
CONTINUOUS
 62
     7
 10
-944.53931
 20
673.18706999999995
 30
0.0
  0
SEQEND
  5
A7A
  8
0
 62
     7
  0
POLYLINE
  5
A7B
  8
0
  6
CONTINUOUS
 62
     7
 66
     1
 10
0.0
 20
0.0
 30
0.0
  0
VERTEX
  5
A7C
  8
0
  6
CONTINUOUS
 62
     7
 10
-944.36559999999997
 20
670.52570000000003
 30
0.0
 42
0.00073721997
  0
VERTEX
  5
A7D
  8
0
  6
CONTINUOUS
 62
     7
 10
-944.32144999999991
 20
669.92329000000007
 30
0.0
 42
0.00074398494
  0
VERTEX
  5
A7E
  8
0
  6
CONTINUOUS
 62
     7
 10
-944.27551999999969
 20
669.32101999999998
 30
0.0
 42
0.00073322622
  0
VERTEX
  5
A7F
  8
0
  6
CONTINUOUS
 62
     7
 10
-944.22778000000005
 20
668.71869000000004
 30
0.0
 42
0.00073594294
  0
VERTEX
  5
A80
  8
0
  6
CONTINUOUS
 62
     7
 10
-944.17830000000004
 20
668.11670000000004
 30
0.0
 42
0.00072133179
  0
VERTEX
  5
A81
  8
0
  6
CONTINUOUS
 62
     7
 10
-944.12704999999994
 20
667.51482999999996
 30
0.0
 42
0.00075453052
  0
VERTEX
  5
A82
  8
0
  6
CONTINUOUS
 62
     7
 10
-944.07403999999985
 20
666.91301999999985
 30
0.0
 42
0.0007418407
  0
VERTEX
  5
A83
  8
0
  6
CONTINUOUS
 62
     7
 10
-944.01921000000004
 20
666.31149000000005
 30
0.0
 42
0.00074685393
  0
VERTEX
  5
A84
  8
0
  6
CONTINUOUS
 62
     7
 10
-943.96262000000013
 20
665.71027000000004
 30
0.0
 42
0.00072742995
  0
VERTEX
  5
A85
  8
0
  6
CONTINUOUS
 62
     7
 10
-943.90423999999985
 20
665.10906999999997
 30
0.0
 42
0.00074288894
  0
VERTEX
  5
A86
  8
0
  6
CONTINUOUS
 62
     7
 10
-943.84407999999996
 20
664.50805000000003
 30
0.0
 42
0.00072503676
  0
VERTEX
  5
A87
  8
0
  6
CONTINUOUS
 62
     7
 10
-943.78218000000004
 20
663.90729999999985
 30
0.0
 42
0.00074640581
  0
VERTEX
  5
A88
  8
0
  6
CONTINUOUS
 62
     7
 10
-943.71850999999981
 20
663.30669999999975
 30
0.0
  0
SEQEND
  5
A89
  8
0
 62
     7
  0
POLYLINE
  5
A8A
  8
0
  6
CONTINUOUS
 62
     7
 66
     1
 10
0.0
 20
0.0
 30
0.0
  0
VERTEX
  5
A8B
  8
0
  6
CONTINUOUS
 62
     7
 10
-943.38292999999987
 20
660.38323999999989
 30
0.0
 42
0.0006890002
  0
VERTEX
  5
A8C
  8
0
  6
CONTINUOUS
 62
     7
 10
-943.31205999999997
 20
659.80848999999989
 30
0.0
 42
0.00067934106
  0
VERTEX
  5
A8D
  8
0
  6
CONTINUOUS
 62
     7
 10
-943.23956999999984
 20
659.23379999999975
 30
0.0
 42
0.00071569314
  0
VERTEX
  5
A8E
  8
0
  6
CONTINUOUS
 62
     7
 10
-943.16552999999999
 20
658.65948000000003
 30
0.0
 42
0.00071908359
  0
VERTEX
  5
A8F
  8
0
  6
CONTINUOUS
 62
     7
 10
-943.08979999999985
 20
658.08534999999995
 30
0.0
 42
0.00066272258
  0
VERTEX
  5
A90
  8
0
  6
CONTINUOUS
 62
     7
 10
-943.01248999999984
 20
657.51134999999999
 30
0.0
 42
0.00072079191
  0
VERTEX
  5
A91
  8
0
  6
CONTINUOUS
 62
     7
 10
-942.93358999999964
 20
656.93755999999985
 30
0.0
 42
0.00071003152
  0
VERTEX
  5
A92
  8
0
  6
CONTINUOUS
 62
     7
 10
-942.85305000000005
 20
656.36409000000003
 30
0.0
 42
0.00069954538
  0
VERTEX
  5
A93
  8
0
  6
CONTINUOUS
 62
     7
 10
-942.77091999999982
 20
655.79099000000019
 30
0.0
 42
0.00071888515
  0
VERTEX
  5
A94
  8
0
  6
CONTINUOUS
 62
     7
 10
-942.68713000000002
 20
655.21795999999995
 30
0.0
 42
0.00073581337
  0
VERTEX
  5
A95
  8
0
  6
CONTINUOUS
 62
     7
 10
-942.6016699999999
 20
654.64520000000016
 30
0.0
 42
0.0006891394
  0
VERTEX
  5
A96
  8
0
  6
CONTINUOUS
 62
     7
 10
-942.51460999999995
 20
654.07285000000002
 30
0.0
 42
0.00072290801
  0
VERTEX
  5
A97
  8
0
  6
CONTINUOUS
 62
     7
 10
-942.42589999999996
 20
653.50054999999975
 30
0.0
  0
SEQEND
  5
A98
  8
0
 62
     7
  0
POLYLINE
  5
A99
  8
0
  6
CONTINUOUS
 62
     7
 66
     1
 10
0.0
 20
0.0
 30
0.0
  0
VERTEX
  5
A9A
  8
0
  6
CONTINUOUS
 62
     7
 10
-944.88385000000005
 20
686.86626999999976
 30
0.0
 42
-0.00039106652
  0
VERTEX
  5
A9B
  8
0
  6
CONTINUOUS
 62
     7
 10
-944.88620999999989
 20
687.17740000000003
 30
0.0
 42
-0.00035488197
  0
VERTEX
  5
A9C
  8
0
  6
CONTINUOUS
 62
     7
 10
-944.88810000000001
 20
687.48851000000002
 30
0.0
 42
-0.00039706112
  0
VERTEX
  5
A9D
  8
0
  6
CONTINUOUS
 62
     7
 10
-944.88953000000004
 20
687.79962
 30
0.0
 42
-0.00038765721
  0
VERTEX
  5
A9E
  8
0
  6
CONTINUOUS
 62
     7
 10
-944.89045999999996
 20
688.11075999999969
 30
0.0
 42
-0.00035526961
  0
VERTEX
  5
A9F
  8
0
  6
CONTINUOUS
 62
     7
 10
-944.89093000000003
 20
688.4218699999999
 30
0.0
 42
-0.0003993348
  0
VERTEX
  5
AA0
  8
0
  6
CONTINUOUS
 62
     7
 10
-944.89093000000003
 20
688.73297000000002
 30
0.0
 42
-0.00038545886
  0
VERTEX
  5
AA1
  8
0
  6
CONTINUOUS
 62
     7
 10
-944.8904399999999
 20
689.04410999999982
 30
0.0
 42
-0.0004058537
  0
VERTEX
  5
AA2
  8
0
  6
CONTINUOUS
 62
     7
 10
-944.88945999999999
 20
689.35521000000006
 30
0.0
 42
-0.00035764179
  0
VERTEX
  5
AA3
  8
0
  6
CONTINUOUS
 62
     7
 10
-944.88800000000003
 20
689.66643999999985
 30
0.0
 42
-0.0003831782
  0
VERTEX
  5
AA4
  8
0
  6
CONTINUOUS
 62
     7
 10
-944.88608000000022
 20
689.97757999999999
 30
0.0
 42
-0.00035656082
  0
VERTEX
  5
AA5
  8
0
  6
CONTINUOUS
 62
     7
 10
-944.88369999999986
 20
690.28881000000001
 30
0.0
 42
-0.00040143614
  0
VERTEX
  5
AA6
  8
0
  6
CONTINUOUS
 62
     7
 10
-944.88085999999987
 20
690.59990999999968
 30
0.0
  0
SEQEND
  5
AA7
  8
0
 62
     7
  0
POLYLINE
  5
AA8
  8
0
  6
CONTINUOUS
 62
     7
 66
     1
 10
0.0
 20
0.0
 30
0.0
  0
VERTEX
  5
AA9
  8
0
  6
CONTINUOUS
 62
     7
 10
-944.83978000000002
 20
693.13666000000001
 30
0.0
 42
-0.00074497821
  0
VERTEX
  5
AAA
  8
0
  6
CONTINUOUS
 62
     7
 10
-944.82502999999974
 20
693.75441999999964
 30
0.0
 42
-0.00078382095
  0
VERTEX
  5
AAB
  8
0
  6
CONTINUOUS
 62
     7
 10
-944.80839000000003
 20
694.37202000000002
 30
0.0
 42
-0.00074335669
  0
VERTEX
  5
AAC
  8
0
  6
CONTINUOUS
 62
     7
 10
-944.78985999999998
 20
694.98968999999965
 30
0.0
 42
-0.000751411
  0
VERTEX
  5
AAD
  8
0
  6
CONTINUOUS
 62
     7
 10
-944.76949000000002
 20
695.60729000000003
 30
0.0
 42
-0.00075841686
  0
VERTEX
  5
AAE
  8
0
  6
CONTINUOUS
 62
     7
 10
-944.74724999999989
 20
696.22470999999985
 30
0.0
 42
-0.00075711786
  0
VERTEX
  5
AAF
  8
0
  6
CONTINUOUS
 62
     7
 10
-944.72313999999994
 20
696.84222
 30
0.0
 42
-0.00075976006
  0
VERTEX
  5
AB0
  8
0
  6
CONTINUOUS
 62
     7
 10
-944.69716000000005
 20
697.45961999999975
 30
0.0
 42
-0.0007579731
  0
VERTEX
  5
AB1
  8
0
  6
CONTINUOUS
 62
     7
 10
-944.66931
 20
698.07689000000005
 30
0.0
 42
-0.00074826129
  0
VERTEX
  5
AB2
  8
0
  6
CONTINUOUS
 62
     7
 10
-944.63959
 20
698.69427000000007
 30
0.0
 42
-0.00074893564
  0
VERTEX
  5
AB3
  8
0
  6
CONTINUOUS
 62
     7
 10
-944.60802999999999
 20
699.31140999999968
 30
0.0
 42
-0.00076039837
  0
VERTEX
  5
AB4
  8
0
  6
CONTINUOUS
 62
     7
 10
-944.57459999999992
 20
699.92844000000002
 30
0.0
 42
-0.00075618785
  0
VERTEX
  5
AB5
  8
0
  6
CONTINUOUS
 62
     7
 10
-944.53931
 20
700.54547000000002
 30
0.0
  0
SEQEND
  5
AB6
  8
0
 62
     7
  0
POLYLINE
  5
AB7
  8
0
  6
CONTINUOUS
 62
     7
 66
     1
 10
0.0
 20
0.0
 30
0.0
  0
VERTEX
  5
AB8
  8
0
  6
CONTINUOUS
 62
     7
 10
-944.36559999999997
 20
703.20685000000003
 30
0.0
 42
-0.00073370515
  0
VERTEX
  5
AB9
  8
0
  6
CONTINUOUS
 62
     7
 10
-944.32146000000012
 20
703.80925999999965
 30
0.0
 42
-0.0007521132
  0
VERTEX
  5
ABA
  8
0
  6
CONTINUOUS
 62
     7
 10
-944.27551000000005
 20
704.41165999999964
 30
0.0
 42
-0.00072974907
  0
VERTEX
  5
ABB
  8
0
  6
CONTINUOUS
 62
     7
 10
-944.22778000000005
 20
705.01385000000005
 30
0.0
 42
-0.00073593047
  0
VERTEX
  5
ABC
  8
0
  6
CONTINUOUS
 62
     7
 10
-944.17830000000004
 20
705.61585000000002
 30
0.0
 42
-0.0007213335
  0
VERTEX
  5
ABD
  8
0
  6
CONTINUOUS
 62
     7
 10
-944.12704999999994
 20
706.21771000000001
 30
0.0
 42
-0.00075453664
  0
VERTEX
  5
ABE
  8
0
  6
CONTINUOUS
 62
     7
 10
-944.07403999999985
 20
706.8195199999999
 30
0.0
 42
-0.00073754173
  0
VERTEX
  5
ABF
  8
0
  6
CONTINUOUS
 62
     7
 10
-944.01921999999979
 20
707.42105000000004
 30
0.0
 42
-0.00075683458
  0
VERTEX
  5
AC0
  8
0
  6
CONTINUOUS
 62
     7
 10
-943.96262000000013
 20
708.0224099999997
 30
0.0
 42
-0.00072314512
  0
VERTEX
  5
AC1
  8
0
  6
CONTINUOUS
 62
     7
 10
-943.90423999999985
 20
708.62347
 30
0.0
 42
-0.00074288421
  0
VERTEX
  5
AC2
  8
0
  6
CONTINUOUS
 62
     7
 10
-943.84407999999996
 20
709.22450000000003
 30
0.0
 42
-0.00072503998
  0
VERTEX
  5
AC3
  8
0
  6
CONTINUOUS
 62
     7
 10
-943.78218000000004
 20
709.82523999999967
 30
0.0
 42
-0.00074640664
  0
VERTEX
  5
AC4
  8
0
  6
CONTINUOUS
 62
     7
 10
-943.71850999999981
 20
710.42583999999988
 30
0.0
  0
SEQEND
  5
AC5
  8
0
 62
     7
  0
POLYLINE
  5
AC6
  8
0
  6
CONTINUOUS
 62
     7
 66
     1
 10
0.0
 20
0.0
 30
0.0
  0
VERTEX
  5
AC7
  8
0
  6
CONTINUOUS
 62
     7
 10
-943.38292999999987
 20
713.34929999999974
 30
0.0
 42
-0.00068898293
  0
VERTEX
  5
AC8
  8
0
  6
CONTINUOUS
 62
     7
 10
-943.31205999999997
 20
713.92406000000005
 30
0.0
 42
-0.00067933813
  0
VERTEX
  5
AC9
  8
0
  6
CONTINUOUS
 62
     7
 10
-943.23956999999984
 20
714.49873999999966
 30
0.0
 42
-0.000715718
  0
VERTEX
  5
ACA
  8
0
  6
CONTINUOUS
 62
     7
 10
-943.16552999999999
 20
715.07306000000005
 30
0.0
 42
-0.00071906223
  0
VERTEX
  5
ACB
  8
0
  6
CONTINUOUS
 62
     7
 10
-943.08979999999985
 20
715.64719000000002
 30
0.0
 42
-0.00066272437
  0
VERTEX
  5
ACC
  8
0
  6
CONTINUOUS
 62
     7
 10
-943.01248999999984
 20
716.22119999999995
 30
0.0
 42
-0.00072080101
  0
VERTEX
  5
ACD
  8
0
  6
CONTINUOUS
 62
     7
 10
-942.93358999999964
 20
716.79498000000001
 30
0.0
 42
-0.00071002313
  0
VERTEX
  5
ACE
  8
0
  6
CONTINUOUS
 62
     7
 10
-942.85305000000005
 20
717.36845999999957
 30
0.0
 42
-0.00069954883
  0
VERTEX
  5
ACF
  8
0
  6
CONTINUOUS
 62
     7
 10
-942.77091999999982
 20
717.94155999999964
 30
0.0
 42
-0.00071887942
  0
VERTEX
  5
AD0
  8
0
  6
CONTINUOUS
 62
     7
 10
-942.68713000000002
 20
718.51459
 30
0.0
 42
-0.00073582106
  0
VERTEX
  5
AD1
  8
0
  6
CONTINUOUS
 62
     7
 10
-942.6016699999999
 20
719.08735000000001
 30
0.0
 42
-0.00068913793
  0
VERTEX
  5
AD2
  8
0
  6
CONTINUOUS
 62
     7
 10
-942.51460999999995
 20
719.65970000000004
 30
0.0
 42
-0.00072288972
  0
VERTEX
  5
AD3
  8
0
  6
CONTINUOUS
 62
     7
 10
-942.42589999999996
 20
720.23198999999988
 30
0.0
  0
SEQEND
  5
AD4
  8
0
 62
     7
  0
TEXT
  5
DAC
  8
0
  6
CONTINUOUS
 62
     0
 10
-372.74745049366931
 20
650.81699611108024
 30
0.0
 40
15.0
  1
VX02-800M~VX02-K20M
  0
ENDSEC
  0
EOF
