  0
SECTION
  2
HEADER
  9
$ACADVER
  1
AC1009
  9
$INSBASE
 10
0.0
 20
0.0
 30
0.0
  9
$EXTMIN
 10
-629.00516467973205
 20
59.058116724587308
 30
-0.0000000000000058
  9
$EXTMAX
 10
-75.272864698385774
 20
452.0087340220386
 30
0.0000000000000104
  9
$LIMMIN
 10
0.0
 20
0.0
  9
$LIMMAX
 10
12.0
 20
9.0
  9
$ORTHOMODE
 70
     0
  9
$REGENMODE
 70
     1
  9
$FILLMODE
 70
     1
  9
$QTEXTMODE
 70
     0
  9
$MIRRTEXT
 70
     1
  9
$DRAGMODE
 70
     2
  9
$LTSCALE
 40
1.0
  9
$OSMODE
 70
   551
  9
$ATTMODE
 70
     1
  9
$TEXTSIZE
 40
0.2
  9
$TRACEWID
 40
0.05
  9
$TEXTSTYLE
  7
STANDARD
  9
$CLAYER
  8
0
  9
$CELTYPE
  6
CONTINUOUS
  9
$CECOLOR
 62
   256
  9
$DIMSCALE
 40
1.0
  9
$DIMASZ
 40
0.1
  9
$DIMEXO
 40
0.05
  9
$DIMDLI
 40
0.5
  9
$DIMRND
 40
0.0
  9
$DIMDLE
 40
0.0
  9
$DIMEXE
 40
0.1
  9
$DIMTP
 40
0.1
  9
$DIMTM
 40
0.1
  9
$DIMTXT
 40
0.12
  9
$DIMCEN
 40
0.0
  9
$DIMTSZ
 40
0.0
  9
$DIMTOL
 70
     0
  9
$DIMLIM
 70
     0
  9
$DIMTIH
 70
     1
  9
$DIMTOH
 70
     1
  9
$DIMSE1
 70
     0
  9
$DIMSE2
 70
     0
  9
$DIMTAD
 70
     0
  9
$DIMZIN
 70
     0
  9
$DIMBLK
  1

  9
$DIMASO
 70
     1
  9
$DIMSHO
 70
     1
  9
$DIMPOST
  1

  9
$DIMAPOST
  1
mm
  9
$DIMALT
 70
     0
  9
$DIMALTD
 70
     2
  9
$DIMALTF
 40
25.399999999999999
  9
$DIMLFAC
 40
1.0
  9
$DIMTOFL
 70
     0
  9
$DIMTVP
 40
0.0
  9
$DIMTIX
 70
     0
  9
$DIMSOXD
 70
     0
  9
$DIMSAH
 70
     0
  9
$DIMBLK1
  1

  9
$DIMBLK2
  1

  9
$DIMSTYLE
  2
AM_ANSI
  9
$DIMCLRD
 70
   256
  9
$DIMCLRE
 70
   256
  9
$DIMCLRT
 70
     2
  9
$DIMTFAC
 40
0.71
  9
$DIMGAP
 40
0.06
  9
$LUNITS
 70
     2
  9
$LUPREC
 70
     4
  9
$SKETCHINC
 40
0.1
  9
$FILLETRAD
 40
0.0
  9
$AUNITS
 70
     0
  9
$AUPREC
 70
     0
  9
$MENU
  1
.
  9
$ELEVATION
 40
0.0
  9
$PELEVATION
 40
0.0
  9
$THICKNESS
 40
0.0
  9
$LIMCHECK
 70
     0
  9
$BLIPMODE
 70
     0
  9
$CHAMFERA
 40
0.0
  9
$CHAMFERB
 40
0.0
  9
$SKPOLY
 70
     0
  9
$TDCREATE
 40
2452300.4309152551
  9
$TDUPDATE
 40
2458540.6785405092
  9
$TDINDWG
 40
0.0471531481
  9
$TDUSRTIMER
 40
0.0471527546
  9
$USRTIMER
 70
     1
  9
$ANGBASE
 50
0.0
  9
$ANGDIR
 70
     0
  9
$PDMODE
 70
     0
  9
$PDSIZE
 40
0.0
  9
$PLINEWID
 40
0.0
  9
$COORDS
 70
     1
  9
$SPLFRAME
 70
     0
  9
$SPLINETYPE
 70
     6
  9
$SPLINESEGS
 70
     8
  9
$ATTDIA
 70
     1
  9
$ATTREQ
 70
     1
  9
$HANDLING
 70
     1
  9
$HANDSEED
  5
12F3
  9
$SURFTAB1
 70
     6
  9
$SURFTAB2
 70
     6
  9
$SURFTYPE
 70
     6
  9
$SURFU
 70
     6
  9
$SURFV
 70
     6
  9
$UCSNAME
  2

  9
$UCSORG
 10
0.0
 20
0.0
 30
0.0
  9
$UCSXDIR
 10
1.0
 20
0.0
 30
0.0
  9
$UCSYDIR
 10
0.0
 20
1.0
 30
0.0
  9
$PUCSNAME
  2

  9
$PUCSORG
 10
0.0
 20
0.0
 30
0.0
  9
$PUCSXDIR
 10
1.0
 20
0.0
 30
0.0
  9
$PUCSYDIR
 10
0.0
 20
1.0
 30
0.0
  9
$USERI1
 70
     0
  9
$USERI2
 70
     0
  9
$USERI3
 70
     0
  9
$USERI4
 70
     0
  9
$USERI5
 70
     0
  9
$USERR1
 40
0.0
  9
$USERR2
 40
0.0
  9
$USERR3
 40
0.0
  9
$USERR4
 40
0.0
  9
$USERR5
 40
0.0
  9
$WORLDVIEW
 70
     1
  9
$SHADEDGE
 70
     3
  9
$SHADEDIF
 70
    70
  9
$TILEMODE
 70
     1
  9
$MAXACTVP
 70
    64
  9
$PLIMCHECK
 70
     0
  9
$PEXTMIN
 10
1.0000000000000000E+020
 20
1.0000000000000000E+020
 30
1.0000000000000000E+020
  9
$PEXTMAX
 10
-1.0000000000000000E+020
 20
-1.0000000000000000E+020
 30
-1.0000000000000000E+020
  9
$PLIMMIN
 10
0.0
 20
0.0
  9
$PLIMMAX
 10
12.0
 20
9.0
  9
$UNITMODE
 70
     0
  9
$VISRETAIN
 70
     1
  9
$PLINEGEN
 70
     0
  9
$PSLTSCALE
 70
     1
  0
ENDSEC
  0
SECTION
  2
TABLES
  0
TABLE
  2
VPORT
 70
     1
  0
VPORT
  2
*ACTIVE
 70
     0
 10
0.0
 20
0.0
 11
1.0
 21
1.0
 12
-352.13901468905902
 22
255.53342537331301
 13
0.0
 23
0.0
 14
1.0
 24
1.0
 15
0.0
 25
0.0
 16
0.0
 26
0.0
 36
1.0
 17
0.0
 27
0.0
 37
0.0
 40
395.64821878919588
 41
1.7571592210767459
 42
50.0
 43
0.0
 44
0.0
 50
0.0
 51
0.0
 71
     0
 72
   100
 73
     1
 74
     1
 75
     0
 76
     0
 77
     0
 78
     0
  0
ENDTAB
  0
TABLE
  2
LTYPE
 70
    20
  0
LTYPE
  2
CONTINUOUS
 70
     0
  3
Solid line
 72
    65
 73
     0
 40
0.0
  0
LTYPE
  2
DASHED
 70
     0
  3
__ __ __ __ __ __ __ __ __ __ __ __ __ __ __
 72
    65
 73
     2
 40
3.5
 49
2.0
 49
-1.5
  0
LTYPE
  2
CENTER
 70
     0
  3
____ _ ____ _ ____ _ ____ _ ____ _ ____ _ ____
 72
    65
 73
     4
 40
17.5
 49
13.0
 49
-1.5
 49
1.5
 49
-1.5
  0
LTYPE
  2
PHANTOM
 70
     0
  3
_____ _ _ _____ _ _ _____ _ _ _____ _ _ ____  
 72
    65
 73
     6
 40
15.5
 49
8.0
 49
-1.5
 49
1.5
 49
-1.5
 49
1.5
 49
-1.5
  0
LTYPE
  2
DOT
 70
     0
  3
. . . . . . . . . . . . . . . . . . . . . . . .
 72
    65
 73
     2
 40
0.25
 49
0.0
 49
-0.25
  0
LTYPE
  2
AM_ISO02W050
 70
     0
  3
__ __ __ __ __ __ __ __ __ __ __ __ __ __ __
 72
    65
 73
     2
 40
7.5
 49
6.0
 49
-1.5
  0
LTYPE
  2
AM_ISO08W050
 70
     0
  3
____ . ____ . ____ . ____ . ____ . ____ . ____
 72
    65
 73
     4
 40
18.0
 49
12.0
 49
-1.5
 49
3.0
 49
-1.5
  0
LTYPE
  2
AM_ISO09W050
 70
     0
  3
_____ . . _____ . . _____ . . ____ .. ____
 72
    65
 73
     6
 40
22.5
 49
12.0
 49
-1.5
 49
3.0
 49
-1.5
 49
3.0
 49
-1.5
  0
LTYPE
  2
AMCONSTR
 70
     0
  3
_______________________
 72
    65
 73
     2
 40
9999.0
 49
9999.0
 49
0.0
  0
LTYPE
  2
AM_ISO08W050X2
 70
     0
  3
__ . __ . __ . __ . __ . __
 72
    65
 73
     4
 40
9.0
 49
6.0
 49
-0.75
 49
1.5
 49
-0.75
  0
LTYPE
  2
AM_ISO02W050X2
 70
     0
  3
 _ _ _ _ _ _ _ _ _ _ _ _
 72
    65
 73
     2
 40
3.75
 49
3.0
 49
-0.75
  0
LTYPE
  2
AMZIGZAG
 70
     0
  3
/\/-/\/-/\/-/\/-/\/-/\/
 72
    65
 73
     2
 40
11.000099999999991
 49
0.0001
 49
-11.0
  0
LTYPE
  2
HIDDEN
 70
     0
  3
Hidden __ __ __ __ __ __ __ __ __ __ __ __ __ _
 72
    65
 73
     2
 40
0.375
 49
0.25
 49
-0.125
  0
LTYPE
  2
PHANTOM2
 70
     0
  3
Phantom (.5x) ___ _ _ ___ _ _ ___ _ _ ___ _ _
 72
    65
 73
     6
 40
1.25
 49
0.625
 49
-0.125
 49
0.125
 49
-0.125
 49
0.125
 49
-0.125
  0
LTYPE
  2
CENTER2
 70
     0
  3
Center (.5x) ___ _ ___ _ ___ _ ___ _ ___ _ ___
 72
    65
 73
     4
 40
1.125
 49
0.75
 49
-0.125
 49
0.125
 49
-0.125
  0
LTYPE
  2
HIDDEN2
 70
     0
  3
Hidden (.5x) _ _ _ _ _ _ _ _ _ _ _ _ _ _ _ _ _
 72
    65
 73
     2
 40
0.1875
 49
0.125
 49
-0.0625
  0
LTYPE
  2
AMZIGZAG2
 70
     0
  3
/\/-/\/-/\/-/\/-/\/-/\/
 72
    65
 73
     2
 40
0.4401
 49
0.0001
 49
-0.4400000000000003
  0
LTYPE
  2
ACANSTGB
 70
     0
  3
__ . . __ . .
 72
    65
 73
     6
 40
0.35433070866
 49
0.15748031496
 49
-0.03937007874
 49
0.03937007874
 49
-0.03937007874
 49
0.03937007874
 49
-0.03937007874
  0
LTYPE
  2
ACANSTGL
 70
     0
  3
_ _ _ _ _
 72
    65
 73
     2
 40
0.11811023622
 49
0.07874015748
 49
-0.03937007874
  0
ENDTAB
  0
TABLE
  2
LAYER
 70
     2
  0
LAYER
  2
0
 70
     0
 62
     7
  6
CONTINUOUS
  0
LAYER
  2
AM_5
 70
     0
 62
     3
  6
CONTINUOUS
  0
ENDTAB
  0
TABLE
  2
STYLE
 70
     5
  0
STYLE
  2
STANDARD
 70
     0
 40
0.0
 41
1.0
 50
0.0
 71
     0
 42
0.2
  3
txt
  4

  0
STYLE
  2
ANNOTATIVE
 70
     0
 40
0.0
 41
1.0
 50
0.0
 71
     0
 42
0.2
  3
txt
  4

  0
STYLE
  2

 70
     1
 40
0.0
 41
1.0
 50
0.0
 71
     0
 42
0.2
  3
ltypeshp.shx
  4

  0
STYLE
  2
ACANSTS
 70
     0
 40
1.0
 41
1.0
 50
0.0
 71
     0
 42
0.2
  3
romans.shx
  4
extfont.shx
  0
STYLE
  2
ACANSGDT
 70
     0
 40
0.0
 41
1.0
 50
0.0
 71
     0
 42
0.2
  3
amgdt.shx
  4

  0
ENDTAB
  0
TABLE
  2
VIEW
 70
     0
  0
ENDTAB
  0
TABLE
  2
UCS
 70
     0
  0
ENDTAB
  0
TABLE
  2
APPID
 70
    11
  0
APPID
  2
ACAD
 70
     0
  0
APPID
  2
ACADANNOTATIVE
 70
     0
  0
APPID
  2
MCAD_NO_VIS
 70
     0
  0
APPID
  2
ACAD_TEMP_GRAPHIC
 70
     0
  0
APPID
  2
ACATTRIBSERVICES
 70
     0
  0
APPID
  2
DESIGNERASSEMBLIES
 70
     0
  0
APPID
  2
ACAD_DSTYLE_DIMBREAK
 70
     0
  0
APPID
  2
ACAD_DSTYLE_DIMJAG
 70
     0
  0
APPID
  2
ACAD_NAV_VCDISPLAY
 70
     0
  0
APPID
  2
ACAD_EXEMPT_FROM_CAD_STANDARDS
 70
     0
  0
APPID
  2
ACAD_MLEADERVER
 70
     0
  0
ENDTAB
  0
TABLE
  2
DIMSTYLE
 70
     8
  0
DIMSTYLE
  2
STANDARD
 70
     0
  3

  4

  5

  6

  7

 40
1.0
 41
0.18
 42
0.0625
 43
0.38
 44
0.18
 45
0.0
 46
0.0
 47
0.0
 48
0.0
140
0.18
141
0.09
142
0.0
143
25.399999999999999
144
1.0
145
0.0
146
1.0
147
0.09
 71
     0
 72
     0
 73
     1
 74
     1
 75
     0
 76
     0
 77
     0
 78
     0
170
     0
171
     2
172
     0
173
     0
174
     0
175
     0
176
     0
177
     0
178
     0
  0
DIMSTYLE
  2
ANNOTATIVE
 70
     0
  3

  4

  5

  6

  7

 40
1.0
 41
0.18
 42
0.0625
 43
0.38
 44
0.18
 45
0.0
 46
0.0
 47
0.0
 48
0.0
140
0.18
141
0.09
142
0.0
143
25.399999999999999
144
1.0
145
0.0
146
1.0
147
0.09
 71
     0
 72
     0
 73
     1
 74
     1
 75
     0
 76
     0
 77
     0
 78
     0
170
     0
171
     2
172
     0
173
     0
174
     0
175
     0
176
     0
177
     0
178
     0
  0
DIMSTYLE
  2
AM_ANSI
 70
     0
  3

  4
mm
  5

  6

  7

 40
1.0
 41
0.1
 42
0.05
 43
0.5
 44
0.1
 45
0.0
 46
0.0
 47
0.1
 48
0.1
140
0.12
141
0.0
142
0.0
143
25.399999999999999
144
1.0
145
0.0
146
0.71
147
0.06
 71
     0
 72
     0
 73
     1
 74
     1
 75
     0
 76
     0
 77
     0
 78
     7
170
     0
171
     2
172
     0
173
     0
174
     0
175
     0
176
   256
177
   256
178
     2
  0
DIMSTYLE
  2
AM_ANSI$3
 70
     0
  3

  4
mm
  5

  6

  7

 40
1.0
 41
0.1
 42
0.05
 43
0.5
 44
0.1
 45
0.0
 46
0.0
 47
0.1
 48
0.1
140
0.12
141
0.0
142
0.0
143
25.399999999999999
144
1.0
145
0.0
146
0.71
147
0.06
 71
     0
 72
     0
 73
     1
 74
     1
 75
     0
 76
     0
 77
     0
 78
     7
170
     0
171
     2
172
     0
173
     0
174
     0
175
     0
176
   256
177
   256
178
     2
  0
DIMSTYLE
  2
AM_ANSI$4
 70
     0
  3

  4
mm
  5

  6

  7

 40
1.0
 41
0.1
 42
0.05
 43
0.5
 44
0.1
 45
0.0
 46
0.0
 47
0.1
 48
0.1
140
0.12
141
0.0
142
0.0
143
25.399999999999999
144
1.0
145
0.0
146
0.71
147
0.06
 71
     0
 72
     0
 73
     1
 74
     1
 75
     0
 76
     0
 77
     0
 78
     7
170
     0
171
     2
172
     0
173
     0
174
     0
175
     0
176
   256
177
   256
178
     2
  0
DIMSTYLE
  2
AM_ANSI$7
 70
     0
  3

  4
mm
  5

  6

  7

 40
1.0
 41
0.1
 42
0.05
 43
0.5
 44
0.1
 45
0.0
 46
0.0
 47
0.1
 48
0.1
140
0.24
141
0.0
142
0.0
143
25.399999999999999
144
1.0
145
0.0
146
0.71
147
0.06
 71
     0
 72
     0
 73
     1
 74
     1
 75
     0
 76
     0
 77
     0
 78
     7
170
     0
171
     2
172
     0
173
     0
174
     0
175
     0
176
   256
177
   256
178
     2
  0
DIMSTYLE
  2
AM_ANSI$SF
 70
     0
  3

  4
mm
  5

  6

  7

 40
1.0
 41
0.1
 42
0.05
 43
0.5
 44
0.1
 45
0.0
 46
0.0
 47
0.1
 48
0.1
140
0.12
141
0.0
142
0.0
143
25.399999999999999
144
1.0
145
0.0
146
0.71
147
0.06
 71
     0
 72
     0
 73
     1
 74
     1
 75
     1
 76
     1
 77
     0
 78
     7
170
     0
171
     2
172
     0
173
     0
174
     0
175
     0
176
   256
177
   256
178
     2
  0
DIMSTYLE
  2
AM_ANSI$SH
 70
     0
  3

  4
mm
  5

  6

  7

 40
1.0
 41
0.1
 42
0.05
 43
0.5
 44
0.1
 45
0.0
 46
0.0
 47
0.1
 48
0.1
140
0.12
141
0.0
142
0.0
143
25.399999999999999
144
1.0
145
0.0
146
0.71
147
0.06
 71
     0
 72
     0
 73
     1
 74
     1
 75
     1
 76
     1
 77
     0
 78
     7
170
     0
171
     2
172
     0
173
     1
174
     0
175
     0
176
   256
177
   256
178
     2
  0
ENDTAB
  0
ENDSEC
  0
SECTION
  2
BLOCKS
  0
BLOCK
  8
0
  2
$MODEL_SPACE
 70
     0
 10
0.0
 20
0.0
 30
0.0
  3
$MODEL_SPACE
  1

  0
ENDBLK
  5
11FC
  8
0
  0
BLOCK
 67
     1
  8
0
  2
$PAPER_SPACE
 70
     0
 10
0.0
 20
0.0
 30
0.0
  3
$PAPER_SPACE
  1

  0
ENDBLK
  5
11F8
 67
     1
  8
0
  0
BLOCK
  8
0
  2
GENAXEH
 70
     0
 10
0.0
 20
0.0
 30
0.0
  3
GENAXEH
  1

  0
LINE
  5
A8B
  8
0
 10
-1.0
 20
0.0
 30
0.0
 11
1.0
 21
0.0
 31
0.0
  0
ENDBLK
  5
A8C
  8
0
  0
BLOCK
  8
0
  2
_ACMFILLEDHALF
 70
     0
 10
0.0
 20
0.0
 30
0.0
  3
_ACMFILLEDHALF
  1

  0
TRACE
  5
10FC
  8
0
  6
CONTINUOUS
 62
     0
 10
-0.8
 20
0.0
 30
0.0
 11
-1.0
 21
0.166666666
 31
0.0
 12
0.0
 22
0.0
 32
0.0
 13
0.0
 23
0.0
 33
0.0
  0
LINE
  5
10FD
  8
0
  6
CONTINUOUS
 62
     0
 10
-1.0
 20
0.0
 30
0.0
 11
-0.8
 21
0.0
 31
0.0
  0
ENDBLK
  5
10FB
  8
0
  0
BLOCK
  8
0
  2
*U4
 70
     1
 10
0.0
 20
0.0
 30
0.0
  3
*U4
  1

  0
TEXT
  5
1185
  8
0
  6
CONTINUOUS
 62
     0
 10
4.1999993754229852
 20
4.4356759791489822
 30
0.0
 40
10.0
  1
ＶＸ０１－２４０Ｍ～ＶＸ０１－６００Ｍ
  0
ENDBLK
  5
1187
  8
0
  0
BLOCK
  8
0
  2
*U5
 70
     1
 10
0.0
 20
0.0
 30
0.0
  3
*U5
  1

  0
TEXT
  5
1189
  8
0
  6
CONTINUOUS
 62
     0
 10
-263.26574519778887
 20
294.6324679727162
 30
0.0
 40
10.0
  1
ＶＸ０４－００３Ｍ～ＶＸ０４－０１０Ｍ
  0
ENDBLK
  5
118B
  8
0
  0
ENDSEC
  0
SECTION
  2
ENTITIES
  0
LINE
  5
A8D
  8
0
  6
CENTER
 62
     7
 10
-628.97582999999986
 20
381.99090999999987
 30
0.0
 11
-327.46332000000001
 21
381.99090999999987
 31
0.0
  0
LINE
  5
A8E
  8
0
  6
CONTINUOUS
 62
     1
 10
-362.82708999999988
 20
371.99090999999987
 30
0.0
 11
-360.82715000000002
 21
371.99090999999987
 31
0.0
  0
LINE
  5
A8F
  8
0
  6
CONTINUOUS
 62
     1
 10
-362.82708999999988
 20
391.99090999999987
 30
0.0
 11
-360.82715000000002
 21
391.99090999999987
 31
0.0
  0
LINE
  5
A90
  8
0
  6
CONTINUOUS
 62
     7
 10
-363.85327000000001
 20
361.96402
 30
0.0
 11
-363.80092999999999
 21
361.96539000000001
 31
0.0
  0
LINE
  5
A91
  8
0
  6
CONTINUOUS
 62
     7
 10
-363.85327000000001
 20
402.01776000000001
 30
0.0
 11
-363.80092999999999
 21
402.01639
 31
0.0
  0
LINE
  5
A92
  8
0
  6
CONTINUOUS
 62
     7
 10
-354.82715000000002
 20
378.99090999999999
 30
0.0
 11
-354.82715000000002
 21
384.99090999999987
 31
0.0
  0
LINE
  5
A93
  8
0
  6
CONTINUOUS
 62
     7
 10
-362.82708999999988
 20
401.01674999999989
 30
0.0
 11
-362.82708999999988
 21
362.96505999999999
 31
0.0
  0
LINE
  5
A94
  8
0
  6
CONTINUOUS
 62
     7
 10
-360.82715000000002
 20
372.49090999999999
 30
0.0
 11
-332.82711999999992
 21
372.49090999999999
 31
0.0
  0
LINE
  5
A95
  8
0
  6
CONTINUOUS
 62
     7
 10
-360.82715000000002
 20
391.49090999999999
 30
0.0
 11
-332.82711999999992
 21
391.49090999999999
 31
0.0
  0
LINE
  5
A96
  8
0
  6
CONTINUOUS
 62
     7
 10
-332.82711999999992
 20
372.49090999999999
 30
0.0
 11
-332.82711999999992
 21
391.49090999999999
 31
0.0
  0
LINE
  5
A97
  8
0
  6
CONTINUOUS
 62
     7
 10
-360.82715000000002
 20
371.99090999999987
 30
0.0
 11
-360.82715000000002
 21
391.99090999999987
 31
0.0
  0
LINE
  5
A98
  8
0
  6
CONTINUOUS
 62
     7
 10
-354.82715000000002
 20
378.99090999999999
 30
0.0
 11
-332.82711999999992
 21
378.99090999999999
 31
0.0
  0
LINE
  5
A99
  8
0
  6
CONTINUOUS
 62
     7
 10
-354.82715000000002
 20
384.99090999999987
 30
0.0
 11
-332.82711999999992
 21
384.99090999999987
 31
0.0
  0
LINE
  5
A9A
  8
0
  6
CONTINUOUS
 62
     7
 10
-387.82709
 20
315.98700000000002
 30
0.0
 11
-387.82709
 21
325.12011999999999
 31
0.0
  0
LINE
  5
A9B
  8
0
  6
CONTINUOUS
 62
     7
 10
-377.82708999999988
 20
333.17523
 30
0.0
 11
-377.82708999999988
 21
430.80658
 31
0.0
  0
LINE
  5
A9C
  8
0
  6
CONTINUOUS
 62
     7
 10
-382.95801
 20
330.11838
 30
0.0
 11
-380.74856999999992
 21
330.17624000000001
 31
0.0
  0
LINE
  5
A9D
  8
0
  6
CONTINUOUS
 62
     7
 10
-420.85327000000001
 20
315.9405799999999
 30
0.0
 11
-422.80092999999999
 21
315.99160999999992
 31
0.0
  0
LINE
  5
A9E
  8
0
  6
CONTINUOUS
 62
     7
 10
-419.82709
 20
314.01776000000001
 30
0.0
 11
-419.82709
 21
320.01641999999993
 31
0.0
  0
LINE
  5
A9F
  8
0
  6
CONTINUOUS
 62
     7
 10
-423.82709
 20
312.99124
 30
0.0
 11
-423.82709
 21
314.99193999999989
 31
0.0
  0
LINE
  5
AA0
  8
0
  6
CENTER
 62
     7
 10
-372.82715000000002
 20
317.19378999999992
 30
0.0
 11
-372.82715000000002
 21
331.57198999999991
 31
0.0
  0
LINE
  5
AA1
  8
0
  6
CONTINUOUS
 62
     7
 10
-367.69619999999992
 20
313.43453999999991
 30
0.0
 11
-422.82709
 21
311.99088
 31
0.0
  0
LINE
  5
AA2
  8
0
  6
CONTINUOUS
 62
     7
 10
-422.82711999999998
 20
311.99090999999999
 30
0.0
 11
-440.95797999999991
 21
312.46566999999999
 31
0.0
  0
LINE
  5
AA3
  8
0
  6
CONTINUOUS
 62
     7
 10
-364.82708999999988
 20
421.22802999999988
 30
0.0
 11
-364.82708999999988
 21
339.54894999999999
 31
0.0
  0
LINE
  5
AA4
  8
0
  6
CONTINUOUS
 62
     7
 10
-422.82709
 20
321.99090999999981
 30
0.0
 11
-422.82709
 21
441.99090999999987
 31
0.0
  0
LINE
  5
AA5
  8
0
  6
CENTER
 62
     7
 10
-443.26284999999979
 20
324.49090999999999
 30
0.0
 11
-429.00365999999991
 21
324.49090999999999
 31
0.0
  0
LINE
  5
AA6
  8
0
  6
CENTER
 62
     7
 10
-435.82714999999979
 20
317.06387000000001
 30
0.0
 11
-435.82714999999979
 21
331.53201000000001
 31
0.0
  0
LINE
  5
AA7
  8
0
  6
CONTINUOUS
 62
     7
 10
-372.95797999999991
 20
339.61840999999993
 30
0.0
 11
-367.74856999999992
 21
339.75482
 31
0.0
  0
LINE
  5
AA8
  8
0
  6
CONTINUOUS
 62
     7
 10
-362.82708999999988
 20
318.43282999999991
 30
0.0
 11
-362.82708999999988
 21
335.54894999999999
 31
0.0
  0
LINE
  5
AA9
  8
0
  6
CONTINUOUS
 62
     7
 10
-445.82709
 20
317.46395999999987
 30
0.0
 11
-445.82709
 21
321.38861000000009
 31
0.0
  0
LINE
  5
AAA
  8
0
  6
CENTER
 62
     7
 10
-379.94574
 20
324.49090999999999
 30
0.0
 11
-365.62871999999987
 21
324.49090999999999
 31
0.0
  0
LINE
  5
AAB
  8
0
  6
CONTINUOUS
 62
     7
 10
-455.32709
 20
321.13985999999983
 30
0.0
 11
-414.36590999999981
 21
322.21246000000002
 31
0.0
  0
LINE
  5
AAC
  8
0
  6
CONTINUOUS
 62
     7
 10
-387.82709
 20
447.99480999999992
 30
0.0
 11
-387.82709
 21
438.86169000000001
 31
0.0
  0
LINE
  5
AAD
  8
0
  6
CONTINUOUS
 62
     7
 10
-382.95797999999991
 20
433.86339999999979
 30
0.0
 11
-380.74856999999992
 21
433.80554000000001
 31
0.0
  0
LINE
  5
AAE
  8
0
  6
CONTINUOUS
 62
     7
 10
-420.85327000000001
 20
448.0412
 30
0.0
 11
-422.80090000000001
 21
447.99020000000002
 31
0.0
  0
LINE
  5
AAF
  8
0
  6
CONTINUOUS
 62
     7
 10
-419.82709
 20
449.96401999999989
 30
0.0
 11
-419.82709
 21
443.96539000000001
 31
0.0
  0
LINE
  5
AB0
  8
0
  6
CONTINUOUS
 62
     7
 10
-423.82709
 20
450.99054000000001
 30
0.0
 11
-423.82709
 21
448.98987
 31
0.0
  0
LINE
  5
AB1
  8
0
  6
CENTER
 62
     7
 10
-372.82715000000002
 20
446.62920999999989
 30
0.0
 11
-372.82715000000002
 21
432.36248999999992
 31
0.0
  0
LINE
  5
AB2
  8
0
  6
CONTINUOUS
 62
     7
 10
-367.69622999999967
 20
450.54723999999999
 30
0.0
 11
-422.82709
 21
451.99090999999987
 31
0.0
  0
LINE
  5
AB3
  8
0
  6
CONTINUOUS
 62
     7
 10
-422.82709
 20
451.99088
 30
0.0
 11
-440.95797999999991
 21
451.51610999999991
 31
0.0
  0
LINE
  5
AB4
  8
0
  6
CENTER
 62
     7
 10
-443.09325999999999
 20
439.49090999999987
 30
0.0
 11
-428.46985000000001
 21
439.49090999999987
 31
0.0
  0
LINE
  5
AB5
  8
0
  6
CENTER
 62
     7
 10
-435.82714999999979
 20
446.80358999999999
 30
0.0
 11
-435.82714999999979
 21
432.03750999999988
 31
0.0
  0
LINE
  5
AB6
  8
0
  6
CONTINUOUS
 62
     7
 10
-372.95797999999991
 20
424.36340000000001
 30
0.0
 11
-367.74856999999992
 21
424.22699000000011
 31
0.0
  0
LINE
  5
AB7
  8
0
  6
CONTINUOUS
 62
     7
 10
-362.82708999999988
 20
445.54894999999988
 30
0.0
 11
-362.82708999999988
 21
428.43282999999991
 31
0.0
  0
LINE
  5
AB8
  8
0
  6
CONTINUOUS
 62
     7
 10
-445.82709
 20
446.51781999999992
 30
0.0
 11
-445.82709
 21
442.59316999999987
 31
0.0
  0
LINE
  5
AB9
  8
0
  6
CENTER
 62
     7
 10
-379.65136999999987
 20
439.49090999999987
 30
0.0
 11
-365.43468999999999
 21
439.49090999999987
 31
0.0
  0
LINE
  5
ABA
  8
0
  6
CONTINUOUS
 62
     7
 10
-455.32709
 20
442.84195
 30
0.0
 11
-414.36587999999989
 21
441.76934999999992
 31
0.0
  0
LINE
  5
ABB
  8
0
  6
CONTINUOUS
 62
     7
 10
-411.82708999999988
 20
424.72455000000002
 30
0.0
 11
-411.82708999999988
 21
441.37259000000012
 31
0.0
  0
LINE
  5
ABC
  8
0
  6
CONTINUOUS
 62
     7
 10
-409.82715000000002
 20
339.25725999999992
 30
0.0
 11
-409.82715000000002
 21
424.72455000000002
 31
0.0
  0
LINE
  5
ABD
  8
0
  6
CONTINUOUS
 62
     7
 10
-455.32709
 20
437.51724000000002
 30
0.0
 11
-411.82708999999988
 21
437.51724000000002
 31
0.0
  0
LINE
  5
ABE
  8
0
  6
CONTINUOUS
 62
     7
 10
-455.32709
 20
326.46454
 30
0.0
 11
-411.82708999999988
 21
326.46454
 31
0.0
  0
LINE
  5
ABF
  8
0
  6
CONTINUOUS
 62
     7
 10
-402.86407000000003
 20
436.52804999999989
 30
0.0
 11
-409.62765999999999
 21
440.43301000000002
 31
0.0
  0
LINE
  5
AC0
  8
0
  6
CONTINUOUS
 62
     7
 10
-411.82708999999988
 20
424.72455000000002
 30
0.0
 11
-409.82715000000002
 21
424.72455000000002
 31
0.0
  0
LINE
  5
AC1
  8
0
  6
CONTINUOUS
 62
     7
 10
-385.83812999999992
 20
434.86995999999988
 30
0.0
 11
-398.12585000000001
 21
435.19173999999992
 31
0.0
  0
LINE
  5
AC2
  8
0
  6
CONTINUOUS
 62
     7
 10
-398.32900999999993
 20
423.31273999999979
 30
0.0
 11
-409.82711999999998
 21
424.72455000000002
 31
0.0
  0
LINE
  5
AC3
  8
0
  6
CONTINUOUS
 62
     7
 10
-377.82711999999992
 20
422.59679999999992
 30
0.0
 11
-398.32898
 21
423.31273999999979
 31
0.0
  0
LINE
  5
AC4
  8
0
  6
CONTINUOUS
 62
     7
 10
-402.86407000000003
 20
327.45373999999993
 30
0.0
 11
-409.62765999999999
 21
323.54876999999999
 31
0.0
  0
LINE
  5
AC5
  8
0
  6
CONTINUOUS
 62
     7
 10
-411.82708999999988
 20
339.25725999999992
 30
0.0
 11
-411.82708999999988
 21
322.60919000000001
 31
0.0
  0
LINE
  5
AC6
  8
0
  6
CONTINUOUS
 62
     7
 10
-377.82711999999992
 20
341.38497999999993
 30
0.0
 11
-398.32900999999993
 21
340.66904
 31
0.0
  0
LINE
  5
AC7
  8
0
  6
CONTINUOUS
 62
     7
 10
-398.32900999999993
 20
340.66904
 30
0.0
 11
-409.82711999999998
 21
339.25722999999982
 31
0.0
  0
LINE
  5
AC8
  8
0
  6
CONTINUOUS
 62
     7
 10
-411.82708999999988
 20
339.25725999999992
 30
0.0
 11
-409.82715000000002
 21
339.25725999999992
 31
0.0
  0
LINE
  5
AC9
  8
0
  6
CONTINUOUS
 62
     7
 10
-385.83812999999992
 20
329.11185
 30
0.0
 11
-398.12581999999992
 21
328.79007000000001
 31
0.0
  0
LINE
  5
ACA
  8
0
  6
CONTINUOUS
 62
     7
 10
-410.82708999999988
 20
337.78314
 30
0.0
 11
-407.82708999999988
 21
337.78314
 31
0.0
  0
LINE
  5
ACB
  8
0
  6
CONTINUOUS
 62
     7
 10
-410.82708999999988
 20
326.23615000000001
 30
0.0
 11
-407.82708999999988
 21
326.23615000000001
 31
0.0
  0
LINE
  5
ACC
  8
0
  6
CONTINUOUS
 62
     7
 10
-410.82708999999988
 20
334.89641999999992
 30
0.0
 11
-407.82708999999988
 21
334.89641999999992
 31
0.0
  0
LINE
  5
ACD
  8
0
  6
CONTINUOUS
 62
     7
 10
-406.82714999999979
 20
327.23615000000001
 30
0.0
 11
-406.82714999999979
 21
336.78316999999993
 31
0.0
  0
LINE
  5
ACE
  8
0
  6
CONTINUOUS
 62
     7
 10
-410.82708999999988
 20
329.12286
 30
0.0
 11
-407.82708999999988
 21
329.12286
 31
0.0
  0
LINE
  5
ACF
  8
0
  6
CONTINUOUS
 62
     7
 10
-411.82708999999988
 20
325.73615000000001
 30
0.0
 11
-410.82708999999988
 21
325.73615000000001
 31
0.0
  0
LINE
  5
AD0
  8
0
  6
CONTINUOUS
 62
     7
 10
-411.82708999999988
 20
338.28314
 30
0.0
 11
-410.82708999999988
 21
338.28314
 31
0.0
  0
LINE
  5
AD1
  8
0
  6
CONTINUOUS
 62
     7
 10
-410.82708999999988
 20
338.28314
 30
0.0
 11
-410.82708999999988
 21
325.73615000000001
 31
0.0
  0
LINE
  5
AD2
  8
0
  6
CONTINUOUS
 62
     7
 10
-410.82708999999988
 20
425.69866999999988
 30
0.0
 11
-410.82708999999988
 21
438.24567000000002
 31
0.0
  0
LINE
  5
AD3
  8
0
  6
CONTINUOUS
 62
     7
 10
-411.82708999999988
 20
425.69866999999988
 30
0.0
 11
-410.82708999999988
 21
425.69866999999988
 31
0.0
  0
LINE
  5
AD4
  8
0
  6
CONTINUOUS
 62
     7
 10
-411.82708999999988
 20
438.24567000000002
 30
0.0
 11
-410.82708999999988
 21
438.24567000000002
 31
0.0
  0
LINE
  5
AD5
  8
0
  6
CONTINUOUS
 62
     7
 10
-410.82708999999988
 20
434.85892000000001
 30
0.0
 11
-407.82708999999988
 21
434.85892000000001
 31
0.0
  0
LINE
  5
AD6
  8
0
  6
CONTINUOUS
 62
     7
 10
-406.82714999999979
 20
436.74566999999979
 30
0.0
 11
-406.82714999999979
 21
427.19864000000001
 31
0.0
  0
LINE
  5
AD7
  8
0
  6
CONTINUOUS
 62
     7
 10
-410.82708999999988
 20
429.08539000000002
 30
0.0
 11
-407.82708999999988
 21
429.08539000000002
 31
0.0
  0
LINE
  5
AD8
  8
0
  6
CONTINUOUS
 62
     7
 10
-410.82708999999988
 20
437.74567000000002
 30
0.0
 11
-407.82708999999988
 21
437.74567000000002
 31
0.0
  0
LINE
  5
AD9
  8
0
  6
CONTINUOUS
 62
     7
 10
-410.82708999999988
 20
426.19864000000001
 30
0.0
 11
-407.82708999999988
 21
426.19864000000001
 31
0.0
  0
LINE
  5
ADA
  8
0
  6
CONTINUOUS
 62
     7
 10
-410.82711999999992
 20
174.97341999999981
 30
0.0
 11
-410.82711999999992
 21
162.42640999999969
 31
0.0
  0
LINE
  5
ADB
  8
0
  6
CONTINUOUS
 62
     7
 10
-411.82711999999992
 20
162.42640999999969
 30
0.0
 11
-410.82711999999992
 21
162.42640999999969
 31
0.0
  0
LINE
  5
ADC
  8
0
  6
CONTINUOUS
 62
     7
 10
-422.82711999999998
 20
190.34796
 30
0.0
 11
-422.82711999999998
 21
80.347968999999978
 31
0.0
  0
LINE
  5
ADE
  8
0
  6
CONTINUOUS
 62
     7
 10
-164.3900099999999
 20
69.256790000000009
 30
0.0
 11
-164.3900099999999
 21
75.030311999999981
 31
0.0
  0
LINE
  5
ADF
  8
0
  6
CONTINUOUS
 62
     7
 10
-90.299683000000002
 20
165.81317000000001
 30
0.0
 11
-90.299683000000002
 21
171.58667
 31
0.0
  0
LINE
  5
AE0
  8
0
  6
CONTINUOUS
 62
     7
 10
-169.38999999999999
 20
77.917053000000024
 30
0.0
 11
-174.38999999999999
 21
75.030304000000001
 31
0.0
  0
LINE
  5
AE1
  8
0
  6
CONTINUOUS
 62
     7
 10
-126.17189999999999
 20
69.256805
 30
0.0
 11
-121.1718999999997
 21
66.370056000000005
 31
0.0
  0
LINE
  5
AE2
  8
0
  6
CONTINUOUS
 62
     7
 10
-169.38999999999999
 20
66.370063999999999
 30
0.0
 11
-164.3900099999999
 21
69.256812999999994
 31
0.0
  0
LINE
  5
AE3
  8
0
  6
CONTINUOUS
 62
     7
 10
-121.17188
 20
66.370063999999999
 30
0.0
 11
-116.17188
 21
69.256812999999994
 31
0.0
  0
LINE
  5
AE4
  8
0
  6
CONTINUOUS
 62
     7
 10
-100.29969
 20
171.58667
 30
0.0
 11
-100.29969
 21
165.81317000000001
 31
0.0
  0
LINE
  5
AE5
  8
0
  6
CONTINUOUS
 62
     7
 10
-164.3900099999999
 20
75.030311999999981
 30
0.0
 11
-169.39000999999999
 21
77.917061000000004
 31
0.0
  0
LINE
  5
AE6
  8
0
  6
CONTINUOUS
 62
     7
 10
-95.299674999999993
 20
162.92643999999979
 30
0.0
 11
-90.299674999999993
 21
165.81318999999979
 31
0.0
  0
LINE
  5
AE7
  8
0
  6
CONTINUOUS
 62
     7
 10
-148.28093999999979
 20
159.34794999999991
 30
0.0
 11
-148.28093999999979
 21
153.34795
 31
0.0
  0
LINE
  5
AE8
  8
0
  6
CONTINUOUS
 62
     7
 10
-148.28093999999979
 20
153.34795
 30
0.0
 11
-142.28093999999999
 21
153.34795
 31
0.0
  0
LINE
  5
AE9
  8
0
  6
CONTINUOUS
 62
     7
 10
-142.28093999999999
 20
153.34795
 30
0.0
 11
-142.28093999999999
 21
159.34794999999991
 31
0.0
  0
LINE
  5
AEA
  8
0
  6
CONTINUOUS
 62
     7
 10
-142.28093999999999
 20
159.34794999999991
 30
0.0
 11
-148.28093999999979
 21
159.34794999999991
 31
0.0
  0
LINE
  5
AEB
  8
0
  6
CONTINUOUS
 62
     7
 10
-332.82711999999992
 20
137.84796
 30
0.0
 11
-332.82711999999992
 21
159.3479599999998
 31
0.0
  0
LINE
  5
AEC
  8
0
  6
CONTINUOUS
 62
     7
 10
-360.82715000000002
 20
156.84796
 30
0.0
 11
-332.82711999999992
 21
156.84796
 31
0.0
  0
LINE
  5
AED
  8
0
  6
CONTINUOUS
 62
     7
 10
-360.82715000000002
 20
137.84796
 30
0.0
 11
-332.82711999999992
 21
137.84796
 31
0.0
  0
LINE
  5
AEE
  8
0
  6
CENTER
 62
     7
 10
-434.17653999999982
 20
147.34795
 30
0.0
 11
-327.19222999999988
 21
147.34795
 31
0.0
  0
LINE
  5
AEF
  8
0
  6
CENTER
 62
     7
 10
-372.82715000000002
 20
60.674236000000001
 30
0.0
 11
-372.82715000000002
 21
73.931831000000003
 31
0.0
  0
LINE
  5
AF0
  8
0
  6
CENTER
 62
     7
 10
-435.82714999999979
 20
60.929192
 30
0.0
 11
-435.82714999999979
 21
74.524344999999983
 31
0.0
  0
LINE
  5
AF1
  8
0
  6
CONTINUOUS
 62
     7
 10
-411.82711999999992
 20
174.97341999999981
 30
0.0
 11
-410.82711999999992
 21
174.97341999999981
 31
0.0
  0
LINE
  5
AF2
  8
0
  6
CONTINUOUS
 62
     7
 10
-360.82715000000002
 20
137.34796
 30
0.0
 11
-360.82715000000002
 21
147.34795
 31
0.0
  0
LINE
  5
AF3
  8
0
  6
CENTER
 62
     7
 10
-625.89404000000002
 20
130.34795999999969
 30
0.0
 11
-424.86358999999999
 21
130.34795999999969
 31
0.0
  0
LINE
  5
AF4
  8
0
  6
CENTER
 62
     1
 10
-145.2809399999999
 20
59.080466999999992
 30
0.0
 11
-145.2809399999999
 21
195.14005
 31
0.0
  0
LINE
  5
AF5
  8
0
  6
CENTER
 62
     1
 10
-171.03021000000001
 20
147.34795
 30
0.0
 11
-120.62053
 21
147.34795
 31
0.0
  0
LINE
  5
AF6
  8
0
  6
CENTER
 62
     1
 10
-83.546111999999994
 20
130.34795999999969
 30
0.0
 11
-206.03804
 21
130.34795999999969
 31
0.0
  0
LINE
  5
AF7
  8
0
  6
CONTINUOUS
 62
     7
 10
-360.82715000000002
 20
157.34795999999969
 30
0.0
 11
-360.82715000000002
 21
147.34795
 31
0.0
  0
LINE
  5
AF8
  8
0
  6
CONTINUOUS
 62
     1
 10
-362.82711999999992
 20
157.34795999999969
 30
0.0
 11
-360.82715000000002
 21
157.34795999999969
 31
0.0
  0
LINE
  5
AF9
  8
0
  6
CONTINUOUS
 62
     1
 10
-362.82711999999992
 20
137.34796
 30
0.0
 11
-360.82715000000002
 21
137.34796
 31
0.0
  0
LINE
  5
AFA
  8
0
  6
CONTINUOUS
 62
     7
 10
-354.82715000000002
 20
159.34796
 30
0.0
 11
-332.82711999999992
 21
159.34796
 31
0.0
  0
LINE
  5
AFB
  8
0
  6
CONTINUOUS
 62
     7
 10
-100.29970999999991
 20
165.81318999999979
 30
0.0
 11
-95.299706
 21
162.92643999999979
 31
0.0
  0
LINE
  5
AFC
  8
0
  6
CONTINUOUS
 62
     7
 10
-174.38999999999999
 20
75.030311999999981
 30
0.0
 11
-174.38999999999999
 21
69.256790000000009
 31
0.0
  0
LINE
  5
AFD
  8
0
  6
CONTINUOUS
 62
     7
 10
-90.299706
 20
171.58670000000001
 30
0.0
 11
-95.299698000000006
 21
174.47345000000001
 31
0.0
  0
LINE
  5
AFE
  8
0
  6
CONTINUOUS
 62
     7
 10
-195.26219
 20
162.92644999999979
 30
0.0
 11
-190.26218999999969
 21
165.81319999999991
 31
0.0
  0
LINE
  5
AFF
  8
0
  6
CONTINUOUS
 62
     7
 10
-174.3900099999999
 20
69.256812999999994
 30
0.0
 11
-169.39000999999999
 21
66.370063999999999
 31
0.0
  0
LINE
  5
B00
  8
0
  6
CONTINUOUS
 62
     7
 10
-116.1718999999997
 20
75.030311999999981
 30
0.0
 11
-121.1718999999997
 21
77.917061000000004
 31
0.0
  0
LINE
  5
B01
  8
0
  6
CONTINUOUS
 62
     7
 10
-121.17188
 20
77.91707599999998
 30
0.0
 11
-126.17188
 21
75.030318999999977
 31
0.0
  0
LINE
  5
B02
  8
0
  6
CONTINUOUS
 62
     7
 10
-190.26218999999969
 20
165.81317000000001
 30
0.0
 11
-190.26218999999969
 21
171.58667
 31
0.0
  0
LINE
  5
B03
  8
0
  6
CONTINUOUS
 62
     7
 10
-190.26218999999969
 20
171.58668999999981
 30
0.0
 11
-195.26221000000001
 21
174.47343000000001
 31
0.0
  0
LINE
  5
B04
  8
0
  6
CONTINUOUS
 62
     7
 10
-195.26219
 20
174.47345000000001
 30
0.0
 11
-200.26219
 21
171.58668999999981
 31
0.0
  0
LINE
  5
B05
  8
0
  6
CONTINUOUS
 62
     7
 10
-200.2622099999999
 20
171.58667
 30
0.0
 11
-200.2622099999999
 21
165.81317000000001
 31
0.0
  0
LINE
  5
B06
  8
0
  6
CONTINUOUS
 62
     7
 10
-200.2622099999999
 20
165.81318999999979
 30
0.0
 11
-195.26219
 21
162.92643999999979
 31
0.0
  0
LINE
  5
B07
  8
0
  6
CONTINUOUS
 62
     7
 10
-95.299674999999993
 20
174.47345000000001
 30
0.0
 11
-100.29966999999991
 21
171.58670000000001
 31
0.0
  0
LINE
  5
B08
  8
0
  6
CONTINUOUS
 62
     7
 10
-116.17188999999991
 20
69.256790000000009
 30
0.0
 11
-116.17188999999991
 21
75.030311999999981
 31
0.0
  0
LINE
  5
B09
  8
0
  6
CONTINUOUS
 62
     7
 10
-126.17189999999999
 20
75.030311999999981
 30
0.0
 11
-126.17189999999999
 21
69.256790000000009
 31
0.0
  0
LINE
  5
B0A
  8
0
  6
CONTINUOUS
 62
     7
 10
-410.82711999999992
 20
174.47342
 30
0.0
 11
-407.82711999999992
 21
174.47342
 31
0.0
  0
LINE
  5
B0B
  8
0
  6
CONTINUOUS
 62
     7
 10
-410.82711999999992
 20
162.92641
 30
0.0
 11
-407.82711999999992
 21
162.92641
 31
0.0
  0
LINE
  5
B0C
  8
0
  6
CONTINUOUS
 62
     7
 10
-410.82711999999992
 20
165.81316000000001
 30
0.0
 11
-407.82711999999992
 21
165.81316000000001
 31
0.0
  0
LINE
  5
B0D
  8
0
  6
CONTINUOUS
 62
     7
 10
-410.82711999999992
 20
171.58667
 30
0.0
 11
-407.82711999999992
 21
171.58667
 31
0.0
  0
LINE
  5
B0E
  8
0
  6
CONTINUOUS
 62
     7
 10
-406.82714999999979
 20
163.92641
 30
0.0
 11
-406.82714999999979
 21
173.47343000000001
 31
0.0
  0
LINE
  5
B0F
  8
0
  6
CONTINUOUS
 62
     7
 10
-354.82715000000002
 20
156.84796
 30
0.0
 11
-354.82715000000002
 21
159.34796
 31
0.0
  0
LINE
  5
B10
  8
0
  6
CONTINUOUS
 62
     7
 10
-398.04143999999991
 20
154.68729999999991
 30
0.0
 11
-409.82715000000002
 21
72.347960999999998
 31
0.0
  0
LINE
  5
B11
  8
0
  6
CONTINUOUS
 62
     7
 10
-398.11748999999992
 20
174.76787999999991
 30
0.0
 11
-409.82715000000002
 21
190.00756999999999
 31
0.0
  0
LINE
  5
B12
  8
0
  6
CONTINUOUS
 62
     7
 10
-362.82711999999992
 20
166.3737899999999
 30
0.0
 11
-362.82711999999992
 21
128.32211000000001
 31
0.0
  0
LINE
  5
B13
  8
0
  6
CONTINUOUS
 62
     7
 10
-419.84769000000011
 20
106.17331
 30
0.0
 11
-423.51543999999978
 21
74.997437000000005
 31
0.0
  0
LINE
  5
B14
  8
0
  6
CONTINUOUS
 62
     7
 10
-411.82711999999992
 20
178.56993
 30
0.0
 11
-411.82711999999992
 21
159.18617
 31
0.0
  0
LINE
  5
B15
  8
0
  6
CONTINUOUS
 62
     7
 10
-374.82711999999998
 20
184.22026
 30
0.0
 11
-374.82711999999998
 21
99.115387000000013
 31
0.0
  0
LINE
  5
B16
  8
0
  6
CONTINUOUS
 62
     7
 10
-387.82711999999998
 20
77.347945999999979
 30
0.0
 11
-387.82711999999998
 21
155.26537999999991
 31
0.0
  0
LINE
  5
B17
  8
0
  6
CONTINUOUS
 62
     7
 10
-419.82711999999981
 20
135.0987899999997
 30
0.0
 11
-419.82711999999981
 21
106.52381
 31
0.0
  0
LINE
  5
B18
  8
0
  6
CONTINUOUS
 62
     7
 10
-379.82715000000002
 20
94.115371999999994
 30
0.0
 11
-387.82711999999998
 21
94.115371999999994
 31
0.0
  0
LINE
  5
B19
  8
0
  6
CONTINUOUS
 62
     7
 10
-382.82714999999968
 20
62.347960999999998
 30
0.0
 11
-382.82714999999968
 21
62.347960999999998
 31
0.0
  0
LINE
  5
B1A
  8
0
  6
CONTINUOUS
 62
     7
 10
-424.82715000000002
 20
63.347968999999992
 30
0.0
 11
-383.82711999999992
 21
63.347968999999992
 31
0.0
  0
LINE
  5
B1B
  8
0
  6
CONTINUOUS
 62
     7
 10
-425.82711999999998
 20
62.347960999999998
 30
0.0
 11
-425.82711999999998
 21
62.347960999999998
 31
0.0
  0
LINE
  5
B1C
  8
0
  6
CONTINUOUS
 62
     7
 10
-382.82714999999968
 20
62.347960999999998
 30
0.0
 11
-362.82711999999992
 21
62.347960999999998
 31
0.0
  0
LINE
  5
B1D
  8
0
  6
CONTINUOUS
 62
     7
 10
-426.49486999999988
 20
72.347954000000001
 30
0.0
 11
-444.32715000000002
 21
72.347954000000001
 31
0.0
  0
LINE
  5
B1E
  8
0
  6
DASHED
 62
     7
 10
-367.82715000000002
 20
62.347960999999998
 30
0.0
 11
-367.82715000000002
 21
72.347954000000001
 31
0.0
  0
LINE
  5
B1F
  8
0
  6
CONTINUOUS
 62
     7
 10
-364.82715000000002
 20
175.34796
 30
0.0
 11
-364.82715000000002
 21
75.538360999999981
 31
0.0
  0
LINE
  5
B20
  8
0
  6
DASHED
 62
     7
 10
-430.82715000000002
 20
62.347960999999998
 30
0.0
 11
-430.82715000000002
 21
72.347954000000001
 31
0.0
  0
LINE
  5
B21
  8
0
  6
DASHED
 62
     7
 10
-440.82711999999992
 20
62.347960999999998
 30
0.0
 11
-440.82711999999992
 21
72.347954000000001
 31
0.0
  0
LINE
  5
B22
  8
0
  6
DASHED
 62
     7
 10
-377.82711999999992
 20
62.347960999999998
 30
0.0
 11
-377.82711999999992
 21
72.347954000000001
 31
0.0
  0
LINE
  5
B23
  8
0
  6
CONTINUOUS
 62
     7
 10
-445.82715000000002
 20
62.347960999999998
 30
0.0
 11
-445.82715000000002
 21
70.847954000000001
 31
0.0
  0
LINE
  5
B24
  8
0
  6
CONTINUOUS
 62
     7
 10
-422.82717999999988
 20
190.34796
 30
0.0
 11
-379.69628999999998
 21
189.21854999999999
 31
0.0
  0
LINE
  5
B25
  8
0
  6
CONTINUOUS
 62
     7
 10
-445.82715000000002
 20
62.347960999999998
 30
0.0
 11
-425.82711999999998
 21
62.347960999999998
 31
0.0
  0
LINE
  5
B26
  8
0
  6
CONTINUOUS
 62
     7
 10
-362.82711999999992
 20
62.347960999999998
 30
0.0
 11
-362.82711999999992
 21
70.847954000000001
 31
0.0
  0
LINE
  5
B27
  8
0
  6
CONTINUOUS
 62
     7
 10
-363.85329999999988
 20
127.3210899999997
 30
0.0
 11
-363.80095999999992
 21
127.32246000000001
 31
0.0
  0
LINE
  5
B28
  8
0
  6
CONTINUOUS
 62
     7
 10
-363.85336000000001
 20
167.37482999999969
 30
0.0
 11
-363.80102999999991
 21
167.37345999999991
 31
0.0
  0
LINE
  5
B29
  8
0
  6
CONTINUOUS
 62
     7
 10
-364.32711999999998
 20
72.347954000000001
 30
0.0
 11
-382.82714999999968
 21
72.347954000000001
 31
0.0
  0
LINE
  5
B2A
  8
0
  6
CONTINUOUS
 62
     7
 10
-406.82714999999979
 20
173.86935
 30
0.0
 11
-379.82715000000002
 21
173.86935
 31
0.0
  0
LINE
  5
B2B
  8
0
  6
CONTINUOUS
 62
     7
 10
-374.82711999999998
 20
160.26537999999979
 30
0.0
 11
-382.82714999999968
 21
160.26537999999979
 31
0.0
  0
LINE
  5
B2C
  8
0
  6
CONTINUOUS
 62
     7
 10
-409.82715000000002
 20
158.97880999999981
 30
0.0
 11
-386.17531999999989
 21
158.97880999999981
 31
0.0
  0
LINE
  5
B2D
  8
0
  6
CONTINUOUS
 62
     7
 10
-369.82711999999992
 20
177.34795
 30
0.0
 11
-366.82711999999992
 21
177.34795
 31
0.0
  0
LINE
  5
B2F
  8
0
  6
CONTINUOUS
 62
     7
 10
-450.87475999999992
 20
172.9548199999999
 30
0.0
 11
-411.82711999999992
 21
172.9548199999999
 31
0.0
  0
LINE
  5
B30
  8
0
  6
CONTINUOUS
 62
     7
 10
-106.2809399999999
 20
64.847954000000001
 30
0.0
 11
-107.2809499999999
 21
64.847954000000001
 31
0.0
  0
LINE
  5
B31
  8
0
  6
CONTINUOUS
 62
     7
 10
-184.2809399999999
 20
64.847954000000001
 30
0.0
 11
-183.28093000000001
 21
64.847954000000001
 31
0.0
  0
LINE
  5
B32
  8
0
  6
CONTINUOUS
 62
     7
 10
-215.2809399999999
 20
72.347960999999998
 30
0.0
 11
-205.15620000000001
 21
162.57817
 31
0.0
  0
LINE
  5
B33
  8
0
  6
CONTINUOUS
 62
     1
 10
-197.2809399999999
 20
154.58335999999991
 30
0.0
 11
-197.2809399999999
 21
112.34796
 31
0.0
  0
LINE
  5
B34
  8
0
  6
CONTINUOUS
 62
     7
 10
-105.2809399999999
 20
62.347960999999998
 30
0.0
 11
-105.2809399999999
 21
70.347960999999998
 31
0.0
  0
LINE
  5
B35
  8
0
  6
CONTINUOUS
 62
     7
 10
-75.280945000000003
 20
72.347945999999979
 30
0.0
 11
-86.028603000000004
 21
139.7904199999999
 31
0.0
  0
LINE
  5
B36
  8
0
  6
CONTINUOUS
 62
     1
 10
-187.78093000000001
 20
134.84796
 30
0.0
 11
-187.78093000000001
 21
75.347954000000001
 31
0.0
  0
LINE
  5
B37
  8
0
  6
CONTINUOUS
 62
     1
 10
-180.28093000000001
 20
76.847954000000001
 30
0.0
 11
-180.28093000000001
 21
67.847954000000001
 31
0.0
  0
LINE
  5
B38
  8
0
  6
CONTINUOUS
 62
     1
 10
-110.2809499999999
 20
76.847954000000001
 30
0.0
 11
-110.2809499999999
 21
67.847954000000001
 31
0.0
  0
LINE
  5
B39
  8
0
  6
CONTINUOUS
 62
     1
 10
-185.2809399999999
 20
70.347960999999998
 30
0.0
 11
-185.2809399999999
 21
62.347960999999998
 31
0.0
  0
LINE
  5
B3A
  8
0
  6
CONTINUOUS
 62
     1
 10
-213.78093999999999
 20
72.347954000000001
 30
0.0
 11
-202.78093000000001
 21
72.347954000000001
 31
0.0
  0
LINE
  5
B3B
  8
0
  6
CONTINUOUS
 62
     1
 10
-215.2809399999999
 20
62.347960999999998
 30
0.0
 11
-185.2809399999999
 21
62.347960999999998
 31
0.0
  0
LINE
  5
B3C
  8
0
  6
CONTINUOUS
 62
     1
 10
-76.78093699999998
 20
72.347954000000001
 30
0.0
 11
-87.780951999999999
 21
72.347954000000001
 31
0.0
  0
LINE
  5
B3D
  8
0
  6
CONTINUOUS
 62
     1
 10
-184.2809399999999
 20
63.347968999999992
 30
0.0
 11
-145.2809399999999
 21
63.347968999999992
 31
0.0
  0
LINE
  5
B3E
  8
0
  6
CONTINUOUS
 62
     1
 10
-75.28093699999998
 20
62.347960999999998
 30
0.0
 11
-105.2809399999999
 21
62.347960999999998
 31
0.0
  0
LINE
  5
B3F
  8
0
  6
CONTINUOUS
 62
     1
 10
-115.2809399999999
 20
81.847945999999979
 30
0.0
 11
-175.2809399999999
 21
81.847945999999979
 31
0.0
  0
LINE
  5
B40
  8
0
  6
CONTINUOUS
 62
     1
 10
-106.2809399999999
 20
63.347968999999992
 30
0.0
 11
-145.2809399999999
 21
63.347968999999992
 31
0.0
  0
LINE
  5
B41
  8
0
  6
CONTINUOUS
 62
     1
 10
-202.78093000000001
 20
72.347954000000001
 30
0.0
 11
-187.2809399999999
 21
72.347954000000001
 31
0.0
  0
LINE
  5
B42
  8
0
  6
CONTINUOUS
 62
     1
 10
-87.780951999999999
 20
72.347954000000001
 30
0.0
 11
-103.28094
 21
72.347954000000001
 31
0.0
  0
LINE
  5
B43
  8
0
  6
CONTINUOUS
 62
     1
 10
-215.2809399999999
 20
72.347954000000001
 30
0.0
 11
-215.2809399999999
 21
62.347960999999998
 31
0.0
  0
LINE
  5
B44
  8
0
  6
CONTINUOUS
 62
     1
 10
-75.28093699999998
 20
72.347954000000001
 30
0.0
 11
-75.28093699999998
 21
62.347960999999998
 31
0.0
  0
LINE
  5
B45
  8
0
  6
CONTINUOUS
 62
     1
 10
-102.78095
 20
134.84796
 30
0.0
 11
-102.78095
 21
75.347954000000001
 31
0.0
  0
LINE
  5
B46
  8
0
  6
CONTINUOUS
 62
     7
 10
-215.2809299999999
 20
72.347954000000001
 30
0.0
 11
-204.53326000000001
 21
139.79044999999991
 31
0.0
  0
LINE
  5
B47
  8
0
  6
CONTINUOUS
 62
     1
 10
-93.280936999999994
 20
154.58335999999991
 30
0.0
 11
-93.280936999999994
 21
112.34796
 31
0.0
  0
LINE
  5
B48
  8
0
  6
CENTER
 62
     1
 10
-87.780951999999999
 20
74.072570999999982
 30
0.0
 11
-87.780951999999999
 21
59.33663199999998
 31
0.0
  0
LINE
  5
B49
  8
0
  6
CENTER
 62
     1
 10
-202.78095999999991
 20
73.925147999999979
 30
0.0
 11
-202.78095999999991
 21
59.739418000000008
 31
0.0
  0
LINE
  5
B4A
  8
0
  6
DASHED
 62
     1
 10
-82.780936999999966
 20
72.347954000000001
 30
0.0
 11
-82.780936999999966
 21
62.347960999999998
 31
0.0
  0
LINE
  5
B4B
  8
0
  6
DASHED
 62
     1
 10
-92.780944999999988
 20
72.347954000000001
 30
0.0
 11
-92.780944999999988
 21
62.347960999999998
 31
0.0
  0
LINE
  5
B4C
  8
0
  6
DASHED
 62
     1
 10
-197.7809399999999
 20
72.347954000000001
 30
0.0
 11
-197.7809399999999
 21
62.347960999999998
 31
0.0
  0
LINE
  5
B4D
  8
0
  6
DASHED
 62
     1
 10
-207.78093999999999
 20
72.347954000000001
 30
0.0
 11
-207.78093999999999
 21
62.347960999999998
 31
0.0
  0
LINE
  5
B4E
  8
0
  6
CONTINUOUS
 62
     7
 10
-450.37948999999992
 20
69.626494999999991
 30
0.0
 11
-445.82715000000002
 21
69.745705000000001
 31
0.0
  0
LINE
  5
B4F
  8
0
  6
CONTINUOUS
 62
     7
 10
-460.32711999999998
 20
181.84795
 30
0.0
 11
-454.32711999999992
 21
181.84795
 31
0.0
  0
LINE
  5
B50
  8
0
  6
CONTINUOUS
 62
     7
 10
-460.32711999999998
 20
92.351653999999996
 30
0.0
 11
-454.32711999999992
 21
92.351653999999996
 31
0.0
  0
LINE
  5
B51
  8
0
  6
CONTINUOUS
 62
     7
 10
-454.35335999999978
 20
191.17352
 30
0.0
 11
-422.82717999999988
 21
190.34798000000001
 31
0.0
  0
LINE
  5
B52
  8
0
  6
CONTINUOUS
 62
     7
 10
-460.32711999999998
 20
168.34426999999999
 30
0.0
 11
-454.32711999999992
 21
168.34426999999999
 31
0.0
  0
LINE
  5
B53
  8
0
  6
CONTINUOUS
 62
     7
 10
-460.32714999999979
 20
66.847992000000005
 30
0.0
 11
-456.30092999999999
 21
66.953423000000001
 31
0.0
  0
LINE
  5
B54
  8
0
  6
CONTINUOUS
 62
     7
 10
-455.32711999999998
 20
67.953056000000004
 30
0.0
 11
-455.32711999999998
 21
78.847968999999964
 31
0.0
  0
LINE
  5
B55
  8
0
  6
CONTINUOUS
 62
     7
 10
-454.35332999999991
 20
69.522437999999994
 30
0.0
 11
-450.37948999999992
 21
69.626494999999991
 31
0.0
  0
LINE
  5
B56
  8
0
  6
CONTINUOUS
 62
     7
 10
-452.32711999999992
 20
170.3442499999999
 30
0.0
 11
-452.32711999999992
 21
179.84796
 31
0.0
  0
LINE
  5
B57
  8
0
  6
CONTINUOUS
 62
     7
 10
-460.32711999999998
 20
78.847968999999964
 30
0.0
 11
-454.32711999999992
 21
78.847968999999964
 31
0.0
  0
LINE
  5
B58
  8
0
  6
CONTINUOUS
 62
     7
 10
-455.32711999999998
 20
181.84795
 30
0.0
 11
-455.32711999999998
 21
192.74286000000001
 31
0.0
  0
LINE
  5
B59
  8
0
  6
CONTINUOUS
 62
     7
 10
-452.32711999999992
 20
80.847960999999998
 30
0.0
 11
-452.32711999999992
 21
90.351662000000005
 31
0.0
  0
LINE
  5
B5A
  8
0
  6
CONTINUOUS
 62
     7
 10
-455.32711999999998
 20
92.351653999999996
 30
0.0
 11
-455.32711999999998
 21
168.34426999999999
 31
0.0
  0
LINE
  5
B5B
  8
0
  6
CONTINUOUS
 62
     7
 10
-460.32717999999988
 20
193.84797999999981
 30
0.0
 11
-456.30103000000003
 21
193.74253999999999
 31
0.0
  0
LINE
  5
B5C
  8
0
  6
CONTINUOUS
 62
     3
 10
-155.28093000000001
 20
189.8706699999999
 30
0.0
 11
-155.28093000000001
 21
196.34792999999991
 31
0.0
  0
LINE
  5
B5D
  8
0
  6
CONTINUOUS
 62
     3
 10
-165.28093000000001
 20
188.4256
 30
0.0
 11
-165.28093000000001
 21
194.98493999999991
 31
0.0
  0
LINE
  5
B5E
  8
0
  6
CONTINUOUS
 62
     3
 10
-175.2809399999999
 20
185.97101000000001
 30
0.0
 11
-175.2809399999999
 21
193.26494
 31
0.0
  0
LINE
  5
B5F
  8
0
  6
CONTINUOUS
 62
     3
 10
-204.37192999999991
 20
175.34792999999991
 30
0.0
 11
-198.50971999999999
 21
175.34792999999991
 31
0.0
  0
LINE
  5
B60
  8
0
  6
CONTINUOUS
 62
     7
 10
-217.29079999999999
 20
96.84796900000002
 30
0.0
 11
-237.29082
 21
96.84796900000002
 31
0.0
  0
LINE
  5
B61
  8
0
  6
CONTINUOUS
 62
     3
 10
-205.37152
 20
160.65943999999979
 30
0.0
 11
-217.29082
 21
160.34796
 31
0.0
  0
LINE
  5
B62
  8
0
  6
CONTINUOUS
 62
     3
 10
-84.594368000000003
 20
155.34794999999991
 30
0.0
 11
-81.378943999999976
 21
155.34794999999991
 31
0.0
  0
LINE
  5
B63
  8
0
  6
CONTINUOUS
 62
     3
 10
-215.29082
 20
160.34796
 30
0.0
 11
-215.29082
 21
100.2979499999999
 31
0.0
  0
LINE
  5
B64
  8
0
  6
CONTINUOUS
 62
     3
 10
-212.1541
 20
100.21375
 30
0.0
 11
-217.2907899999999
 21
100.34798000000001
 31
0.0
  0
LINE
  5
B65
  8
0
  6
CONTINUOUS
 62
     3
 10
-135.2809399999999
 20
189.8706699999999
 30
0.0
 11
-135.2809399999999
 21
196.34792999999991
 31
0.0
  0
LINE
  5
B66
  8
0
  6
CONTINUOUS
 62
     3
 10
-86.189926
 20
175.34792999999991
 30
0.0
 11
-92.052161999999996
 21
175.34792999999991
 31
0.0
  0
LINE
  5
B67
  8
0
  6
CONTINUOUS
 62
     3
 10
-125.28093
 20
188.42558
 30
0.0
 11
-125.28093
 21
194.98493999999991
 31
0.0
  0
LINE
  5
B68
  8
0
  6
CONTINUOUS
 62
     3
 10
-115.2809399999999
 20
185.97101000000001
 30
0.0
 11
-115.2809399999999
 21
193.26494
 31
0.0
  0
LINE
  5
B69
  8
0
  6
CONTINUOUS
 62
     7
 10
-82.350181999999975
 20
135.34794999999991
 30
0.0
 11
-80.161361999999983
 21
135.34794999999991
 31
0.0
  0
LINE
  5
B6A
  8
0
  6
CONTINUOUS
 62
     3
 10
-81.780929999999998
 20
165.34792999999979
 30
0.0
 11
-85.916022999999981
 21
165.34792999999979
 31
0.0
  0
LINE
  5
B6B
  8
0
  6
CONTINUOUS
 62
     7
 10
-83.472274999999982
 20
145.34796
 30
0.0
 11
-80.161361999999983
 21
145.34796
 31
0.0
  0
LINE
  5
B6C
  8
0
  6
CONTINUOUS
 62
     7
 10
-223.79082
 20
161.84796
 30
0.0
 11
-220.2907999999999
 21
161.84796
 31
0.0
  0
LINE
  5
B6D
  8
0
  6
CONTINUOUS
 62
     7
 10
-242.29082
 20
100.3479599999999
 30
0.0
 11
-223.79082
 21
100.3479599999999
 31
0.0
  0
LINE
  5
B6E
  8
0
  6
CONTINUOUS
 62
     7
 10
-223.79082
 20
98.847960999999998
 30
0.0
 11
-223.79082
 21
161.84796
 31
0.0
  0
LINE
  5
B6F
  8
0
  6
CONTINUOUS
 62
     7
 10
-237.29082
 20
160.34796
 30
0.0
 11
-237.29082
 21
163.84795
 31
0.0
  0
LINE
  5
B70
  8
0
  6
CONTINUOUS
 62
     7
 10
-242.29079999999999
 20
153.34795999999969
 30
0.0
 11
-245.2907999999999
 21
148.15796
 31
0.0
  0
LINE
  5
B71
  8
0
  6
CONTINUOUS
 62
     7
 10
-242.29082
 20
100.3479599999999
 30
0.0
 11
-242.29082
 21
160.34796
 31
0.0
  0
LINE
  5
B72
  8
0
  6
CONTINUOUS
 62
     7
 10
-237.29082
 20
100.3479599999999
 30
0.0
 11
-237.29082
 21
96.84796900000002
 31
0.0
  0
LINE
  5
B73
  8
0
  6
CONTINUOUS
 62
     7
 10
-220.2907999999999
 20
96.84796900000002
 30
0.0
 11
-220.2907999999999
 21
163.84795
 31
0.0
  0
LINE
  5
B74
  8
0
  6
CONTINUOUS
 62
     7
 10
-217.29079999999999
 20
96.84796900000002
 30
0.0
 11
-217.29079999999999
 21
163.84795
 31
0.0
  0
LINE
  5
B75
  8
0
  6
CONTINUOUS
 62
     7
 10
-460.32711999999998
 20
193.84794999999991
 30
0.0
 11
-460.32711999999998
 21
66.847899999999996
 31
0.0
  0
LINE
  5
B76
  8
0
  6
CONTINUOUS
 62
     7
 10
-242.29079999999999
 20
107.3479699999999
 30
0.0
 11
-245.2907999999999
 21
112.54798
 31
0.0
  0
LINE
  5
B77
  8
0
  6
CONTINUOUS
 62
     7
 10
-245.29082
 20
112.54796
 30
0.0
 11
-245.29082
 21
148.15796
 31
0.0
  0
LINE
  5
B78
  8
0
  6
CONTINUOUS
 62
     7
 10
-223.79082
 20
98.847960999999998
 30
0.0
 11
-220.2907999999999
 21
98.847960999999998
 31
0.0
  0
LINE
  5
B79
  8
0
  6
CONTINUOUS
 62
     7
 10
-242.29082
 20
160.34796
 30
0.0
 11
-223.79082
 21
160.34796
 31
0.0
  0
LINE
  5
B7A
  8
0
  6
CONTINUOUS
 62
     7
 10
-217.29079999999999
 20
163.84795
 30
0.0
 11
-237.29082
 21
163.84795
 31
0.0
  0
LINE
  5
B7B
  8
0
  6
CONTINUOUS
 62
     7
 10
-75.280951999999999
 20
72.347960999999998
 30
0.0
 11
-85.405692999999985
 21
162.57817
 31
0.0
  0
LINE
  5
B7C
  8
0
  6
CONTINUOUS
 62
     7
 10
-409.82715000000002
 20
158.97880999999981
 30
0.0
 11
-409.82715000000002
 21
72.347954000000001
 31
0.0
  0
LINE
  5
B7D
  8
0
  6
CONTINUOUS
 62
     7
 10
-409.82715000000002
 20
189.90280000000001
 30
0.0
 11
-409.82715000000002
 21
174.47342
 31
0.0
  0
LINE
  5
B7E
  8
0
  6
CONTINUOUS
 62
     7
 10
-542.32709
 20
107.3479699999999
 30
0.0
 11
-542.32709
 21
147.36795000000001
 31
0.0
  0
LINE
  5
B7F
  8
0
  6
CONTINUOUS
 62
     7
 10
-567.82709
 20
137.84796
 30
0.0
 11
-567.82709
 21
161.84796
 31
0.0
  0
LINE
  5
B80
  8
0
  6
CONTINUOUS
 62
     7
 10
-543.95708999999965
 20
152.84796
 30
0.0
 11
-539.74712999999986
 21
152.84796
 31
0.0
  0
LINE
  5
B81
  8
0
  6
CONTINUOUS
 62
     3
 10
-621.82709
 20
115.19795000000001
 30
0.0
 11
-617.24712999999986
 21
115.19795000000001
 31
0.0
  0
LINE
  5
B82
  8
0
  6
CONTINUOUS
 62
     3
 10
-611.05713000000003
 20
124.07796999999999
 30
0.0
 11
-569.82714999999985
 21
124.07796999999999
 31
0.0
  0
LINE
  5
B83
  8
0
  6
CONTINUOUS
 62
     3
 10
-474.98714999999999
 20
96.347954000000016
 30
0.0
 11
-519.32714999999985
 21
96.347954000000016
 31
0.0
  0
LINE
  5
B84
  8
0
  6
CONTINUOUS
 62
     3
 10
-567.82709
 20
104.34797
 30
0.0
 11
-609.77710000000002
 21
104.34797
 31
0.0
  0
LINE
  5
B85
  8
0
  6
CONTINUOUS
 62
     3
 10
-610.86712999999997
 20
106.78796
 30
0.0
 11
-567.82709
 21
106.78796
 31
0.0
  0
LINE
  5
B86
  8
0
  6
CONTINUOUS
 62
     3
 10
-567.82709
 20
106.34796
 30
0.0
 11
-609.77710000000002
 21
106.34796
 31
0.0
  0
LINE
  5
B87
  8
0
  6
CONTINUOUS
 62
     3
 10
-610.99712999999986
 20
114.0079499999997
 30
0.0
 11
-567.82709
 21
114.0079499999997
 31
0.0
  0
LINE
  5
B88
  8
0
  6
CONTINUOUS
 62
     3
 10
-567.82709
 20
114.3479499999999
 30
0.0
 11
-609.77710000000002
 21
114.3479499999999
 31
0.0
  0
LINE
  5
B89
  8
0
  6
CONTINUOUS
 62
     3
 10
-489.02713
 20
97.977958999999998
 30
0.0
 11
-489.02713
 21
99.077965000000006
 31
0.0
  0
LINE
  5
B8A
  8
0
  6
CONTINUOUS
 62
     3
 10
-471.50713999999999
 20
96.977951000000004
 30
0.0
 11
-488.02713
 21
96.977951000000004
 31
0.0
  0
LINE
  5
B8B
  8
0
  6
CONTINUOUS
 62
     3
 10
-621.82709
 20
145.49797000000001
 30
0.0
 11
-617.54711999999995
 21
145.49797000000001
 31
0.0
  0
LINE
  5
B8C
  8
0
  6
CONTINUOUS
 62
     3
 10
-610.99712999999986
 20
116.6679699999999
 30
0.0
 11
-567.82709
 21
116.6679699999999
 31
0.0
  0
LINE
  5
B8D
  8
0
  6
CONTINUOUS
 62
     7
 10
-547.32714999999996
 20
163.84795
 30
0.0
 11
-547.32714999999996
 21
160.34796
 31
0.0
  0
LINE
  5
B8E
  8
0
  6
CONTINUOUS
 62
     7
 10
-562.32714999999985
 20
163.84795
 30
0.0
 11
-547.32714999999996
 21
163.84795
 31
0.0
  0
LINE
  5
B8F
  8
0
  6
CONTINUOUS
 62
     3
 10
-569.82714999999985
 20
126.34795
 30
0.0
 11
-609.77710000000002
 21
126.34795
 31
0.0
  0
LINE
  5
B90
  8
0
  6
CONTINUOUS
 62
     3
 10
-569.82714999999985
 20
124.34796
 30
0.0
 11
-609.77710000000002
 21
124.34796
 31
0.0
  0
LINE
  5
B91
  8
0
  6
CONTINUOUS
 62
     3
 10
-611.05713000000003
 20
126.61797
 30
0.0
 11
-569.82714999999985
 21
126.61797
 31
0.0
  0
LINE
  5
B92
  8
0
  6
CONTINUOUS
 62
     3
 10
-488.05715999999973
 20
160.61797000000001
 30
0.0
 11
-478.55718999999988
 21
160.34796
 31
0.0
  0
LINE
  5
B93
  8
0
  6
CONTINUOUS
 62
     3
 10
-489.02713
 20
162.71796000000001
 30
0.0
 11
-489.02713
 21
161.61795000000001
 31
0.0
  0
LINE
  5
B94
  8
0
  6
CONTINUOUS
 62
     3
 10
-471.50713999999999
 20
163.71797000000001
 30
0.0
 11
-488.02713
 21
163.71797000000001
 31
0.0
  0
LINE
  5
B95
  8
0
  6
CONTINUOUS
 62
     3
 10
-594.32714999999985
 20
167.58795000000001
 30
0.0
 11
-594.32714999999985
 21
167.51795999999979
 31
0.0
  0
LINE
  5
B96
  8
0
  6
CONTINUOUS
 62
     3
 10
-611.05713000000003
 20
134.08795000000001
 30
0.0
 11
-569.82714999999985
 21
134.08795000000001
 31
0.0
  0
LINE
  5
B97
  8
0
  6
CONTINUOUS
 62
     3
 10
-611.05713000000003
 20
136.61795000000001
 30
0.0
 11
-569.82714999999985
 21
136.61795000000001
 31
0.0
  0
LINE
  5
B98
  8
0
  6
CONTINUOUS
 62
     3
 10
-610.99712999999986
 20
144.02795
 30
0.0
 11
-567.82709
 21
144.02795
 31
0.0
  0
LINE
  5
B99
  8
0
  6
CONTINUOUS
 62
     3
 10
-610.99712999999986
 20
146.68796999999981
 30
0.0
 11
-567.82709
 21
146.68796999999981
 31
0.0
  0
LINE
  5
B9A
  8
0
  6
CONTINUOUS
 62
     3
 10
-601.86712999999997
 20
153.9079599999998
 30
0.0
 11
-567.82709
 21
153.9079599999998
 31
0.0
  0
LINE
  5
B9B
  8
0
  6
CONTINUOUS
 62
     3
 10
-601.86712999999997
 20
156.8379699999999
 30
0.0
 11
-567.82709
 21
156.8379699999999
 31
0.0
  0
LINE
  5
B9C
  8
0
  6
CONTINUOUS
 62
     3
 10
-601.64715999999999
 20
163.71797000000001
 30
0.0
 11
-562.32714999999985
 21
163.71797000000001
 31
0.0
  0
LINE
  5
B9D
  8
0
  6
CONTINUOUS
 62
     3
 10
-601.64715999999999
 20
167.06795
 30
0.0
 11
-471.50713999999999
 21
167.06795
 31
0.0
  0
LINE
  5
B9E
  8
0
  6
CONTINUOUS
 62
     3
 10
-519.32714999999985
 20
96.347954000000016
 30
0.0
 11
-609.33709999999985
 21
96.347954000000016
 31
0.0
  0
LINE
  5
B9F
  8
0
  6
CONTINUOUS
 62
     3
 10
-610.86712999999997
 20
103.85795999999991
 30
0.0
 11
-567.82709
 21
103.85795999999991
 31
0.0
  0
LINE
  5
BA0
  8
0
  6
CONTINUOUS
 62
     3
 10
-592.32714999999985
 20
66.457954000000001
 30
0.0
 11
-539.32709
 21
66.457954000000001
 31
0.0
  0
LINE
  5
BA1
  8
0
  6
CONTINUOUS
 62
     3
 10
-611.11712999999975
 20
73.667961000000005
 30
0.0
 11
-612.07714999999996
 21
78.127960000000002
 31
0.0
  0
LINE
  5
BA2
  8
0
  6
CONTINUOUS
 62
     3
 10
-613.53716999999995
 20
79.317954999999984
 30
0.0
 11
-611.12714000000005
 21
79.317954999999984
 31
0.0
  0
LINE
  5
BA3
  8
0
  6
CONTINUOUS
 62
     3
 10
-613.51715000000002
 20
75.247955000000005
 30
0.0
 11
-611.45708999999999
 21
75.247955000000005
 31
0.0
  0
LINE
  5
BA4
  8
0
  6
CONTINUOUS
 62
     3
 10
-592.32714999999985
 20
65.107963999999996
 30
0.0
 11
-539.32709
 21
65.107963999999996
 31
0.0
  0
LINE
  5
BA5
  8
0
  6
CONTINUOUS
 62
     3
 10
-615.32714999999985
 20
87.657950999999983
 30
0.0
 11
-605.32709
 21
87.657950999999983
 31
0.0
  0
LINE
  5
BA6
  8
0
  6
CONTINUOUS
 62
     3
 10
-609.18713000000002
 20
68.677970999999999
 30
0.0
 11
-595.82714999999985
 21
68.677970999999999
 31
0.0
  0
LINE
  5
BA7
  8
0
  6
CONTINUOUS
 62
     3
 10
-592.32714999999985
 20
64.427956000000009
 30
0.0
 11
-539.32709
 21
64.427956000000009
 31
0.0
  0
LINE
  5
BA8
  8
0
  6
CONTINUOUS
 62
     3
 10
-621.82709
 20
113.06796
 30
0.0
 11
-620.32708999999966
 21
113.06796
 31
0.0
  0
LINE
  5
BA9
  8
0
  6
CONTINUOUS
 62
     3
 10
-621.82709
 20
110.34796
 30
0.0
 11
-620.32714999999985
 21
110.21796000000001
 31
0.0
  0
LINE
  5
BAA
  8
0
  6
CONTINUOUS
 62
     3
 10
-621.82709
 20
110.3479699999999
 30
0.0
 11
-621.82709
 21
130.34795999999969
 31
0.0
  0
LINE
  5
BAB
  8
0
  6
CONTINUOUS
 62
     3
 10
-618.32714999999996
 20
94.957954000000001
 30
0.0
 11
-618.32714999999996
 21
96.017951999999994
 31
0.0
  0
LINE
  5
BAC
  8
0
  6
CONTINUOUS
 62
     3
 10
-618.32714999999996
 20
104.71795999999991
 30
0.0
 11
-618.32714999999996
 21
106.08794999999991
 31
0.0
  0
LINE
  5
BAD
  8
0
  6
CONTINUOUS
 62
     3
 10
-618.32714999999996
 20
124.73795
 30
0.0
 11
-618.32714999999996
 21
125.89797
 31
0.0
  0
LINE
  5
BAE
  8
0
  6
CONTINUOUS
 62
     3
 10
-618.32714999999996
 20
114.7379699999999
 30
0.0
 11
-618.32714999999996
 21
115.9579499999999
 31
0.0
  0
LINE
  5
BAF
  8
0
  6
CONTINUOUS
 62
     3
 10
-616.32714999999985
 20
126.34795
 30
0.0
 11
-619.32714999999985
 21
126.34795
 31
0.0
  0
LINE
  5
BB0
  8
0
  6
CONTINUOUS
 62
     3
 10
-616.32714999999985
 20
124.34796
 30
0.0
 11
-619.32714999999985
 21
124.34796
 31
0.0
  0
LINE
  5
BB1
  8
0
  6
CONTINUOUS
 62
     3
 10
-616.32714999999985
 20
116.3479699999999
 30
0.0
 11
-619.32714999999985
 21
116.3479699999999
 31
0.0
  0
LINE
  5
BB2
  8
0
  6
CONTINUOUS
 62
     3
 10
-616.32714999999985
 20
114.3479499999999
 30
0.0
 11
-619.32714999999985
 21
114.3479499999999
 31
0.0
  0
LINE
  5
BB3
  8
0
  6
CONTINUOUS
 62
     3
 10
-616.32714999999985
 20
106.34796
 30
0.0
 11
-619.32714999999985
 21
106.34796
 31
0.0
  0
LINE
  5
BB4
  8
0
  6
CONTINUOUS
 62
     3
 10
-616.32714999999985
 20
104.34797
 30
0.0
 11
-619.32714999999985
 21
104.34797
 31
0.0
  0
LINE
  5
BB5
  8
0
  6
CONTINUOUS
 62
     3
 10
-618.46709999999985
 20
96.647980000000004
 30
0.0
 11
-619.61712999999975
 21
97.007980000000003
 31
0.0
  0
LINE
  5
BB6
  8
0
  6
CONTINUOUS
 62
     3
 10
-618.17711999999995
 20
96.607963999999996
 30
0.0
 11
-616.32714999999985
 21
96.607963999999996
 31
0.0
  0
LINE
  5
BB7
  8
0
  6
CONTINUOUS
 62
     3
 10
-618.51715000000002
 20
94.737983999999969
 30
0.0
 11
-619.71709999999985
 21
95.257949999999994
 31
0.0
  0
LINE
  5
BB8
  8
0
  6
CONTINUOUS
 62
     3
 10
-618.12714000000005
 20
94.657959000000005
 30
0.0
 11
-616.02715999999975
 21
94.657959000000005
 31
0.0
  0
LINE
  5
BB9
  8
0
  6
CONTINUOUS
 62
     3
 10
-620.32708999999966
 20
81.757949999999994
 30
0.0
 11
-620.32708999999966
 21
125.3479699999999
 31
0.0
  0
LINE
  5
BBA
  8
0
  6
CONTINUOUS
 62
     3
 10
-615.32714999999985
 20
72.917961000000005
 30
0.0
 11
-615.32714999999985
 21
130.34795999999969
 31
0.0
  0
LINE
  5
BBB
  8
0
  6
CONTINUOUS
 62
     3
 10
-471.52713
 20
189.26800999999969
 30
0.0
 11
-470.08713
 21
182.5680099999999
 31
0.0
  0
LINE
  5
BBC
  8
0
  6
CONTINUOUS
 62
     3
 10
-468.6171299999998
 20
181.38797
 30
0.0
 11
-471.02713
 21
181.38797
 31
0.0
  0
LINE
  5
BBD
  8
0
  6
CONTINUOUS
 62
     3
 10
-473.61709999999988
 20
190.84795
 30
0.0
 11
-468.32715000000002
 21
190.84795
 31
0.0
  0
LINE
  5
BBE
  8
0
  6
CONTINUOUS
 62
     3
 10
-473.58715999999998
 20
190.72797
 30
0.0
 11
-470.12716999999992
 21
177.80799999999991
 31
0.0
  0
LINE
  5
BBF
  8
0
  6
CONTINUOUS
 62
     3
 10
-569.82714999999985
 20
134.34795999999969
 30
0.0
 11
-609.77710000000002
 21
134.34795999999969
 31
0.0
  0
LINE
  5
BC0
  8
0
  6
CONTINUOUS
 62
     3
 10
-537.32714999999985
 20
194.2679399999999
 30
0.0
 11
-537.32714999999985
 21
192.20796000000001
 31
0.0
  0
LINE
  5
BC1
  8
0
  6
CONTINUOUS
 62
     3
 10
-569.82714999999985
 20
136.34796
 30
0.0
 11
-609.77710000000002
 21
136.34796
 31
0.0
  0
LINE
  5
BC2
  8
0
  6
CONTINUOUS
 62
     3
 10
-567.82709
 20
144.34795
 30
0.0
 11
-609.77710000000002
 21
144.34795
 31
0.0
  0
LINE
  5
BC3
  8
0
  6
CONTINUOUS
 62
     3
 10
-594.32714999999985
 20
192.23795000000001
 30
0.0
 11
-594.32714999999985
 21
184.82796999999991
 31
0.0
  0
LINE
  5
BC4
  8
0
  6
CONTINUOUS
 62
     3
 10
-567.82709
 20
146.34796
 30
0.0
 11
-609.77710000000002
 21
146.34796
 31
0.0
  0
LINE
  5
BC5
  8
0
  6
CONTINUOUS
 62
     3
 10
-611.15716999999995
 20
192.13796999999991
 30
0.0
 11
-612.04711999999995
 21
188.60796999999991
 31
0.0
  0
LINE
  5
BC6
  8
0
  6
CONTINUOUS
 62
     3
 10
-613.49712999999997
 20
187.46796000000001
 30
0.0
 11
-611.84710999999982
 21
187.46796000000001
 31
0.0
  0
LINE
  5
BC7
  8
0
  6
CONTINUOUS
 62
     3
 10
-567.82709
 20
154.34795999999969
 30
0.0
 11
-600.77709999999979
 21
154.34795999999969
 31
0.0
  0
LINE
  5
BC8
  8
0
  6
CONTINUOUS
 62
     3
 10
-611.13715000000002
 20
190.47798
 30
0.0
 11
-612.05713000000003
 21
186.59798000000001
 31
0.0
  0
LINE
  5
BC9
  8
0
  6
CONTINUOUS
 62
     3
 10
-567.82709
 20
156.34794999999991
 30
0.0
 11
-600.77709999999979
 21
156.34794999999991
 31
0.0
  0
LINE
  5
BCA
  8
0
  6
CONTINUOUS
 62
     3
 10
-474.98714999999999
 20
164.34796
 30
0.0
 11
-600.77709999999979
 21
164.34796
 31
0.0
  0
LINE
  5
BCB
  8
0
  6
CONTINUOUS
 62
     3
 10
-474.98714999999999
 20
166.34796
 30
0.0
 11
-600.77709999999979
 21
166.34796
 31
0.0
  0
LINE
  5
BCC
  8
0
  6
CONTINUOUS
 62
     3
 10
-613.51715000000002
 20
185.44796999999991
 30
0.0
 11
-611.45708999999999
 21
185.44796999999991
 31
0.0
  0
LINE
  5
BCD
  8
0
  6
CONTINUOUS
 62
     3
 10
-611.11719000000016
 20
187.03798
 30
0.0
 11
-612.07720999999981
 21
182.56797999999981
 31
0.0
  0
LINE
  5
BCE
  8
0
  6
CONTINUOUS
 62
     3
 10
-613.53716999999995
 20
181.38797
 30
0.0
 11
-611.12714000000005
 21
181.38797
 31
0.0
  0
LINE
  5
BCF
  8
0
  6
CONTINUOUS
 62
     3
 10
-592.32714999999985
 20
194.2379599999999
 30
0.0
 11
-539.32709
 21
194.2379599999999
 31
0.0
  0
LINE
  5
BD0
  8
0
  6
CONTINUOUS
 62
     3
 10
-592.32714999999985
 20
195.58795000000001
 30
0.0
 11
-539.32709
 21
195.58795000000001
 31
0.0
  0
LINE
  5
BD1
  8
0
  6
CONTINUOUS
 62
     3
 10
-592.32714999999985
 20
196.2679599999999
 30
0.0
 11
-539.32709
 21
196.2679599999999
 31
0.0
  0
LINE
  5
BD2
  8
0
  6
CONTINUOUS
 62
     3
 10
-609.21715999999981
 20
193.64795000000001
 30
0.0
 11
-595.71715999999958
 21
193.64795000000001
 31
0.0
  0
LINE
  5
BD3
  8
0
  6
CONTINUOUS
 62
     3
 10
-609.18713000000002
 20
192.0179399999999
 30
0.0
 11
-595.82714999999985
 21
192.0179399999999
 31
0.0
  0
LINE
  5
BD4
  8
0
  6
CONTINUOUS
 62
     7
 10
-547.32714999999996
 20
96.84796900000002
 30
0.0
 11
-562.32714999999985
 21
96.84796900000002
 31
0.0
  0
LINE
  5
BD5
  8
0
  6
CONTINUOUS
 62
     3
 10
-609.15710000000001
 20
188.61795000000001
 30
0.0
 11
-595.82714999999985
 21
188.61795000000001
 31
0.0
  0
LINE
  5
BD6
  8
0
  6
CONTINUOUS
 62
     3
 10
-611.60705999999982
 20
178.69798
 30
0.0
 11
-611.06708000000003
 21
181.68797000000001
 31
0.0
  0
LINE
  5
BD7
  8
0
  6
CONTINUOUS
 62
     3
 10
-609.09710999999982
 20
183.32796999999999
 30
0.0
 11
-595.82714999999985
 21
183.32796999999999
 31
0.0
  0
LINE
  5
BD8
  8
0
  6
CONTINUOUS
 62
     3
 10
-592.32714999999985
 20
192.20796000000001
 30
0.0
 11
-475.51715000000002
 21
192.20796000000001
 31
0.0
  0
LINE
  5
BD9
  8
0
  6
CONTINUOUS
 62
     7
 10
-562.32714999999985
 20
96.84796900000002
 30
0.0
 11
-562.32714999999985
 21
100.3479599999999
 31
0.0
  0
LINE
  5
BDA
  8
0
  6
CONTINUOUS
 62
     7
 10
-569.82714999999985
 20
122.84796
 30
0.0
 11
-566.32708999999943
 21
122.84796
 31
0.0
  0
LINE
  5
BDB
  8
0
  6
CONTINUOUS
 62
     7
 10
-569.82714999999985
 20
122.84796
 30
0.0
 11
-569.82714999999985
 21
137.84796
 31
0.0
  0
LINE
  5
BDC
  8
0
  6
CONTINUOUS
 62
     7
 10
-569.82714999999985
 20
137.84796
 30
0.0
 11
-566.32708999999943
 21
137.84796
 31
0.0
  0
LINE
  5
BDD
  8
0
  6
CONTINUOUS
 62
     7
 10
-562.32714999999985
 20
163.84795
 30
0.0
 11
-562.32714999999985
 21
160.34796
 31
0.0
  0
LINE
  5
BDE
  8
0
  6
CONTINUOUS
 62
     3
 10
-567.82709
 20
116.3479699999999
 30
0.0
 11
-609.77710000000002
 21
116.3479699999999
 31
0.0
  0
LINE
  5
BDF
  8
0
  6
CONTINUOUS
 62
     7
 10
-566.32708999999943
 20
100.3479599999999
 30
0.0
 11
-566.32708999999943
 21
160.34796
 31
0.0
  0
LINE
  5
BE0
  8
0
  6
CONTINUOUS
 62
     7
 10
-489.32714999999979
 20
100.3479599999999
 30
0.0
 11
-489.32714999999979
 21
160.34796
 31
0.0
  0
LINE
  5
BE1
  8
0
  6
CONTINUOUS
 62
     7
 10
-547.32714999999996
 20
98.847960999999998
 30
0.0
 11
-487.82715000000002
 21
98.847960999999998
 31
0.0
  0
LINE
  5
BE2
  8
0
  6
CONTINUOUS
 62
     7
 10
-547.32714999999996
 20
161.84796
 30
0.0
 11
-487.82715000000002
 21
161.84796
 31
0.0
  0
LINE
  5
BE3
  8
0
  6
CONTINUOUS
 62
     7
 10
-566.32708999999943
 20
160.34796
 30
0.0
 11
-478.55709999999999
 21
160.34796
 31
0.0
  0
LINE
  5
BE4
  8
0
  6
CONTINUOUS
 62
     7
 10
-537.12714000000005
 20
112.54796
 30
0.0
 11
-537.12714000000005
 21
148.14796000000001
 31
0.0
  0
LINE
  5
BE5
  8
0
  6
CONTINUOUS
 62
     7
 10
-501.52713
 20
112.54796
 30
0.0
 11
-501.52713
 21
148.14796000000001
 31
0.0
  0
LINE
  5
BE6
  8
0
  6
CONTINUOUS
 62
     7
 10
-537.12714000000005
 20
112.54796
 30
0.0
 11
-501.52713
 21
112.54796
 31
0.0
  0
LINE
  5
BE7
  8
0
  6
CONTINUOUS
 62
     7
 10
-537.12714000000005
 20
148.14796000000001
 30
0.0
 11
-501.52713
 21
148.14796000000001
 31
0.0
  0
LINE
  5
BE8
  8
0
  6
CONTINUOUS
 62
     7
 10
-498.95711999999992
 20
107.84796
 30
0.0
 11
-494.74709999999999
 21
107.84796
 31
0.0
  0
LINE
  5
BE9
  8
0
  6
CONTINUOUS
 62
     7
 10
-547.32714999999996
 20
96.84796900000002
 30
0.0
 11
-547.32714999999996
 21
100.3479599999999
 31
0.0
  0
LINE
  5
BEA
  8
0
  6
CONTINUOUS
 62
     7
 10
-496.32711999999998
 20
113.32796
 30
0.0
 11
-496.32711999999998
 21
153.34795
 31
0.0
  0
LINE
  5
BEB
  8
0
  6
CONTINUOUS
 62
     3
 10
-615.32714999999985
 20
178.69797
 30
0.0
 11
-605.32709
 21
178.69797
 31
0.0
  0
LINE
  5
BEC
  8
0
  6
CONTINUOUS
 62
     3
 10
-615.32714999999985
 20
173.03796
 30
0.0
 11
-605.32709
 21
173.03796
 31
0.0
  0
LINE
  5
BED
  8
0
  6
CONTINUOUS
 62
     3
 10
-615.32714999999985
 20
164.65796
 30
0.0
 11
-605.32709
 21
164.65796
 31
0.0
  0
LINE
  5
BEE
  8
0
  6
CONTINUOUS
 62
     3
 10
-605.32709
 20
178.69797
 30
0.0
 11
-605.32709
 21
164.65796
 31
0.0
  0
LINE
  5
BEF
  8
0
  6
CONTINUOUS
 62
     7
 10
-496.82715000000002
 20
105.78796
 30
0.0
 11
-496.82715000000002
 21
109.8179699999999
 31
0.0
  0
LINE
  5
BF0
  8
0
  6
CONTINUOUS
 62
     7
 10
-567.82709
 20
98.847960999999998
 30
0.0
 11
-562.32714999999985
 21
98.847960999999998
 31
0.0
  0
LINE
  5
BF1
  8
0
  6
CONTINUOUS
 62
     7
 10
-541.82714999999985
 20
150.78795
 30
0.0
 11
-541.82714999999985
 21
154.8079699999999
 31
0.0
  0
LINE
  5
BF2
  8
0
  6
CONTINUOUS
 62
     7
 10
-567.82709
 20
98.847960999999998
 30
0.0
 11
-567.82709
 21
122.84796
 31
0.0
  0
LINE
  5
BF3
  8
0
  6
CONTINUOUS
 62
     7
 10
-567.82709
 20
161.84796
 30
0.0
 11
-562.32714999999985
 21
161.84796
 31
0.0
  0
LINE
  5
BF4
  8
0
  6
CONTINUOUS
 62
     7
 10
-542.32709
 20
107.3479699999999
 30
0.0
 11
-502.3071299999998
 21
107.3479699999999
 31
0.0
  0
LINE
  5
BF5
  8
0
  6
CONTINUOUS
 62
     3
 10
-621.82709
 20
147.6279599999998
 30
0.0
 11
-620.32708999999966
 21
147.6279599999998
 31
0.0
  0
LINE
  5
BF6
  8
0
  6
CONTINUOUS
 62
     3
 10
-621.82714999999996
 20
150.34798000000001
 30
0.0
 11
-620.32714999999985
 21
150.47798
 31
0.0
  0
LINE
  5
BF7
  8
0
  6
CONTINUOUS
 62
     3
 10
-621.82709
 20
150.34795
 30
0.0
 11
-621.82709
 21
130.34795999999969
 31
0.0
  0
LINE
  5
BF8
  8
0
  6
CONTINUOUS
 62
     3
 10
-618.32714999999996
 20
179.84796
 30
0.0
 11
-618.32714999999996
 21
179.31796
 31
0.0
  0
LINE
  5
BF9
  8
0
  6
CONTINUOUS
 62
     3
 10
-618.32714999999996
 20
177.74797000000001
 30
0.0
 11
-618.32714999999996
 21
177.19796999999991
 31
0.0
  0
LINE
  5
BFA
  8
0
  6
CONTINUOUS
 62
     3
 10
-618.32714999999996
 20
173.17795000000001
 30
0.0
 11
-618.32714999999996
 21
172.70796000000001
 31
0.0
  0
LINE
  5
BFB
  8
0
  6
CONTINUOUS
 62
     3
 10
-618.32714999999996
 20
165.73795999999979
 30
0.0
 11
-618.32714999999996
 21
164.67796000000001
 31
0.0
  0
LINE
  5
BFC
  8
0
  6
CONTINUOUS
 62
     3
 10
-618.32714999999996
 20
155.97796999999991
 30
0.0
 11
-618.32714999999996
 21
154.60796999999991
 31
0.0
  0
LINE
  5
BFD
  8
0
  6
CONTINUOUS
 62
     3
 10
-618.32714999999996
 20
135.95796000000001
 30
0.0
 11
-618.32714999999996
 21
134.7979399999997
 31
0.0
  0
LINE
  5
BFE
  8
0
  6
CONTINUOUS
 62
     3
 10
-618.32714999999996
 20
145.95795000000001
 30
0.0
 11
-618.32714999999996
 21
144.74797000000001
 31
0.0
  0
LINE
  5
BFF
  8
0
  6
CONTINUOUS
 62
     3
 10
-616.32714999999985
 20
134.34795999999969
 30
0.0
 11
-619.32714999999985
 21
134.34795999999969
 31
0.0
  0
LINE
  5
C00
  8
0
  6
CONTINUOUS
 62
     3
 10
-616.32714999999985
 20
136.34796
 30
0.0
 11
-619.32714999999985
 21
136.34796
 31
0.0
  0
LINE
  5
C01
  8
0
  6
CONTINUOUS
 62
     3
 10
-616.32714999999985
 20
144.34795
 30
0.0
 11
-619.32714999999985
 21
144.34795
 31
0.0
  0
LINE
  5
C02
  8
0
  6
CONTINUOUS
 62
     3
 10
-616.32714999999985
 20
146.34796
 30
0.0
 11
-619.32714999999985
 21
146.34796
 31
0.0
  0
LINE
  5
C03
  8
0
  6
CONTINUOUS
 62
     3
 10
-616.32714999999985
 20
154.34795999999969
 30
0.0
 11
-619.32714999999985
 21
154.34795999999969
 31
0.0
  0
LINE
  5
C04
  8
0
  6
CONTINUOUS
 62
     3
 10
-616.32714999999985
 20
156.34794999999991
 30
0.0
 11
-619.32714999999985
 21
156.34794999999991
 31
0.0
  0
LINE
  5
C05
  8
0
  6
CONTINUOUS
 62
     3
 10
-618.54712000000018
 20
176.73797999999999
 30
0.0
 11
-619.79718000000003
 21
176.06798000000001
 31
0.0
  0
LINE
  5
C06
  8
0
  6
CONTINUOUS
 62
     3
 10
-618.53710999999998
 20
178.8479899999999
 30
0.0
 11
-619.77710000000002
 21
178.2179899999999
 31
0.0
  0
LINE
  5
C07
  8
0
  6
CONTINUOUS
 62
     3
 10
-618.46709999999985
 20
164.0479599999999
 30
0.0
 11
-619.61712999999975
 21
163.69794999999991
 31
0.0
  0
LINE
  5
C08
  8
0
  6
CONTINUOUS
 62
     3
 10
-618.55713000000003
 20
172.1979399999999
 30
0.0
 11
-619.8371599999997
 21
171.4479399999999
 31
0.0
  0
LINE
  5
C09
  8
0
  6
CONTINUOUS
 62
     3
 10
-618.0871599999997
 20
178.94794999999991
 30
0.0
 11
-615.82708999999966
 21
178.94794999999991
 31
0.0
  0
LINE
  5
C0A
  8
0
  6
CONTINUOUS
 62
     3
 10
-618.07708999999966
 20
176.84796
 30
0.0
 11
-616.32714999999985
 21
176.84796
 31
0.0
  0
LINE
  5
C0B
  8
0
  6
CONTINUOUS
 62
     3
 10
-618.05713000000003
 20
172.33795000000001
 30
0.0
 11
-616.32714999999985
 21
172.33795000000001
 31
0.0
  0
LINE
  5
C0C
  8
0
  6
CONTINUOUS
 62
     3
 10
-618.17711999999995
 20
164.08795000000001
 30
0.0
 11
-616.32714999999985
 21
164.08795000000001
 31
0.0
  0
LINE
  5
C0D
  8
0
  6
CONTINUOUS
 62
     3
 10
-618.02710000000002
 20
173.47796999999991
 30
0.0
 11
-615.32714999999985
 21
173.47796999999991
 31
0.0
  0
LINE
  5
C0E
  8
0
  6
CONTINUOUS
 62
     3
 10
-618.04711999999995
 20
177.98795000000001
 30
0.0
 11
-615.32714999999985
 21
177.98795000000001
 31
0.0
  0
LINE
  5
C0F
  8
0
  6
CONTINUOUS
 62
     3
 10
-618.51715000000002
 20
165.95797999999991
 30
0.0
 11
-619.71715999999981
 21
165.44798
 31
0.0
  0
LINE
  5
C10
  8
0
  6
CONTINUOUS
 62
     3
 10
-618.57714999999985
 20
173.30791999999971
 30
0.0
 11
-619.87714000000005
 21
172.45793
 31
0.0
  0
LINE
  5
C11
  8
0
  6
CONTINUOUS
 62
     3
 10
-618.56713999999999
 20
177.84796
 30
0.0
 11
-619.84716999999978
 21
177.07796999999999
 31
0.0
  0
LINE
  5
C12
  8
0
  6
CONTINUOUS
 62
     3
 10
-618.55713000000003
 20
179.96796000000001
 30
0.0
 11
-619.82714999999985
 21
179.22794999999999
 31
0.0
  0
LINE
  5
C13
  8
0
  6
CONTINUOUS
 62
     3
 10
-618.12714000000005
 20
166.03795999999991
 30
0.0
 11
-616.02715999999975
 21
166.03795999999991
 31
0.0
  0
LINE
  5
C14
  8
0
  6
CONTINUOUS
 62
     3
 10
-474.98714999999999
 20
94.347960999999984
 30
0.0
 11
-519.32714999999985
 21
94.347960999999984
 31
0.0
  0
LINE
  5
C15
  8
0
  6
CONTINUOUS
 62
     3
 10
-618.05713000000003
 20
180.0979599999998
 30
0.0
 11
-615.82708999999966
 21
180.0979599999998
 31
0.0
  0
LINE
  5
C16
  8
0
  6
CONTINUOUS
 62
     3
 10
-620.32708999999966
 20
178.3679699999999
 30
0.0
 11
-620.32708999999966
 21
135.34794999999991
 31
0.0
  0
LINE
  5
C17
  8
0
  6
CONTINUOUS
 62
     3
 10
-615.32714999999985
 20
187.77795
 30
0.0
 11
-615.32714999999985
 21
130.34795999999969
 31
0.0
  0
LINE
  5
C18
  8
0
  6
CONTINUOUS
 62
     3
 10
-615.32714999999985
 20
187.77798000000001
 30
0.0
 11
-612.50720000000001
 21
187.84798000000001
 31
0.0
  0
LINE
  5
C19
  8
0
  6
CONTINUOUS
 62
     3
 10
-478.55709999999999
 20
160.34796
 30
0.0
 11
-478.55709999999999
 21
100.3479599999999
 31
0.0
  0
LINE
  5
C1A
  8
0
  6
CONTINUOUS
 62
     3
 10
-468.32715000000002
 20
93.197968000000003
 30
0.0
 11
-460.32711999999998
 21
93.197968000000003
 31
0.0
  0
LINE
  5
C1B
  8
0
  6
CONTINUOUS
 62
     3
 10
-467.32711999999998
 20
182.3879499999999
 30
0.0
 11
-460.32711999999998
 21
182.3879499999999
 31
0.0
  0
LINE
  5
C1C
  8
0
  6
CONTINUOUS
 62
     3
 10
-468.32715000000002
 20
167.49796000000001
 30
0.0
 11
-460.32711999999998
 21
167.49796000000001
 31
0.0
  0
LINE
  5
C1D
  8
0
  6
CONTINUOUS
 62
     7
 10
-536.34710999999993
 20
153.34795
 30
0.0
 11
-496.32711999999998
 21
153.34795
 31
0.0
  0
LINE
  5
C1E
  8
0
  6
CONTINUOUS
 62
     3
 10
-467.32711999999998
 20
193.84794999999991
 30
0.0
 11
-460.32711999999998
 21
193.84794999999991
 31
0.0
  0
LINE
  5
C1F
  8
0
  6
CONTINUOUS
 62
     3
 10
-488.0571299999998
 20
100.0779599999999
 30
0.0
 11
-478.55715999999978
 21
100.34795
 31
0.0
  0
LINE
  5
C20
  8
0
  6
CONTINUOUS
 62
     3
 10
-468.32715000000002
 20
192.84796
 30
0.0
 11
-468.32715000000002
 21
67.847954000000001
 31
0.0
  0
LINE
  5
C21
  8
0
  6
CONTINUOUS
 62
     3
 10
-570.32714999999985
 20
176.69794999999991
 30
0.0
 11
-468.32715000000002
 21
176.69794999999991
 31
0.0
  0
LINE
  5
C22
  8
0
  6
CONTINUOUS
 62
     7
 10
-487.82715000000002
 20
98.847960999999998
 30
0.0
 11
-487.82715000000002
 21
161.84796
 31
0.0
  0
LINE
  5
C23
  8
0
  6
CENTER
 62
     7
 10
-519.32714999999985
 20
168.94796999999991
 30
0.0
 11
-519.32714999999985
 21
87.697959999999966
 31
0.0
  0
LINE
  5
C24
  8
0
  6
CONTINUOUS
 62
     3
 10
-613.49712999999997
 20
73.227958999999998
 30
0.0
 11
-611.84710999999982
 21
73.227958999999998
 31
0.0
  0
LINE
  5
C25
  8
0
  6
CONTINUOUS
 62
     3
 10
-594.32714999999985
 20
68.457969999999989
 30
0.0
 11
-594.32714999999985
 21
75.867949999999979
 31
0.0
  0
LINE
  5
C26
  8
0
  6
CONTINUOUS
 62
     3
 10
-537.32714999999985
 20
66.437950000000001
 30
0.0
 11
-537.32714999999985
 21
68.487953000000005
 31
0.0
  0
LINE
  5
C27
  8
0
  6
CONTINUOUS
 62
     3
 10
-611.13720999999975
 20
70.217963999999995
 30
0.0
 11
-612.05718999999976
 21
74.097960999999998
 31
0.0
  0
LINE
  5
C28
  8
0
  6
CONTINUOUS
 62
     3
 10
-611.15716999999995
 20
68.557960999999992
 30
0.0
 11
-612.04718000000003
 21
72.097954000000001
 31
0.0
  0
LINE
  5
C29
  8
0
  6
CONTINUOUS
 62
     3
 10
-473.58715999999998
 20
69.967963999999995
 30
0.0
 11
-470.12714
 21
82.887962000000002
 31
0.0
  0
LINE
  5
C2A
  8
0
  6
CONTINUOUS
 62
     3
 10
-618.32714999999996
 20
80.847960999999998
 30
0.0
 11
-618.32714999999996
 21
81.377959999999987
 31
0.0
  0
LINE
  5
C2B
  8
0
  6
CONTINUOUS
 62
     3
 10
-605.32709
 20
81.997955000000005
 30
0.0
 11
-605.32709
 21
96.047957999999994
 31
0.0
  0
LINE
  5
C2C
  8
0
  6
CONTINUOUS
 62
     3
 10
-618.54712000000018
 20
83.967956999999998
 30
0.0
 11
-619.79711999999995
 21
84.627944999999997
 31
0.0
  0
LINE
  5
C2D
  8
0
  6
CONTINUOUS
 62
     3
 10
-618.32714999999996
 20
82.947952000000015
 30
0.0
 11
-618.32714999999996
 21
83.497955000000005
 31
0.0
  0
LINE
  5
C2E
  8
0
  6
CONTINUOUS
 62
     3
 10
-615.32714999999985
 20
81.997955000000005
 30
0.0
 11
-605.32709
 21
81.997955000000005
 31
0.0
  0
LINE
  5
C2F
  8
0
  6
CONTINUOUS
 62
     3
 10
-618.32714999999996
 20
87.517966999999985
 30
0.0
 11
-618.32714999999996
 21
87.987953000000005
 31
0.0
  0
LINE
  5
C30
  8
0
  6
CONTINUOUS
 62
     3
 10
-611.60717999999997
 20
81.997970999999964
 30
0.0
 11
-611.06713999999999
 21
79.007964999999999
 31
0.0
  0
LINE
  5
C31
  8
0
  6
CONTINUOUS
 62
     3
 10
-609.09710999999982
 20
77.367949999999979
 30
0.0
 11
-595.82714999999985
 21
77.367949999999979
 31
0.0
  0
LINE
  5
C32
  8
0
  6
CONTINUOUS
 62
     3
 10
-609.21715999999981
 20
67.047966000000002
 30
0.0
 11
-595.71715999999958
 21
67.047966000000002
 31
0.0
  0
LINE
  5
C33
  8
0
  6
CONTINUOUS
 62
     3
 10
-592.32714999999985
 20
68.487953000000005
 30
0.0
 11
-475.51715000000002
 21
68.487953000000005
 31
0.0
  0
LINE
  5
C34
  8
0
  6
CONTINUOUS
 62
     3
 10
-609.15710000000001
 20
72.087967000000006
 30
0.0
 11
-595.82714999999985
 21
72.087967000000006
 31
0.0
  0
LINE
  5
C35
  8
0
  6
CONTINUOUS
 62
     3
 10
-615.32714999999985
 20
96.047957999999994
 30
0.0
 11
-612.15710000000001
 21
96.047957999999994
 31
0.0
  0
LINE
  5
C36
  8
0
  6
CONTINUOUS
 62
     3
 10
-610.64715999999987
 20
93.627967999999996
 30
0.0
 11
-519.32714999999985
 21
93.627967999999996
 31
0.0
  0
LINE
  5
C37
  8
0
  6
CONTINUOUS
 62
     3
 10
-519.32714999999985
 20
93.627967999999996
 30
0.0
 11
-471.50713999999999
 21
93.627967999999996
 31
0.0
  0
LINE
  5
C38
  8
0
  6
CONTINUOUS
 62
     3
 10
-519.32714999999985
 20
94.347960999999984
 30
0.0
 11
-609.77710000000002
 21
94.347960999999984
 31
0.0
  0
LINE
  5
C39
  8
0
  6
CONTINUOUS
 62
     3
 10
-610.64715999999987
 20
96.977951000000004
 30
0.0
 11
-562.32714999999985
 21
96.977951000000004
 31
0.0
  0
LINE
  5
C3A
  8
0
  6
CONTINUOUS
 62
     3
 10
-566.32708999999943
 20
100.3479599999999
 30
0.0
 11
-478.55709999999999
 21
100.3479599999999
 31
0.0
  0
LINE
  5
C3B
  8
0
  6
CONTINUOUS
 62
     3
 10
-473.61709999999988
 20
69.847968999999992
 30
0.0
 11
-468.32715000000002
 21
69.847968999999992
 31
0.0
  0
LINE
  5
C3C
  8
0
  6
CONTINUOUS
 62
     3
 10
-471.52710000000002
 20
71.427956000000023
 30
0.0
 11
-470.08710000000002
 21
78.127967999999981
 31
0.0
  0
LINE
  5
C3D
  8
0
  6
CONTINUOUS
 62
     3
 10
-468.6171299999998
 20
79.317954999999984
 30
0.0
 11
-471.02713
 21
79.317954999999984
 31
0.0
  0
LINE
  5
C3E
  8
0
  6
CONTINUOUS
 62
     3
 10
-570.32714999999985
 20
83.997970999999978
 30
0.0
 11
-468.32715000000002
 21
83.997970999999978
 31
0.0
  0
LINE
  5
C3F
  8
0
  6
CONTINUOUS
 62
     3
 10
-467.32711999999998
 20
78.307968000000002
 30
0.0
 11
-460.32711999999998
 21
78.307968000000002
 31
0.0
  0
LINE
  5
C40
  8
0
  6
CONTINUOUS
 62
     3
 10
-467.32711999999998
 20
66.847968999999992
 30
0.0
 11
-460.32711999999998
 21
66.847968999999992
 31
0.0
  0
LINE
  5
C41
  8
0
  6
CONTINUOUS
 62
     3
 10
-618.55713000000003
 20
88.497978000000003
 30
0.0
 11
-619.83709999999985
 21
89.247962999999999
 31
0.0
  0
LINE
  5
C42
  8
0
  6
CONTINUOUS
 62
     3
 10
-618.07708999999966
 20
83.847960999999998
 30
0.0
 11
-616.32714999999985
 21
83.847960999999998
 31
0.0
  0
LINE
  5
C43
  8
0
  6
CONTINUOUS
 62
     3
 10
-618.02710000000002
 20
87.227951000000004
 30
0.0
 11
-615.32714999999985
 21
87.227951000000004
 31
0.0
  0
LINE
  5
C44
  8
0
  6
CONTINUOUS
 62
     3
 10
-618.05713000000003
 20
88.367966000000024
 30
0.0
 11
-616.32714999999985
 21
88.367966000000024
 31
0.0
  0
LINE
  5
C45
  8
0
  6
CONTINUOUS
 62
     3
 10
-618.53717000000006
 20
81.857985999999983
 30
0.0
 11
-619.77715999999998
 21
82.487983999999983
 31
0.0
  0
LINE
  5
C46
  8
0
  6
CONTINUOUS
 62
     3
 10
-618.0871599999997
 20
81.747970999999964
 30
0.0
 11
-615.82708999999966
 21
81.747970999999964
 31
0.0
  0
LINE
  5
C47
  8
0
  6
CONTINUOUS
 62
     3
 10
-618.05713000000003
 20
80.597954000000001
 30
0.0
 11
-615.82708999999966
 21
80.597954000000001
 31
0.0
  0
LINE
  5
C48
  8
0
  6
CONTINUOUS
 62
     3
 10
-618.56713999999999
 20
82.847992000000005
 30
0.0
 11
-619.84716999999978
 21
83.618003999999985
 31
0.0
  0
LINE
  5
C49
  8
0
  6
CONTINUOUS
 62
     3
 10
-618.57714999999985
 20
87.387969999999981
 30
0.0
 11
-619.87714000000005
 21
88.237976000000003
 31
0.0
  0
LINE
  5
C4A
  8
0
  6
CONTINUOUS
 62
     3
 10
-615.32714999999985
 20
72.917968999999999
 30
0.0
 11
-612.50720000000001
 21
72.847968999999978
 31
0.0
  0
LINE
  5
C4B
  8
0
  6
CONTINUOUS
 62
     3
 10
-618.55713000000003
 20
80.73799099999998
 30
0.0
 11
-619.82714999999985
 21
81.467986999999965
 31
0.0
  0
LINE
  5
C4C
  8
0
  6
CONTINUOUS
 62
     3
 10
-618.04711999999995
 20
82.707969999999989
 30
0.0
 11
-615.32714999999985
 21
82.707969999999989
 31
0.0
  0
LINE
  5
C4D
  8
0
  6
CONTINUOUS
 62
     7
 10
-570.32714999999985
 20
176.69797
 30
0.0
 11
-605.32714999999996
 21
174.66797
 31
0.0
  0
LINE
  5
C4E
  8
0
  6
CONTINUOUS
 62
     7
 10
-570.32708999999966
 20
83.997970999999978
 30
0.0
 11
-605.32714999999996
 21
86.027968999999985
 31
0.0
  0
LINE
  5
C4F
  8
0
  6
CONTINUOUS
 62
     7
 10
-455.32709
 20
319.09597999999988
 30
0.0
 11
-455.32709
 21
330.49059999999992
 31
0.0
  0
LINE
  5
C50
  8
0
  6
CONTINUOUS
 62
     7
 10
-460.32709
 20
317.99090999999981
 30
0.0
 11
-460.32709
 21
445.99090999999987
 31
0.0
  0
LINE
  5
C51
  8
0
  6
CONTINUOUS
 62
     7
 10
-456.30090000000001
 20
445.88546999999988
 30
0.0
 11
-460.32709
 21
445.99090999999987
 31
0.0
  0
LINE
  5
C52
  8
0
  6
CONTINUOUS
 62
     7
 10
-456.30090000000001
 20
318.09631000000002
 30
0.0
 11
-460.32709
 21
317.99090999999981
 31
0.0
  0
LINE
  5
C53
  8
0
  6
CONTINUOUS
 62
     7
 10
-460.32709
 20
330.49059999999992
 30
0.0
 11
-448.20197000000002
 21
330.49059999999992
 31
0.0
  0
LINE
  5
C54
  8
0
  6
CONTINUOUS
 62
     7
 10
-460.32709
 20
343.93603999999982
 30
0.0
 11
-455.32709
 21
343.93603999999982
 31
0.0
  0
LINE
  5
C55
  8
0
  6
CONTINUOUS
 62
     7
 10
-447.32709000000011
 20
332.7025799999999
 30
0.0
 11
-447.32709000000011
 21
342.61581000000001
 31
0.0
  0
LINE
  5
C56
  8
0
  6
CONTINUOUS
 62
     7
 10
-437.32709
 20
333.67111
 30
0.0
 11
-437.32709
 21
343.64129999999972
 31
0.0
  0
LINE
  5
C57
  8
0
  6
CONTINUOUS
 62
     7
 10
-455.32709
 20
343.93603999999982
 30
0.0
 11
-455.32709
 21
420.04577999999992
 31
0.0
  0
LINE
  5
C58
  8
0
  6
CONTINUOUS
 62
     7
 10
-455.32709
 20
433.49090999999987
 30
0.0
 11
-455.32709
 21
444.88580000000002
 31
0.0
  0
LINE
  5
C59
  8
0
  6
CONTINUOUS
 62
     7
 10
-437.32711999999992
 20
332.25385
 30
0.0
 11
-446.46547999999979
 21
330.64249000000001
 31
0.0
  0
LINE
  5
C5A
  8
0
  6
CONTINUOUS
 62
     7
 10
-455.32709
 20
344.81090999999992
 30
0.0
 11
-437.32709
 21
344.81090999999992
 31
0.0
  0
LINE
  5
C5B
  8
0
  6
CONTINUOUS
 62
     7
 10
-447.32709000000011
 20
431.27920999999998
 30
0.0
 11
-447.32709000000011
 21
421.36597
 31
0.0
  0
LINE
  5
C5C
  8
0
  6
CONTINUOUS
 62
     7
 10
-437.32711999999992
 20
431.72790999999989
 30
0.0
 11
-446.46552000000003
 21
433.3392599999998
 31
0.0
  0
LINE
  5
C5D
  8
0
  6
CONTINUOUS
 62
     7
 10
-460.32709
 20
420.04577999999992
 30
0.0
 11
-455.32709
 21
420.04577999999992
 31
0.0
  0
LINE
  5
C5E
  8
0
  6
CONTINUOUS
 62
     7
 10
-455.32709
 20
419.17086999999992
 30
0.0
 11
-437.32709
 21
419.17086999999992
 31
0.0
  0
LINE
  5
C5F
  8
0
  6
CONTINUOUS
 62
     7
 10
-460.32709
 20
433.49117999999987
 30
0.0
 11
-448.20197000000002
 21
433.49117999999987
 31
0.0
  0
LINE
  5
C60
  8
0
  6
CONTINUOUS
 62
     7
 10
-437.32709
 20
430.31066999999979
 30
0.0
 11
-437.32709
 21
420.34044999999992
 31
0.0
  0
LINE
  5
C61
  8
0
  6
CONTINUOUS
 62
     7
 10
-489.32709
 20
309.99090999999999
 30
0.0
 11
-549.32708999999966
 21
309.99090999999999
 31
0.0
  0
LINE
  5
C62
  8
0
  6
CONTINUOUS
 62
     3
 10
-568.59997999999985
 20
308.99090999999981
 30
0.0
 11
-568.59997999999985
 21
305.49090999999981
 31
0.0
  0
LINE
  5
C63
  8
0
  6
CONTINUOUS
 62
     3
 10
-570.59997999999985
 20
305.49090999999981
 30
0.0
 11
-488.6001
 21
305.49090999999981
 31
0.0
  0
LINE
  5
C64
  8
0
  6
CONTINUOUS
 62
     3
 10
-548.1001
 20
301.99090999999999
 30
0.0
 11
-488.6001
 21
301.99090999999999
 31
0.0
  0
LINE
  5
C65
  8
0
  6
CONTINUOUS
 62
     3
 10
-559.59997999999985
 20
305.49090999999981
 30
0.0
 11
-559.59997999999985
 21
297.99090999999999
 31
0.0
  0
LINE
  5
C66
  8
0
  6
CONTINUOUS
 62
     3
 10
-551.6001
 20
305.49090999999981
 30
0.0
 11
-551.6001
 21
297.99090999999999
 31
0.0
  0
LINE
  5
C67
  8
0
  6
CONTINUOUS
 62
     3
 10
-567.09997999999985
 20
290.49187999999992
 30
0.0
 11
-570.59997999999985
 21
290.49187999999992
 31
0.0
  0
LINE
  5
C68
  8
0
  6
CONTINUOUS
 62
     3
 10
-570.59997999999985
 20
305.49090999999981
 30
0.0
 11
-570.59997999999985
 21
290.49187999999992
 31
0.0
  0
LINE
  5
C69
  8
0
  6
CONTINUOUS
 62
     3
 10
-537.90015000000005
 20
282.49088
 30
0.0
 11
-543.1001
 21
285.49083999999982
 31
0.0
  0
LINE
  5
C6A
  8
0
  6
CONTINUOUS
 62
     3
 10
-497.10012999999998
 20
285.49090999999999
 30
0.0
 11
-502.30014
 21
282.49090999999981
 31
0.0
  0
LINE
  5
C6B
  8
0
  6
CONTINUOUS
 62
     3
 10
-567.09997999999985
 20
301.99090999999999
 30
0.0
 11
-563.09997999999985
 21
301.99090999999999
 31
0.0
  0
LINE
  5
C6C
  8
0
  6
CONTINUOUS
 62
     3
 10
-567.09997999999985
 20
285.49090999999999
 30
0.0
 11
-490.10009999999988
 21
285.49090999999999
 31
0.0
  0
LINE
  5
C6D
  8
0
  6
CONTINUOUS
 62
     3
 10
-537.90009000000009
 20
282.49090999999981
 30
0.0
 11
-502.30011000000002
 21
282.49090999999981
 31
0.0
  0
LINE
  5
C6E
  8
0
  6
CONTINUOUS
 62
     3
 10
-567.09997999999985
 20
305.49090999999981
 30
0.0
 11
-567.09997999999985
 21
285.49090999999999
 31
0.0
  0
LINE
  5
C6F
  8
0
  6
CONTINUOUS
 62
     3
 10
-563.09997999999985
 20
305.49090999999981
 30
0.0
 11
-563.09997999999985
 21
297.99090999999999
 31
0.0
  0
LINE
  5
C70
  8
0
  6
CONTINUOUS
 62
     3
 10
-548.1001
 20
297.99090999999999
 30
0.0
 11
-548.1001
 21
305.49090999999981
 31
0.0
  0
LINE
  5
C71
  8
0
  6
CONTINUOUS
 62
     3
 10
-490.10009999999988
 20
285.49090999999999
 30
0.0
 11
-490.10009999999988
 21
301.99090999999999
 31
0.0
  0
LINE
  5
C72
  8
0
  6
CONTINUOUS
 62
     3
 10
-488.6001
 20
308.99090999999981
 30
0.0
 11
-488.6001
 21
301.99090999999999
 31
0.0
  0
LINE
  5
C73
  8
0
  6
CONTINUOUS
 62
     3
 10
-568.59997999999985
 20
308.99090999999981
 30
0.0
 11
-488.6001
 21
308.99090999999981
 31
0.0
  0
LINE
  5
C74
  8
0
  6
CONTINUOUS
 62
     7
 10
-489.82709
 20
309.99090999999999
 30
0.0
 11
-489.82709
 21
308.99090999999981
 31
0.0
  0
LINE
  5
C75
  8
0
  6
CONTINUOUS
 62
     7
 10
-548.82708999999977
 20
309.99090999999999
 30
0.0
 11
-548.82708999999977
 21
308.99090999999981
 31
0.0
  0
LINE
  5
C76
  8
0
  6
CONTINUOUS
 62
     7
 10
-618.32709
 20
332.49090999999981
 30
0.0
 11
-618.32709
 21
333.02094
 31
0.0
  0
LINE
  5
C77
  8
0
  6
CONTINUOUS
 62
     7
 10
-618.32709
 20
334.59087999999991
 30
0.0
 11
-618.32709
 21
335.14092999999991
 31
0.0
  0
LINE
  5
C78
  8
0
  6
CONTINUOUS
 62
     7
 10
-618.32709
 20
339.16095000000001
 30
0.0
 11
-618.32709
 21
339.63092
 31
0.0
  0
LINE
  5
C79
  8
0
  6
CONTINUOUS
 62
     7
 10
-618.54712000000018
 20
335.61090000000002
 30
0.0
 11
-619.79711999999995
 21
336.27087
 31
0.0
  0
LINE
  5
C7A
  8
0
  6
CONTINUOUS
 62
     7
 10
-618.53710999999998
 20
333.50088999999991
 30
0.0
 11
-619.77710000000002
 21
334.13088999999991
 31
0.0
  0
LINE
  5
C7B
  8
0
  6
CONTINUOUS
 62
     7
 10
-618.55713000000003
 20
340.14087000000001
 30
0.0
 11
-619.83709999999985
 21
340.89087000000001
 31
0.0
  0
LINE
  5
C7C
  8
0
  6
CONTINUOUS
 62
     7
 10
-618.08709999999985
 20
333.39092999999991
 30
0.0
 11
-615.82708999999966
 21
333.39092999999991
 31
0.0
  0
LINE
  5
C7D
  8
0
  6
CONTINUOUS
 62
     7
 10
-618.07708999999966
 20
335.49090999999981
 30
0.0
 11
-616.32709
 21
335.49090999999981
 31
0.0
  0
LINE
  5
C7E
  8
0
  6
CONTINUOUS
 62
     7
 10
-618.05706999999995
 20
340.01092999999997
 30
0.0
 11
-616.32709
 21
340.01092999999997
 31
0.0
  0
LINE
  5
C7F
  8
0
  6
CONTINUOUS
 62
     7
 10
-618.02710000000002
 20
338.87090999999992
 30
0.0
 11
-615.32708999999977
 21
338.87090999999992
 31
0.0
  0
LINE
  5
C80
  8
0
  6
CONTINUOUS
 62
     7
 10
-618.04705999999965
 20
334.35088999999982
 30
0.0
 11
-615.32708999999977
 21
334.35088999999982
 31
0.0
  0
LINE
  5
C81
  8
0
  6
CONTINUOUS
 62
     7
 10
-618.57709
 20
339.03087999999991
 30
0.0
 11
-619.87707999999998
 21
339.88088999999991
 31
0.0
  0
LINE
  5
C82
  8
0
  6
CONTINUOUS
 62
     7
 10
-618.56708000000003
 20
334.49088
 30
0.0
 11
-619.84710999999982
 21
335.26089000000002
 31
0.0
  0
LINE
  5
C83
  8
0
  6
CONTINUOUS
 62
     7
 10
-618.55706999999995
 20
332.38088999999991
 30
0.0
 11
-619.82703000000004
 21
333.11086999999992
 31
0.0
  0
LINE
  5
C84
  8
0
  6
CONTINUOUS
 62
     7
 10
-618.05706999999995
 20
332.24090999999981
 30
0.0
 11
-615.82708999999966
 21
332.24090999999981
 31
0.0
  0
LINE
  5
C85
  8
0
  6
CONTINUOUS
 62
     7
 10
-620.32708999999966
 20
333.97089
 30
0.0
 11
-620.32708999999966
 21
376.99090999999999
 31
0.0
  0
LINE
  5
C86
  8
0
  6
CONTINUOUS
 62
     7
 10
-619.83709999999985
 20
340.89089999999982
 30
0.0
 11
-619.8571199999999
 21
340.90087999999992
 31
0.0
  0
LINE
  5
C87
  8
0
  6
CONTINUOUS
 62
     7
 10
-621.82709
 20
364.71087999999992
 30
0.0
 11
-620.32708999999966
 21
364.71087999999992
 31
0.0
  0
LINE
  5
C88
  8
0
  6
CONTINUOUS
 62
     7
 10
-621.82709
 20
366.84087999999991
 30
0.0
 11
-620.32708999999966
 21
366.84087999999991
 31
0.0
  0
LINE
  5
C89
  8
0
  6
CONTINUOUS
 62
     7
 10
-621.82709
 20
361.99093999999991
 30
0.0
 11
-620.32708999999966
 21
361.86093
 31
0.0
  0
LINE
  5
C8A
  8
0
  6
CONTINUOUS
 62
     7
 10
-621.82709
 20
361.99090999999999
 30
0.0
 11
-621.82709
 21
381.99090999999987
 31
0.0
  0
LINE
  5
C8B
  8
0
  6
CONTINUOUS
 62
     7
 10
-618.32709
 20
346.60088999999982
 30
0.0
 11
-618.32709
 21
347.66095000000001
 31
0.0
  0
LINE
  5
C8C
  8
0
  6
CONTINUOUS
 62
     7
 10
-618.32709
 20
356.36090000000002
 30
0.0
 11
-618.32709
 21
357.73090000000002
 31
0.0
  0
LINE
  5
C8D
  8
0
  6
CONTINUOUS
 62
     7
 10
-618.32709
 20
376.38092
 30
0.0
 11
-618.32709
 21
377.54095000000001
 31
0.0
  0
LINE
  5
C8E
  8
0
  6
CONTINUOUS
 62
     7
 10
-618.32709
 20
366.38092
 30
0.0
 11
-618.32709
 21
367.60088999999988
 31
0.0
  0
LINE
  5
C8F
  8
0
  6
CONTINUOUS
 62
     7
 10
-616.32709
 20
377.99090999999987
 30
0.0
 11
-619.32708999999988
 21
377.99090999999987
 31
0.0
  0
LINE
  5
C90
  8
0
  6
CONTINUOUS
 62
     7
 10
-616.32709
 20
375.99090999999987
 30
0.0
 11
-619.32708999999988
 21
375.99090999999987
 31
0.0
  0
LINE
  5
C91
  8
0
  6
CONTINUOUS
 62
     7
 10
-616.32709
 20
367.99090999999987
 30
0.0
 11
-619.32708999999988
 21
367.99090999999987
 31
0.0
  0
LINE
  5
C92
  8
0
  6
CONTINUOUS
 62
     7
 10
-616.32709
 20
365.99090999999999
 30
0.0
 11
-619.32708999999988
 21
365.99090999999999
 31
0.0
  0
LINE
  5
C93
  8
0
  6
CONTINUOUS
 62
     7
 10
-616.32709
 20
357.99090999999999
 30
0.0
 11
-619.32708999999988
 21
357.99090999999999
 31
0.0
  0
LINE
  5
C94
  8
0
  6
CONTINUOUS
 62
     7
 10
-616.32709
 20
355.99090999999999
 30
0.0
 11
-619.32708999999988
 21
355.99090999999999
 31
0.0
  0
LINE
  5
C95
  8
0
  6
CONTINUOUS
 62
     7
 10
-618.46709999999985
 20
348.29092000000009
 30
0.0
 11
-619.61707000000001
 21
348.65091000000001
 31
0.0
  0
LINE
  5
C96
  8
0
  6
CONTINUOUS
 62
     7
 10
-618.17705999999998
 20
348.25091999999972
 30
0.0
 11
-616.32709
 21
348.25091999999972
 31
0.0
  0
LINE
  5
C97
  8
0
  6
CONTINUOUS
 62
     7
 10
-618.51715000000002
 20
346.38088999999991
 30
0.0
 11
-619.71709999999985
 21
346.90087999999992
 31
0.0
  0
LINE
  5
C98
  8
0
  6
CONTINUOUS
 62
     7
 10
-618.12707999999998
 20
346.30095999999992
 30
0.0
 11
-616.02710000000002
 21
346.30095999999992
 31
0.0
  0
LINE
  5
C99
  8
0
  6
CONTINUOUS
 62
     7
 10
-621.82709
 20
399.27093999999988
 30
0.0
 11
-620.32708999999966
 21
399.27093999999988
 31
0.0
  0
LINE
  5
C9A
  8
0
  6
CONTINUOUS
 62
     7
 10
-621.82709
 20
397.14092999999991
 30
0.0
 11
-620.32708999999966
 21
397.14092999999991
 31
0.0
  0
LINE
  5
C9B
  8
0
  6
CONTINUOUS
 62
     7
 10
-621.82703000000004
 20
401.99093999999991
 30
0.0
 11
-620.32708999999966
 21
402.12094000000002
 31
0.0
  0
LINE
  5
C9C
  8
0
  6
CONTINUOUS
 62
     7
 10
-621.82709
 20
401.99090999999987
 30
0.0
 11
-621.82709
 21
381.99090999999987
 31
0.0
  0
LINE
  5
C9D
  8
0
  6
CONTINUOUS
 62
     7
 10
-618.32709
 20
431.49090999999999
 30
0.0
 11
-618.32709
 21
430.96087999999992
 31
0.0
  0
LINE
  5
C9E
  8
0
  6
CONTINUOUS
 62
     7
 10
-618.32709
 20
429.39093000000003
 30
0.0
 11
-618.32709
 21
428.84088000000003
 31
0.0
  0
LINE
  5
C9F
  8
0
  6
CONTINUOUS
 62
     7
 10
-618.32709
 20
424.82085999999993
 30
0.0
 11
-618.32709
 21
424.35088999999999
 31
0.0
  0
LINE
  5
CA0
  8
0
  6
CONTINUOUS
 62
     7
 10
-618.32709
 20
417.38091999999989
 30
0.0
 11
-618.32709
 21
416.32085999999993
 31
0.0
  0
LINE
  5
CA1
  8
0
  6
CONTINUOUS
 62
     7
 10
-618.32709
 20
407.62090999999981
 30
0.0
 11
-618.32709
 21
406.25092000000001
 31
0.0
  0
LINE
  5
CA2
  8
0
  6
CONTINUOUS
 62
     7
 10
-618.32709
 20
387.60088999999999
 30
0.0
 11
-618.32709
 21
386.44085999999987
 31
0.0
  0
LINE
  5
CA3
  8
0
  6
CONTINUOUS
 62
     7
 10
-618.32709
 20
397.60088999999999
 30
0.0
 11
-618.32709
 21
396.39092999999991
 31
0.0
  0
LINE
  5
CA4
  8
0
  6
CONTINUOUS
 62
     7
 10
-616.32709
 20
385.99090999999987
 30
0.0
 11
-619.32708999999988
 21
385.99090999999987
 31
0.0
  0
LINE
  5
CA5
  8
0
  6
CONTINUOUS
 62
     7
 10
-616.32709
 20
387.99090999999987
 30
0.0
 11
-619.32708999999988
 21
387.99090999999987
 31
0.0
  0
LINE
  5
CA6
  8
0
  6
CONTINUOUS
 62
     7
 10
-616.32709
 20
395.99090999999987
 30
0.0
 11
-619.32708999999988
 21
395.99090999999987
 31
0.0
  0
LINE
  5
CA7
  8
0
  6
CONTINUOUS
 62
     7
 10
-616.32709
 20
397.99090999999999
 30
0.0
 11
-619.32708999999988
 21
397.99090999999999
 31
0.0
  0
LINE
  5
CA8
  8
0
  6
CONTINUOUS
 62
     7
 10
-616.32709
 20
405.99090999999987
 30
0.0
 11
-619.32708999999988
 21
405.99090999999987
 31
0.0
  0
LINE
  5
CA9
  8
0
  6
CONTINUOUS
 62
     7
 10
-616.32709
 20
407.99090999999999
 30
0.0
 11
-619.32708999999988
 21
407.99090999999999
 31
0.0
  0
LINE
  5
CAA
  8
0
  6
CONTINUOUS
 62
     7
 10
-618.54712000000018
 20
428.38092
 30
0.0
 11
-619.79705999999965
 21
427.71093999999988
 31
0.0
  0
LINE
  5
CAB
  8
0
  6
CONTINUOUS
 62
     7
 10
-618.53705000000002
 20
430.49087999999989
 30
0.0
 11
-619.77710000000002
 21
429.86086999999992
 31
0.0
  0
LINE
  5
CAC
  8
0
  6
CONTINUOUS
 62
     7
 10
-618.46709999999985
 20
415.69088999999991
 30
0.0
 11
-619.61712999999975
 21
415.34087999999991
 31
0.0
  0
LINE
  5
CAD
  8
0
  6
CONTINUOUS
 62
     7
 10
-618.55706999999995
 20
423.84084999999999
 30
0.0
 11
-619.83709999999985
 21
423.09084999999988
 31
0.0
  0
LINE
  5
CAE
  8
0
  6
CONTINUOUS
 62
     7
 10
-618.08709999999985
 20
430.59088000000003
 30
0.0
 11
-615.82708999999966
 21
430.59088000000003
 31
0.0
  0
LINE
  5
CAF
  8
0
  6
CONTINUOUS
 62
     7
 10
-618.07708999999966
 20
428.49090999999999
 30
0.0
 11
-616.32709
 21
428.49090999999999
 31
0.0
  0
LINE
  5
CB0
  8
0
  6
CONTINUOUS
 62
     7
 10
-618.05706999999995
 20
423.98090000000002
 30
0.0
 11
-616.32709
 21
423.98090000000002
 31
0.0
  0
LINE
  5
CB1
  8
0
  6
CONTINUOUS
 62
     7
 10
-618.17705999999998
 20
415.73090000000002
 30
0.0
 11
-616.32709
 21
415.73090000000002
 31
0.0
  0
LINE
  5
CB2
  8
0
  6
CONTINUOUS
 62
     7
 10
-618.02710000000002
 20
425.12090999999992
 30
0.0
 11
-615.32708999999977
 21
425.12090999999992
 31
0.0
  0
LINE
  5
CB3
  8
0
  6
CONTINUOUS
 62
     7
 10
-618.04705999999965
 20
429.63092
 30
0.0
 11
-615.32708999999977
 21
429.63092
 31
0.0
  0
LINE
  5
CB4
  8
0
  6
CONTINUOUS
 62
     7
 10
-618.51702999999998
 20
417.60091999999997
 30
0.0
 11
-619.71704
 21
417.09091000000001
 31
0.0
  0
LINE
  5
CB5
  8
0
  6
CONTINUOUS
 62
     7
 10
-618.57709
 20
424.95086999999978
 30
0.0
 11
-619.87707999999998
 21
424.10088999999988
 31
0.0
  0
LINE
  5
CB6
  8
0
  6
CONTINUOUS
 62
     7
 10
-618.56713999999999
 20
429.49087999999989
 30
0.0
 11
-619.84710999999982
 21
428.72091999999992
 31
0.0
  0
LINE
  5
CB7
  8
0
  6
CONTINUOUS
 62
     7
 10
-618.55713000000003
 20
431.61089999999979
 30
0.0
 11
-619.82714999999985
 21
430.87090999999992
 31
0.0
  0
LINE
  5
CB8
  8
0
  6
CONTINUOUS
 62
     7
 10
-618.12707999999998
 20
417.68084999999991
 30
0.0
 11
-616.02710000000002
 21
417.68084999999991
 31
0.0
  0
LINE
  5
CB9
  8
0
  6
CONTINUOUS
 62
     7
 10
-618.05706999999995
 20
431.74090999999987
 30
0.0
 11
-615.82708999999966
 21
431.74090999999987
 31
0.0
  0
LINE
  5
CBA
  8
0
  6
CONTINUOUS
 62
     7
 10
-620.32708999999966
 20
430.01092999999992
 30
0.0
 11
-620.32708999999966
 21
386.99090999999999
 31
0.0
  0
LINE
  5
CBB
  8
0
  6
CONTINUOUS
 62
     7
 10
-468.32709000000011
 20
419.14093000000003
 30
0.0
 11
-460.32709
 21
419.14093000000003
 31
0.0
  0
LINE
  5
CBC
  8
0
  6
CONTINUOUS
 62
     7
 10
-467.32709
 20
329.95087000000001
 30
0.0
 11
-460.32709
 21
329.95087000000001
 31
0.0
  0
LINE
  5
CBD
  8
0
  6
CONTINUOUS
 62
     7
 10
-468.32709000000011
 20
344.84087999999991
 30
0.0
 11
-460.32709
 21
344.84087999999991
 31
0.0
  0
LINE
  5
CBE
  8
0
  6
CONTINUOUS
 62
     7
 10
-467.32709
 20
318.49090999999999
 30
0.0
 11
-460.32709
 21
318.49090999999999
 31
0.0
  0
LINE
  5
CBF
  8
0
  6
CONTINUOUS
 62
     7
 10
-467.32709
 20
434.03093999999987
 30
0.0
 11
-460.32709
 21
434.03093999999987
 31
0.0
  0
LINE
  5
CC0
  8
0
  6
CONTINUOUS
 62
     7
 10
-467.32709
 20
445.49090999999999
 30
0.0
 11
-460.32709
 21
445.49090999999999
 31
0.0
  0
LINE
  5
CC1
  8
0
  6
CONTINUOUS
 62
     7
 10
-615.32708999999977
 20
324.56085000000002
 30
0.0
 11
-612.50714000000016
 21
324.50085000000001
 31
0.0
  0
LINE
  5
CC2
  8
0
  6
CONTINUOUS
 62
     7
 10
-574.32708999999966
 20
335.64092999999991
 30
0.0
 11
-468.32709000000011
 21
335.64092999999991
 31
0.0
  0
LINE
  5
CC3
  8
0
  6
CONTINUOUS
 62
     7
 10
-473.61712999999992
 20
321.49090999999981
 30
0.0
 11
-468.32709000000011
 21
321.49090999999981
 31
0.0
  0
LINE
  5
CC4
  8
0
  6
CONTINUOUS
 62
     7
 10
-601.6570999999999
 20
348.63091999999972
 30
0.0
 11
-507.30712999999992
 21
348.63091999999972
 31
0.0
  0
LINE
  5
CC5
  8
0
  6
CONTINUOUS
 62
     7
 10
-519.32708999999988
 20
345.99090999999987
 30
0.0
 11
-600.79137999999978
 21
345.99090999999987
 31
0.0
  0
LINE
  5
CC6
  8
0
  6
CONTINUOUS
 62
     7
 10
-519.32708999999988
 20
345.27093999999983
 30
0.0
 11
-471.50707999999992
 21
345.27093999999983
 31
0.0
  0
LINE
  5
CC7
  8
0
  6
CONTINUOUS
 62
     7
 10
-601.6570999999999
 20
345.27093999999983
 30
0.0
 11
-519.32708999999988
 21
345.27093999999983
 31
0.0
  0
LINE
  5
CC8
  8
0
  6
CONTINUOUS
 62
     7
 10
-601.62945999999999
 20
323.73090000000002
 30
0.0
 11
-595.82709
 21
323.73090000000002
 31
0.0
  0
LINE
  5
CC9
  8
0
  6
CONTINUOUS
 62
     7
 10
-592.32709
 20
320.13092
 30
0.0
 11
-475.51709
 21
320.13092
 31
0.0
  0
LINE
  5
CCA
  8
0
  6
CONTINUOUS
 62
     7
 10
-601.56719999999984
 20
329.01092999999992
 30
0.0
 11
-595.82709
 21
329.01092999999992
 31
0.0
  0
LINE
  5
CCB
  8
0
  6
CONTINUOUS
 62
     7
 10
-605.32709
 20
333.64092999999991
 30
0.0
 11
-605.32709
 21
347.69085999999987
 31
0.0
  0
LINE
  5
CCC
  8
0
  6
CONTINUOUS
 62
     7
 10
-615.32708999999977
 20
333.64092999999991
 30
0.0
 11
-605.32709
 21
333.64092999999991
 31
0.0
  0
LINE
  5
CCD
  8
0
  6
CONTINUOUS
 62
     7
 10
-473.58710000000002
 20
321.62081999999998
 30
0.0
 11
-470.12707999999992
 21
334.53093999999999
 31
0.0
  0
LINE
  5
CCE
  8
0
  6
CONTINUOUS
 62
     7
 10
-611.56579999999985
 20
321.83190999999982
 30
0.0
 11
-612.04705999999987
 21
323.74090999999981
 31
0.0
  0
LINE
  5
CCF
  8
0
  6
CONTINUOUS
 62
     7
 10
-611.13707999999986
 20
321.86083999999988
 30
0.0
 11
-612.05713000000003
 21
325.74093999999991
 31
0.0
  0
LINE
  5
CD0
  8
0
  6
CONTINUOUS
 62
     7
 10
-594.32708999999988
 20
320.10187000000002
 30
0.0
 11
-594.32708999999988
 21
327.51092999999997
 31
0.0
  0
LINE
  5
CD1
  8
0
  6
CONTINUOUS
 62
     7
 10
-613.49707000000001
 20
324.87090999999992
 30
0.0
 11
-611.84710999999982
 21
324.87090999999992
 31
0.0
  0
LINE
  5
CD2
  8
0
  6
CONTINUOUS
 62
     7
 10
-574.32708999999966
 20
428.34088000000003
 30
0.0
 11
-468.32709000000011
 21
428.34088000000003
 31
0.0
  0
LINE
  5
CD3
  8
0
  6
CONTINUOUS
 62
     7
 10
-468.32709000000011
 20
319.49090999999981
 30
0.0
 11
-468.32709000000011
 21
444.49090999999999
 31
0.0
  0
LINE
  5
CD4
  8
0
  6
CONTINUOUS
 62
     7
 10
-615.32708999999977
 20
439.42090000000002
 30
0.0
 11
-612.50707999999975
 21
439.49090999999987
 31
0.0
  0
LINE
  5
CD5
  8
0
  6
CONTINUOUS
 62
     7
 10
-615.32708999999977
 20
324.56085000000002
 30
0.0
 11
-615.32708999999977
 21
381.99090999999987
 31
0.0
  0
LINE
  5
CD6
  8
0
  6
CONTINUOUS
 62
     7
 10
-474.98712
 20
345.99090999999987
 30
0.0
 11
-519.32708999999988
 21
345.99090999999987
 31
0.0
  0
LINE
  5
CD7
  8
0
  6
CONTINUOUS
 62
     7
 10
-605.32709
 20
430.3408799999998
 30
0.0
 11
-605.32709
 21
416.30095999999992
 31
0.0
  0
LINE
  5
CD8
  8
0
  6
CONTINUOUS
 62
     7
 10
-615.32708999999977
 20
416.30095999999992
 30
0.0
 11
-605.32709
 21
416.30095999999992
 31
0.0
  0
LINE
  5
CD9
  8
0
  6
CONTINUOUS
 62
     7
 10
-615.32708999999977
 20
424.68085000000002
 30
0.0
 11
-605.32709
 21
424.68085000000002
 31
0.0
  0
LINE
  5
CDA
  8
0
  6
CONTINUOUS
 62
     7
 10
-615.32708999999977
 20
430.3408799999998
 30
0.0
 11
-605.32709
 21
430.3408799999998
 31
0.0
  0
LINE
  5
CDB
  8
0
  6
CONTINUOUS
 62
     7
 10
-539.88500999999985
 20
367.99090999999987
 30
0.0
 11
-609.77710000000002
 21
367.99090999999987
 31
0.0
  0
LINE
  5
CDC
  8
0
  6
CONTINUOUS
 62
     7
 10
-592.32709
 20
443.85088999999999
 30
0.0
 11
-475.51709
 21
443.85088999999999
 31
0.0
  0
LINE
  5
CDD
  8
0
  6
CONTINUOUS
 62
     7
 10
-601.37279999999998
 20
434.98090000000002
 30
0.0
 11
-595.82709
 21
434.98090000000002
 31
0.0
  0
LINE
  5
CDE
  8
0
  6
CONTINUOUS
 62
     7
 10
-604.11779999999999
 20
428.98421999999988
 30
0.0
 11
-603.33281999999986
 21
433.33089999999982
 31
0.0
  0
LINE
  5
CDF
  8
0
  6
CONTINUOUS
 62
     7
 10
-601.43664999999999
 20
440.26092999999992
 30
0.0
 11
-595.82709
 21
440.26092999999992
 31
0.0
  0
LINE
  5
CE0
  8
0
  6
CONTINUOUS
 62
     7
 10
-609.19708000000003
 20
443.66095000000001
 30
0.0
 11
-595.82709
 21
443.66095000000001
 31
0.0
  0
LINE
  5
CE1
  8
0
  6
CONTINUOUS
 62
     7
 10
-609.21709999999985
 20
445.29095000000001
 30
0.0
 11
-595.71709999999985
 21
445.29095000000001
 31
0.0
  0
LINE
  5
CE2
  8
0
  6
CONTINUOUS
 62
     7
 10
-592.32709
 20
447.91094999999979
 30
0.0
 11
-474.24347
 21
447.91094999999979
 31
0.0
  0
LINE
  5
CE3
  8
0
  6
CONTINUOUS
 62
     7
 10
-592.32709
 20
447.24090999999999
 30
0.0
 11
-474.09942999999993
 21
447.24090999999999
 31
0.0
  0
LINE
  5
CE4
  8
0
  6
CONTINUOUS
 62
     7
 10
-592.32709
 20
445.88092
 30
0.0
 11
-473.80712999999992
 21
445.88092
 31
0.0
  0
LINE
  5
CE5
  8
0
  6
CONTINUOUS
 62
     7
 10
-605.81281000000001
 20
433.03093999999987
 30
0.0
 11
-603.39282000000003
 21
433.03093999999987
 31
0.0
  0
LINE
  5
CE6
  8
0
  6
CONTINUOUS
 62
     7
 10
-603.38287000000003
 20
438.68094000000002
 30
0.0
 11
-604.34289999999964
 21
434.21084999999999
 31
0.0
  0
LINE
  5
CE7
  8
0
  6
CONTINUOUS
 62
     7
 10
-613.51709000000017
 20
437.09087999999991
 30
0.0
 11
-603.72429999999997
 21
437.09087999999991
 31
0.0
  0
LINE
  5
CE8
  8
0
  6
CONTINUOUS
 62
     7
 10
-474.98712
 20
417.99090999999987
 30
0.0
 11
-600.77709999999979
 21
417.99090999999987
 31
0.0
  0
LINE
  5
CE9
  8
0
  6
CONTINUOUS
 62
     7
 10
-474.98712
 20
415.99090999999999
 30
0.0
 11
-489.32709
 21
415.99090999999999
 31
0.0
  0
LINE
  5
CEA
  8
0
  6
CONTINUOUS
 62
     7
 10
-474.97997999999978
 20
407.99090999999999
 30
0.0
 11
-489.32709
 21
407.99090999999999
 31
0.0
  0
LINE
  5
CEB
  8
0
  6
CONTINUOUS
 62
     7
 10
-611.13707999999986
 20
442.12094000000002
 30
0.0
 11
-612.05713000000003
 21
438.25089000000003
 31
0.0
  0
LINE
  5
CEC
  8
0
  6
CONTINUOUS
 62
     7
 10
-474.99425999999988
 20
405.99090999999987
 30
0.0
 11
-600.77709999999979
 21
405.99090999999987
 31
0.0
  0
LINE
  5
CED
  8
0
  6
CONTINUOUS
 62
     7
 10
-613.49707000000001
 20
439.11090000000002
 30
0.0
 11
-611.84710999999982
 21
439.11090000000002
 31
0.0
  0
LINE
  5
CEE
  8
0
  6
CONTINUOUS
 62
     7
 10
-611.15710000000001
 20
443.78084999999999
 30
0.0
 11
-612.04705999999987
 21
440.25094999999988
 31
0.0
  0
LINE
  5
CEF
  8
0
  6
CONTINUOUS
 62
     7
 10
-539.88836999999978
 20
397.99090999999999
 30
0.0
 11
-609.77710000000002
 21
397.99090999999999
 31
0.0
  0
LINE
  5
CF0
  8
0
  6
CONTINUOUS
 62
     7
 10
-594.32708999999988
 20
443.88092
 30
0.0
 11
-594.32708999999988
 21
436.48090000000002
 31
0.0
  0
LINE
  5
CF1
  8
0
  6
CONTINUOUS
 62
     7
 10
-539.88836999999978
 20
395.99090999999987
 30
0.0
 11
-609.77710000000002
 21
395.99090999999987
 31
0.0
  0
LINE
  5
CF2
  8
0
  6
CONTINUOUS
 62
     7
 10
-539.88500999999985
 20
387.99090999999987
 30
0.0
 11
-609.77710000000002
 21
387.99090999999987
 31
0.0
  0
LINE
  5
CF3
  8
0
  6
CONTINUOUS
 62
     7
 10
-539.88500999999985
 20
385.99090999999987
 30
0.0
 11
-609.77710000000002
 21
385.99090999999987
 31
0.0
  0
LINE
  5
CF4
  8
0
  6
CONTINUOUS
 62
     7
 10
-473.58710000000002
 20
442.37093999999991
 30
0.0
 11
-470.12707999999992
 21
429.45087000000001
 31
0.0
  0
LINE
  5
CF5
  8
0
  6
CONTINUOUS
 62
     7
 10
-471.86669999999992
 20
442.49090999999987
 30
0.0
 11
-468.32709000000011
 21
442.49090999999987
 31
0.0
  0
LINE
  5
CF6
  8
0
  6
CONTINUOUS
 62
     7
 10
-468.6171299999998
 20
433.03093999999987
 30
0.0
 11
-471.03710999999993
 21
433.03093999999987
 31
0.0
  0
LINE
  5
CF7
  8
0
  6
CONTINUOUS
 62
     7
 10
-472.77688999999998
 20
446.72606999999988
 30
0.0
 11
-470.08706999999998
 21
434.21084999999999
 31
0.0
  0
LINE
  5
CF8
  8
0
  6
CONTINUOUS
 62
     7
 10
-615.32708999999977
 20
439.42095999999992
 30
0.0
 11
-615.32708999999977
 21
381.99090999999987
 31
0.0
  0
LINE
  5
CF9
  8
0
  6
CONTINUOUS
 62
     7
 10
-615.32708999999977
 20
347.69085999999987
 30
0.0
 11
-605.32709
 21
347.69085999999987
 31
0.0
  0
LINE
  5
CFA
  8
0
  6
CONTINUOUS
 62
     7
 10
-609.62645999999995
 20
320.32085999999993
 30
0.0
 11
-595.58434999999963
 21
320.32085999999993
 31
0.0
  0
LINE
  5
CFB
  8
0
  6
CONTINUOUS
 62
     7
 10
-615.32708999999977
 20
339.30095999999992
 30
0.0
 11
-605.32709
 21
339.30095999999992
 31
0.0
  0
LINE
  5
CFC
  8
0
  6
CONTINUOUS
 62
     7
 10
-613.51709000000017
 20
326.89092999999991
 30
0.0
 11
-603.72429999999997
 21
326.89092999999991
 31
0.0
  0
LINE
  5
CFD
  8
0
  6
CONTINUOUS
 62
     7
 10
-592.32709
 20
318.10088999999999
 30
0.0
 11
-551.00072999999986
 21
318.10088999999999
 31
0.0
  0
LINE
  5
CFE
  8
0
  6
CONTINUOUS
 62
     7
 10
-601.86707000000001
 20
355.51092999999992
 30
0.0
 11
-507.32709
 21
355.51092999999992
 31
0.0
  0
LINE
  5
CFF
  8
0
  6
CONTINUOUS
 62
     7
 10
-507.32709
 20
347.99090999999987
 30
0.0
 11
-600.79137999999978
 21
347.99090999999987
 31
0.0
  0
LINE
  5
D00
  8
0
  6
CONTINUOUS
 62
     7
 10
-601.6570999999999
 20
418.72088999999988
 30
0.0
 11
-471.50707999999992
 21
418.72088999999988
 31
0.0
  0
LINE
  5
D01
  8
0
  6
CONTINUOUS
 62
     7
 10
-601.6570999999999
 20
415.36090000000002
 30
0.0
 11
-507.30712999999992
 21
415.36090000000002
 31
0.0
  0
LINE
  5
D02
  8
0
  6
CONTINUOUS
 62
     7
 10
-601.86707000000001
 20
408.48089999999991
 30
0.0
 11
-507.32709
 21
408.48089999999991
 31
0.0
  0
LINE
  5
D03
  8
0
  6
CONTINUOUS
 62
     7
 10
-601.86707000000001
 20
405.56084999999979
 30
0.0
 11
-471.29284999999999
 21
405.56084999999979
 31
0.0
  0
LINE
  5
D04
  8
0
  6
CONTINUOUS
 62
     7
 10
-610.99706999999978
 20
398.34087999999991
 30
0.0
 11
-538.65581999999995
 21
398.34087999999991
 31
0.0
  0
LINE
  5
D05
  8
0
  6
CONTINUOUS
 62
     7
 10
-610.99706999999978
 20
395.67095999999992
 30
0.0
 11
-538.66840000000002
 21
395.67095999999992
 31
0.0
  0
LINE
  5
D06
  8
0
  6
CONTINUOUS
 62
     7
 10
-611.05707000000018
 20
388.27093999999988
 30
0.0
 11
-538.59198000000004
 21
388.27093999999988
 31
0.0
  0
LINE
  5
D07
  8
0
  6
CONTINUOUS
 62
     7
 10
-611.05707000000018
 20
385.73090000000002
 30
0.0
 11
-538.59198000000004
 21
385.73090000000002
 31
0.0
  0
LINE
  5
D08
  8
0
  6
CONTINUOUS
 62
     7
 10
-611.05707000000018
 20
378.26092999999992
 30
0.0
 11
-538.59198000000004
 21
378.26092999999992
 31
0.0
  0
LINE
  5
D09
  8
0
  6
CONTINUOUS
 62
     7
 10
-539.88500999999985
 20
375.99090999999987
 30
0.0
 11
-609.77710000000002
 21
375.99090999999987
 31
0.0
  0
LINE
  5
D0A
  8
0
  6
CONTINUOUS
 62
     7
 10
-539.88500999999985
 20
377.99090999999987
 30
0.0
 11
-609.77710000000002
 21
377.99090999999987
 31
0.0
  0
LINE
  5
D0B
  8
0
  6
CONTINUOUS
 62
     7
 10
-610.99706999999978
 20
368.31085000000002
 30
0.0
 11
-538.65581999999995
 21
368.31085000000002
 31
0.0
  0
LINE
  5
D0C
  8
0
  6
CONTINUOUS
 62
     7
 10
-539.88500999999985
 20
365.99090999999999
 30
0.0
 11
-609.77710000000002
 21
365.99090999999999
 31
0.0
  0
LINE
  5
D0D
  8
0
  6
CONTINUOUS
 62
     7
 10
-610.99706999999978
 20
365.65093999999999
 30
0.0
 11
-538.65581999999995
 21
365.65093999999999
 31
0.0
  0
LINE
  5
D0E
  8
0
  6
CONTINUOUS
 62
     7
 10
-474.99425999999988
 20
357.99090999999999
 30
0.0
 11
-600.79137999999978
 21
357.99090999999999
 31
0.0
  0
LINE
  5
D0F
  8
0
  6
CONTINUOUS
 62
     7
 10
-601.86707000000001
 20
358.43085000000002
 30
0.0
 11
-471.29284999999999
 21
358.43085000000002
 31
0.0
  0
LINE
  5
D10
  8
0
  6
CONTINUOUS
 62
     7
 10
-474.99425999999988
 20
355.99090999999999
 30
0.0
 11
-489.32709
 21
355.99090999999999
 31
0.0
  0
LINE
  5
D11
  8
0
  6
CONTINUOUS
 62
     7
 10
-474.98712
 20
347.99090999999987
 30
0.0
 11
-489.32709
 21
347.99090999999987
 31
0.0
  0
LINE
  5
D12
  8
0
  6
CONTINUOUS
 62
     7
 10
-611.05707000000018
 20
375.72089
 30
0.0
 11
-538.59198000000004
 21
375.72089
 31
0.0
  0
LINE
  5
D13
  8
0
  6
CONTINUOUS
 62
     7
 10
-604.11785999999995
 20
334.99752999999998
 30
0.0
 11
-603.33281999999986
 21
330.65084999999999
 31
0.0
  0
LINE
  5
D14
  8
0
  6
CONTINUOUS
 62
     7
 10
-605.81281000000001
 20
330.95087000000001
 30
0.0
 11
-603.39282000000003
 21
330.95087000000001
 31
0.0
  0
LINE
  5
D15
  8
0
  6
CONTINUOUS
 62
     7
 10
-603.38280999999995
 20
325.30090000000001
 30
0.0
 11
-604.34283000000016
 21
329.77087
 31
0.0
  0
LINE
  5
D16
  8
0
  6
CONTINUOUS
 62
     3
 10
-549.32708999999966
 20
309.99088
 30
0.0
 11
-549.59259000000009
 21
320.13082999999989
 31
0.0
  0
LINE
  5
D17
  8
0
  6
CONTINUOUS
 62
     3
 10
-489.32709
 20
309.99088
 30
0.0
 11
-489.06155000000001
 21
320.13082999999989
 31
0.0
  0
LINE
  5
D18
  8
0
  6
CONTINUOUS
 62
     7
 10
-487.8134799999998
 20
311.99090999999999
 30
0.0
 11
-476.31090999999998
 21
311.99090999999999
 31
0.0
  0
LINE
  5
D19
  8
0
  6
CONTINUOUS
 62
     3
 10
-469.32705999999979
 20
321.49087999999989
 30
0.0
 11
-475.05285999999978
 21
312.67392000000001
 31
0.0
  0
LINE
  5
D1A
  8
0
  6
CONTINUOUS
 62
     7
 10
-505.82709000000011
 20
354.49090999999987
 30
0.0
 11
-505.82709000000011
 21
349.49090999999999
 31
0.0
  0
LINE
  5
D1B
  8
0
  6
CONTINUOUS
 62
     7
 10
-490.82709
 20
354.49090999999987
 30
0.0
 11
-490.82709
 21
349.49090999999999
 31
0.0
  0
LINE
  5
D1C
  8
0
  6
CONTINUOUS
 62
     7
 10
-507.32709
 20
355.99090999999999
 30
0.0
 11
-600.79137999999978
 21
355.99090999999999
 31
0.0
  0
LINE
  5
D1D
  8
0
  6
CONTINUOUS
 62
     7
 10
-506.3071299999998
 20
354.49090999999987
 30
0.0
 11
-506.3071299999998
 21
349.63092
 31
0.0
  0
LINE
  5
D1E
  8
0
  6
CONTINUOUS
 62
     7
 10
-490.34710999999987
 20
354.49090999999987
 30
0.0
 11
-490.34710999999987
 21
349.63092
 31
0.0
  0
LINE
  5
D1F
  8
0
  6
CONTINUOUS
 62
     7
 10
-489.32709
 20
355.51092999999992
 30
0.0
 11
-471.29284999999999
 21
355.51092999999992
 31
0.0
  0
LINE
  5
D20
  8
0
  6
CONTINUOUS
 62
     7
 10
-489.34710999999999
 20
348.63091999999972
 30
0.0
 11
-471.50707999999992
 21
348.63091999999972
 31
0.0
  0
LINE
  5
D21
  8
0
  6
CONTINUOUS
 62
     7
 10
-490.34710999999987
 20
409.49090999999987
 30
0.0
 11
-490.34710999999987
 21
414.35088999999988
 31
0.0
  0
LINE
  5
D22
  8
0
  6
CONTINUOUS
 62
     7
 10
-506.3071299999998
 20
409.49090999999987
 30
0.0
 11
-506.3071299999998
 21
414.35088999999988
 31
0.0
  0
LINE
  5
D23
  8
0
  6
CONTINUOUS
 62
     7
 10
-490.82709
 20
409.49090999999987
 30
0.0
 11
-490.82709
 21
414.49090999999987
 31
0.0
  0
LINE
  5
D24
  8
0
  6
CONTINUOUS
 62
     7
 10
-505.82709000000011
 20
409.49090999999987
 30
0.0
 11
-505.82709000000011
 21
414.49090999999987
 31
0.0
  0
LINE
  5
D25
  8
0
  6
CONTINUOUS
 62
     7
 10
-507.32709
 20
415.99090999999999
 30
0.0
 11
-600.77709999999979
 21
415.99090999999999
 31
0.0
  0
LINE
  5
D26
  8
0
  6
CONTINUOUS
 62
     7
 10
-489.34710999999999
 20
415.36090000000002
 30
0.0
 11
-471.50707999999992
 21
415.36090000000002
 31
0.0
  0
LINE
  5
D27
  8
0
  6
CONTINUOUS
 62
     7
 10
-489.32709
 20
408.48089999999991
 30
0.0
 11
-471.28136999999981
 21
408.48089999999991
 31
0.0
  0
LINE
  5
D28
  8
0
  6
CONTINUOUS
 62
     7
 10
-507.32709
 20
407.99090999999999
 30
0.0
 11
-600.77709999999979
 21
407.99090999999999
 31
0.0
  0
LINE
  5
D29
  8
0
  6
CONTINUOUS
 62
     3
 10
-534.32709
 20
402.49090999999999
 30
0.0
 11
-534.32709
 21
361.49090999999987
 31
0.0
  0
LINE
  5
D2A
  8
0
  6
CONTINUOUS
 62
     3
 10
-471.32709
 20
402.49090999999999
 30
0.0
 11
-471.32709
 21
361.49090999999987
 31
0.0
  0
LINE
  5
D2B
  8
0
  6
CONTINUOUS
 62
     7
 10
-534.32709
 20
402.49090999999999
 30
0.0
 11
-471.32709
 21
402.49090999999999
 31
0.0
  0
LINE
  5
D2C
  8
0
  6
CONTINUOUS
 62
     7
 10
-534.32709
 20
361.49090999999987
 30
0.0
 11
-471.32709
 21
361.49090999999987
 31
0.0
  0
LINE
  5
D2D
  8
0
  6
CONTINUOUS
 62
     7
 10
-534.32709
 20
394.99090999999987
 30
0.0
 11
-471.32709
 21
394.99090999999987
 31
0.0
  0
LINE
  5
D2E
  8
0
  6
CONTINUOUS
 62
     3
 10
-574.32708999999966
 20
428.34082000000001
 30
0.0
 11
-605.32709
 21
426.31081999999992
 31
0.0
  0
LINE
  5
D2F
  8
0
  6
CONTINUOUS
 62
     3
 10
-574.32708999999966
 20
335.64087000000001
 30
0.0
 11
-605.32709
 21
337.67086999999998
 31
0.0
  0
ARC
  5
D30
  8
0
  6
CONTINUOUS
 62
     7
 10
-363.82709
 20
360.96436
 30
0.0
 40
1.0
 50
91.500000999999969
 51
180.00001
  0
ARC
  5
D31
  8
0
  6
CONTINUOUS
 62
     7
 10
-363.82709
 20
403.01742999999988
 30
0.0
 40
1.0
 50
179.99998999999991
 51
268.50000999999992
  0
ARC
  5
D32
  8
0
  6
CONTINUOUS
 62
     7
 10
-363.82709
 20
362.96505999999999
 30
0.0
 40
1.0
 50
271.49999999999972
 51
0.0
  0
ARC
  5
D33
  8
0
  6
CONTINUOUS
 62
     7
 10
-363.82709
 20
401.01674999999989
 30
0.0
 40
1.0
 50
0.0
 51
88.499996999999965
  0
ARC
  5
D34
  8
0
  6
CONTINUOUS
 62
     7
 10
-354.82715000000002
 20
381.99090999999987
 30
0.0
 40
3.0
 50
89.986013999999983
 51
270.01398999999992
  0
ARC
  5
D35
  8
0
  6
CONTINUOUS
 62
     7
 10
-422.82709
 20
312.99124
 30
0.0
 40
1.0
 50
180.00001
 51
268.5
  0
ARC
  5
D36
  8
0
  6
CONTINUOUS
 62
     7
 10
-367.82709
 20
342.75378000000001
 30
0.0
 40
3.0
 50
271.49999999999972
 51
0.0
  0
ARC
  5
D37
  8
0
  6
CONTINUOUS
 62
     7
 10
-421.82709
 20
314.01776000000001
 30
0.0
 40
2.0
 50
271.49999999999972
 51
0.0
  0
ARC
  5
D38
  8
0
  6
CONTINUOUS
 62
     7
 10
-421.82709
 20
320.01641999999993
 30
0.0
 40
2.0
 50
0.0
 51
91.500000999999969
  0
ARC
  5
D39
  8
0
  6
CONTINUOUS
 62
     7
 10
-380.82709
 20
333.17523
 30
0.0
 40
3.0
 50
271.49999999999972
 51
0.0
  0
ARC
  5
D3A
  8
0
  6
CONTINUOUS
 62
     7
 10
-384.82709
 20
315.98700000000002
 30
0.0
 40
3.0
 50
180.00001
 51
271.49999999999972
  0
ARC
  5
D3B
  8
0
  6
CONTINUOUS
 62
     7
 10
-382.82709
 20
325.12011999999999
 30
0.0
 40
5.0
 50
91.500000999999969
 51
180.00001
  0
ARC
  5
D3C
  8
0
  6
CONTINUOUS
 62
     7
 10
-372.82709
 20
334.62011999999982
 30
0.0
 40
5.0
 50
91.500000999999969
 51
180.00001
  0
ARC
  5
D3D
  8
0
  6
CONTINUOUS
 62
     7
 10
-420.82709
 20
316.94024999999988
 30
0.0
 40
1.0
 50
268.5
 51
0.00000068324625
  0
ARC
  5
D3E
  8
0
  6
CONTINUOUS
 62
     7
 10
-422.82709
 20
314.99193999999989
 30
0.0
 40
1.0
 50
88.499996999999965
 51
180.00001
  0
ARC
  5
D3F
  8
0
  6
DASHED
 62
     7
 10
-435.82714999999979
 20
324.49090999999999
 30
0.0
 40
5.0
 50
326.89702999999992
 51
216.10295999999991
  0
CIRCLE
  5
D40
  8
0
  6
CONTINUOUS
 62
     7
 10
-372.82715000000002
 20
324.49090999999999
 30
0.0
 40
5.0
  0
ARC
  5
D41
  8
0
  6
CONTINUOUS
 62
     7
 10
-440.82709
 20
317.46395999999987
 30
0.0
 40
5.0
 50
180.00001
 51
268.5
  0
ARC
  5
D42
  8
0
  6
CONTINUOUS
 62
     7
 10
-367.82709
 20
335.54894999999999
 30
0.0
 40
5.0
 50
0.0
 51
70.485338999999996
  0
ARC
  5
D43
  8
0
  6
CONTINUOUS
 62
     7
 10
-367.82709
 20
318.43282999999991
 30
0.0
 40
5.0
 50
271.49999999999972
 51
0.0
  0
ARC
  5
D44
  8
0
  6
CONTINUOUS
 62
     7
 10
-422.82709
 20
450.99054000000001
 30
0.0
 40
1.0
 50
91.500000999999969
 51
180.00001
  0
ARC
  5
D45
  8
0
  6
CONTINUOUS
 62
     7
 10
-367.82709
 20
421.22802999999988
 30
0.0
 40
3.0
 50
0.0
 51
88.499996999999965
  0
ARC
  5
D46
  8
0
  6
CONTINUOUS
 62
     7
 10
-421.82709
 20
449.96401999999989
 30
0.0
 40
2.0
 50
0.0
 51
88.499996999999965
  0
ARC
  5
D47
  8
0
  6
CONTINUOUS
 62
     7
 10
-421.82709
 20
443.96539000000001
 30
0.0
 40
2.0
 50
268.5
 51
0.00000068324462
  0
ARC
  5
D48
  8
0
  6
CONTINUOUS
 62
     7
 10
-380.82709
 20
430.80658
 30
0.0
 40
3.0
 50
0.0
 51
88.499996999999965
  0
ARC
  5
D49
  8
0
  6
CONTINUOUS
 62
     7
 10
-384.82709
 20
447.99480999999992
 30
0.0
 40
3.0
 50
88.499996999999965
 51
180.00001
  0
ARC
  5
D4A
  8
0
  6
CONTINUOUS
 62
     7
 10
-382.82709
 20
438.86169000000001
 30
0.0
 40
5.0
 50
180.00001
 51
268.5
  0
ARC
  5
D4B
  8
0
  6
CONTINUOUS
 62
     7
 10
-372.82709
 20
429.36168999999978
 30
0.0
 40
5.0
 50
180.00001
 51
268.5
  0
ARC
  5
D4C
  8
0
  6
CONTINUOUS
 62
     7
 10
-420.82709
 20
447.04155999999989
 30
0.0
 40
1.0
 50
0.0
 51
91.500000999999969
  0
ARC
  5
D4D
  8
0
  6
CONTINUOUS
 62
     7
 10
-422.82709
 20
448.98987
 30
0.0
 40
1.0
 50
180.00001
 51
271.49999999999972
  0
CIRCLE
  5
D4E
  8
0
  6
CONTINUOUS
 62
     7
 10
-372.82715000000002
 20
439.49090999999987
 30
0.0
 40
5.0
  0
ARC
  5
D4F
  8
0
  6
CONTINUOUS
 62
     7
 10
-440.82709
 20
446.51781999999992
 30
0.0
 40
5.0
 50
91.500000999999969
 51
180.00001
  0
ARC
  5
D50
  8
0
  6
CONTINUOUS
 62
     7
 10
-367.82709
 20
428.43282999999991
 30
0.0
 40
5.0
 50
289.51467000000002
 51
0.0
  0
ARC
  5
D51
  8
0
  6
CONTINUOUS
 62
     7
 10
-367.82709
 20
445.54894999999988
 30
0.0
 40
5.0
 50
0.0
 51
88.499996999999965
  0
ARC
  5
D52
  8
0
  6
CONTINUOUS
 62
     7
 10
-329.82711999999992
 20
381.99090999999987
 30
0.0
 40
80.0
 50
148.90067999999999
 51
211.0993
  0
ARC
  5
D53
  8
0
  6
CONTINUOUS
 62
     7
 10
-407.82708999999988
 20
335.89639
 30
0.0
 40
1.0
 50
269.99998999999991
 51
0.00000068324625
  0
ARC
  5
D54
  8
0
  6
CONTINUOUS
 62
     7
 10
-407.82708999999988
 20
330.12288999999993
 30
0.0
 40
1.0
 50
269.99998999999991
 51
0.00000068324625
  0
ARC
  5
D55
  8
0
  6
CONTINUOUS
 62
     7
 10
-407.82708999999988
 20
327.23615000000001
 30
0.0
 40
1.0
 50
269.99998999999991
 51
0.00000068324625
  0
ARC
  5
D56
  8
0
  6
CONTINUOUS
 62
     7
 10
-407.82708999999988
 20
333.89638999999988
 30
0.0
 40
1.0
 50
0.0
 51
90.000003000000007
  0
ARC
  5
D57
  8
0
  6
CONTINUOUS
 62
     7
 10
-407.82708999999988
 20
336.78316999999993
 30
0.0
 40
1.0
 50
0.0
 51
90.000003000000007
  0
ARC
  5
D58
  8
0
  6
CONTINUOUS
 62
     7
 10
-407.82708999999988
 20
328.12288999999993
 30
0.0
 40
1.0
 50
0.0
 51
90.000003000000007
  0
ARC
  5
D59
  8
0
  6
CONTINUOUS
 62
     7
 10
-407.82708999999988
 20
435.85888999999992
 30
0.0
 40
1.0
 50
269.99998999999991
 51
0.00000068324625
  0
ARC
  5
D5A
  8
0
  6
CONTINUOUS
 62
     7
 10
-407.82708999999988
 20
427.19864000000001
 30
0.0
 40
1.0
 50
269.99998999999991
 51
0.00000068324625
  0
ARC
  5
D5B
  8
0
  6
CONTINUOUS
 62
     7
 10
-407.82708999999988
 20
430.0853899999999
 30
0.0
 40
1.0
 50
269.99998999999991
 51
0.00000068324625
  0
ARC
  5
D5C
  8
0
  6
CONTINUOUS
 62
     7
 10
-407.82708999999988
 20
436.74566999999979
 30
0.0
 40
1.0
 50
0.0
 51
90.000003000000007
  0
ARC
  5
D5D
  8
0
  6
CONTINUOUS
 62
     7
 10
-407.82708999999988
 20
433.85892000000001
 30
0.0
 40
1.0
 50
0.0
 51
90.000003000000007
  0
ARC
  5
D5E
  8
0
  6
CONTINUOUS
 62
     7
 10
-407.82708999999988
 20
428.08542
 30
0.0
 40
1.0
 50
0.0
 51
90.000003000000007
  0
ARC
  5
D5F
  8
0
  6
CONTINUOUS
 62
     7
 10
-435.82714999999979
 20
324.49090999999999
 30
0.0
 40
5.0
 50
216.10297
 51
326.89702
  0
ARC
  5
D60
  8
0
  6
DASHED
 62
     7
 10
-435.82714999999979
 20
439.49090999999987
 30
0.0
 40
5.0
 50
143.89688000000001
 51
33.103122999999989
  0
ARC
  5
D61
  8
0
  6
CONTINUOUS
 62
     7
 10
-435.82714999999979
 20
439.49090999999987
 30
0.0
 40
5.0
 50
33.103113
 51
143.89688000000001
  0
ARC
  5
D62
  8
0
  6
CONTINUOUS
 62
     7
 10
-397.86407000000003
 20
318.79348999999991
 30
0.0
 40
10.0
 50
91.500000999999969
 51
119.9999999999999
  0
ARC
  5
D63
  8
0
  6
CONTINUOUS
 62
     7
 10
-397.86407000000003
 20
445.18831999999998
 30
0.0
 40
10.0
 50
239.99999999999989
 51
268.5
  0
ARC
  5
D64
  8
0
  6
CONTINUOUS
 62
     7
 10
-414.62768999999997
 20
431.77276999999981
 30
0.0
 40
10.0
 50
60.000002000000002
 51
88.499996999999965
  0
ARC
  5
D65
  8
0
  6
CONTINUOUS
 62
     7
 10
-414.62768999999997
 20
332.20904999999982
 30
0.0
 40
10.0
 50
271.49999999999972
 51
300.00000999999997
  0
CIRCLE
  5
D66
  8
0
  6
CONTINUOUS
 62
     7
 10
-95.299698000000006
 20
168.69991999999991
 30
0.0
 40
4.9999995000000004
  0
CIRCLE
  5
D67
  8
0
  6
CONTINUOUS
 62
     7
 10
-169.38999999999999
 20
72.143562000000003
 30
0.0
 40
4.9999995000000004
  0
ARC
  5
D68
  8
0
  6
CONTINUOUS
 62
     7
 10
-145.2809399999999
 20
147.34795
 30
0.0
 40
9.5
 50
108.40848
 51
71.591511999999994
  0
CIRCLE
  5
D69
  8
0
  6
CONTINUOUS
 62
     2
 10
-145.2809399999999
 20
147.34795
 30
0.0
 40
3.0
  0
CIRCLE
  5
D6A
  8
0
  6
CONTINUOUS
 62
     7
 10
-145.2809399999999
 20
147.34795
 30
0.0
 40
2.4999997999999981
  0
CIRCLE
  5
D6B
  8
0
  6
CONTINUOUS
 62
     7
 10
-121.17188
 20
72.143562000000003
 30
0.0
 40
4.9999995000000004
  0
CIRCLE
  5
D6C
  8
0
  6
CONTINUOUS
 62
     7
 10
-195.26221000000001
 20
168.69991999999991
 30
0.0
 40
4.9999995000000004
  0
ARC
  5
D6D
  8
0
  6
CONTINUOUS
 62
     7
 10
-407.82711999999992
 20
172.58664999999991
 30
0.0
 40
1.0
 50
270.0
 51
0.0
  0
ARC
  5
D6E
  8
0
  6
CONTINUOUS
 62
     7
 10
-407.82711999999992
 20
166.81316000000001
 30
0.0
 40
1.0
 50
270.0
 51
0.0
  0
ARC
  5
D6F
  8
0
  6
CONTINUOUS
 62
     7
 10
-407.82711999999992
 20
163.92641
 30
0.0
 40
1.0
 50
270.0
 51
0.0
  0
ARC
  5
D70
  8
0
  6
CONTINUOUS
 62
     7
 10
-407.82711999999992
 20
164.8131699999999
 30
0.0
 40
1.0
 50
0.0
 51
90.000003000000007
  0
ARC
  5
D71
  8
0
  6
CONTINUOUS
 62
     7
 10
-407.82711999999992
 20
170.58667
 30
0.0
 40
1.0
 50
0.0
 51
90.000003000000007
  0
ARC
  5
D72
  8
0
  6
CONTINUOUS
 62
     7
 10
-407.82711999999992
 20
173.47343000000001
 30
0.0
 40
1.0
 50
0.0
 51
90.000003000000007
  0
ARC
  5
D73
  8
0
  6
CONTINUOUS
 62
     7
 10
-410.82711999999992
 20
159.18617
 30
0.0
 40
1.0
 50
179.99998999999991
 51
270.0
  0
ARC
  5
D74
  8
0
  6
CONTINUOUS
 62
     7
 10
-410.82711999999992
 20
178.56993
 30
0.0
 40
1.0
 50
90.000003000000007
 51
180.00001
  0
ARC
  5
D75
  8
0
  6
CONTINUOUS
 62
     7
 10
-410.82711999999992
 20
157.18618999999981
 30
0.0
 40
1.0
 50
0.0
 51
90.000003000000007
  0
ARC
  5
D76
  8
0
  6
CONTINUOUS
 62
     7
 10
-363.82711999999992
 20
128.32211000000001
 30
0.0
 40
1.0
 50
271.49999999999972
 51
0.0
  0
ARC
  5
D77
  8
0
  6
CONTINUOUS
 62
     7
 10
-426.49486999999988
 20
75.347954000000001
 30
0.0
 40
3.0
 50
270.0
 51
353.29016000000001
  0
ARC
  5
D78
  8
0
  6
CONTINUOUS
 62
     7
 10
-422.82711999999998
 20
106.52381
 30
0.0
 40
3.0
 50
353.29016000000001
 51
0.0
  0
ARC
  5
D79
  8
0
  6
CONTINUOUS
 62
     7
 10
-424.82715000000002
 20
62.347960999999998
 30
0.0
 40
1.0
 50
90.000003000000007
 51
180.00001
  0
ARC
  5
D7A
  8
0
  6
CONTINUOUS
 62
     7
 10
-383.82711999999992
 20
62.347960999999998
 30
0.0
 40
1.0
 50
0.0
 51
90.000003000000007
  0
ARC
  5
D7B
  8
0
  6
CONTINUOUS
 62
     7
 10
-393.09186
 20
153.97881999999981
 30
0.0
 40
5.0
 50
90.000003000000007
 51
171.85424
  0
ARC
  5
D7C
  8
0
  6
CONTINUOUS
 62
     7
 10
-410.82711999999992
 20
180.56995000000001
 30
0.0
 40
1.0
 50
270.0
 51
0.0
  0
ARC
  5
D7D
  8
0
  6
CONTINUOUS
 62
     7
 10
-379.82715000000002
 20
99.115387000000013
 30
0.0
 40
5.0
 50
270.0
 51
0.0000000000001628
  0
ARC
  5
D7E
  8
0
  6
CONTINUOUS
 62
     7
 10
-382.82714999999968
 20
77.347945999999979
 30
0.0
 40
5.0
 50
180.00001
 51
270.0
  0
ARC
  5
D7F
  8
0
  6
CONTINUOUS
 62
     7
 10
-369.82711999999992
 20
182.34794999999991
 30
0.0
 40
5.0
 50
180.00001
 51
270.0
  0
ARC
  5
D80
  8
0
  6
CONTINUOUS
 62
     7
 10
-379.82715000000002
 20
184.22026
 30
0.0
 40
5.0
 50
0.0
 51
88.499996999999965
  0
ARC
  5
D81
  8
0
  6
CONTINUOUS
 62
     7
 10
-379.82715000000002
 20
168.8693699999998
 30
0.0
 40
5.0
 50
0.0
 51
90.000003000000007
  0
ARC
  5
D82
  8
0
  6
CONTINUOUS
 62
     7
 10
-366.82711999999992
 20
175.34796
 30
0.0
 40
2.0
 50
0.0
 51
90.000003000000007
  0
ARC
  5
D83
  8
0
  6
CONTINUOUS
 62
     7
 10
-363.82711999999992
 20
166.3737899999999
 30
0.0
 40
1.0
 50
0.0
 51
88.499996999999965
  0
ARC
  5
D84
  8
0
  6
CONTINUOUS
 62
     7
 10
-359.82711999999992
 20
75.538360999999981
 30
0.0
 40
5.0
 50
179.99998999999991
 51
226.1869299999999
  0
ARC
  5
D85
  8
0
  6
CONTINUOUS
 62
     7
 10
-382.82714999999968
 20
155.26537999999991
 30
0.0
 40
5.0
 50
90.000003000000007
 51
180.00001
  0
ARC
  5
D86
  8
0
  6
CONTINUOUS
 62
     7
 10
-363.82711999999992
 20
168.37448000000001
 30
0.0
 40
1.0
 50
179.99998999999991
 51
268.50000999999992
  0
ARC
  5
D87
  8
0
  6
CONTINUOUS
 62
     7
 10
-364.32711999999998
 20
70.847954000000001
 30
0.0
 40
1.5
 50
0.0
 51
90.000003000000007
  0
ARC
  5
D88
  8
0
  6
CONTINUOUS
 62
     7
 10
-444.32715000000002
 20
70.847954000000001
 30
0.0
 40
1.5
 50
90.000003000000007
 51
180.00001
  0
ARC
  5
D89
  8
0
  6
CONTINUOUS
 62
     7
 10
-363.82711999999992
 20
126.32143000000001
 30
0.0
 40
1.0
 50
91.500000999999969
 51
180.00001
  0
ARC
  5
D8A
  8
0
  6
CONTINUOUS
 62
     7
 10
-136.29484999999991
 20
78.847945999999979
 30
0.0
 40
3.0
 50
90.000003000000007
 51
183.18473999999989
  0
ARC
  5
D8B
  8
0
  6
CONTINUOUS
 62
     7
 10
-184.2809399999999
 20
63.847960999999991
 30
0.0
 40
1.0
 50
90.000003000000007
 51
180.00001
  0
ARC
  5
D8C
  8
0
  6
CONTINUOUS
 62
     7
 10
-106.2809399999999
 20
63.847960999999991
 30
0.0
 40
1.0
 50
0.0
 51
90.000003000000007
  0
ARC
  5
D8D
  8
0
  6
CONTINUOUS
 62
     7
 10
-145.2809399999999
 20
85.347960999999984
 30
0.0
 40
105.0
 50
61.927514999999993
 51
118.0724799999997
  0
ARC
  5
D8E
  8
0
  6
CONTINUOUS
 62
     7
 10
-185.2809399999999
 20
160.34796
 30
0.0
 40
20.0
 50
118.0724799999997
 51
173.59762000000001
  0
ARC
  5
D8F
  8
0
  6
CONTINUOUS
 62
     7
 10
-183.01458999999991
 20
177.95557999999991
 30
0.0
 40
5.0
 50
112.1688
 51
210.15778999999969
  0
ARC
  5
D90
  8
0
  6
CONTINUOUS
 62
     7
 10
-165.28093000000001
 20
112.34796
 30
0.0
 40
32.0
 50
179.99998999999991
 51
225.32174000000001
  0
ARC
  5
D91
  8
0
  6
CONTINUOUS
 62
     7
 10
-192.28093000000001
 20
154.58335999999991
 30
0.0
 40
5.0
 50
106.58861
 51
180.00001
  0
ARC
  5
D92
  8
0
  6
CONTINUOUS
 62
     7
 10
-125.28095
 20
112.34796
 30
0.0
 40
32.0
 50
314.67826000000002
 51
0.0
  0
ARC
  5
D93
  8
0
  6
CONTINUOUS
 62
     7
 10
-201.03412999999981
 20
154.4745299999999
 30
0.0
 40
5.0
 50
74.836354
 51
173.59762000000001
  0
ARC
  5
D94
  8
0
  6
CONTINUOUS
 62
     7
 10
-107.54730000000001
 20
177.95557999999991
 30
0.0
 40
5.0
 50
329.84219999999982
 51
67.831203000000002
  0
ARC
  5
D95
  8
0
  6
CONTINUOUS
 62
     1
 10
-184.2809399999999
 20
62.347960999999998
 30
0.0
 40
1.0
 50
90.000003000000007
 51
180.00001
  0
ARC
  5
D96
  8
0
  6
CONTINUOUS
 62
     7
 10
-106.2809399999999
 20
62.347960999999998
 30
0.0
 40
1.0
 50
0.0
 51
90.000003000000007
  0
ARC
  5
D97
  8
0
  6
CONTINUOUS
 62
     1
 10
-107.2809499999999
 20
67.847954000000001
 30
0.0
 40
3.0
 50
179.99998999999991
 51
270.0
  0
ARC
  5
D98
  8
0
  6
CONTINUOUS
 62
     7
 10
-98.280951999999985
 20
154.58335999999991
 30
0.0
 40
5.0
 50
0.0
 51
73.411384999999981
  0
ARC
  5
D99
  8
0
  6
CONTINUOUS
 62
     1
 10
-175.2809399999999
 20
76.847954000000001
 30
0.0
 40
5.0
 50
90.000003000000007
 51
180.00001
  0
ARC
  5
D9A
  8
0
  6
CONTINUOUS
 62
     7
 10
-105.2809399999999
 20
160.34796
 30
0.0
 40
20.0
 50
6.4023798000000003
 51
61.927514999999993
  0
ARC
  5
D9B
  8
0
  6
CONTINUOUS
 62
     1
 10
-190.78093000000001
 20
75.347954000000001
 30
0.0
 40
3.0
 50
270.0
 51
0.0
  0
ARC
  5
D9C
  8
0
  6
CONTINUOUS
 62
     1
 10
-99.780951999999999
 20
75.347954000000001
 30
0.0
 40
3.0
 50
179.99998999999991
 51
270.0
  0
ARC
  5
D9D
  8
0
  6
CONTINUOUS
 62
     7
 10
-145.2809399999999
 20
147.34795
 30
0.0
 40
20.0
 50
90.000003000000007
 51
270.0
  0
ARC
  5
D9E
  8
0
  6
CONTINUOUS
 62
     7
 10
-145.2809399999999
 20
130.34795999999969
 30
0.0
 40
60.0
 50
153.33084999999991
 51
170.94545999999991
  0
ARC
  5
D9F
  8
0
  6
CONTINUOUS
 62
     7
 10
-183.17614999999981
 20
172.92672999999999
 30
0.0
 40
3.0
 50
131.66915
 51
192.41255000000001
  0
ARC
  5
DA0
  8
0
  6
CONTINUOUS
 62
     1
 10
-213.78093999999999
 20
70.847954000000001
 30
0.0
 40
1.5
 50
90.000003000000007
 51
180.00001
  0
ARC
  5
DA1
  8
0
  6
CONTINUOUS
 62
     7
 10
-145.2809399999999
 20
78.347954000000001
 30
0.0
 40
6.0
 50
176.81526999999991
 51
3.184736
  0
ARC
  5
DA2
  8
0
  6
CONTINUOUS
 62
     1
 10
-187.2809399999999
 20
70.347960999999998
 30
0.0
 40
2.0
 50
0.0
 51
90.000003000000007
  0
ARC
  5
DA3
  8
0
  6
CONTINUOUS
 62
     7
 10
-107.38573
 20
172.92672999999999
 30
0.0
 40
3.0
 50
347.58744999999982
 51
48.330844999999989
  0
ARC
  5
DA4
  8
0
  6
CONTINUOUS
 62
     1
 10
-183.28093000000001
 20
67.847954000000001
 30
0.0
 40
3.0
 50
270.0
 51
0.0
  0
ARC
  5
DA5
  8
0
  6
CONTINUOUS
 62
     7
 10
-145.2809399999999
 20
134.84796
 30
0.0
 40
42.5
 50
0.0
 51
180.00001
  0
ARC
  5
DA6
  8
0
  6
CONTINUOUS
 62
     1
 10
-76.78093699999998
 20
70.847954000000001
 30
0.0
 40
1.5
 50
0.0
 51
90.000003000000007
  0
ARC
  5
DA7
  8
0
  6
CONTINUOUS
 62
     7
 10
-196.84890999999999
 20
169.91742999999991
 30
0.0
 40
11.0
 50
254.83636000000001
 51
30.157795000000011
  0
ARC
  5
DA8
  8
0
  6
CONTINUOUS
 62
     7
 10
-145.2809399999999
 20
147.34795
 30
0.0
 40
20.0
 50
270.0
 51
90.000003000000007
  0
ARC
  5
DA9
  8
0
  6
CONTINUOUS
 62
     7
 10
-196.21690000000001
 20
155.93170000000001
 30
0.0
 40
3.0
 50
92.587449000000007
 51
153.33084999999991
  0
ARC
  5
DAA
  8
0
  6
CONTINUOUS
 62
     7
 10
-145.2809399999999
 20
130.34795999999969
 30
0.0
 40
60.0
 50
171.12478999999999
 51
172.44926000000001
  0
ARC
  5
DAB
  8
0
  6
CONTINUOUS
 62
     7
 10
-154.26703999999981
 20
78.847945999999979
 30
0.0
 40
3.0
 50
356.81526000000002
 51
90.000003000000007
  0
ARC
  5
DAC
  8
0
  6
CONTINUOUS
 62
     7
 10
-89.527755999999982
 20
154.4745299999999
 30
0.0
 40
5.0
 50
6.4023798000000003
 51
105.1636399999997
  0
ARC
  5
DAD
  8
0
  6
CONTINUOUS
 62
     7
 10
-145.2809399999999
 20
130.34795999999969
 30
0.0
 40
60.0
 50
9.0545419000000003
 51
26.669156999999998
  0
ARC
  5
DAE
  8
0
  6
CONTINUOUS
 62
     7
 10
-145.2809399999999
 20
130.34795999999969
 30
0.0
 40
60.0
 50
48.330844999999989
 51
131.66915
  0
ARC
  5
DAF
  8
0
  6
CONTINUOUS
 62
     7
 10
-93.712975
 20
169.91742999999991
 30
0.0
 40
11.0
 50
149.84220999999991
 51
285.16365000000002
  0
ARC
  5
DB0
  8
0
  6
CONTINUOUS
 62
     7
 10
-94.344986000000006
 20
155.93170000000001
 30
0.0
 40
3.0
 50
26.669156999999998
 51
87.412548999999984
  0
ARC
  5
DB1
  8
0
  6
CONTINUOUS
 62
     1
 10
-103.28094
 20
70.347960999999998
 30
0.0
 40
2.0
 50
90.000003000000007
 51
180.00001
  0
ARC
  5
DB2
  8
0
  6
CONTINUOUS
 62
     1
 10
-115.2809399999999
 20
76.847954000000001
 30
0.0
 40
5.0
 50
0.0
 51
90.000003000000007
  0
ARC
  5
DB3
  8
0
  6
CONTINUOUS
 62
     7
 10
-454.32711999999992
 20
80.847960999999998
 30
0.0
 40
2.0
 50
270.0
 51
0.0
  0
ARC
  5
DB4
  8
0
  6
CONTINUOUS
 62
     7
 10
-454.32711999999992
 20
68.522743000000006
 30
0.0
 40
1.0
 50
91.500000999999969
 51
180.00001
  0
ARC
  5
DB5
  8
0
  6
CONTINUOUS
 62
     7
 10
-456.32714999999979
 20
67.953056000000004
 30
0.0
 40
1.0
 50
271.49999999999972
 51
0.0
  0
ARC
  5
DB6
  8
0
  6
CONTINUOUS
 62
     7
 10
-456.32714999999979
 20
192.74286000000001
 30
0.0
 40
1.0
 50
0.0
 51
88.499996999999965
  0
ARC
  5
DB7
  8
0
  6
CONTINUOUS
 62
     7
 10
-454.32711999999992
 20
192.17317
 30
0.0
 40
1.0
 50
179.99998999999991
 51
268.50000999999992
  0
ARC
  5
DB8
  8
0
  6
CONTINUOUS
 62
     7
 10
-454.32711999999992
 20
179.84796
 30
0.0
 40
2.0
 50
0.0
 51
90.000003000000007
  0
ARC
  5
DB9
  8
0
  6
CONTINUOUS
 62
     7
 10
-454.32711999999992
 20
90.351662000000005
 30
0.0
 40
2.0
 50
0.0
 51
90.000003000000007
  0
ARC
  5
DBA
  8
0
  6
CONTINUOUS
 62
     7
 10
-454.32711999999992
 20
170.3442499999999
 30
0.0
 40
2.0
 50
270.0
 51
0.0
  0
ARC
  5
DBB
  8
0
  6
CONTINUOUS
 62
     3
 10
-609.78186000000005
 20
105.3479499999999
 30
0.0
 40
1.0000119000000001
 50
89.728461999999965
 51
270.27154000000002
  0
ARC
  5
DBC
  8
0
  6
CONTINUOUS
 62
     3
 10
-609.77710000000002
 20
115.34796
 30
0.0
 40
1.0
 50
90.000003000000007
 51
270.0
  0
ARC
  5
DBD
  8
0
  6
CONTINUOUS
 62
     3
 10
-610.65399000000002
 20
95.302970999999999
 30
0.0
 40
1.6750160000000001
 50
89.764983000000015
 51
270.23500999999987
  0
ARC
  5
DBE
  8
0
  6
CONTINUOUS
 62
     3
 10
-611.06293000000016
 20
125.3479699999999
 30
0.0
 40
1.270011999999999
 50
89.738748000000001
 51
270.26123999999999
  0
ARC
  5
DBF
  8
0
  6
CONTINUOUS
 62
     3
 10
-593.33190999999999
 20
95.347969000000006
 30
0.0
 40
1.0000119000000001
 50
89.726507999999981
 51
270.27347999999989
  0
ARC
  5
DC0
  8
0
  6
CONTINUOUS
 62
     3
 10
-593.33190999999999
 20
125.3479699999999
 30
0.0
 40
1.0000119000000001
 50
89.726507999999981
 51
270.27347999999989
  0
ARC
  5
DC1
  8
0
  6
CONTINUOUS
 62
     3
 10
-609.78186000000005
 20
95.347969000000006
 30
0.0
 40
1.0000119000000001
 50
89.728461999999965
 51
270.27154000000002
  0
ARC
  5
DC2
  8
0
  6
CONTINUOUS
 62
     3
 10
-610.86712999999997
 20
105.3229599999999
 30
0.0
 40
1.465004
 50
90.000003000000007
 51
270.0
  0
ARC
  5
DC3
  8
0
  6
CONTINUOUS
 62
     3
 10
-610.99712999999986
 20
115.33796
 30
0.0
 40
1.3300080000000001
 50
90.000003000000007
 51
270.0
  0
ARC
  5
DC4
  8
0
  6
CONTINUOUS
 62
     3
 10
-593.33190999999999
 20
105.3479499999999
 30
0.0
 40
1.0000119000000001
 50
89.726507999999981
 51
270.27347999999989
  0
ARC
  5
DC5
  8
0
  6
CONTINUOUS
 62
     3
 10
-593.33190999999999
 20
115.34796
 30
0.0
 40
1.0000119000000001
 50
89.726507999999981
 51
270.27347999999989
  0
ARC
  5
DC6
  8
0
  6
CONTINUOUS
 62
     3
 10
-609.77710000000002
 20
125.3479699999999
 30
0.0
 40
1.0
 50
90.000003000000007
 51
270.0
  0
ARC
  5
DC7
  8
0
  6
CONTINUOUS
 62
     3
 10
-471.50713999999999
 20
95.302970999999999
 30
0.0
 40
1.6750041
 50
270.0
 51
90.000003000000007
  0
ARC
  5
DC8
  8
0
  6
CONTINUOUS
 62
     3
 10
-474.98714999999999
 20
95.347969000000006
 30
0.0
 40
1.0
 50
270.0
 51
90.000003000000007
  0
ARC
  5
DC9
  8
0
  6
CONTINUOUS
 62
     3
 10
-474.98714999999999
 20
165.34794999999991
 30
0.0
 40
1.0
 50
270.0
 51
90.000003000000007
  0
ARC
  5
DCA
  8
0
  6
CONTINUOUS
 62
     3
 10
-471.50713999999999
 20
165.3929399999999
 30
0.0
 40
1.6750041
 50
270.0
 51
90.000003000000007
  0
ARC
  5
DCB
  8
0
  6
CONTINUOUS
 62
     3
 10
-488.02553999999998
 20
97.979561000000004
 30
0.0
 40
1.001595999999999
 50
180.09126000000001
 51
269.90875
  0
ARC
  5
DCC
  8
0
  6
CONTINUOUS
 62
     3
 10
-488.03098
 20
99.082130000000006
 30
0.0
 40
0.99615997
 50
91.504365000000007
 51
180.24055000000001
  0
ARC
  5
DCD
  8
0
  6
CONTINUOUS
 62
     3
 10
-488.02590999999978
 20
161.61870999999991
 30
0.0
 40
1.001239999999999
 50
180.04312999999991
 51
268.21195999999992
  0
ARC
  5
DCE
  8
0
  6
CONTINUOUS
 62
     3
 10
-488.03060999999991
 20
162.72146999999981
 30
0.0
 40
0.996512
 50
89.798963000000015
 51
180.20103
  0
ARC
  5
DCF
  8
0
  6
CONTINUOUS
 62
     3
 10
-600.78186000000017
 20
155.34796
 30
0.0
 40
1.0000119000000001
 50
89.728448
 51
270.27154000000002
  0
ARC
  5
DD0
  8
0
  6
CONTINUOUS
 62
     3
 10
-600.78186000000017
 20
165.34794999999991
 30
0.0
 40
1.0000119000000001
 50
89.728448
 51
270.27154000000002
  0
ARC
  5
DD1
  8
0
  6
CONTINUOUS
 62
     3
 10
-609.77710000000002
 20
145.34796
 30
0.0
 40
1.0
 50
90.000003000000007
 51
270.0
  0
ARC
  5
DD2
  8
0
  6
CONTINUOUS
 62
     3
 10
-609.77710000000002
 20
135.34794999999991
 30
0.0
 40
1.0
 50
90.000003000000007
 51
270.0
  0
ARC
  5
DD3
  8
0
  6
CONTINUOUS
 62
     3
 10
-601.65399000000002
 20
165.3929399999999
 30
0.0
 40
1.6750160000000001
 50
89.766540000000006
 51
270.23345999999992
  0
ARC
  5
DD4
  8
0
  6
CONTINUOUS
 62
     3
 10
-601.86712999999997
 20
155.37296000000001
 30
0.0
 40
1.465004
 50
90.000003000000007
 51
270.0
  0
ARC
  5
DD5
  8
0
  6
CONTINUOUS
 62
     3
 10
-610.99712999999986
 20
145.35795999999991
 30
0.0
 40
1.3300080000000001
 50
90.000003000000007
 51
270.0
  0
ARC
  5
DD6
  8
0
  6
CONTINUOUS
 62
     3
 10
-611.06293000000016
 20
135.35296999999991
 30
0.0
 40
1.265012
 50
89.737716000000006
 51
270.26227999999992
  0
ARC
  5
DD7
  8
0
  6
CONTINUOUS
 62
     3
 10
-593.33190999999999
 20
165.34794999999991
 30
0.0
 40
1.0000119000000001
 50
89.726507999999981
 51
270.27347999999989
  0
ARC
  5
DD8
  8
0
  6
CONTINUOUS
 62
     3
 10
-593.33190999999999
 20
155.34796
 30
0.0
 40
1.0000119000000001
 50
89.726507999999981
 51
270.27347999999989
  0
ARC
  5
DD9
  8
0
  6
CONTINUOUS
 62
     3
 10
-593.33190999999999
 20
145.34796
 30
0.0
 40
1.0000119000000001
 50
89.726507999999981
 51
270.27347999999989
  0
ARC
  5
DDA
  8
0
  6
CONTINUOUS
 62
     3
 10
-468.68175999999988
 20
82.501975999999985
 30
0.0
 40
1.495995999999999
 50
89.821707000000004
 51
165.04766000000001
  0
ARC
  5
DDB
  8
0
  6
CONTINUOUS
 62
     3
 10
-539.32903999999985
 20
66.439850000000007
 30
0.0
 40
2.0019
 50
270.05437999999992
 51
359.94562000000002
  0
ARC
  5
DDC
  8
0
  6
CONTINUOUS
 62
     3
 10
-539.33051
 20
67.111319999999992
 30
0.0
 40
2.0033560000000001
 50
270.09593999999998
 51
359.90406000000002
  0
ARC
  5
DDD
  8
0
  6
CONTINUOUS
 62
     3
 10
-539.33312999999976
 20
68.463988999999998
 30
0.0
 40
2.0060479999999981
 50
270.17248999999998
 51
359.82751000000002
  0
ARC
  5
DDE
  8
0
  6
CONTINUOUS
 62
     3
 10
-595.71557999999982
 20
65.551307999999992
 30
0.0
 40
1.4966440000000001
 50
14.57574
 51
90.058278000000001
  0
ARC
  5
DDF
  8
0
  6
CONTINUOUS
 62
     3
 10
-595.82683999999995
 20
67.178200000000004
 30
0.0
 40
1.499755999999999
 50
359.99058999999983
 51
90.009407999999965
  0
ARC
  5
DE0
  8
0
  6
CONTINUOUS
 62
     3
 10
-595.82983000000002
 20
70.585243000000006
 30
0.0
 40
1.502715899999999
 50
0.103436
 51
89.896566000000007
  0
ARC
  5
DE1
  8
0
  6
CONTINUOUS
 62
     3
 10
-595.82866999999999
 20
75.866394
 30
0.0
 40
1.501567999999998
 50
0.059805003
 51
89.940196999999998
  0
ARC
  5
DE2
  8
0
  6
CONTINUOUS
 62
     3
 10
-592.33318999999995
 20
66.438018999999997
 30
0.0
 40
2.000076099999998
 50
194.77497999999991
 51
270.17352999999991
  0
ARC
  5
DE3
  8
0
  6
CONTINUOUS
 62
     3
 10
-592.32848999999965
 20
67.106583000000001
 30
0.0
 40
1.9986198999999949
 50
179.9604699999999
 51
270.03952999999967
  0
ARC
  5
DE4
  8
0
  6
CONTINUOUS
 62
     3
 10
-592.32580999999982
 20
68.459273999999994
 30
0.0
 40
2.0013119999999991
 50
180.03756000000001
 51
269.96244000000002
  0
ARC
  5
DE5
  8
0
  6
CONTINUOUS
 62
     3
 10
-592.32665999999995
 20
70.488403000000005
 30
0.0
 40
2.0004520000000001
 50
180.0129
 51
269.98709999999988
  0
ARC
  5
DE6
  8
0
  6
CONTINUOUS
 62
     3
 10
-609.21564000000001
 20
69.051093999999992
 30
0.0
 40
2.0031319000000001
 50
194.25158999999999
 51
269.95755000000003
  0
ARC
  5
DE7
  8
0
  6
CONTINUOUS
 62
     3
 10
-613.49932999999965
 20
71.729835999999978
 30
0.0
 40
1.4981281
 50
14.224575
 51
89.916113999999979
  0
ARC
  5
DE8
  8
0
  6
CONTINUOUS
 62
     3
 10
-613.51373000000001
 20
73.750450000000001
 30
0.0
 40
1.497512
 50
13.418233000000001
 51
90.128792999999988
  0
ARC
  5
DE9
  8
0
  6
CONTINUOUS
 62
     3
 10
-609.19011999999975
 20
70.678719000000001
 30
0.0
 40
2.0007559999999991
 50
193.3141599999999
 51
270.08645000000001
  0
ARC
  5
DEA
  8
0
  6
CONTINUOUS
 62
     3
 10
-613.54400999999984
 20
77.818871000000001
 30
0.0
 40
1.4991000000000001
 50
11.89856
 51
89.736657999999963
  0
ARC
  5
DEB
  8
0
  6
CONTINUOUS
 62
     3
 10
-609.16223000000002
 20
74.087341000000023
 30
0.0
 40
1.9993919999999981
 50
192.1080399999999
 51
270.14582000000001
  0
ARC
  5
DEC
  8
0
  6
CONTINUOUS
 62
     3
 10
-609.10107000000005
 20
79.366386000000006
 30
0.0
 40
1.998443999999999
 50
190.33239999999989
 51
270.11368999999968
  0
ARC
  5
DED
  8
0
  6
CONTINUOUS
 62
     3
 10
-615.82672000000002
 20
80.098395999999966
 30
0.0
 40
0.49955601
 50
359.94911000000002
 51
90.050894000000014
  0
ARC
  5
DEE
  8
0
  6
CONTINUOUS
 62
     3
 10
-615.83056999999985
 20
82.251349999999988
 30
0.0
 40
0.50340396
 50
270.38612999999992
 51
359.61387000000002
  0
ARC
  5
DEF
  8
0
  6
CONTINUOUS
 62
     3
 10
-616.33118000000002
 20
84.852043000000023
 30
0.0
 40
1.0040839999999991
 50
270.23262999999992
 51
359.76737000000008
  0
ARC
  5
DF0
  8
0
  6
CONTINUOUS
 62
     3
 10
-619.32866999999976
 20
90.107262000000006
 30
0.0
 40
0.9984599899999999
 50
179.95962
 51
239.38655
  0
ARC
  5
DF1
  8
0
  6
CONTINUOUS
 62
     3
 10
-616.32959000000005
 20
89.370421999999962
 30
0.0
 40
1.002459999999999
 50
270.14037999999999
 51
359.85962000000001
  0
ARC
  5
DF2
  8
0
  6
CONTINUOUS
 62
     3
 10
-619.32837000000018
 20
84.471457999999984
 30
0.0
 40
0.9987800700000001
 50
179.6266699999999
 51
238.70855
  0
ARC
  5
DF3
  8
0
  6
CONTINUOUS
 62
     3
 10
-619.32941000000005
 20
85.509253999999999
 30
0.0
 40
0.99770796
 50
180.07404999999969
 51
242.04476
  0
ARC
  5
DF4
  8
0
  6
CONTINUOUS
 62
     3
 10
-619.32806000000005
 20
89.072647000000003
 30
0.0
 40
0.9991000299999999
 50
179.69542000000001
 51
236.66176999999999
  0
ARC
  5
DF5
  8
0
  6
CONTINUOUS
 62
     3
 10
-618.06377999999995
 20
89.368958000000006
 30
0.0
 40
1.001012
 50
240.47136
 51
270.3802
  0
ARC
  5
DF6
  8
0
  6
CONTINUOUS
 62
     3
 10
-618.03435999999999
 20
88.228461999999979
 30
0.0
 40
1.0005360000000001
 50
237.1464
 51
270.41322000000002
  0
ARC
  5
DF7
  8
0
  6
CONTINUOUS
 62
     3
 10
-618.07195999999965
 20
84.848586999999981
 30
0.0
 40
1.0006280000000001
 50
241.64985999999999
 51
269.70470999999992
  0
ARC
  5
DF8
  8
0
  6
CONTINUOUS
 62
     3
 10
-618.05579
 20
83.711617000000004
 30
0.0
 40
1.003687999999999
 50
239.37027
 51
270.49275
  0
ARC
  5
DF9
  8
0
  6
CONTINUOUS
 62
     3
 10
-618.08130000000006
 20
82.747222999999977
 30
0.0
 40
0.99928796
 50
242.86126999999991
 51
269.66618999999992
  0
ARC
  5
DFA
  8
0
  6
CONTINUOUS
 62
     3
 10
-618.04645000000016
 20
81.599036999999996
 30
0.0
 40
1.0011358999999991
 50
239.328
 51
269.38751000000002
  0
ARC
  5
DFB
  8
0
  6
CONTINUOUS
 62
     3
 10
-619.33148000000017
 20
83.378318999999976
 30
0.0
 40
0.99566799
 50
180.02043
 51
243.40982999999991
  0
ARC
  5
DFC
  8
0
  6
CONTINUOUS
 62
     3
 10
-619.32952999999986
 20
82.332626000000005
 30
0.0
 40
0.9976240400000001
 50
180.2675099999999
 51
240.07953999999981
  0
ARC
  5
DFD
  8
0
  6
CONTINUOUS
 62
     3
 10
-606.1637599999998
 20
88.759880000000024
 30
0.0
 40
4.9985837999999987
 50
5.3731198999999981
 51
80.364975999999999
  0
ARC
  5
DFE
  8
0
  6
CONTINUOUS
 62
     3
 10
-605.69713999999999
 20
92.695137000000003
 30
0.0
 40
6.0085920999999987
 50
273.53095000000002
 51
314.61478
  0
ARC
  5
DFF
  8
0
  6
CONTINUOUS
 62
     3
 10
-468.62005999999991
 20
77.818642000000025
 30
0.0
 40
1.499328
 50
89.888150999999979
 51
168.09384
  0
ARC
  5
E00
  8
0
  6
CONTINUOUS
 62
     3
 10
-473.4846799999998
 20
71.850571000000002
 30
0.0
 40
2.0026237999999981
 50
270.21533999999991
 51
347.81734
  0
ARC
  5
E01
  8
0
  6
CONTINUOUS
 62
     3
 10
-602.18316999999979
 20
171.56824999999981
 30
0.0
 40
1.0011080999999991
 50
354.25024999999982
 51
45.146993999999992
  0
ARC
  5
E02
  8
0
  6
CONTINUOUS
 62
     3
 10
-605.70636000000002
 20
168.01505
 30
0.0
 40
6.0049156999999971
 50
45.22730700000001
 51
86.379093999999981
  0
ARC
  5
E03
  8
0
  6
CONTINUOUS
 62
     3
 10
-606.16881999999976
 20
171.9407799999999
 30
0.0
 40
5.004112199999998
 50
279.68356999999992
 51
354.57833999999991
  0
ARC
  5
E04
  8
0
  6
CONTINUOUS
 62
     3
 10
-616.32696999999985
 20
113.34811000000001
 30
0.0
 40
0.9998440099999999
 50
359.99097999999992
 51
90.00901800000004
  0
ARC
  5
E05
  8
0
  6
CONTINUOUS
 62
     3
 10
-616.33203000000003
 20
117.35287
 30
0.0
 40
1.004928
 50
270.28023999999988
 51
359.71976000000001
  0
ARC
  5
E06
  8
0
  6
CONTINUOUS
 62
     3
 10
-616.32696999999985
 20
123.34811000000001
 30
0.0
 40
0.99985206
 50
359.99142999999998
 51
90.008574000000024
  0
ARC
  5
E07
  8
0
  6
CONTINUOUS
 62
     3
 10
-616.33208999999999
 20
127.35288
 30
0.0
 40
1.0049318999999981
 50
270.28044999999992
 51
359.71955000000008
  0
ARC
  5
E08
  8
0
  6
CONTINUOUS
 62
     3
 10
-619.33208999999977
 20
125.3528899999997
 30
0.0
 40
0.9950800499999999
 50
89.715893999999963
 51
180.2841
  0
ARC
  5
E09
  8
0
  6
CONTINUOUS
 62
     3
 10
-619.32696999999996
 20
125.34818
 30
0.0
 40
1.0002040000000001
 50
180.01169999999999
 51
269.98829999999992
  0
ARC
  5
E0A
  8
0
  6
CONTINUOUS
 62
     3
 10
-619.33208999999977
 20
115.3528799999999
 30
0.0
 40
0.99508399
 50
89.716106000000025
 51
180.2838899999999
  0
ARC
  5
E0B
  8
0
  6
CONTINUOUS
 62
     3
 10
-619.32696999999996
 20
115.3481699999999
 30
0.0
 40
1.0001999999999991
 50
180.01150000000001
 51
269.98851000000002
  0
ARC
  5
E0C
  8
0
  6
CONTINUOUS
 62
     3
 10
-619.33208999999977
 20
105.35290000000001
 30
0.0
 40
0.99508399
 50
89.716324
 51
180.28368
  0
ARC
  5
E0D
  8
0
  6
CONTINUOUS
 62
     3
 10
-619.32696999999996
 20
105.34815999999999
 30
0.0
 40
1.0001959999999981
 50
180.01127999999991
 51
269.98872
  0
ARC
  5
E0E
  8
0
  6
CONTINUOUS
 62
     3
 10
-619.3306299999997
 20
96.176430000000011
 30
0.0
 40
0.9964760499999998
 50
179.91257999999991
 51
247.17966000000001
  0
ARC
  5
E0F
  8
0
  6
CONTINUOUS
 62
     3
 10
-619.33074999999985
 20
97.962303000000006
 30
0.0
 40
0.9963800299999999
 50
180.24948999999981
 51
253.29706999999991
  0
ARC
  5
E10
  8
0
  6
CONTINUOUS
 62
     3
 10
-618.18658000000005
 20
97.610648999999995
 30
0.0
 40
1.0027280000000001
 50
253.75297
 51
270.54039999999992
  0
ARC
  5
E11
  8
0
  6
CONTINUOUS
 62
     3
 10
-618.12414999999964
 20
95.663184999999984
 30
0.0
 40
1.005223999999999
 50
246.98628999999991
 51
269.82935999999989
  0
ARC
  5
E12
  8
0
  6
CONTINUOUS
 62
     3
 10
-616.02655000000004
 20
93.958518999999995
 30
0.0
 40
0.69944
 50
359.95416
 51
90.045839999999984
  0
ARC
  5
E13
  8
0
  6
CONTINUOUS
 62
     3
 10
-616.32696999999985
 20
103.3481199999997
 30
0.0
 40
0.99984801
 50
359.99119000000002
 51
90.008807000000004
  0
ARC
  5
E14
  8
0
  6
CONTINUOUS
 62
     3
 10
-616.33203000000003
 20
107.35287
 30
0.0
 40
1.0049238999999981
 50
270.28003999999999
 51
359.71996999999988
  0
ARC
  5
E15
  8
0
  6
CONTINUOUS
 62
     3
 10
-616.33044000000018
 20
97.611312999999996
 30
0.0
 40
1.003363999999999
 50
270.19171
 51
359.80827999999991
  0
ARC
  5
E16
  8
0
  6
CONTINUOUS
 62
     3
 10
-473.4796799999998
 20
188.8514899999999
 30
0.0
 40
1.996488
 50
12.040875
 51
89.926440999999969
  0
ARC
  5
E17
  8
0
  6
CONTINUOUS
 62
     3
 10
-468.62124999999992
 20
182.88843
 30
0.0
 40
1.500475999999999
 50
192.33223000000001
 51
270.15827999999999
  0
ARC
  5
E18
  8
0
  6
CONTINUOUS
 62
     3
 10
-467.33272999999991
 20
181.3935699999999
 30
0.0
 40
0.9944000200000001
 50
89.676490999999999
 51
180.32351
  0
ARC
  5
E19
  8
0
  6
CONTINUOUS
 62
     3
 10
-467.33208999999999
 20
192.85291000000001
 30
0.0
 40
0.9950640200000001
 50
89.714938000000004
 51
180.28505999999999
  0
ARC
  5
E1A
  8
0
  6
CONTINUOUS
 62
     3
 10
-475.51754999999991
 20
190.20897999999991
 30
0.0
 40
1.998987899999999
 50
15.047801
 51
89.987373000000005
  0
ARC
  5
E1B
  8
0
  6
CONTINUOUS
 62
     3
 10
-468.67687999999998
 20
178.2003499999999
 30
0.0
 40
1.502391899999999
 50
195.1400099999999
 51
269.99063999999998
  0
ARC
  5
E1C
  8
0
  6
CONTINUOUS
 62
     3
 10
-539.32892000000004
 20
194.26613999999981
 30
0.0
 40
2.0018279999999962
 50
0.052301
 51
89.947696999999977
  0
ARC
  5
E1D
  8
0
  6
CONTINUOUS
 62
     3
 10
-539.32543999999996
 20
193.58966000000001
 30
0.0
 40
1.9982919999999991
 50
359.95102999999972
 51
90.048975000000013
  0
ARC
  5
E1E
  8
0
  6
CONTINUOUS
 62
     3
 10
-539.32806000000005
 20
192.23703
 30
0.0
 40
2.0009238999999992
 50
0.026462999
 51
89.973535999999982
  0
ARC
  5
E1F
  8
0
  6
CONTINUOUS
 62
     3
 10
-595.72051999999985
 20
195.15097
 30
0.0
 40
1.503015999999995
 50
270.12945000000002
 51
345.23653999999999
  0
ARC
  5
E20
  8
0
  6
CONTINUOUS
 62
     3
 10
-595.83196999999996
 20
193.52283
 30
0.0
 40
1.5048719999999991
 50
270.18518
 51
359.81482
  0
ARC
  5
E21
  8
0
  6
CONTINUOUS
 62
     3
 10
-595.8299599999998
 20
190.12078999999969
 30
0.0
 40
1.5028360000000001
 50
270.10793999999999
 51
359.89206000000001
  0
ARC
  5
E22
  8
0
  6
CONTINUOUS
 62
     3
 10
-595.8338
 20
184.83466000000001
 30
0.0
 40
1.506699899999999
 50
270.2541599999999
 51
359.74583999999987
  0
ARC
  5
E23
  8
0
  6
CONTINUOUS
 62
     3
 10
-592.33159999999975
 20
194.26922999999999
 30
0.0
 40
1.9987239999999991
 50
89.871137000000004
 51
165.55096
  0
ARC
  5
E24
  8
0
  6
CONTINUOUS
 62
     3
 10
-592.33355999999958
 20
193.5944199999999
 30
0.0
 40
1.9935560999999991
 50
89.814515
 51
180.18548999999999
  0
ARC
  5
E25
  8
0
  6
CONTINUOUS
 62
     3
 10
-592.33092999999985
 20
192.24178000000001
 30
0.0
 40
1.9961880000000001
 50
89.890486999999965
 51
180.10950999999989
  0
ARC
  5
E26
  8
0
  6
CONTINUOUS
 62
     3
 10
-592.33172999999988
 20
190.21260000000001
 30
0.0
 40
1.9953640999999991
 50
89.866758999999988
 51
180.13323
  0
ARC
  5
E27
  8
0
  6
CONTINUOUS
 62
     3
 10
-609.22057999999981
 20
191.65114
 30
0.0
 40
1.996815999999999
 50
89.901436000000004
 51
165.88940999999991
  0
ARC
  5
E28
  8
0
  6
CONTINUOUS
 62
     3
 10
-613.50585999999976
 20
188.97116
 30
0.0
 40
1.503231999999995
 50
270.33132000000001
 51
346.01802999999978
  0
ARC
  5
E29
  8
0
  6
CONTINUOUS
 62
     3
 10
-613.51868000000002
 20
186.95174
 30
0.0
 40
1.503776
 50
270.05984000000001
 51
346.39312999999999
  0
ARC
  5
E2A
  8
0
  6
CONTINUOUS
 62
     3
 10
-609.19506999999987
 20
190.02345
 30
0.0
 40
1.9945159999999991
 50
89.771334999999979
 51
166.8280399999999
  0
ARC
  5
E2B
  8
0
  6
CONTINUOUS
 62
     3
 10
-613.54285000000004
 20
182.88820000000001
 30
0.0
 40
1.500248
 50
270.21661999999992
 51
347.67500000000001
  0
ARC
  5
E2C
  8
0
  6
CONTINUOUS
 62
     3
 10
-609.16228999999987
 20
186.61867000000001
 30
0.0
 40
1.999288
 50
89.851815000000016
 51
167.89433
  0
ARC
  5
E2D
  8
0
  6
CONTINUOUS
 62
     3
 10
-609.10608000000002
 20
181.33552999999969
 30
0.0
 40
1.9924479999999991
 50
89.742107999999988
 51
169.81178999999969
  0
ARC
  5
E2E
  8
0
  6
CONTINUOUS
 62
     3
 10
-593.33190999999999
 20
135.34794999999991
 30
0.0
 40
1.0000119000000001
 50
89.726507999999981
 51
270.27347999999989
  0
ARC
  5
E2F
  8
0
  6
CONTINUOUS
 62
     3
 10
-467.32767000000001
 20
79.307426000000007
 30
0.0
 40
0.9994760199999999
 50
179.97008999999991
 51
270.02991999999989
  0
ARC
  5
E30
  8
0
  6
CONTINUOUS
 62
     3
 10
-475.52246000000002
 20
70.493347
 30
0.0
 40
2.0053917999999991
 50
270.15275000000003
 51
344.81207000000001
  0
ARC
  5
E31
  8
0
  6
CONTINUOUS
 62
     3
 10
-467.32693
 20
67.848136999999994
 30
0.0
 40
1.0001799999999981
 50
180.01031
 51
269.98967999999968
  0
ARC
  5
E32
  8
0
  6
CONTINUOUS
 62
     3
 10
-615.83172999999999
 20
180.60257999999999
 30
0.0
 40
0.5046359900000002
 50
270.52375999999992
 51
359.47624000000002
  0
ARC
  5
E33
  8
0
  6
CONTINUOUS
 62
     3
 10
-615.82550000000003
 20
178.4496
 30
0.0
 40
0.4983640000000002
 50
359.81141000000002
 51
90.188598000000013
  0
ARC
  5
E34
  8
0
  6
CONTINUOUS
 62
     3
 10
-616.32610999999963
 20
175.84895
 30
0.0
 40
0.9990080599999998
 50
359.94315
 51
90.056843000000015
  0
ARC
  5
E35
  8
0
  6
CONTINUOUS
 62
     3
 10
-616.03168000000016
 20
166.74251000000001
 30
0.0
 40
0.7045519900000004
 50
270.36910999999992
 51
359.63088999999991
  0
ARC
  5
E36
  8
0
  6
CONTINUOUS
 62
     3
 10
-616.32952999999975
 20
171.33558999999991
 30
0.0
 40
1.002375999999999
 50
0.13559199
 51
89.864409999999964
  0
ARC
  5
E37
  8
0
  6
CONTINUOUS
 62
     3
 10
-616.32543999999984
 20
163.08965999999981
 30
0.0
 40
0.99829602
 50
359.90204
 51
90.097960999999998
  0
ARC
  5
E38
  8
0
  6
CONTINUOUS
 62
     3
 10
-616.33203000000003
 20
157.35286999999991
 30
0.0
 40
1.0049318999999981
 50
270.28041999999999
 51
359.71958000000001
  0
ARC
  5
E39
  8
0
  6
CONTINUOUS
 62
     3
 10
-616.32696999999985
 20
153.34810999999991
 30
0.0
 40
0.99985206
 50
359.99144999999999
 51
90.008546999999993
  0
ARC
  5
E3A
  8
0
  6
CONTINUOUS
 62
     3
 10
-616.33203000000003
 20
147.35286999999991
 30
0.0
 40
1.004928
 50
270.28021999999987
 51
359.71977999999967
  0
ARC
  5
E3B
  8
0
  6
CONTINUOUS
 62
     3
 10
-616.32696999999985
 20
143.34809999999999
 30
0.0
 40
0.9998440099999999
 50
359.99101000000002
 51
90.008991000000023
  0
ARC
  5
E3C
  8
0
  6
CONTINUOUS
 62
     3
 10
-616.33203000000003
 20
137.35285999999991
 30
0.0
 40
1.0049238999999981
 50
270.28001
 51
359.71999
  0
ARC
  5
E3D
  8
0
  6
CONTINUOUS
 62
     3
 10
-616.32696999999985
 20
133.34810999999991
 30
0.0
 40
0.99984801
 50
359.99121999999988
 51
90.008778999999976
  0
ARC
  5
E3E
  8
0
  6
CONTINUOUS
 62
     3
 10
-619.32696999999996
 20
135.34816000000001
 30
0.0
 40
1.0001959999999981
 50
180.01124999999999
 51
269.98874000000001
  0
ARC
  5
E3F
  8
0
  6
CONTINUOUS
 62
     3
 10
-619.33208999999977
 20
135.35289
 30
0.0
 40
0.9950879799999999
 50
89.716344999999961
 51
180.28364999999991
  0
ARC
  5
E40
  8
0
  6
CONTINUOUS
 62
     3
 10
-619.32696999999996
 20
145.34816000000001
 30
0.0
 40
1.0001999999999991
 50
180.01146999999969
 51
269.98852999999991
  0
ARC
  5
E41
  8
0
  6
CONTINUOUS
 62
     3
 10
-619.33208999999977
 20
145.35286999999991
 30
0.0
 40
0.99508399
 50
89.716132999999985
 51
180.28387000000001
  0
ARC
  5
E42
  8
0
  6
CONTINUOUS
 62
     3
 10
-619.32696999999996
 20
155.34818000000001
 30
0.0
 40
1.0002040000000001
 50
180.0116699999999
 51
269.9883200000001
  0
ARC
  5
E43
  8
0
  6
CONTINUOUS
 62
     3
 10
-619.33208999999977
 20
155.35289
 30
0.0
 40
0.9950800499999999
 50
89.71592099999998
 51
180.2840699999999
  0
ARC
  5
E44
  8
0
  6
CONTINUOUS
 62
     3
 10
-619.33074999999985
 20
164.52954
 30
0.0
 40
0.99640006
 50
112.8173899999997
 51
180.0903999999999
  0
ARC
  5
E45
  8
0
  6
CONTINUOUS
 62
     3
 10
-619.33087
 20
162.74370999999991
 30
0.0
 40
0.9962600499999998
 50
106.6974899999999
 51
180.33049
  0
ARC
  5
E46
  8
0
  6
CONTINUOUS
 62
     3
 10
-618.18799000000001
 20
163.09524999999999
 30
0.0
 40
0.99277198
 50
89.374808000000016
 51
106.33181999999969
  0
ARC
  5
E47
  8
0
  6
CONTINUOUS
 62
     7
 10
-541.83190999999965
 20
152.8527399999999
 30
0.0
 40
5.5071000999999971
 50
264.84087999999991
 51
5.1591262000000002
  0
ARC
  5
E48
  8
0
  6
CONTINUOUS
 62
     3
 10
-490.8320299999998
 20
101.85286000000001
 30
0.0
 40
1.5049160999999991
 50
270.18678
 51
359.81322
  0
ARC
  5
E49
  8
0
  6
CONTINUOUS
 62
     3
 10
-490.82696999999979
 20
158.84810999999991
 30
0.0
 40
1.4998400000000001
 50
359.99394000000001
 51
90.006061000000003
  0
ARC
  5
E4A
  8
0
  6
CONTINUOUS
 62
     3
 10
-602.18646000000001
 20
89.128838000000016
 30
0.0
 40
1.004235999999999
 50
314.93782999999991
 51
5.6649238999999989
  0
ARC
  5
E4B
  8
0
  6
CONTINUOUS
 62
     3
 10
-618.1261599999998
 20
165.04248000000001
 30
0.0
 40
0.99548006
 50
90.057320999999988
 51
113.12703
  0
ARC
  5
E4C
  8
0
  6
CONTINUOUS
 62
     3
 10
-619.33270000000005
 20
176.2269299999999
 30
0.0
 40
0.9944360299999999
 50
121.15217
 51
179.9404899999999
  0
ARC
  5
E4D
  8
0
  6
CONTINUOUS
 62
     7
 10
-496.83217999999999
 20
107.85302
 30
0.0
 40
5.4981922999999986
 50
84.729479999999981
 51
185.27052
  0
ARC
  5
E4E
  8
0
  6
CONTINUOUS
 62
     3
 10
-619.33392000000003
 20
175.1893899999998
 30
0.0
 40
0.9932120399999999
 50
117.7993399999999
 51
180.08183
  0
ARC
  5
E4F
  8
0
  6
CONTINUOUS
 62
     3
 10
-619.33234000000004
 20
171.62556000000001
 30
0.0
 40
0.9948279899999999
 50
123.2046899999999
 51
180.43813
  0
ARC
  5
E50
  8
0
  6
CONTINUOUS
 62
     3
 10
-619.33307000000002
 20
170.59116
 30
0.0
 40
0.99407601
 50
120.4692
 51
180.18464
  0
ARC
  5
E51
  8
0
  6
CONTINUOUS
 62
     3
 10
-618.04772999999966
 20
171.3414799999999
 30
0.0
 40
0.9965200400000001
 50
90.541213000000027
 51
120.7432799999999
  0
ARC
  5
E52
  8
0
  6
CONTINUOUS
 62
     3
 10
-618.02050999999994
 20
172.4817699999999
 30
0.0
 40
0.9962120099999999
 50
90.381906000000001
 51
123.9699
  0
ARC
  5
E53
  8
0
  6
CONTINUOUS
 62
     3
 10
-618.09203999999966
 20
175.85259999999991
 30
0.0
 40
0.99546796
 50
89.141447999999983
 51
117.2036599999999
  0
ARC
  5
E54
  8
0
  6
CONTINUOUS
 62
     3
 10
-618.05829000000006
 20
176.99376000000001
 30
0.0
 40
0.9942600099999999
 50
89.355881999999966
 51
120.78109000000001
  0
ARC
  5
E55
  8
0
  6
CONTINUOUS
 62
     3
 10
-618.10235999999975
 20
177.95393000000001
 30
0.0
 40
0.9941280500000002
 50
89.122808000000006
 51
115.93481
  0
ARC
  5
E56
  8
0
  6
CONTINUOUS
 62
     3
 10
-618.06511999999975
 20
179.10208
 30
0.0
 40
0.9959119600000002
 50
89.541443999999998
 51
119.6069899999999
  0
ARC
  5
E57
  8
0
  6
CONTINUOUS
 62
     3
 10
-619.33154000000002
 20
177.32765000000001
 30
0.0
 40
0.99558806
 50
116.58749
 51
179.98224999999991
  0
ARC
  5
E58
  8
0
  6
CONTINUOUS
 62
     3
 10
-619.33392000000003
 20
178.36587999999969
 30
0.0
 40
0.99319202
 50
119.7734
 51
179.87956
  0
ARC
  5
E59
  8
0
  6
CONTINUOUS
 62
     7
 10
-456.32709
 20
444.88580000000002
 30
0.0
 40
1.0
 50
0.0
 51
88.499996999999965
  0
ARC
  5
E5A
  8
0
  6
CONTINUOUS
 62
     7
 10
-456.32709
 20
319.09597999999988
 30
0.0
 40
1.0
 50
271.49999999999972
 51
0.0
  0
ARC
  5
E5B
  8
0
  6
CONTINUOUS
 62
     7
 10
-448.20197000000002
 20
340.49059999999992
 30
0.0
 40
10.0
 50
270.0
 51
280.00000999999992
  0
ARC
  5
E5C
  8
0
  6
CONTINUOUS
 62
     7
 10
-448.20197000000002
 20
423.49117999999987
 30
0.0
 40
10.0
 50
79.999998000000005
 51
90.000003000000007
  0
ARC
  5
E5D
  8
0
  6
CONTINUOUS
 62
     3
 10
-555.59997999999985
 20
297.99090999999999
 30
0.0
 40
4.0
 50
179.99997999999991
 51
0.000010017912
  0
ARC
  5
E5E
  8
0
  6
CONTINUOUS
 62
     3
 10
-555.59997999999985
 20
297.99090999999999
 30
0.0
 40
7.5
 50
179.99997999999991
 51
0.000010017913
  0
ARC
  5
E5F
  8
0
  6
CONTINUOUS
 62
     7
 10
-615.82659999999998
 20
331.74138999999991
 30
0.0
 40
0.49952301
 50
359.94522999999992
 51
90.054773999999981
  0
ARC
  5
E60
  8
0
  6
CONTINUOUS
 62
     7
 10
-615.83043999999995
 20
333.89434999999992
 30
0.0
 40
0.5033929900000002
 50
270.38490999999982
 51
359.61509999999993
  0
ARC
  5
E61
  8
0
  6
CONTINUOUS
 62
     7
 10
-616.33118000000002
 20
336.49506000000002
 30
0.0
 40
1.004119999999999
 50
270.23460999999992
 51
359.76538999999991
  0
ARC
  5
E62
  8
0
  6
CONTINUOUS
 62
     7
 10
-616.32952999999975
 20
341.01337000000001
 30
0.0
 40
1.002470999999999
 50
270.14107000000001
 51
359.85892999999987
  0
ARC
  5
E63
  8
0
  6
CONTINUOUS
 62
     7
 10
-619.32830999999999
 20
336.11444
 30
0.0
 40
0.9987969999999998
 50
179.62728000000001
 51
238.70795000000001
  0
ARC
  5
E64
  8
0
  6
CONTINUOUS
 62
     7
 10
-619.32934999999998
 20
337.15215999999992
 30
0.0
 40
0.9977070099999998
 50
180.0740199999999
 51
242.04481000000001
  0
ARC
  5
E65
  8
0
  6
CONTINUOUS
 62
     7
 10
-619.32799999999975
 20
340.71564000000001
 30
0.0
 40
0.9990889999999998
 50
179.69508999999991
 51
236.66209000000001
  0
ARC
  5
E66
  8
0
  6
CONTINUOUS
 62
     7
 10
-619.3286099999998
 20
341.75018
 30
0.0
 40
0.9984580299999999
 50
179.9595799999999
 51
239.38657000000001
  0
ARC
  5
E67
  8
0
  6
CONTINUOUS
 62
     7
 10
-618.06371999999965
 20
341.01190000000008
 30
0.0
 40
1.0010449999999991
 50
240.47187
 51
270.37970999999999
  0
ARC
  5
E68
  8
0
  6
CONTINUOUS
 62
     7
 10
-618.03430000000003
 20
339.87139999999999
 30
0.0
 40
1.000521999999999
 50
237.14617999999999
 51
270.41343999999998
  0
ARC
  5
E69
  8
0
  6
CONTINUOUS
 62
     7
 10
-618.07190000000003
 20
336.49151999999992
 30
0.0
 40
1.0006820000000001
 50
241.65062
 51
269.7039299999999
  0
ARC
  5
E6A
  8
0
  6
CONTINUOUS
 62
     7
 10
-618.05572999999981
 20
335.35455000000002
 30
0.0
 40
1.0037439999999991
 50
239.37112999999999
 51
270.49189999999987
  0
ARC
  5
E6B
  8
0
  6
CONTINUOUS
 62
     7
 10
-618.08123999999975
 20
334.39019999999988
 30
0.0
 40
0.9993420200000001
 50
242.86199999999999
 51
269.66546
  0
ARC
  5
E6C
  8
0
  6
CONTINUOUS
 62
     7
 10
-618.0463900000002
 20
333.2419999999999
 30
0.0
 40
1.001123999999999
 50
239.32782000000009
 51
269.38767999999988
  0
ARC
  5
E6D
  8
0
  6
CONTINUOUS
 62
     7
 10
-619.33141999999975
 20
335.0213
 30
0.0
 40
0.9956849800000001
 50
180.02112999999991
 51
243.40913999999981
  0
ARC
  5
E6E
  8
0
  6
CONTINUOUS
 62
     7
 10
-619.32947000000001
 20
333.97552000000002
 30
0.0
 40
0.9976310099999999
 50
180.26780999999991
 51
240.07924
  0
ARC
  5
E6F
  8
0
  6
CONTINUOUS
 62
     7
 10
-619.3286099999998
 20
341.75018
 30
0.0
 40
0.9984580299999999
 50
179.9595799999999
 51
239.38657000000001
  0
ARC
  5
E70
  8
0
  6
CONTINUOUS
 62
     7
 10
-616.33032000000003
 20
341.01763999999991
 30
0.0
 40
1.0032760000000001
 50
334.19810000000001
 51
359.61810999999972
  0
ARC
  5
E71
  8
0
  6
CONTINUOUS
 62
     7
 10
-616.32690000000002
 20
364.99102999999991
 30
0.0
 40
0.9998210099999999
 50
359.98971999999998
 51
90.010281999999961
  0
ARC
  5
E72
  8
0
  6
CONTINUOUS
 62
     7
 10
-616.33203000000003
 20
368.99579
 30
0.0
 40
1.004939
 50
270.28093999999999
 51
359.71906999999999
  0
ARC
  5
E73
  8
0
  6
CONTINUOUS
 62
     7
 10
-616.32690000000002
 20
374.99102999999991
 30
0.0
 40
0.9998279799999998
 50
359.99015999999972
 51
90.009838000000002
  0
ARC
  5
E74
  8
0
  6
CONTINUOUS
 62
     7
 10
-616.33203000000003
 20
378.99579
 30
0.0
 40
1.004942999999999
 50
270.28113999999988
 51
359.71886999999992
  0
ARC
  5
E75
  8
0
  6
CONTINUOUS
 62
     7
 10
-619.33203000000003
 20
376.99579
 30
0.0
 40
0.9950770099999999
 50
89.715860000000006
 51
180.28413999999989
  0
ARC
  5
E76
  8
0
  6
CONTINUOUS
 62
     7
 10
-619.32690000000002
 20
376.99115
 30
0.0
 40
1.0002040000000001
 50
180.01166000000001
 51
269.9883200000001
  0
ARC
  5
E77
  8
0
  6
CONTINUOUS
 62
     7
 10
-619.33203000000003
 20
366.99578999999989
 30
0.0
 40
0.9950810099999999
 50
89.716071999999997
 51
180.28391999999999
  0
ARC
  5
E78
  8
0
  6
CONTINUOUS
 62
     7
 10
-619.32690000000002
 20
366.99114999999989
 30
0.0
 40
1.0001999999999991
 50
180.01146
 51
269.98853999999972
  0
ARC
  5
E79
  8
0
  6
CONTINUOUS
 62
     7
 10
-619.33203000000003
 20
356.99578999999972
 30
0.0
 40
0.9950849999999999
 50
89.716282999999976
 51
180.2837199999999
  0
ARC
  5
E7A
  8
0
  6
CONTINUOUS
 62
     7
 10
-619.32690000000002
 20
356.99114999999972
 30
0.0
 40
1.0001959999999981
 50
180.01124999999999
 51
269.98874999999992
  0
ARC
  5
E7B
  8
0
  6
CONTINUOUS
 62
     7
 10
-619.33056999999985
 20
347.81939999999992
 30
0.0
 40
0.9965090199999998
 50
179.91374999999999
 51
247.17845
  0
ARC
  5
E7C
  8
0
  6
CONTINUOUS
 62
     7
 10
-619.33069
 20
349.60528999999991
 30
0.0
 40
0.99638802
 50
180.24991
 51
253.29664
  0
ARC
  5
E7D
  8
0
  6
CONTINUOUS
 62
     7
 10
-618.18651999999975
 20
349.25360000000001
 30
0.0
 40
1.002699
 50
253.7527199999999
 51
270.54064
  0
ARC
  5
E7E
  8
0
  6
CONTINUOUS
 62
     7
 10
-618.12408000000016
 20
347.30608999999998
 30
0.0
 40
1.005233
 50
246.98638999999989
 51
269.82924999999989
  0
ARC
  5
E7F
  8
0
  6
CONTINUOUS
 62
     7
 10
-616.02655000000004
 20
345.60149999999987
 30
0.0
 40
0.6994530000000001
 50
359.95517000000001
 51
90.044829000000021
  0
ARC
  5
E80
  8
0
  6
CONTINUOUS
 62
     7
 10
-616.32690000000002
 20
354.99102999999991
 30
0.0
 40
0.9998239899999999
 50
359.98991999999993
 51
90.010076999999981
  0
ARC
  5
E81
  8
0
  6
CONTINUOUS
 62
     7
 10
-616.33203000000003
 20
358.99578999999972
 30
0.0
 40
1.0049469
 50
270.28136999999992
 51
359.71863000000002
  0
ARC
  5
E82
  8
0
  6
CONTINUOUS
 62
     7
 10
-616.33044000000018
 20
349.25421
 30
0.0
 40
1.003352
 50
270.19110999999992
 51
359.80889999999982
  0
ARC
  5
E83
  8
0
  6
CONTINUOUS
 62
     7
 10
-615.83167000000003
 20
432.24553999999989
 30
0.0
 40
0.50463498
 50
270.52382999999992
 51
359.47617000000002
  0
ARC
  5
E84
  8
0
  6
CONTINUOUS
 62
     7
 10
-615.82537999999977
 20
430.09258999999997
 30
0.0
 40
0.4983060100000002
 50
359.80489
 51
90.195107000000007
  0
ARC
  5
E85
  8
0
  6
CONTINUOUS
 62
     7
 10
-616.32610999999963
 20
427.49187999999998
 30
0.0
 40
0.9990100299999999
 50
359.94319000000002
 51
90.056808999999959
  0
ARC
  5
E86
  8
0
  6
CONTINUOUS
 62
     7
 10
-616.03161999999975
 20
418.38544000000002
 30
0.0
 40
0.704566
 50
270.37009999999992
 51
359.62990999999982
  0
ARC
  5
E87
  8
0
  6
CONTINUOUS
 62
     7
 10
-616.32941000000005
 20
422.97858000000002
 30
0.0
 40
1.002353
 50
0.13432682
 51
89.865673000000001
  0
ARC
  5
E88
  8
0
  6
CONTINUOUS
 62
     7
 10
-616.32537999999965
 20
414.73259999999988
 30
0.0
 40
0.9982839799999999
 50
359.90141999999992
 51
90.098575999999994
  0
ARC
  5
E89
  8
0
  6
CONTINUOUS
 62
     7
 10
-616.33203000000003
 20
408.99578999999989
 30
0.0
 40
1.004942999999999
 50
270.28111000000001
 51
359.71888999999987
  0
ARC
  5
E8A
  8
0
  6
CONTINUOUS
 62
     7
 10
-616.32690000000002
 20
404.9910299999998
 30
0.0
 40
0.9998289899999999
 50
359.99018999999993
 51
90.009810999999985
  0
ARC
  5
E8B
  8
0
  6
CONTINUOUS
 62
     7
 10
-616.33203000000003
 20
398.99579
 30
0.0
 40
1.004939
 50
270.28091000000001
 51
359.71910000000008
  0
ARC
  5
E8C
  8
0
  6
CONTINUOUS
 62
     7
 10
-616.32690000000002
 20
394.99102999999991
 30
0.0
 40
0.9998210099999999
 50
359.98975000000002
 51
90.010255000000001
  0
ARC
  5
E8D
  8
0
  6
CONTINUOUS
 62
     7
 10
-616.33203000000003
 20
388.99579
 30
0.0
 40
1.0049469
 50
270.28134999999992
 51
359.71866
  0
ARC
  5
E8E
  8
0
  6
CONTINUOUS
 62
     7
 10
-616.32690000000002
 20
384.99102999999991
 30
0.0
 40
0.9998249999999999
 50
359.98995000000002
 51
90.010050000000007
  0
ARC
  5
E8F
  8
0
  6
CONTINUOUS
 62
     7
 10
-619.32690000000002
 20
386.99115
 30
0.0
 40
1.0001959999999981
 50
180.01122000000001
 51
269.98877999999991
  0
ARC
  5
E90
  8
0
  6
CONTINUOUS
 62
     7
 10
-619.33203000000003
 20
386.99579
 30
0.0
 40
0.9950849999999999
 50
89.716311000000005
 51
180.28368999999981
  0
ARC
  5
E91
  8
0
  6
CONTINUOUS
 62
     7
 10
-619.32690000000002
 20
396.99115
 30
0.0
 40
1.0001999999999991
 50
180.0114299999999
 51
269.98856999999992
  0
ARC
  5
E92
  8
0
  6
CONTINUOUS
 62
     7
 10
-619.33203000000003
 20
396.99579
 30
0.0
 40
0.99508202
 50
89.716099
 51
180.28390999999991
  0
ARC
  5
E93
  8
0
  6
CONTINUOUS
 62
     7
 10
-619.32690000000002
 20
406.99114999999989
 30
0.0
 40
1.000203
 50
180.01165
 51
269.98835000000003
  0
ARC
  5
E94
  8
0
  6
CONTINUOUS
 62
     7
 10
-619.33203000000003
 20
406.99579
 30
0.0
 40
0.99507803
 50
89.715886999999981
 51
180.28411
  0
ARC
  5
E95
  8
0
  6
CONTINUOUS
 62
     7
 10
-619.33069
 20
416.17241999999999
 30
0.0
 40
0.9963999999999998
 50
112.8173599999997
 51
180.09041999999991
  0
ARC
  5
E96
  8
0
  6
CONTINUOUS
 62
     7
 10
-619.33080999999981
 20
414.38665999999989
 30
0.0
 40
0.9962710099999999
 50
106.69792
 51
180.33004999999969
  0
ARC
  5
E97
  8
0
  6
CONTINUOUS
 62
     7
 10
-618.18793000000016
 20
414.73822000000001
 30
0.0
 40
0.9927430199999999
 50
89.374555000000001
 51
106.33207
  0
ARC
  5
E98
  8
0
  6
CONTINUOUS
 62
     7
 10
-618.12609999999995
 20
416.68549000000002
 30
0.0
 40
0.9954450099999999
 50
90.056905000000043
 51
113.1274499999999
  0
ARC
  5
E99
  8
0
  6
CONTINUOUS
 62
     7
 10
-619.33264000000008
 20
427.8699299999995
 30
0.0
 40
0.9944329899999999
 50
121.15213
 51
179.9405099999999
  0
ARC
  5
E9A
  8
0
  6
CONTINUOUS
 62
     7
 10
-619.33385999999985
 20
426.83233999999982
 30
0.0
 40
0.9932109699999999
 50
117.7993199999999
 51
180.08187000000001
  0
ARC
  5
E9B
  8
0
  6
CONTINUOUS
 62
     7
 10
-619.33227999999986
 20
423.26848999999987
 30
0.0
 40
0.9948369899999999
 50
123.20496
 51
180.43785999999969
  0
ARC
  5
E9C
  8
0
  6
CONTINUOUS
 62
     7
 10
-619.33307000000002
 20
422.23406999999997
 30
0.0
 40
0.99404597
 50
120.4682
 51
180.18563999999989
  0
ARC
  5
E9D
  8
0
  6
CONTINUOUS
 62
     7
 10
-618.04767000000004
 20
422.98444000000012
 30
0.0
 40
0.99648702
 50
90.540720999999976
 51
120.74377
  0
ARC
  5
E9E
  8
0
  6
CONTINUOUS
 62
     7
 10
-618.02044999999998
 20
424.12468999999999
 30
0.0
 40
0.99617702
 50
90.381317999999979
 51
123.9704899999999
  0
ARC
  5
E9F
  8
0
  6
CONTINUOUS
 62
     7
 10
-618.09198000000004
 20
427.49554000000001
 30
0.0
 40
0.99545902
 50
89.141291000000024
 51
117.20381999999999
  0
ARC
  5
EA0
  8
0
  6
CONTINUOUS
 62
     7
 10
-618.05822999999998
 20
428.63666000000001
 30
0.0
 40
0.99427301
 50
89.356065999999984
 51
120.78091000000001
  0
ARC
  5
EA1
  8
0
  6
CONTINUOUS
 62
     7
 10
-618.10229000000004
 20
429.59685999999988
 30
0.0
 40
0.99411702
 50
89.122643999999966
 51
115.93498
  0
ARC
  5
EA2
  8
0
  6
CONTINUOUS
 62
     7
 10
-618.06505999999979
 20
430.74506000000002
 30
0.0
 40
0.9959030199999999
 50
89.541267000000005
 51
119.60717
  0
ARC
  5
EA3
  8
0
  6
CONTINUOUS
 62
     7
 10
-619.33148000000017
 20
428.97064
 30
0.0
 40
0.995579
 50
116.5870899999999
 51
179.98264
  0
ARC
  5
EA4
  8
0
  6
CONTINUOUS
 62
     7
 10
-619.33385999999985
 20
430.00885
 30
0.0
 40
0.99319202
 50
119.77338
 51
179.87958999999981
  0
ARC
  5
EA5
  8
0
  6
CONTINUOUS
 62
     7
 10
-602.18628000000001
 20
340.78057999999982
 30
0.0
 40
1.0032491999999991
 50
314.98118999999991
 51
5.1676434000000002
  0
ARC
  5
EA6
  8
0
  6
CONTINUOUS
 62
     7
 10
-467.32727
 20
444.49114999999989
 30
0.0
 40
0.99980682
 50
89.98893099999998
 51
180.0110699999999
  0
ARC
  5
EA7
  8
0
  6
CONTINUOUS
 62
     7
 10
-475.52582000000001
 20
322.13715000000002
 30
0.0
 40
2.0062942999999991
 50
270.24932999999987
 51
345.08843999999999
  0
ARC
  5
EA8
  8
0
  6
CONTINUOUS
 62
     7
 10
-467.32799999999997
 20
433.03179999999998
 30
0.0
 40
0.9990923399999999
 50
89.947921999999977
 51
180.0520799999999
  0
ARC
  5
EA9
  8
0
  6
CONTINUOUS
 62
     7
 10
-593.33429000000001
 20
386.99090999999999
 30
0.0
 40
1.0000259
 50
89.587533999999977
 51
270.41246000000001
  0
ARC
  5
EAA
  8
0
  6
CONTINUOUS
 62
     7
 10
-601.36761000000001
 20
432.98565999999988
 30
0.0
 40
1.9952742999999991
 50
90.148580000000024
 51
170.0352199999999
  0
ARC
  5
EAB
  8
0
  6
CONTINUOUS
 62
     7
 10
-601.42975000000001
 20
438.26384999999988
 30
0.0
 40
1.997119399999999
 50
89.801366999999999
 51
167.94476
  0
ARC
  5
EAC
  8
0
  6
CONTINUOUS
 62
     7
 10
-605.81024000000002
 20
434.53325999999981
 30
0.0
 40
1.502416299999999
 50
269.9013799999999
 51
347.60813000000002
  0
ARC
  5
EAD
  8
0
  6
CONTINUOUS
 62
     7
 10
-609.19683999999995
 20
441.66863999999993
 30
0.0
 40
1.9922863
 50
90.007720999999947
 51
166.87839
  0
ARC
  5
EAE
  8
0
  6
CONTINUOUS
 62
     7
 10
-613.52184999999963
 20
438.59575999999998
 30
0.0
 40
1.5048382
 50
270.18263999999982
 51
346.7530799999999
  0
ARC
  5
EAF
  8
0
  6
CONTINUOUS
 62
     7
 10
-613.5075099999998
 20
440.61626999999999
 30
0.0
 40
1.505448699999999
 50
270.39686999999992
 51
345.95247000000001
  0
ARC
  5
EB0
  8
0
  6
CONTINUOUS
 62
     7
 10
-609.22222999999985
 20
443.29632999999978
 30
0.0
 40
1.994612099999999
 50
89.851992000000024
 51
165.93885999999969
  0
ARC
  5
EB1
  8
0
  6
CONTINUOUS
 62
     7
 10
-592.3338
 20
441.85759999999988
 30
0.0
 40
1.9933081999999991
 50
89.807322999999968
 51
180.19266999999991
  0
ARC
  5
EB2
  8
0
  6
CONTINUOUS
 62
     7
 10
-592.33294999999998
 20
443.88677999999987
 30
0.0
 40
1.9941304999999949
 50
89.831106000000005
 51
180.16889
  0
ARC
  5
EB3
  8
0
  6
CONTINUOUS
 62
     7
 10
-592.33056999999985
 20
445.24444999999992
 30
0.0
 40
1.996488899999999
 50
89.899147999999997
 51
180.10085000000001
  0
ARC
  5
EB4
  8
0
  6
CONTINUOUS
 62
     7
 10
-592.33330999999976
 20
445.91437000000002
 30
0.0
 40
1.9964978999999961
 50
89.821482000000003
 51
165.6006099999999
  0
ARC
  5
EB5
  8
0
  6
CONTINUOUS
 62
     7
 10
-595.83080999999981
 20
436.48467999999991
 30
0.0
 40
1.5037541000000001
 50
270.14287000000002
 51
359.85714000000002
  0
ARC
  5
EB6
  8
0
  6
CONTINUOUS
 62
     7
 10
-595.83196999999996
 20
441.76580999999987
 30
0.0
 40
1.5048912999999959
 50
270.18592999999998
 51
359.81407000000002
  0
ARC
  5
EB7
  8
0
  6
CONTINUOUS
 62
     7
 10
-595.83398
 20
445.16778999999991
 30
0.0
 40
1.506942899999999
 50
270.26337000000001
 51
359.73662999999999
  0
ARC
  5
EB8
  8
0
  6
CONTINUOUS
 62
     7
 10
-595.72216999999978
 20
446.79607999999979
 30
0.0
 40
1.505230099999999
 50
270.19421
 51
345.17177999999979
  0
ARC
  5
EB9
  8
0
  6
CONTINUOUS
 62
     7
 10
-468.67694000000012
 20
429.84320000000002
 30
0.0
 40
1.5022733999999991
 50
195.1365099999999
 51
269.99412000000001
  0
ARC
  5
EBA
  8
0
  6
CONTINUOUS
 62
     7
 10
-475.5176399999998
 20
441.85174999999998
 30
0.0
 40
1.9991226
 50
15.050791
 51
89.984388999999979
  0
ARC
  5
EBB
  8
0
  6
CONTINUOUS
 62
     7
 10
-467.33411000000001
 20
319.48394999999999
 30
0.0
 40
0.99304521
 50
179.59730999999991
 51
270.40267999999992
  0
ARC
  5
EBC
  8
0
  6
CONTINUOUS
 62
     7
 10
-467.33478000000002
 20
330.94330000000002
 30
0.0
 40
0.99237448
 50
179.55802
 51
270.44197000000003
  0
ARC
  5
EBD
  8
0
  6
CONTINUOUS
 62
     7
 10
-468.62139999999988
 20
434.53118999999992
 30
0.0
 40
1.500286
 50
192.32630999999989
 51
270.16417000000001
  0
ARC
  5
EBE
  8
0
  6
CONTINUOUS
 62
     7
 10
-606.17151000000001
 20
423.58514000000002
 30
0.0
 40
5.0059714
 50
279.71098000000001
 51
354.67887999999999
  0
ARC
  5
EBF
  8
0
  6
CONTINUOUS
 62
     7
 10
-605.70612000000006
 20
419.65839
 30
0.0
 40
6.0044340999999992
 50
45.225577999999999
 51
86.380821999999966
  0
ARC
  5
EC0
  8
0
  6
CONTINUOUS
 62
     7
 10
-602.18511999999998
 20
423.21160999999989
 30
0.0
 40
1.002184699999999
 50
354.80385999999987
 51
45.047306999999968
  0
ARC
  5
EC1
  8
0
  6
CONTINUOUS
 62
     7
 10
-605.70740000000001
 20
344.33623999999992
 30
0.0
 40
6.0073843
 50
273.62973999999991
 51
314.76384999999999
  0
ARC
  5
EC2
  8
0
  6
CONTINUOUS
 62
     7
 10
-606.16425000000004
 20
340.4024
 30
0.0
 40
4.9991421999999961
 50
5.3780269000000001
 51
80.360065000000006
  0
ARC
  5
EC3
  8
0
  6
CONTINUOUS
 62
     7
 10
-609.19024999999965
 20
322.32146999999992
 30
0.0
 40
2.0005671999999981
 50
193.3095899999999
 51
269.80430999999999
  0
ARC
  5
EC4
  8
0
  6
CONTINUOUS
 62
     7
 10
-613.51385000000005
 20
325.39325000000002
 30
0.0
 40
1.497715799999999
 50
13.424379
 51
90.122644999999963
  0
ARC
  5
EC5
  8
0
  6
CONTINUOUS
 62
     7
 10
-613.49938999999995
 20
323.37261999999993
 30
0.0
 40
1.4982997
 50
14.22974
 51
89.910949999999985
  0
ARC
  5
EC6
  8
0
  6
CONTINUOUS
 62
     7
 10
-592.32703000000004
 20
322.13092
 30
0.0
 40
2.0000371999999991
 50
180.00105999999991
 51
269.99892999999992
  0
ARC
  5
EC7
  8
0
  6
CONTINUOUS
 62
     7
 10
-592.32617000000016
 20
320.10187000000002
 30
0.0
 40
2.0009109999999981
 50
180.00001
 51
269.97390999999988
  0
ARC
  5
EC8
  8
0
  6
CONTINUOUS
 62
     7
 10
-595.82903999999996
 20
327.50896999999992
 30
0.0
 40
1.501982699999999
 50
0.075587202
 51
89.924413000000015
  0
ARC
  5
EC9
  8
0
  6
CONTINUOUS
 62
     7
 10
-595.83019999999965
 20
322.22771999999992
 30
0.0
 40
1.503128599999999
 50
0.11912965
 51
89.880870000000002
  0
ARC
  5
ECA
  8
0
  6
CONTINUOUS
 62
     7
 10
-468.68347
 20
334.14715999999981
 30
0.0
 40
1.4937901
 50
89.756423999999981
 51
165.11291999999969
  0
ARC
  5
ECB
  8
0
  6
CONTINUOUS
 62
     7
 10
-593.33429000000001
 20
396.99090999999987
 30
0.0
 40
1.0000259
 50
89.587533999999977
 51
270.41246000000001
  0
ARC
  5
ECC
  8
0
  6
CONTINUOUS
 62
     7
 10
-593.33429000000001
 20
406.99090999999999
 30
0.0
 40
1.0000259
 50
89.587533999999977
 51
270.41246000000001
  0
ARC
  5
ECD
  8
0
  6
CONTINUOUS
 62
     7
 10
-593.33429000000001
 20
416.99090999999987
 30
0.0
 40
1.0000259
 50
89.587533999999977
 51
270.41246000000001
  0
ARC
  5
ECE
  8
0
  6
CONTINUOUS
 62
     7
 10
-611.06530999999995
 20
387.00092000000001
 30
0.0
 40
1.2700266
 50
89.629328000000001
 51
270.37065999999987
  0
ARC
  5
ECF
  8
0
  6
CONTINUOUS
 62
     7
 10
-611.00335999999982
 20
397.00592
 30
0.0
 40
1.3350147999999991
 50
89.730435000000014
 51
270.26956999999999
  0
ARC
  5
ED0
  8
0
  6
CONTINUOUS
 62
     7
 10
-601.87279999999998
 20
407.02094
 30
0.0
 40
1.460011199999999
 50
89.775248000000005
 51
270.22474
  0
ARC
  5
ED1
  8
0
  6
CONTINUOUS
 62
     7
 10
-601.6570999999999
 20
417.04094999999978
 30
0.0
 40
1.6800002000000001
 50
90.000003000000007
 51
270.0
  0
ARC
  5
ED2
  8
0
  6
CONTINUOUS
 62
     7
 10
-609.77710000000002
 20
386.99090999999999
 30
0.0
 40
1.0000056999999991
 50
90.000003000000007
 51
270.0
  0
ARC
  5
ED3
  8
0
  6
CONTINUOUS
 62
     7
 10
-609.77710000000002
 20
396.99090999999987
 30
0.0
 40
1.0000056999999991
 50
90.000003000000007
 51
270.0
  0
ARC
  5
ED4
  8
0
  6
CONTINUOUS
 62
     7
 10
-600.78424000000018
 20
416.99090999999987
 30
0.0
 40
1.0000255999999981
 50
89.589473999999967
 51
270.41052000000002
  0
ARC
  5
ED5
  8
0
  6
CONTINUOUS
 62
     7
 10
-600.78424000000018
 20
406.99090999999999
 30
0.0
 40
1.0000255999999981
 50
89.589473999999967
 51
270.41052000000002
  0
ARC
  5
ED6
  8
0
  6
CONTINUOUS
 62
     7
 10
-471.50707999999992
 20
417.04094999999978
 30
0.0
 40
1.6800077
 50
269.99998999999991
 51
90.000003000000007
  0
ARC
  5
ED7
  8
0
  6
CONTINUOUS
 62
     7
 10
-474.98712
 20
416.99090999999987
 30
0.0
 40
1.0000040999999991
 50
269.99998999999991
 51
90.000003000000007
  0
ARC
  5
ED8
  8
0
  6
CONTINUOUS
 62
     7
 10
-474.98712
 20
346.99090999999987
 30
0.0
 40
1.0000040999999991
 50
269.99998999999991
 51
90.000003000000007
  0
ARC
  5
ED9
  8
0
  6
CONTINUOUS
 62
     7
 10
-471.50707999999992
 20
346.95087000000001
 30
0.0
 40
1.6800077
 50
269.99998999999991
 51
90.000003000000007
  0
ARC
  5
EDA
  8
0
  6
CONTINUOUS
 62
     7
 10
-609.77710000000002
 20
376.99090999999999
 30
0.0
 40
1.0000056999999991
 50
90.000003000000007
 51
270.0
  0
ARC
  5
EDB
  8
0
  6
CONTINUOUS
 62
     7
 10
-593.33429000000001
 20
366.99090999999987
 30
0.0
 40
1.0000259
 50
89.587533999999977
 51
270.41246000000001
  0
ARC
  5
EDC
  8
0
  6
CONTINUOUS
 62
     7
 10
-593.33429000000001
 20
356.99090999999987
 30
0.0
 40
1.0000259
 50
89.587533999999977
 51
270.41246000000001
  0
ARC
  5
EDD
  8
0
  6
CONTINUOUS
 62
     7
 10
-611.00335999999982
 20
366.98090000000002
 30
0.0
 40
1.3300148000000001
 50
89.729417999999995
 51
270.27058999999991
  0
ARC
  5
EDE
  8
0
  6
CONTINUOUS
 62
     7
 10
-593.33429000000001
 20
376.99090999999999
 30
0.0
 40
1.0000259
 50
89.587533999999977
 51
270.41246000000001
  0
ARC
  5
EDF
  8
0
  6
CONTINUOUS
 62
     7
 10
-593.33429000000001
 20
346.99090999999987
 30
0.0
 40
1.0000259
 50
89.587533999999977
 51
270.41246000000001
  0
ARC
  5
EE0
  8
0
  6
CONTINUOUS
 62
     7
 10
-611.06530999999995
 20
376.99090999999999
 30
0.0
 40
1.2700266
 50
89.629320999999962
 51
270.37068999999991
  0
ARC
  5
EE1
  8
0
  6
CONTINUOUS
 62
     7
 10
-609.77710000000002
 20
366.99090999999987
 30
0.0
 40
1.0000056999999991
 50
90.000003000000007
 51
270.0
  0
ARC
  5
EE2
  8
0
  6
CONTINUOUS
 62
     7
 10
-605.59393
 20
429.25092000000001
 30
0.0
 40
1.5
 50
280.24788999999998
 51
349.76262000000008
  0
ARC
  5
EE3
  8
0
  6
CONTINUOUS
 62
     7
 10
-605.59393
 20
334.73090000000002
 30
0.0
 40
1.5
 50
10.23737899999999
 51
79.752110000000002
  0
ARC
  5
EE4
  8
0
  6
CONTINUOUS
 62
     7
 10
-601.36761000000001
 20
330.99615
 30
0.0
 40
1.9952742999999991
 50
189.96477999999959
 51
269.85142000000002
  0
ARC
  5
EE5
  8
0
  6
CONTINUOUS
 62
     7
 10
-605.81024000000002
 20
329.44855000000001
 30
0.0
 40
1.502416299999999
 50
12.39188699999999
 51
90.098617000000004
  0
ARC
  5
EE6
  8
0
  6
CONTINUOUS
 62
     7
 10
-601.42975000000001
 20
325.71796000000001
 30
0.0
 40
1.997119399999999
 50
192.05524
 51
270.19862999999992
  0
ARC
  5
EE7
  8
0
  6
CONTINUOUS
 62
     7
 10
-601.6570999999999
 20
346.94085999999987
 30
0.0
 40
1.6800002000000001
 50
90.000003000000007
 51
270.0
  0
ARC
  5
EE8
  8
0
  6
CONTINUOUS
 62
     7
 10
-600.78424000000018
 20
346.99090999999987
 30
0.0
 40
1.0000255999999981
 50
89.589473999999967
 51
270.41052000000002
  0
ARC
  5
EE9
  8
0
  6
CONTINUOUS
 62
     7
 10
-600.78424000000018
 20
356.99090999999987
 30
0.0
 40
1.0000255999999981
 50
89.589473999999967
 51
270.41052000000002
  0
ARC
  5
EEA
  8
0
  6
CONTINUOUS
 62
     7
 10
-601.87279999999998
 20
356.96087999999992
 30
0.0
 40
1.460011199999999
 50
89.775248000000005
 51
270.22474
  0
ARC
  5
EEB
  8
0
  6
CONTINUOUS
 62
     7
 10
-551.00072999999986
 20
316.60088999999999
 30
0.0
 40
1.5
 50
1.500002699999998
 51
90.000003000000007
  0
ARC
  5
EEC
  8
0
  6
CONTINUOUS
 62
     3
 10
-476.31090999999998
 20
313.49090999999981
 30
0.0
 40
1.5
 50
269.99998999999991
 51
327.0
  0
ARC
  5
EED
  8
0
  6
CONTINUOUS
 62
     7
 10
-487.8134799999998
 20
310.49090999999981
 30
0.0
 40
1.5
 50
90.000003000000007
 51
178.5
  0
ARC
  5
EEE
  8
0
  6
CONTINUOUS
 62
     7
 10
-473.80712999999992
 20
444.38092
 30
0.0
 40
1.5
 50
12.129792
 51
90.000003000000007
  0
ARC
  5
EEF
  8
0
  6
CONTINUOUS
 62
     7
 10
-474.09942999999993
 20
445.74090999999987
 30
0.0
 40
1.5
 50
12.129792
 51
90.000003000000007
  0
ARC
  5
EF0
  8
0
  6
CONTINUOUS
 62
     7
 10
-474.24347
 20
446.41095000000001
 30
0.0
 40
1.5
 50
12.129792
 51
90.000003000000007
  0
ARC
  5
EF1
  8
0
  6
CONTINUOUS
 62
     7
 10
-471.28710999999998
 20
356.96087999999992
 30
0.0
 40
1.460011199999999
 50
269.77525000000003
 51
90.224749999999986
  0
ARC
  5
EF2
  8
0
  6
CONTINUOUS
 62
     7
 10
-474.98712
 20
356.99090999999987
 30
0.0
 40
1.0000255999999981
 50
269.58947000000001
 51
90.410531000000006
  0
ARC
  5
EF3
  8
0
  6
CONTINUOUS
 62
     7
 10
-471.28710999999998
 20
407.02094
 30
0.0
 40
1.460011199999999
 50
269.77525000000003
 51
90.224749999999986
  0
ARC
  5
EF4
  8
0
  6
CONTINUOUS
 62
     7
 10
-474.98712
 20
406.99090999999999
 30
0.0
 40
1.0000255999999981
 50
269.58947000000001
 51
90.410531000000006
  0
ARC
  5
EF5
  8
0
  6
CONTINUOUS
 62
     7
 10
-538.66210999999998
 20
397.00592
 30
0.0
 40
1.3350147999999991
 50
269.73043000000001
 51
90.269555999999994
  0
ARC
  5
EF6
  8
0
  6
CONTINUOUS
 62
     7
 10
-539.88836999999978
 20
396.99090999999987
 30
0.0
 40
1.0000056999999991
 50
269.99998999999991
 51
90.000003000000007
  0
ARC
  5
EF7
  8
0
  6
CONTINUOUS
 62
     7
 10
-539.88836999999978
 20
386.99090999999999
 30
0.0
 40
1.0000056999999991
 50
269.99998999999991
 51
90.000003000000007
  0
ARC
  5
EF8
  8
0
  6
CONTINUOUS
 62
     7
 10
-538.60015999999985
 20
387.00092000000001
 30
0.0
 40
1.2700266
 50
269.62931999999989
 51
90.370669999999961
  0
ARC
  5
EF9
  8
0
  6
CONTINUOUS
 62
     7
 10
-539.88836999999978
 20
376.99090999999999
 30
0.0
 40
1.0000056999999991
 50
269.99998999999991
 51
90.000003000000007
  0
ARC
  5
EFA
  8
0
  6
CONTINUOUS
 62
     7
 10
-538.60015999999985
 20
376.99090999999999
 30
0.0
 40
1.2700266
 50
269.62931999999989
 51
90.370669999999961
  0
ARC
  5
EFB
  8
0
  6
CONTINUOUS
 62
     7
 10
-539.88836999999978
 20
366.99090999999987
 30
0.0
 40
1.0000056999999991
 50
269.99998999999991
 51
90.000003000000007
  0
ARC
  5
EFC
  8
0
  6
CONTINUOUS
 62
     7
 10
-538.66210999999998
 20
366.98090000000002
 30
0.0
 40
1.3300148000000001
 50
269.72941999999989
 51
90.270567000000014
  0
ARC
  5
EFD
  8
0
  6
CONTINUOUS
 62
     7
 10
-489.32709
 20
354.49090999999987
 30
0.0
 40
1.5
 50
90.000003000000007
 51
180.00001
  0
ARC
  5
EFE
  8
0
  6
CONTINUOUS
 62
     7
 10
-489.32709
 20
349.49090999999999
 30
0.0
 40
1.5
 50
179.99998999999991
 51
270.0
  0
ARC
  5
EFF
  8
0
  6
CONTINUOUS
 62
     7
 10
-507.32709
 20
354.49090999999987
 30
0.0
 40
1.5
 50
0.0
 51
90.000003000000007
  0
ARC
  5
F00
  8
0
  6
CONTINUOUS
 62
     7
 10
-507.32709
 20
349.49090999999999
 30
0.0
 40
1.5
 50
269.99998999999991
 51
0.00000068324516
  0
ARC
  5
F01
  8
0
  6
CONTINUOUS
 62
     7
 10
-489.32709
 20
354.49090999999987
 30
0.0
 40
1.02
 50
90.000003000000007
 51
180.00001
  0
ARC
  5
F02
  8
0
  6
CONTINUOUS
 62
     7
 10
-507.32709
 20
354.49090999999987
 30
0.0
 40
1.02
 50
0.0
 51
90.000003000000007
  0
ARC
  5
F03
  8
0
  6
CONTINUOUS
 62
     7
 10
-507.30712999999992
 20
349.63092
 30
0.0
 40
1.0
 50
269.99998999999991
 51
0.00000068324625
  0
ARC
  5
F04
  8
0
  6
CONTINUOUS
 62
     7
 10
-489.34710999999999
 20
349.63092
 30
0.0
 40
1.0
 50
179.99998999999991
 51
270.0
  0
CIRCLE
  5
F05
  8
0
  6
CONTINUOUS
 62
     3
 10
-500.82709
 20
353.49090999999999
 30
0.0
 40
1.1000000000000001
  0
CIRCLE
  5
F06
  8
0
  6
CONTINUOUS
 62
     3
 10
-500.82709
 20
353.49090999999999
 30
0.0
 40
1.149999999999999
  0
CIRCLE
  5
F07
  8
0
  6
CONTINUOUS
 62
     3
 10
-495.82709
 20
353.49090999999999
 30
0.0
 40
1.0
  0
ARC
  5
F08
  8
0
  6
CONTINUOUS
 62
     7
 10
-489.32709
 20
409.49090999999987
 30
0.0
 40
1.5
 50
179.99998999999991
 51
270.0
  0
ARC
  5
F09
  8
0
  6
CONTINUOUS
 62
     7
 10
-489.32709
 20
414.49090999999987
 30
0.0
 40
1.5
 50
90.000003000000007
 51
180.00001
  0
ARC
  5
F0A
  8
0
  6
CONTINUOUS
 62
     7
 10
-507.32709
 20
409.49090999999987
 30
0.0
 40
1.5
 50
269.99998999999991
 51
0.00000068324516
  0
ARC
  5
F0B
  8
0
  6
CONTINUOUS
 62
     7
 10
-507.32709
 20
414.49090999999987
 30
0.0
 40
1.5
 50
0.0
 51
90.000003000000007
  0
ARC
  5
F0C
  8
0
  6
CONTINUOUS
 62
     7
 10
-489.32709
 20
409.49090999999987
 30
0.0
 40
1.02
 50
179.99998999999991
 51
270.0
  0
ARC
  5
F0D
  8
0
  6
CONTINUOUS
 62
     7
 10
-507.32709
 20
409.49090999999987
 30
0.0
 40
1.02
 50
269.99998999999991
 51
0.00000068324403
  0
ARC
  5
F0E
  8
0
  6
CONTINUOUS
 62
     7
 10
-507.30712999999992
 20
414.35088999999988
 30
0.0
 40
1.0
 50
0.0
 51
90.000003000000007
  0
ARC
  5
F0F
  8
0
  6
CONTINUOUS
 62
     7
 10
-489.34710999999999
 20
414.35088999999988
 30
0.0
 40
1.0
 50
90.000003000000007
 51
180.00001
  0
CIRCLE
  5
F10
  8
0
  6
CONTINUOUS
 62
     3
 10
-495.82709
 20
410.49090999999987
 30
0.0
 40
1.0
  0
CIRCLE
  5
F11
  8
0
  6
CONTINUOUS
 62
     3
 10
-500.82709
 20
410.49090999999987
 30
0.0
 40
1.149999999999999
  0
CIRCLE
  5
F12
  8
0
  6
CONTINUOUS
 62
     3
 10
-500.82709
 20
410.49090999999987
 30
0.0
 40
1.1000000000000001
  0
ARC
  5
F13
  8
0
  6
CONTINUOUS
 62
     7
 10
-609.62645999999995
 20
322.32085999999993
 30
0.0
 40
2.0
 50
194.1507499999999
 51
269.99998999999991
  0
ARC
  5
F14
  8
0
  6
CONTINUOUS
 62
     7
 10
-595.58434999999963
 20
318.82085999999993
 30
0.0
 40
1.5
 50
21.461708999999988
 51
90.000003000000007
  0
TEXT
  5
129F
  8
0
  6
CONTINUOUS
 62
     0
 10
-283.57621979219431
 20
370.29771138934041
 30
0.0
 40
10.0
  1
VX04-003M~VX04-010M
  0
ENDSEC
  0
EOF
