  0
SECTION
  2
HEADER
  9
$ACADVER
  1
AC1009
  9
$INSBASE
 10
0.0
 20
0.0
 30
0.0
  9
$EXTMIN
 10
-646.2846986499917
 20
67.782366769441182
 30
-0.0000000000112498
  9
$EXTMAX
 10
-67.235646477964792
 20
496.18236153195522
 30
0.0000000000002956
  9
$LIMMIN
 10
0.0
 20
0.0
  9
$LIMMAX
 10
12.0
 20
9.0
  9
$ORTHOMODE
 70
     0
  9
$REGENMODE
 70
     1
  9
$FILLMODE
 70
     1
  9
$QTEXTMODE
 70
     0
  9
$MIRRTEXT
 70
     1
  9
$DRAGMODE
 70
     2
  9
$LTSCALE
 40
1.0
  9
$OSMODE
 70
   551
  9
$ATTMODE
 70
     1
  9
$TEXTSIZE
 40
0.2
  9
$TRACEWID
 40
0.05
  9
$TEXTSTYLE
  7
STANDARD
  9
$CLAYER
  8
0
  9
$CELTYPE
  6
CONTINUOUS
  9
$CECOLOR
 62
   256
  9
$DIMSCALE
 40
1.0
  9
$DIMASZ
 40
0.18
  9
$DIMEXO
 40
0.0625
  9
$DIMDLI
 40
0.38
  9
$DIMRND
 40
0.0
  9
$DIMDLE
 40
0.0
  9
$DIMEXE
 40
0.18
  9
$DIMTP
 40
0.0
  9
$DIMTM
 40
0.0
  9
$DIMTXT
 40
0.18
  9
$DIMCEN
 40
0.09
  9
$DIMTSZ
 40
0.0
  9
$DIMTOL
 70
     0
  9
$DIMLIM
 70
     0
  9
$DIMTIH
 70
     1
  9
$DIMTOH
 70
     1
  9
$DIMSE1
 70
     0
  9
$DIMSE2
 70
     0
  9
$DIMTAD
 70
     0
  9
$DIMZIN
 70
     0
  9
$DIMBLK
  1

  9
$DIMASO
 70
     1
  9
$DIMSHO
 70
     1
  9
$DIMPOST
  1

  9
$DIMAPOST
  1

  9
$DIMALT
 70
     0
  9
$DIMALTD
 70
     2
  9
$DIMALTF
 40
25.399999999999999
  9
$DIMLFAC
 40
1.0
  9
$DIMTOFL
 70
     0
  9
$DIMTVP
 40
0.0
  9
$DIMTIX
 70
     0
  9
$DIMSOXD
 70
     0
  9
$DIMSAH
 70
     0
  9
$DIMBLK1
  1

  9
$DIMBLK2
  1

  9
$DIMSTYLE
  2
STANDARD
  9
$DIMCLRD
 70
     0
  9
$DIMCLRE
 70
     0
  9
$DIMCLRT
 70
     0
  9
$DIMTFAC
 40
1.0
  9
$DIMGAP
 40
0.09
  9
$LUNITS
 70
     2
  9
$LUPREC
 70
     4
  9
$SKETCHINC
 40
0.1
  9
$FILLETRAD
 40
0.0
  9
$AUNITS
 70
     0
  9
$AUPREC
 70
     0
  9
$MENU
  1
.
  9
$ELEVATION
 40
0.0
  9
$PELEVATION
 40
0.0
  9
$THICKNESS
 40
0.0
  9
$LIMCHECK
 70
     0
  9
$BLIPMODE
 70
     0
  9
$CHAMFERA
 40
0.0
  9
$CHAMFERB
 40
0.0
  9
$SKPOLY
 70
     0
  9
$TDCREATE
 40
2452300.4317281479
  9
$TDUPDATE
 40
2458540.6793030561
  9
$TDINDWG
 40
0.040532419
  9
$TDUSRTIMER
 40
0.0405323843
  9
$USRTIMER
 70
     1
  9
$ANGBASE
 50
0.0
  9
$ANGDIR
 70
     0
  9
$PDMODE
 70
     0
  9
$PDSIZE
 40
0.0
  9
$PLINEWID
 40
0.0
  9
$COORDS
 70
     1
  9
$SPLFRAME
 70
     0
  9
$SPLINETYPE
 70
     6
  9
$SPLINESEGS
 70
     8
  9
$ATTDIA
 70
     1
  9
$ATTREQ
 70
     1
  9
$HANDLING
 70
     1
  9
$HANDSEED
  5
CE5
  9
$SURFTAB1
 70
     6
  9
$SURFTAB2
 70
     6
  9
$SURFTYPE
 70
     6
  9
$SURFU
 70
     6
  9
$SURFV
 70
     6
  9
$UCSNAME
  2

  9
$UCSORG
 10
0.0
 20
0.0
 30
0.0
  9
$UCSXDIR
 10
1.0
 20
0.0
 30
0.0
  9
$UCSYDIR
 10
0.0
 20
1.0
 30
0.0
  9
$PUCSNAME
  2

  9
$PUCSORG
 10
0.0
 20
0.0
 30
0.0
  9
$PUCSXDIR
 10
1.0
 20
0.0
 30
0.0
  9
$PUCSYDIR
 10
0.0
 20
1.0
 30
0.0
  9
$USERI1
 70
     0
  9
$USERI2
 70
     0
  9
$USERI3
 70
     0
  9
$USERI4
 70
     0
  9
$USERI5
 70
     0
  9
$USERR1
 40
0.0
  9
$USERR2
 40
0.0
  9
$USERR3
 40
0.0
  9
$USERR4
 40
0.0
  9
$USERR5
 40
0.0
  9
$WORLDVIEW
 70
     1
  9
$SHADEDGE
 70
     3
  9
$SHADEDIF
 70
    70
  9
$TILEMODE
 70
     1
  9
$MAXACTVP
 70
    64
  9
$PLIMCHECK
 70
     0
  9
$PEXTMIN
 10
1.0000000000000000E+020
 20
1.0000000000000000E+020
 30
1.0000000000000000E+020
  9
$PEXTMAX
 10
-1.0000000000000000E+020
 20
-1.0000000000000000E+020
 30
-1.0000000000000000E+020
  9
$PLIMMIN
 10
0.0
 20
0.0
  9
$PLIMMAX
 10
12.0
 20
9.0
  9
$UNITMODE
 70
     0
  9
$VISRETAIN
 70
     1
  9
$PLINEGEN
 70
     0
  9
$PSLTSCALE
 70
     1
  0
ENDSEC
  0
SECTION
  2
TABLES
  0
TABLE
  2
VPORT
 70
     1
  0
VPORT
  2
*ACTIVE
 70
     0
 10
0.0
 20
0.0
 11
1.0
 21
1.0
 12
-356.7601725639783
 22
281.98236415069817
 13
0.0
 23
0.0
 14
1.0
 24
1.0
 15
0.0
 25
0.0
 16
0.0
 26
0.0
 36
1.0
 17
0.0
 27
0.0
 37
0.0
 40
431.34095582495689
 41
1.7571592210767459
 42
50.0
 43
0.0
 44
0.0
 50
0.0
 51
0.0
 71
     0
 72
   100
 73
     1
 74
     1
 75
     0
 76
     0
 77
     0
 78
     0
  0
ENDTAB
  0
TABLE
  2
LTYPE
 70
    20
  0
LTYPE
  2
CONTINUOUS
 70
     0
  3
Solid line
 72
    65
 73
     0
 40
0.0
  0
LTYPE
  2
DASHED
 70
     0
  3
__ __ __ __ __ __ __ __ __ __ __ __ __ __ __
 72
    65
 73
     2
 40
3.5
 49
2.0
 49
-1.5
  0
LTYPE
  2
CENTER
 70
     0
  3
____ _ ____ _ ____ _ ____ _ ____ _ ____ _ ____
 72
    65
 73
     4
 40
17.5
 49
13.0
 49
-1.5
 49
1.5
 49
-1.5
  0
LTYPE
  2
PHANTOM
 70
     0
  3
_____ _ _ _____ _ _ _____ _ _ _____ _ _ ____  
 72
    65
 73
     6
 40
15.5
 49
8.0
 49
-1.5
 49
1.5
 49
-1.5
 49
1.5
 49
-1.5
  0
LTYPE
  2
DOT
 70
     0
  3
. . . . . . . . . . . . . . . . . . . . . . . .
 72
    65
 73
     2
 40
0.25
 49
0.0
 49
-0.25
  0
LTYPE
  2
AM_ISO02W050
 70
     0
  3
__ __ __ __ __ __ __ __ __ __ __ __ __ __ __
 72
    65
 73
     2
 40
7.5
 49
6.0
 49
-1.5
  0
LTYPE
  2
AM_ISO08W050
 70
     0
  3
____ . ____ . ____ . ____ . ____ . ____ . ____
 72
    65
 73
     4
 40
18.0
 49
12.0
 49
-1.5
 49
3.0
 49
-1.5
  0
LTYPE
  2
AM_ISO09W050
 70
     0
  3
_____ . . _____ . . _____ . . ____ .. ____
 72
    65
 73
     6
 40
22.5
 49
12.0
 49
-1.5
 49
3.0
 49
-1.5
 49
3.0
 49
-1.5
  0
LTYPE
  2
AMCONSTR
 70
     0
  3
_______________________
 72
    65
 73
     2
 40
9999.0
 49
9999.0
 49
0.0
  0
LTYPE
  2
AM_ISO08W050X2
 70
     0
  3
__ . __ . __ . __ . __ . __
 72
    65
 73
     4
 40
9.0
 49
6.0
 49
-0.75
 49
1.5
 49
-0.75
  0
LTYPE
  2
AM_ISO02W050X2
 70
     0
  3
 _ _ _ _ _ _ _ _ _ _ _ _
 72
    65
 73
     2
 40
3.75
 49
3.0
 49
-0.75
  0
LTYPE
  2
AMZIGZAG
 70
     0
  3
/\/-/\/-/\/-/\/-/\/-/\/
 72
    65
 73
     2
 40
11.000099999999991
 49
0.0001
 49
-11.0
  0
LTYPE
  2
HIDDEN
 70
     0
  3
Hidden __ __ __ __ __ __ __ __ __ __ __ __ __ _
 72
    65
 73
     2
 40
0.375
 49
0.25
 49
-0.125
  0
LTYPE
  2
PHANTOM2
 70
     0
  3
Phantom (.5x) ___ _ _ ___ _ _ ___ _ _ ___ _ _
 72
    65
 73
     6
 40
1.25
 49
0.625
 49
-0.125
 49
0.125
 49
-0.125
 49
0.125
 49
-0.125
  0
LTYPE
  2
CENTER2
 70
     0
  3
Center (.5x) ___ _ ___ _ ___ _ ___ _ ___ _ ___
 72
    65
 73
     4
 40
1.125
 49
0.75
 49
-0.125
 49
0.125
 49
-0.125
  0
LTYPE
  2
HIDDEN2
 70
     0
  3
Hidden (.5x) _ _ _ _ _ _ _ _ _ _ _ _ _ _ _ _ _
 72
    65
 73
     2
 40
0.1875
 49
0.125
 49
-0.0625
  0
LTYPE
  2
AMZIGZAG2
 70
     0
  3
/\/-/\/-/\/-/\/-/\/-/\/
 72
    65
 73
     2
 40
0.4401
 49
0.0001
 49
-0.4400000000000003
  0
LTYPE
  2
ACANSTGB
 70
     0
  3
__ . . __ . .
 72
    65
 73
     6
 40
0.35433070866
 49
0.15748031496
 49
-0.03937007874
 49
0.03937007874
 49
-0.03937007874
 49
0.03937007874
 49
-0.03937007874
  0
LTYPE
  2
ACANSTGL
 70
     0
  3
_ _ _ _ _
 72
    65
 73
     2
 40
0.11811023622
 49
0.07874015748
 49
-0.03937007874
  0
ENDTAB
  0
TABLE
  2
LAYER
 70
     1
  0
LAYER
  2
0
 70
     0
 62
     7
  6
CONTINUOUS
  0
ENDTAB
  0
TABLE
  2
STYLE
 70
     5
  0
STYLE
  2
STANDARD
 70
     0
 40
0.0
 41
1.0
 50
0.0
 71
     0
 42
0.2
  3
txt
  4
BIGFONT
  0
STYLE
  2
ANNOTATIVE
 70
     0
 40
0.0
 41
1.0
 50
0.0
 71
     0
 42
0.2
  3
txt
  4

  0
STYLE
  2

 70
     1
 40
0.0
 41
1.0
 50
0.0
 71
     0
 42
0.2
  3
ltypeshp.shx
  4

  0
STYLE
  2
ACANSTS
 70
     0
 40
1.0
 41
1.0
 50
0.0
 71
     0
 42
0.2
  3
romans.shx
  4
extfont.shx
  0
STYLE
  2
ACANSGDT
 70
     0
 40
0.0
 41
1.0
 50
0.0
 71
     0
 42
0.2
  3
amgdt.shx
  4

  0
ENDTAB
  0
TABLE
  2
VIEW
 70
     0
  0
ENDTAB
  0
TABLE
  2
UCS
 70
     0
  0
ENDTAB
  0
TABLE
  2
APPID
 70
    11
  0
APPID
  2
ACAD
 70
     0
  0
APPID
  2
ACADANNOTATIVE
 70
     0
  0
APPID
  2
MCAD_NO_VIS
 70
     0
  0
APPID
  2
ACAD_TEMP_GRAPHIC
 70
     0
  0
APPID
  2
ACATTRIBSERVICES
 70
     0
  0
APPID
  2
DESIGNERASSEMBLIES
 70
     0
  0
APPID
  2
ACAD_DSTYLE_DIMBREAK
 70
     0
  0
APPID
  2
ACAD_DSTYLE_DIMJAG
 70
     0
  0
APPID
  2
ACAD_NAV_VCDISPLAY
 70
     0
  0
APPID
  2
ACAD_EXEMPT_FROM_CAD_STANDARDS
 70
     0
  0
APPID
  2
ACAD_MLEADERVER
 70
     0
  0
ENDTAB
  0
TABLE
  2
DIMSTYLE
 70
     8
  0
DIMSTYLE
  2
STANDARD
 70
     0
  3

  4

  5

  6

  7

 40
1.0
 41
0.18
 42
0.0625
 43
0.38
 44
0.18
 45
0.0
 46
0.0
 47
0.0
 48
0.0
140
0.18
141
0.09
142
0.0
143
25.399999999999999
144
1.0
145
0.0
146
1.0
147
0.09
 71
     0
 72
     0
 73
     1
 74
     1
 75
     0
 76
     0
 77
     0
 78
     0
170
     0
171
     2
172
     0
173
     0
174
     0
175
     0
176
     0
177
     0
178
     0
  0
DIMSTYLE
  2
ANNOTATIVE
 70
     0
  3

  4

  5

  6

  7

 40
1.0
 41
0.18
 42
0.0625
 43
0.38
 44
0.18
 45
0.0
 46
0.0
 47
0.0
 48
0.0
140
0.18
141
0.09
142
0.0
143
25.399999999999999
144
1.0
145
0.0
146
1.0
147
0.09
 71
     0
 72
     0
 73
     1
 74
     1
 75
     0
 76
     0
 77
     0
 78
     0
170
     0
171
     2
172
     0
173
     0
174
     0
175
     0
176
     0
177
     0
178
     0
  0
DIMSTYLE
  2
AM_ANSI
 70
     0
  3

  4
mm
  5

  6

  7

 40
1.0
 41
0.1
 42
0.05
 43
0.5
 44
0.1
 45
0.0
 46
0.0
 47
0.1
 48
0.1
140
0.12
141
0.0
142
0.0
143
25.399999999999999
144
1.0
145
0.0
146
0.71
147
0.06
 71
     0
 72
     0
 73
     1
 74
     1
 75
     0
 76
     0
 77
     0
 78
     7
170
     0
171
     2
172
     0
173
     0
174
     0
175
     0
176
   256
177
   256
178
     2
  0
DIMSTYLE
  2
AM_ANSI$3
 70
     0
  3

  4
mm
  5

  6

  7

 40
1.0
 41
0.1
 42
0.05
 43
0.5
 44
0.1
 45
0.0
 46
0.0
 47
0.1
 48
0.1
140
0.12
141
0.0
142
0.0
143
25.399999999999999
144
1.0
145
0.0
146
0.71
147
0.06
 71
     0
 72
     0
 73
     1
 74
     1
 75
     0
 76
     0
 77
     0
 78
     7
170
     0
171
     2
172
     0
173
     0
174
     0
175
     0
176
   256
177
   256
178
     2
  0
DIMSTYLE
  2
AM_ANSI$4
 70
     0
  3

  4
mm
  5

  6

  7

 40
1.0
 41
0.1
 42
0.05
 43
0.5
 44
0.1
 45
0.0
 46
0.0
 47
0.1
 48
0.1
140
0.12
141
0.0
142
0.0
143
25.399999999999999
144
1.0
145
0.0
146
0.71
147
0.06
 71
     0
 72
     0
 73
     1
 74
     1
 75
     0
 76
     0
 77
     0
 78
     7
170
     0
171
     2
172
     0
173
     0
174
     0
175
     0
176
   256
177
   256
178
     2
  0
DIMSTYLE
  2
AM_ANSI$7
 70
     0
  3

  4
mm
  5

  6

  7

 40
1.0
 41
0.1
 42
0.05
 43
0.5
 44
0.1
 45
0.0
 46
0.0
 47
0.1
 48
0.1
140
0.24
141
0.0
142
0.0
143
25.399999999999999
144
1.0
145
0.0
146
0.71
147
0.06
 71
     0
 72
     0
 73
     1
 74
     1
 75
     0
 76
     0
 77
     0
 78
     7
170
     0
171
     2
172
     0
173
     0
174
     0
175
     0
176
   256
177
   256
178
     2
  0
DIMSTYLE
  2
AM_ANSI$SF
 70
     0
  3

  4
mm
  5

  6

  7

 40
1.0
 41
0.1
 42
0.05
 43
0.5
 44
0.1
 45
0.0
 46
0.0
 47
0.1
 48
0.1
140
0.12
141
0.0
142
0.0
143
25.399999999999999
144
1.0
145
0.0
146
0.71
147
0.06
 71
     0
 72
     0
 73
     1
 74
     1
 75
     1
 76
     1
 77
     0
 78
     7
170
     0
171
     2
172
     0
173
     0
174
     0
175
     0
176
   256
177
   256
178
     2
  0
DIMSTYLE
  2
AM_ANSI$SH
 70
     0
  3

  4
mm
  5

  6

  7

 40
1.0
 41
0.1
 42
0.05
 43
0.5
 44
0.1
 45
0.0
 46
0.0
 47
0.1
 48
0.1
140
0.12
141
0.0
142
0.0
143
25.399999999999999
144
1.0
145
0.0
146
0.71
147
0.06
 71
     0
 72
     0
 73
     1
 74
     1
 75
     1
 76
     1
 77
     0
 78
     7
170
     0
171
     2
172
     0
173
     1
174
     0
175
     0
176
   256
177
   256
178
     2
  0
ENDTAB
  0
ENDSEC
  0
SECTION
  2
BLOCKS
  0
BLOCK
  8
0
  2
$MODEL_SPACE
 70
     0
 10
0.0
 20
0.0
 30
0.0
  3
$MODEL_SPACE
  1

  0
ENDBLK
  5
BF0
  8
0
  0
BLOCK
 67
     1
  8
0
  2
$PAPER_SPACE
 70
     0
 10
0.0
 20
0.0
 30
0.0
  3
$PAPER_SPACE
  1

  0
ENDBLK
  5
BEC
 67
     1
  8
0
  0
BLOCK
  8
0
  2
GENAXEH
 70
     0
 10
0.0
 20
0.0
 30
0.0
  3
GENAXEH
  1

  0
LINE
  5
558
  8
0
 10
-1.0
 20
0.0
 30
0.0
 11
1.0
 21
0.0
 31
0.0
  0
ENDBLK
  5
559
  8
0
  0
BLOCK
  8
0
  2
_ACMFILLEDHALF
 70
     0
 10
0.0
 20
0.0
 30
0.0
  3
_ACMFILLEDHALF
  1

  0
TRACE
  5
AF2
  8
0
  6
CONTINUOUS
 62
     0
 10
-0.8
 20
0.0
 30
0.0
 11
-1.0
 21
0.166666666
 31
0.0
 12
0.0
 22
0.0
 32
0.0
 13
0.0
 23
0.0
 33
0.0
  0
LINE
  5
AF3
  8
0
  6
CONTINUOUS
 62
     0
 10
-1.0
 20
0.0
 30
0.0
 11
-0.8
 21
0.0
 31
0.0
  0
ENDBLK
  5
AF1
  8
0
  0
BLOCK
  8
0
  2
*U4
 70
     1
 10
0.0
 20
0.0
 30
0.0
  3
*U4
  1

  0
TEXT
  5
B79
  8
0
  6
CONTINUOUS
 62
     0
 10
4.1999993754229852
 20
4.4356759791489822
 30
0.0
 40
10.0
  1
ＶＸ０１－２４０Ｍ～ＶＸ０１－６００Ｍ
  0
ENDBLK
  5
B7B
  8
0
  0
BLOCK
  8
0
  2
*U5
 70
     1
 10
0.0
 20
0.0
 30
0.0
  3
*U5
  1

  0
TEXT
  5
B7D
  8
0
  6
CONTINUOUS
 62
     0
 10
-265.88366747665492
 20
313.52441170131237
 30
0.0
 40
10.0
  1
ＶＸ０４－０４０Ｍ～ＶＸ０４－０５０Ｍ
  0
ENDBLK
  5
B7F
  8
0
  0
ENDSEC
  0
SECTION
  2
ENTITIES
  0
LINE
  5
55A
  8
0
  6
CENTER
 62
     7
 10
-638.01610999999957
 20
418.16665999999981
 30
0.0
 11
-321.97329999999999
 21
418.16665999999981
 31
0.0
  0
LINE
  5
55B
  8
0
  6
CONTINUOUS
 62
     7
 10
-424.19299000000001
 20
368.09942999999998
 30
0.0
 11
-424.19299000000001
 21
347.45470999999992
 31
0.0
  0
LINE
  5
55C
  8
0
  6
CONTINUOUS
 62
     7
 10
-423.19298999999978
 20
366.62871999999987
 30
0.0
 11
-423.19298999999978
 21
353.08166999999992
 31
0.0
  0
LINE
  5
55D
  8
0
  6
CONTINUOUS
 62
     7
 10
-424.19299000000001
 20
353.08166999999992
 30
0.0
 11
-423.19298999999978
 21
353.08166999999992
 31
0.0
  0
LINE
  5
55E
  8
0
  6
CONTINUOUS
 62
     7
 10
-424.19299000000001
 20
366.62871999999987
 30
0.0
 11
-423.19298999999978
 21
366.62871999999987
 31
0.0
  0
LINE
  5
55F
  8
0
  6
CONTINUOUS
 62
     7
 10
-419.19301999999988
 20
355.08166999999992
 30
0.0
 11
-419.19301999999988
 21
364.62869000000001
 31
0.0
  0
LINE
  5
560
  8
0
  6
CONTINUOUS
 62
     7
 10
-423.19298999999978
 20
362.74193999999989
 30
0.0
 11
-420.19299000000001
 21
362.74193999999989
 31
0.0
  0
LINE
  5
561
  8
0
  6
CONTINUOUS
 62
     7
 10
-423.19298999999978
 20
356.96843999999987
 30
0.0
 11
-420.19299000000001
 21
356.96843999999987
 31
0.0
  0
LINE
  5
562
  8
0
  6
CONTINUOUS
 62
     7
 10
-423.19298999999978
 20
354.08166999999992
 30
0.0
 11
-420.19299000000001
 21
354.08166999999992
 31
0.0
  0
LINE
  5
563
  8
0
  6
CONTINUOUS
 62
     7
 10
-423.19298999999978
 20
365.62871999999987
 30
0.0
 11
-420.19299000000001
 21
365.62871999999987
 31
0.0
  0
LINE
  5
564
  8
0
  6
CONTINUOUS
 62
     7
 10
-464.19299000000001
 20
493.38040000000001
 30
0.0
 11
-464.19299000000001
 21
481.9285299999998
 31
0.0
  0
LINE
  5
565
  8
0
  6
CENTER
 62
     7
 10
-452.19298999999978
 20
491.67937999999992
 30
0.0
 11
-452.19298999999978
 21
474.33395000000002
 31
0.0
  0
LINE
  5
566
  8
0
  6
CENTER
 62
     7
 10
-460.67446999999999
 20
483.16665999999998
 30
0.0
 11
-443.98709000000002
 21
483.16665999999998
 31
0.0
  0
LINE
  5
567
  8
0
  6
CONTINUOUS
 62
     7
 10
-370.19299000000001
 20
492.59482000000003
 30
0.0
 11
-370.19299000000001
 21
469.73849000000001
 31
0.0
  0
LINE
  5
568
  8
0
  6
CONTINUOUS
 62
     7
 10
-432.1929599999998
 20
496.16665999999998
 30
0.0
 11
-372.14062999999987
 21
494.59411999999998
 31
0.0
  0
LINE
  5
569
  8
0
  6
CONTINUOUS
 62
     7
 10
-462.24533000000002
 20
495.37970000000001
 30
0.0
 11
-432.19298999999972
 21
496.16665999999998
 31
0.0
  0
LINE
  5
56A
  8
0
  6
CONTINUOUS
 62
     7
 10
-435.19299000000001
 20
489.16665999999992
 30
0.0
 11
-435.19299000000001
 21
347.16665999999992
 31
0.0
  0
LINE
  5
56B
  8
0
  6
CENTER
 62
     7
 10
-382.19299000000001
 20
491.68984999999998
 30
0.0
 11
-382.19299000000001
 21
474.45767000000001
 31
0.0
  0
LINE
  5
56C
  8
0
  6
CONTINUOUS
 62
     7
 10
-373.19299000000001
 20
467.71160999999989
 30
0.0
 11
-373.19299000000001
 21
368.62169999999992
 31
0.0
  0
LINE
  5
56D
  8
0
  6
CENTER
 62
     7
 10
-452.19298999999978
 20
344.36469
 30
0.0
 11
-452.19298999999978
 21
362.36144999999988
 31
0.0
  0
LINE
  5
56E
  8
0
  6
CONTINUOUS
 62
     7
 10
-372.22786999999988
 20
391.59561000000002
 30
0.0
 11
-371.15807999999998
 21
391.63297
 31
0.0
  0
LINE
  5
56F
  8
0
  6
CONTINUOUS
 62
     7
 10
-372.22791000000001
 20
444.73770000000002
 30
0.0
 11
-371.15807999999998
 21
444.70035000000001
 31
0.0
  0
LINE
  5
570
  8
0
  6
CONTINUOUS
 62
     7
 10
-370.19299000000001
 20
392.63231999999999
 30
0.0
 11
-370.19299000000001
 21
443.70095999999972
 31
0.0
  0
LINE
  5
571
  8
0
  6
CONTINUOUS
 62
     7
 10
-373.19299000000001
 20
467.71160999999989
 30
0.0
 11
-372.14066000000003
 21
467.73917
 31
0.0
  0
LINE
  5
572
  8
0
  6
CENTER
 62
     7
 10
-460.85750999999999
 20
353.16665999999992
 30
0.0
 11
-443.94820999999979
 21
353.16665999999992
 31
0.0
  0
LINE
  5
573
  8
0
  6
CONTINUOUS
 62
     7
 10
-370.19299000000001
 20
343.73849000000001
 30
0.0
 11
-370.19299000000001
 21
366.59482000000003
 31
0.0
  0
LINE
  5
574
  8
0
  6
CONTINUOUS
 62
     7
 10
-464.19299000000001
 20
342.95294000000001
 30
0.0
 11
-464.19299000000001
 21
354.40478999999982
 31
0.0
  0
LINE
  5
575
  8
0
  6
CONTINUOUS
 62
     7
 10
-432.1929599999998
 20
340.16665999999992
 30
0.0
 11
-372.14062999999987
 21
341.73919999999993
 31
0.0
  0
LINE
  5
576
  8
0
  6
CONTINUOUS
 62
     7
 10
-462.24533000000002
 20
340.95361000000008
 30
0.0
 11
-432.19298999999972
 21
340.16665999999992
 31
0.0
  0
LINE
  5
577
  8
0
  6
CENTER
 62
     7
 10
-382.19299000000001
 20
343.68137000000002
 30
0.0
 11
-382.19299000000001
 21
361.61919999999992
 31
0.0
  0
LINE
  5
578
  8
0
  6
CONTINUOUS
 62
     7
 10
-432.1929599999998
 20
492.31066999999979
 30
0.0
 11
-439.19296000000003
 21
495.98334
 31
0.0
  0
LINE
  5
579
  8
0
  6
CONTINUOUS
 62
     7
 10
-434.78994999999992
 20
489.15609999999998
 30
0.0
 11
-439.19296000000003
 21
491.46622000000002
 31
0.0
  0
LINE
  5
57A
  8
0
  6
CONTINUOUS
 62
     7
 10
-439.19299000000001
 20
495.98334
 30
0.0
 11
-439.19299000000001
 21
491.46625
 31
0.0
  0
LINE
  5
57B
  8
0
  6
CONTINUOUS
 62
     7
 10
-372.14062999999987
 20
368.59415000000001
 30
0.0
 11
-373.19296000000003
 21
368.62166999999999
 31
0.0
  0
LINE
  5
57C
  8
0
  6
CONTINUOUS
 62
     7
 10
-386.19296000000003
 20
367.91565000000003
 30
0.0
 11
-386.19296000000003
 21
468.41765999999978
 31
0.0
  0
LINE
  5
57D
  8
0
  6
CONTINUOUS
 62
     7
 10
-377.75722999999999
 20
466.56597999999991
 30
0.0
 11
-382.45474000000002
 21
466.97695999999991
 31
0.0
  0
LINE
  5
57E
  8
0
  6
CONTINUOUS
 62
     7
 10
-377.75720000000001
 20
369.76732999999979
 30
0.0
 11
-382.45470999999992
 21
369.35635000000002
 31
0.0
  0
LINE
  5
57F
  8
0
  6
CONTINUOUS
 62
     7
 10
-388.93149
 20
364.92708999999979
 30
0.0
 11
-394.62878000000001
 21
364.42862000000002
 31
0.0
  0
LINE
  5
580
  8
0
  6
CONTINUOUS
 62
     7
 10
-399.19299000000001
 20
346.16345000000001
 30
0.0
 11
-399.19299000000001
 21
359.44763
 31
0.0
  0
LINE
  5
581
  8
0
  6
CONTINUOUS
 62
     7
 10
-432.19298999999972
 20
489.0881
 30
0.0
 11
-432.19298999999972
 21
492.31066999999979
 31
0.0
  0
LINE
  5
582
  8
0
  6
CONTINUOUS
 62
     7
 10
-439.19299000000001
 20
340.3499799999999
 30
0.0
 11
-439.19299000000001
 21
344.86707000000001
 31
0.0
  0
LINE
  5
583
  8
0
  6
CONTINUOUS
 62
     7
 10
-434.78997999999962
 20
347.17721999999992
 30
0.0
 11
-439.19299000000001
 21
344.86707000000001
 31
0.0
  0
LINE
  5
584
  8
0
  6
CONTINUOUS
 62
     7
 10
-432.19298999999972
 20
344.02260999999987
 30
0.0
 11
-439.19299000000001
 21
340.34994999999992
 31
0.0
  0
LINE
  5
585
  8
0
  6
CONTINUOUS
 62
     7
 10
-432.19298999999972
 20
347.24520999999987
 30
0.0
 11
-432.19298999999972
 21
344.02263999999991
 31
0.0
  0
LINE
  5
586
  8
0
  6
CONTINUOUS
 62
     7
 10
-422.45715000000001
 20
347.50018
 30
0.0
 11
-435.19299000000001
 21
347.16665999999992
 31
0.0
  0
LINE
  5
587
  8
0
  6
CONTINUOUS
 62
     7
 10
-422.4571199999998
 20
488.83312999999993
 30
0.0
 11
-435.19296000000003
 21
489.16665999999992
 31
0.0
  0
LINE
  5
588
  8
0
  6
CENTER
 62
     7
 10
-390.41460999999993
 20
353.16665999999992
 30
0.0
 11
-372.84789999999998
 21
353.16665999999992
 31
0.0
  0
LINE
  5
589
  8
0
  6
CENTER
 62
     7
 10
-390.85717999999991
 20
483.16665999999998
 30
0.0
 11
-373.10055999999992
 21
483.16665999999998
 31
0.0
  0
LINE
  5
58A
  8
0
  6
CONTINUOUS
 62
     7
 10
-424.19299000000001
 20
368.09942999999998
 30
0.0
 11
-421.19299000000001
 21
368.09942999999998
 31
0.0
  0
LINE
  5
58B
  8
0
  6
CONTINUOUS
 62
     7
 10
-421.19295999999991
 20
368.09942999999998
 30
0.0
 11
-421.19295999999991
 21
468.23388999999992
 31
0.0
  0
LINE
  5
58C
  8
0
  6
CONTINUOUS
 62
     7
 10
-421.19299000000001
 20
368.09942999999998
 30
0.0
 11
-407.61099000000002
 21
370.65780999999993
 31
0.0
  0
LINE
  5
58D
  8
0
  6
CONTINUOUS
 62
     7
 10
-420.09655999999978
 20
348.16338999999982
 30
0.0
 11
-409.4597799999998
 21
354.27661000000001
 31
0.0
  0
LINE
  5
58E
  8
0
  6
CONTINUOUS
 62
     7
 10
-399.19299000000001
 20
476.88565
 30
0.0
 11
-399.19299000000001
 21
490.16985999999991
 31
0.0
  0
LINE
  5
58F
  8
0
  6
CONTINUOUS
 62
     7
 10
-389.11441000000002
 20
371.14211999999992
 30
0.0
 11
-407.61102
 21
370.65778
 31
0.0
  0
LINE
  5
590
  8
0
  6
CONTINUOUS
 62
     7
 10
-402.11446999999981
 20
355.07037000000008
 30
0.0
 11
-407.09921000000003
 21
354.93984999999992
 31
0.0
  0
LINE
  5
591
  8
0
  6
CONTINUOUS
 62
     7
 10
-388.93149
 20
471.40624999999989
 30
0.0
 11
-394.62875000000003
 21
471.90469000000002
 31
0.0
  0
LINE
  5
592
  8
0
  6
CONTINUOUS
 62
     7
 10
-420.09652999999997
 20
488.16988999999978
 30
0.0
 11
-409.4597799999998
 21
482.05669999999992
 31
0.0
  0
LINE
  5
593
  8
0
  6
CONTINUOUS
 62
     7
 10
-421.19299000000001
 20
468.23392000000001
 30
0.0
 11
-407.61099000000002
 21
465.67554000000001
 31
0.0
  0
LINE
  5
594
  8
0
  6
CONTINUOUS
 62
     7
 10
-389.11441000000002
 20
465.19118999999989
 30
0.0
 11
-407.61099000000002
 21
465.67554000000001
 31
0.0
  0
LINE
  5
595
  8
0
  6
CONTINUOUS
 62
     7
 10
-402.11443999999989
 20
481.26294000000001
 30
0.0
 11
-407.09917999999988
 21
481.39345999999989
 31
0.0
  0
LINE
  5
596
  8
0
  6
CONTINUOUS
 62
     7
 10
-423.19298999999978
 20
470.70461999999992
 30
0.0
 11
-420.19299000000001
 21
470.70461999999992
 31
0.0
  0
LINE
  5
597
  8
0
  6
CONTINUOUS
 62
     7
 10
-423.19298999999978
 20
482.25161999999989
 30
0.0
 11
-420.19299000000001
 21
482.25161999999989
 31
0.0
  0
LINE
  5
598
  8
0
  6
CONTINUOUS
 62
     7
 10
-423.19298999999978
 20
479.36487
 30
0.0
 11
-420.19299000000001
 21
479.36487
 31
0.0
  0
LINE
  5
599
  8
0
  6
CONTINUOUS
 62
     7
 10
-423.19298999999978
 20
473.59136999999998
 30
0.0
 11
-420.19299000000001
 21
473.59136999999998
 31
0.0
  0
LINE
  5
59A
  8
0
  6
CONTINUOUS
 62
     7
 10
-419.19301999999988
 20
481.25164999999998
 30
0.0
 11
-419.19301999999988
 21
471.70461999999992
 31
0.0
  0
LINE
  5
59B
  8
0
  6
CONTINUOUS
 62
     7
 10
-424.19299000000001
 20
469.70459
 30
0.0
 11
-423.19298999999978
 21
469.70459
 31
0.0
  0
LINE
  5
59C
  8
0
  6
CONTINUOUS
 62
     7
 10
-424.19299000000001
 20
483.25164999999993
 30
0.0
 11
-423.19298999999978
 21
483.25164999999993
 31
0.0
  0
LINE
  5
59D
  8
0
  6
CONTINUOUS
 62
     7
 10
-423.19298999999978
 20
469.70459
 30
0.0
 11
-423.19298999999978
 21
483.25164999999993
 31
0.0
  0
LINE
  5
59E
  8
0
  6
CONTINUOUS
 62
     7
 10
-424.19299000000001
 20
468.23388999999992
 30
0.0
 11
-424.19299000000001
 21
488.87860000000001
 31
0.0
  0
LINE
  5
59F
  8
0
  6
CONTINUOUS
 62
     7
 10
-424.19299000000001
 20
468.23388999999992
 30
0.0
 11
-421.19299000000001
 21
468.23388999999992
 31
0.0
  0
LINE
  5
5A0
  8
0
  6
CONTINUOUS
 62
     7
 10
-435.19296000000003
 20
347.16665999999992
 30
0.0
 11
-440.24529999999999
 21
347.29894999999999
 31
0.0
  0
LINE
  5
5A1
  8
0
  6
CONTINUOUS
 62
     7
 10
-435.19299000000001
 20
489.16665999999992
 30
0.0
 11
-440.24532999999991
 21
489.03435999999988
 31
0.0
  0
LINE
  5
5A2
  8
0
  6
CONTINUOUS
 62
     7
 10
-442.19295999999991
 20
349.29827999999998
 30
0.0
 11
-442.19295999999991
 21
487.03503000000001
 31
0.0
  0
LINE
  5
5A3
  8
0
  6
CONTINUOUS
 62
     7
 10
-472.19296000000003
 20
354.66665999999998
 30
0.0
 11
-472.19296000000003
 21
481.66665999999992
 31
0.0
  0
LINE
  5
5A4
  8
0
  6
CONTINUOUS
 62
     7
 10
-446.9531599999998
 20
354.00571000000002
 30
0.0
 11
-472.19292999999999
 21
354.66665999999998
 31
0.0
  0
LINE
  5
5A5
  8
0
  6
CONTINUOUS
 62
     7
 10
-445.19299000000001
 20
352.95537999999982
 30
0.0
 11
-444.19295999999991
 21
352.95537999999982
 31
0.0
  0
LINE
  5
5A6
  8
0
  6
CONTINUOUS
 62
     7
 10
-447.19299000000001
 20
354.95537999999982
 30
0.0
 11
-447.19299000000001
 21
364.12662
 31
0.0
  0
LINE
  5
5A7
  8
0
  6
CONTINUOUS
 62
     7
 10
-447.19299000000001
 20
481.37795999999997
 30
0.0
 11
-447.19299000000001
 21
472.20670000000001
 31
0.0
  0
LINE
  5
5A8
  8
0
  6
CONTINUOUS
 62
     7
 10
-446.9531599999998
 20
482.32760999999988
 30
0.0
 11
-472.19296000000003
 21
481.66665999999992
 31
0.0
  0
LINE
  5
5A9
  8
0
  6
CONTINUOUS
 62
     7
 10
-445.19299000000001
 20
483.3779599999998
 30
0.0
 11
-444.19295999999991
 21
483.3779599999998
 31
0.0
  0
LINE
  5
5AA
  8
0
  6
CONTINUOUS
 62
     7
 10
-360.19299000000001
 20
422.16662999999988
 30
0.0
 11
-328.19299000000001
 21
422.16662999999988
 31
0.0
  0
LINE
  5
5AB
  8
0
  6
CONTINUOUS
 62
     7
 10
-360.19299000000001
 20
422.16662999999988
 30
0.0
 11
-360.19299000000001
 21
414.16665999999981
 31
0.0
  0
LINE
  5
5AC
  8
0
  6
CONTINUOUS
 62
     7
 10
-370.19299000000001
 20
403.16665999999992
 30
0.0
 11
-368.19299000000001
 21
403.16665999999992
 31
0.0
  0
LINE
  5
5AD
  8
0
  6
CONTINUOUS
 62
     7
 10
-368.19299000000001
 20
404.16669000000002
 30
0.0
 11
-328.19299000000001
 21
404.16669000000002
 31
0.0
  0
LINE
  5
5AE
  8
0
  6
CONTINUOUS
 62
     7
 10
-368.19299000000001
 20
432.16669000000002
 30
0.0
 11
-328.19299000000001
 21
432.16669000000002
 31
0.0
  0
LINE
  5
5AF
  8
0
  6
CONTINUOUS
 62
     7
 10
-368.19299000000001
 20
433.16665999999998
 30
0.0
 11
-368.19299000000001
 21
403.16665999999992
 31
0.0
  0
LINE
  5
5B0
  8
0
  6
CONTINUOUS
 62
     7
 10
-360.19299000000001
 20
414.16665999999981
 30
0.0
 11
-328.19299000000001
 21
414.16665999999981
 31
0.0
  0
LINE
  5
5B1
  8
0
  6
CONTINUOUS
 62
     7
 10
-370.19299000000001
 20
433.16665999999998
 30
0.0
 11
-368.19299000000001
 21
433.16665999999998
 31
0.0
  0
LINE
  5
5B2
  8
0
  6
CONTINUOUS
 62
     7
 10
-328.19299000000001
 20
432.16669000000002
 30
0.0
 11
-328.19299000000001
 21
404.16669000000002
 31
0.0
  0
LINE
  5
5B3
  8
0
  6
CONTINUOUS
 62
     7
 10
-208.1728099999998
 20
188.57723999999999
 30
0.0
 11
-202.8387899999999
 21
186.36780999999991
 31
0.0
  0
LINE
  5
5B4
  8
0
  6
CONTINUOUS
 62
     7
 10
-208.92639
 20
194.30135999999999
 30
0.0
 11
-208.1728099999998
 21
188.57725999999991
 31
0.0
  0
LINE
  5
5B5
  8
0
  6
CONTINUOUS
 62
     7
 10
-204.34595999999991
 20
197.81605999999999
 30
0.0
 11
-208.92641
 21
194.30135999999999
 31
0.0
  0
LINE
  5
5B6
  8
0
  6
CONTINUOUS
 62
     7
 10
-199.0119599999999
 20
195.6066099999999
 30
0.0
 11
-204.34597999999991
 21
197.8160199999999
 31
0.0
  0
LINE
  5
5B7
  8
0
  6
CONTINUOUS
 62
     7
 10
-198.25836000000001
 20
189.88252
 30
0.0
 11
-199.01195000000001
 21
195.60662999999991
 31
0.0
  0
LINE
  5
5B8
  8
0
  6
CONTINUOUS
 62
     7
 10
-91.549895999999961
 20
195.6065199999999
 30
0.0
 11
-92.303489999999996
 21
189.88241999999991
 31
0.0
  0
LINE
  5
5B9
  8
0
  6
CONTINUOUS
 62
     7
 10
-92.303466999999998
 20
189.88243
 30
0.0
 11
-87.723044999999999
 21
186.36775
 31
0.0
  0
LINE
  5
5BA
  8
0
  6
CONTINUOUS
 62
     7
 10
-86.215851000000001
 20
197.81598999999991
 30
0.0
 11
-91.549873000000005
 21
195.60657
 31
0.0
  0
LINE
  5
5BB
  8
0
  6
CONTINUOUS
 62
     7
 10
-202.8387899999999
 20
186.36783
 30
0.0
 11
-198.25835000000001
 21
189.88252
 31
0.0
  0
LINE
  5
5BC
  8
0
  6
CONTINUOUS
 62
     7
 10
-81.635429000000016
 20
194.30127999999991
 30
0.0
 11
-86.215857999999983
 21
197.8159599999999
 31
0.0
  0
LINE
  5
5BD
  8
0
  6
CONTINUOUS
 62
     7
 10
-87.723044999999999
 20
186.36777000000001
 30
0.0
 11
-82.389015000000001
 21
188.5771899999998
 31
0.0
  0
LINE
  5
5BE
  8
0
  6
CENTER
 62
     1
 10
-145.2809399999999
 20
226.0885899999999
 30
0.0
 11
-145.2809399999999
 21
68.113669999999999
 31
0.0
  0
LINE
  5
5BF
  8
0
  6
CENTER
 62
     1
 10
-325.73205999999988
 20
167.34792999999991
 30
0.0
 11
-455.22994999999997
 21
167.34792999999991
 31
0.0
  0
LINE
  5
5C0
  8
0
  6
CONTINUOUS
 62
     7
 10
-360.19299000000001
 20
184.34794999999991
 30
0.0
 11
-360.19299000000001
 21
181.34794999999991
 31
0.0
  0
LINE
  5
5C1
  8
0
  6
CONTINUOUS
 62
     7
 10
-370.19299000000001
 20
182.34792999999991
 30
0.0
 11
-368.19296000000003
 21
182.34792999999991
 31
0.0
  0
LINE
  5
5C2
  8
0
  6
CENTER
 62
     1
 10
-182.44952000000001
 20
167.34792999999991
 30
0.0
 11
-109.5836199999999
 21
167.34792999999991
 31
0.0
  0
LINE
  5
5C3
  8
0
  6
CONTINUOUS
 62
     7
 10
-360.19299000000001
 20
184.34794999999991
 30
0.0
 11
-328.19299000000001
 21
184.34794999999991
 31
0.0
  0
LINE
  5
5C4
  8
0
  6
CONTINUOUS
 62
     7
 10
-328.19299000000001
 20
184.34794999999991
 30
0.0
 11
-328.19299000000001
 21
153.34795
 31
0.0
  0
LINE
  5
5C5
  8
0
  6
CONTINUOUS
 62
     7
 10
-370.19299000000001
 20
152.34792999999991
 30
0.0
 11
-368.19296000000003
 21
152.34792999999991
 31
0.0
  0
LINE
  5
5C6
  8
0
  6
CONTINUOUS
 62
     7
 10
-368.19296000000003
 20
181.34794999999991
 30
0.0
 11
-328.19299000000001
 21
181.34794999999991
 31
0.0
  0
LINE
  5
5C7
  8
0
  6
CONTINUOUS
 62
     7
 10
-368.19296000000003
 20
182.34792999999991
 30
0.0
 11
-368.19296000000003
 21
152.34792999999991
 31
0.0
  0
LINE
  5
5C8
  8
0
  6
CONTINUOUS
 62
     7
 10
-368.19296000000003
 20
153.34795
 30
0.0
 11
-328.19299000000001
 21
153.34795
 31
0.0
  0
LINE
  5
5C9
  8
0
  6
CONTINUOUS
 62
     7
 10
-178.74225000000001
 20
81.652237
 30
0.0
 11
-177.98865000000001
 21
75.928130999999979
 31
0.0
  0
LINE
  5
5CA
  8
0
  6
CONTINUOUS
 62
     7
 10
-177.98861999999991
 20
75.928116000000003
 30
0.0
 11
-172.6545999999999
 21
73.718688999999983
 31
0.0
  0
LINE
  5
5CB
  8
0
  6
CONTINUOUS
 62
     7
 10
-174.1618
 20
85.166915999999986
 30
0.0
 11
-178.7422199999998
 21
81.652237
 31
0.0
  0
LINE
  5
5CC
  8
0
  6
CONTINUOUS
 62
     7
 10
-168.8277699999999
 20
82.957488999999967
 30
0.0
 11
-174.16179
 21
85.166907999999964
 31
0.0
  0
LINE
  5
5CD
  8
0
  6
CONTINUOUS
 62
     7
 10
-172.65461999999999
 20
73.718711999999982
 30
0.0
 11
-168.0741899999999
 21
77.233397999999966
 31
0.0
  0
LINE
  5
5CE
  8
0
  6
CONTINUOUS
 62
     7
 10
-168.0741899999999
 20
77.233390999999983
 30
0.0
 11
-168.82778999999991
 21
82.957497000000004
 31
0.0
  0
LINE
  5
5CF
  8
0
  6
CONTINUOUS
 62
     7
 10
-112.5732399999999
 20
75.928130999999979
 30
0.0
 11
-111.81965
 21
81.652237
 31
0.0
  0
LINE
  5
5D0
  8
0
  6
CONTINUOUS
 62
     7
 10
-117.90724999999991
 20
73.718711999999982
 30
0.0
 11
-112.57321999999991
 21
75.928139000000002
 31
0.0
  0
LINE
  5
5D1
  8
0
  6
CONTINUOUS
 62
     7
 10
-111.81965
 20
81.652229000000005
 30
0.0
 11
-116.4000799999999
 21
85.166907999999964
 31
0.0
  0
LINE
  5
5D2
  8
0
  6
CONTINUOUS
 62
     7
 10
-116.40004999999979
 20
85.16692399999998
 30
0.0
 11
-121.73408000000001
 21
82.957497000000004
 31
0.0
  0
LINE
  5
5D3
  8
0
  6
CONTINUOUS
 62
     7
 10
-122.4876899999999
 20
77.233383000000003
 30
0.0
 11
-117.90725999999999
 21
73.718696999999963
 31
0.0
  0
LINE
  5
5D4
  8
0
  6
CONTINUOUS
 62
     7
 10
-121.73411
 20
82.957504000000014
 30
0.0
 11
-122.4876999999999
 21
77.233390999999983
 31
0.0
  0
LINE
  5
5D5
  8
0
  6
CONTINUOUS
 62
     7
 10
-423.19298999999978
 20
197.86543
 30
0.0
 11
-420.19299000000001
 21
197.86543
 31
0.0
  0
LINE
  5
5D6
  8
0
  6
CONTINUOUS
 62
     7
 10
-423.19298999999978
 20
186.31842
 30
0.0
 11
-420.19299000000001
 21
186.31842
 31
0.0
  0
LINE
  5
5D7
  8
0
  6
CONTINUOUS
 62
     7
 10
-423.19298999999978
 20
189.2051699999999
 30
0.0
 11
-420.19299000000001
 21
189.2051699999999
 31
0.0
  0
LINE
  5
5D8
  8
0
  6
CONTINUOUS
 62
     7
 10
-423.19298999999978
 20
194.97866999999991
 30
0.0
 11
-420.19299000000001
 21
194.97866999999991
 31
0.0
  0
LINE
  5
5D9
  8
0
  6
CONTINUOUS
 62
     7
 10
-419.19298999999978
 20
187.3184099999998
 30
0.0
 11
-419.19298999999978
 21
196.86543
 31
0.0
  0
LINE
  5
5DA
  8
0
  6
CONTINUOUS
 62
     7
 10
-423.19298999999978
 20
198.86545000000001
 30
0.0
 11
-423.19298999999978
 21
185.31841
 31
0.0
  0
LINE
  5
5DB
  8
0
  6
CONTINUOUS
 62
     7
 10
-424.1929599999998
 20
198.86545000000001
 30
0.0
 11
-423.19298999999978
 21
198.86545000000001
 31
0.0
  0
LINE
  5
5DC
  8
0
  6
CONTINUOUS
 62
     7
 10
-424.1929599999998
 20
185.31841
 30
0.0
 11
-423.19298999999978
 21
185.31841
 31
0.0
  0
LINE
  5
5DD
  8
0
  6
CONTINUOUS
 62
     7
 10
-81.635474999999985
 20
194.30135000000001
 30
0.0
 11
-82.389068999999978
 21
188.57723999999999
 31
0.0
  0
LINE
  5
5DE
  8
0
  6
CONTINUOUS
 62
     7
 10
-421.19295999999991
 20
180.69664
 30
0.0
 11
-398.35827999999992
 21
180.69664
 31
0.0
  0
LINE
  5
5DF
  8
0
  6
CONTINUOUS
 62
     7
 10
-432.19298999999972
 20
154.56418999999991
 30
0.0
 11
-421.19295999999991
 21
154.56418999999991
 31
0.0
  0
LINE
  5
5E0
  8
0
  6
CONTINUOUS
 62
     7
 10
-408.36339999999979
 20
180.69666000000001
 30
0.0
 11
-421.19301999999999
 21
154.56421
 31
0.0
  0
LINE
  5
5E1
  8
0
  6
CONTINUOUS
 62
     7
 10
-421.19295999999991
 20
180.69664
 30
0.0
 11
-421.19295999999991
 21
154.56418999999991
 31
0.0
  0
LINE
  5
5E2
  8
0
  6
CONTINUOUS
 62
     7
 10
-421.19299000000001
 20
217.9027899999999
 30
0.0
 11
-407.61104999999992
 21
198.8754099999999
 31
0.0
  0
LINE
  5
5E3
  8
0
  6
CONTINUOUS
 62
     7
 10
-421.19295999999991
 20
217.9027899999999
 30
0.0
 11
-421.19295999999991
 21
198.87540000000001
 31
0.0
  0
LINE
  5
5E4
  8
0
  6
CONTINUOUS
 62
     7
 10
-372.19301999999999
 20
139.69324
 30
0.0
 11
-371.19299000000001
 21
140.2706
 31
0.0
  0
LINE
  5
5E5
  8
0
  6
CONTINUOUS
 62
     7
 10
-372.19296000000003
 20
195.0026399999999
 30
0.0
 11
-371.19299000000001
 21
194.42528999999999
 31
0.0
  0
LINE
  5
5E6
  8
0
  6
CONTINUOUS
 62
     7
 10
-424.1929599999998
 20
203.8747299999998
 30
0.0
 11
-424.1929599999998
 21
180.97266999999991
 31
0.0
  0
LINE
  5
5E7
  8
0
  6
CONTINUOUS
 62
     7
 10
-438.35247999999979
 20
88.310431999999963
 30
0.0
 11
-432.30181999999991
 21
116.8349
 31
0.0
  0
LINE
  5
5E8
  8
0
  6
CONTINUOUS
 62
     7
 10
-395.19296000000003
 20
72.347960999999998
 30
0.0
 11
-395.19296000000003
 21
72.347960999999998
 31
0.0
  0
LINE
  5
5E9
  8
0
  6
CONTINUOUS
 62
     7
 10
-97.280945000000003
 20
152.34792999999991
 30
0.0
 11
-97.280945000000003
 21
89.347938999999982
 31
0.0
  0
LINE
  5
5EA
  8
0
  6
CONTINUOUS
 62
     7
 10
-193.28093999999999
 20
152.34792999999991
 30
0.0
 11
-193.28093999999999
 21
89.347938999999982
 31
0.0
  0
LINE
  5
5EB
  8
0
  6
CONTINUOUS
 62
     1
 10
-198.28093000000001
 20
182.60047999999981
 30
0.0
 11
-198.28093000000001
 21
121.34793000000001
 31
0.0
  0
LINE
  5
5EC
  8
0
  6
CONTINUOUS
 62
     7
 10
-391.19299000000001
 20
185.13873000000001
 30
0.0
 11
-386.19296000000003
 21
185.13873000000001
 31
0.0
  0
LINE
  5
5ED
  8
0
  6
CONTINUOUS
 62
     7
 10
-67.280944999999988
 20
72.347960999999998
 30
0.0
 11
-67.280944999999988
 21
84.347945999999979
 31
0.0
  0
LINE
  5
5EE
  8
0
  6
CONTINUOUS
 62
     1
 10
-92.280952000000013
 20
182.60047999999981
 30
0.0
 11
-92.280952000000013
 21
121.34793000000001
 31
0.0
  0
LINE
  5
5EF
  8
0
  6
CONTINUOUS
 62
     7
 10
-193.28093999999999
 20
72.347960999999998
 30
0.0
 11
-193.28093999999999
 21
82.347954000000016
 31
0.0
  0
LINE
  5
5F0
  8
0
  6
CONTINUOUS
 62
     7
 10
-184.2809399999999
 20
84.347945999999979
 30
0.0
 11
-184.2809399999999
 21
78.347945999999979
 31
0.0
  0
LINE
  5
5F1
  8
0
  6
CONTINUOUS
 62
     7
 10
-399.19299000000001
 20
99.388756000000015
 30
0.0
 11
-390.19299000000001
 21
99.388756000000015
 31
0.0
  0
LINE
  5
5F2
  8
0
  6
CONTINUOUS
 62
     7
 10
-95.280951999999999
 20
84.347945999999979
 30
0.0
 11
-69.280936999999994
 21
84.347945999999979
 31
0.0
  0
LINE
  5
5F3
  8
0
  6
CONTINUOUS
 62
     7
 10
-67.280944999999988
 20
72.347960999999998
 30
0.0
 11
-97.280945000000003
 21
72.347960999999998
 31
0.0
  0
LINE
  5
5F4
  8
0
  6
DASHED
 62
     7
 10
-74.280945000000003
 20
84.347945999999979
 30
0.0
 11
-74.280945000000003
 21
72.347960999999998
 31
0.0
  0
LINE
  5
5F5
  8
0
  6
CONTINUOUS
 62
     7
 10
-386.19296000000003
 20
212.19402999999991
 30
0.0
 11
-386.19296000000003
 21
103.38874
 31
0.0
  0
LINE
  5
5F6
  8
0
  6
CONTINUOUS
 62
     7
 10
-223.2809399999999
 20
84.347945999999979
 30
0.0
 11
-212.51252999999991
 21
186.97811999999999
 31
0.0
  0
LINE
  5
5F7
  8
0
  6
CONTINUOUS
 62
     7
 10
-399.19299000000001
 20
177.1387499999999
 30
0.0
 11
-399.19299000000001
 21
89.347938999999982
 31
0.0
  0
LINE
  5
5F8
  8
0
  6
CONTINUOUS
 62
     7
 10
-439.19296000000003
 20
72.347960999999998
 30
0.0
 11
-439.19296000000003
 21
72.347960999999998
 31
0.0
  0
LINE
  5
5F9
  8
0
  6
DASHED
 62
     7
 10
-388.19299000000001
 20
84.347945999999979
 30
0.0
 11
-388.19299000000001
 21
72.347960999999998
 31
0.0
  0
LINE
  5
5FA
  8
0
  6
CONTINUOUS
 62
     7
 10
-421.19295999999991
 20
198.87540000000001
 30
0.0
 11
-386.19296000000003
 21
198.87540000000001
 31
0.0
  0
LINE
  5
5FB
  8
0
  6
DASHED
 62
     7
 10
-86.280951999999999
 20
84.347945999999979
 30
0.0
 11
-86.280951999999999
 21
72.347960999999998
 31
0.0
  0
LINE
  5
5FC
  8
0
  6
DASHED
 62
     7
 10
-376.19299000000001
 20
84.347945999999979
 30
0.0
 11
-376.19299000000001
 21
72.347960999999998
 31
0.0
  0
LINE
  5
5FD
  8
0
  6
CONTINUOUS
 62
     7
 10
-394.19299000000001
 20
84.347945999999979
 30
0.0
 11
-372.19299000000001
 21
84.347945999999979
 31
0.0
  0
LINE
  5
5FE
  8
0
  6
CONTINUOUS
 62
     7
 10
-432.19298999999972
 20
154.56418999999991
 30
0.0
 11
-432.19298999999972
 21
117.87241
 31
0.0
  0
LINE
  5
5FF
  8
0
  6
CONTINUOUS
 62
     7
 10
-195.28093000000001
 20
84.347945999999979
 30
0.0
 11
-221.2809399999999
 21
84.347945999999979
 31
0.0
  0
LINE
  5
600
  8
0
  6
CONTINUOUS
 62
     7
 10
-223.2809399999999
 20
72.347960999999998
 30
0.0
 11
-193.28093999999999
 21
72.347960999999998
 31
0.0
  0
LINE
  5
601
  8
0
  6
CONTINUOUS
 62
     7
 10
-223.2809399999999
 20
72.347960999999998
 30
0.0
 11
-223.2809399999999
 21
84.347945999999979
 31
0.0
  0
LINE
  5
602
  8
0
  6
DASHED
 62
     7
 10
-216.2809299999999
 20
84.347945999999979
 30
0.0
 11
-216.2809299999999
 21
72.347960999999998
 31
0.0
  0
LINE
  5
603
  8
0
  6
DASHED
 62
     7
 10
-204.28093000000001
 20
84.347945999999979
 30
0.0
 11
-204.28093000000001
 21
72.347960999999998
 31
0.0
  0
LINE
  5
604
  8
0
  6
DASHED
 62
     7
 10
-458.19295999999991
 20
84.347945999999979
 30
0.0
 11
-458.19295999999991
 21
72.347960999999998
 31
0.0
  0
LINE
  5
605
  8
0
  6
DASHED
 62
     7
 10
-446.19295999999991
 20
84.347945999999979
 30
0.0
 11
-446.19295999999991
 21
72.347960999999998
 31
0.0
  0
LINE
  5
606
  8
0
  6
CONTINUOUS
 62
     7
 10
-370.19299000000001
 20
82.347931000000003
 30
0.0
 11
-370.19299000000001
 21
72.347960999999998
 31
0.0
  0
LINE
  5
607
  8
0
  6
CONTINUOUS
 62
     7
 10
-438.19299000000001
 20
73.347945999999979
 30
0.0
 11
-396.19299000000001
 21
73.347945999999979
 31
0.0
  0
LINE
  5
608
  8
0
  6
CONTINUOUS
 62
     7
 10
-464.19296000000003
 20
82.347931000000003
 30
0.0
 11
-464.19296000000003
 21
72.347960999999998
 31
0.0
  0
LINE
  5
609
  8
0
  6
CONTINUOUS
 62
     7
 10
-373.19299000000001
 20
197.59895
 30
0.0
 11
-373.19299000000001
 21
88.092499000000004
 31
0.0
  0
LINE
  5
60A
  8
0
  6
CONTINUOUS
 62
     7
 10
-381.62880999999987
 20
201.08597999999989
 30
0.0
 11
-375.93155000000002
 21
200.5875399999999
 31
0.0
  0
LINE
  5
60B
  8
0
  6
CONTINUOUS
 62
     7
 10
-435.19299000000001
 20
218.34792999999999
 30
0.0
 11
-391.06212999999991
 21
217.19232
 31
0.0
  0
LINE
  5
60C
  8
0
  6
CONTINUOUS
 62
     7
 10
-435.19299000000001
 20
218.34792999999999
 30
0.0
 11
-435.19299000000001
 21
103.2050899999999
 31
0.0
  0
LINE
  5
60D
  8
0
  6
CENTER
 62
     7
 10
-452.19295999999991
 20
86.361000000000004
 30
0.0
 11
-452.19295999999991
 21
70.347960999999998
 31
0.0
  0
LINE
  5
60E
  8
0
  6
CONTINUOUS
 62
     7
 10
-395.19296000000003
 20
72.347960999999998
 30
0.0
 11
-370.19299000000001
 21
72.347960999999998
 31
0.0
  0
LINE
  5
60F
  8
0
  6
CONTINUOUS
 62
     7
 10
-462.19299000000001
 20
84.347945999999979
 30
0.0
 11
-443.24362000000002
 21
84.347945999999979
 31
0.0
  0
LINE
  5
610
  8
0
  6
CONTINUOUS
 62
     7
 10
-464.19296000000003
 20
72.347960999999998
 30
0.0
 11
-439.19296000000003
 21
72.347960999999998
 31
0.0
  0
LINE
  5
611
  8
0
  6
CENTER
 62
     7
 10
-382.19299000000001
 20
86.361000000000004
 30
0.0
 11
-382.19299000000001
 21
70.347960999999998
 31
0.0
  0
LINE
  5
612
  8
0
  6
CONTINUOUS
 62
     7
 10
-179.2809399999999
 20
89.347938999999982
 30
0.0
 11
-111.2809399999999
 21
89.347938999999982
 31
0.0
  0
LINE
  5
613
  8
0
  6
CENTER
 62
     1
 10
-80.280944999999988
 20
88.893402000000023
 30
0.0
 11
-80.280944999999988
 21
67.802505000000011
 31
0.0
  0
LINE
  5
614
  8
0
  6
CONTINUOUS
 62
     7
 10
-106.2809399999999
 20
84.347945999999979
 30
0.0
 11
-106.2809399999999
 21
78.347945999999979
 31
0.0
  0
LINE
  5
615
  8
0
  6
CENTER
 62
     1
 10
-210.28095999999999
 20
88.893402000000023
 30
0.0
 11
-210.28095999999999
 21
67.802505000000011
 31
0.0
  0
LINE
  5
616
  8
0
  6
CONTINUOUS
 62
     7
 10
-97.280945000000003
 20
72.347960999999998
 30
0.0
 11
-97.280945000000003
 21
82.347954000000016
 31
0.0
  0
LINE
  5
617
  8
0
  6
CONTINUOUS
 62
     7
 10
-187.2809399999999
 20
75.347945999999965
 30
0.0
 11
-191.28093999999999
 21
75.347945999999965
 31
0.0
  0
LINE
  5
618
  8
0
  6
CONTINUOUS
 62
     7
 10
-98.280951999999985
 20
73.347968999999964
 30
0.0
 11
-192.28093000000001
 21
73.347968999999964
 31
0.0
  0
LINE
  5
619
  8
0
  6
CONTINUOUS
 62
     7
 10
-99.280936999999994
 20
75.347945999999965
 30
0.0
 11
-103.28094
 21
75.347945999999965
 31
0.0
  0
LINE
  5
61A
  8
0
  6
CONTINUOUS
 62
     7
 10
-67.280944999999988
 20
84.347954000000001
 30
0.0
 11
-78.049369999999982
 21
186.97812999999991
 31
0.0
  0
LINE
  5
61B
  8
0
  6
CONTINUOUS
 62
     7
 10
-370.19299000000001
 20
142.0026399999999
 30
0.0
 11
-370.19299000000001
 21
192.69324
 31
0.0
  0
LINE
  5
61C
  8
0
  6
CONTINUOUS
 62
     7
 10
-149.28093999999979
 20
184.34794999999991
 30
0.0
 11
-141.28095999999991
 21
184.34794999999991
 31
0.0
  0
LINE
  5
61D
  8
0
  6
CONTINUOUS
 62
     7
 10
-149.28093999999979
 20
177.34795
 30
0.0
 11
-141.28095999999991
 21
177.34795
 31
0.0
  0
LINE
  5
61E
  8
0
  6
CONTINUOUS
 62
     7
 10
-141.28095999999991
 20
177.34795
 30
0.0
 11
-141.28095999999991
 21
184.34794999999991
 31
0.0
  0
LINE
  5
61F
  8
0
  6
CONTINUOUS
 62
     7
 10
-149.28093999999979
 20
177.34795
 30
0.0
 11
-149.28093999999979
 21
184.34794999999991
 31
0.0
  0
LINE
  5
620
  8
0
  6
CONTINUOUS
 62
     7
 10
-472.19296000000003
 20
210.84792999999991
 30
0.0
 11
-444.14058999999992
 21
211.58250000000001
 31
0.0
  0
LINE
  5
621
  8
0
  6
CONTINUOUS
 62
     7
 10
-442.19295999999991
 20
216.34795
 30
0.0
 11
-442.19295999999991
 21
200.84792999999991
 31
0.0
  0
LINE
  5
622
  8
0
  6
CONTINUOUS
 62
     7
 10
-447.19299000000001
 20
196.84794999999991
 30
0.0
 11
-447.19299000000001
 21
182.21526
 31
0.0
  0
LINE
  5
623
  8
0
  6
CONTINUOUS
 62
     7
 10
-472.19301999999999
 20
83.847953999999987
 30
0.0
 11
-464.19299000000001
 21
83.63846599999998
 31
0.0
  0
LINE
  5
624
  8
0
  6
CONTINUOUS
 62
     7
 10
-440.1929599999998
 20
218.34792999999999
 30
0.0
 11
-435.19299000000001
 21
218.34792999999999
 31
0.0
  0
LINE
  5
625
  8
0
  6
CENTER
 62
     7
 10
-646.27465999999981
 20
147.34795
 30
0.0
 11
-423.33141999999992
 21
147.34795
 31
0.0
  0
LINE
  5
626
  8
0
  6
CONTINUOUS
 62
     7
 10
-447.19299000000001
 20
91.717940999999996
 30
0.0
 11
-442.71303999999998
 21
91.717940999999996
 31
0.0
  0
LINE
  5
627
  8
0
  6
CONTINUOUS
 62
     7
 10
-445.1929599999998
 20
84.750870000000006
 30
0.0
 11
-444.19298999999978
 21
84.750870000000006
 31
0.0
  0
LINE
  5
628
  8
0
  6
CONTINUOUS
 62
     7
 10
-447.19299000000001
 20
180.21526
 30
0.0
 11
-442.75232
 21
180.21526
 31
0.0
  0
LINE
  5
629
  8
0
  6
CONTINUOUS
 62
     7
 10
-442.19295999999991
 20
189.73596000000001
 30
0.0
 11
-442.19295999999991
 21
86.750884999999997
 31
0.0
  0
LINE
  5
62A
  8
0
  6
CONTINUOUS
 62
     7
 10
-447.19299000000001
 20
89.717926000000006
 30
0.0
 11
-447.19299000000001
 21
84.347945999999979
 31
0.0
  0
LINE
  5
62B
  8
0
  6
CONTINUOUS
 62
     7
 10
-445.1929599999998
 20
189.73596000000001
 30
0.0
 11
-442.19295999999991
 21
189.73596000000001
 31
0.0
  0
LINE
  5
62C
  8
0
  6
CONTINUOUS
 62
     7
 10
-445.1929599999998
 20
198.84792999999999
 30
0.0
 11
-444.19298999999978
 21
198.84792999999999
 31
0.0
  0
LINE
  5
62D
  8
0
  6
CONTINUOUS
 62
     7
 10
-472.19296000000003
 20
184.49588
 30
0.0
 11
-447.19299000000001
 21
184.49588
 31
0.0
  0
LINE
  5
62E
  8
0
  6
CONTINUOUS
 62
     7
 10
-472.19296000000003
 20
110.20001000000001
 30
0.0
 11
-442.19295999999991
 21
110.20001000000001
 31
0.0
  0
LINE
  5
62F
  8
0
  6
CENTER
 62
     7
 10
-212.37982
 20
147.34795
 30
0.0
 11
-79.165222
 21
147.34795
 31
0.0
  0
LINE
  5
630
  8
0
  6
CONTINUOUS
 62
     7
 10
-472.19296000000003
 20
210.84791999999999
 30
0.0
 11
-472.19296000000003
 21
83.847884999999977
 31
0.0
  0
LINE
  5
631
  8
0
  6
CONTINUOUS
 62
     7
 10
-217.29079999999999
 20
180.84792999999991
 30
0.0
 11
-237.29082
 21
180.84792999999991
 31
0.0
  0
LINE
  5
632
  8
0
  6
CONTINUOUS
 62
     7
 10
-242.29082
 20
177.34795
 30
0.0
 11
-223.79082
 21
177.34795
 31
0.0
  0
LINE
  5
633
  8
0
  6
CONTINUOUS
 62
     7
 10
-245.29082
 20
129.54793999999981
 30
0.0
 11
-245.29082
 21
165.15793999999991
 31
0.0
  0
LINE
  5
634
  8
0
  6
CONTINUOUS
 62
     7
 10
-242.29079999999999
 20
124.34793999999999
 30
0.0
 11
-245.2907999999999
 21
129.54793999999981
 31
0.0
  0
LINE
  5
635
  8
0
  6
CONTINUOUS
 62
     7
 10
-217.29079999999999
 20
141.43781000000001
 30
0.0
 11
-217.29079999999999
 21
180.84792999999991
 31
0.0
  0
LINE
  5
636
  8
0
  6
CONTINUOUS
 62
     7
 10
-554.19292999999993
 20
124.34795
 30
0.0
 11
-554.19292999999993
 21
164.36794
 31
0.0
  0
LINE
  5
637
  8
0
  6
CONTINUOUS
 62
     7
 10
-579.69292999999982
 20
154.84795
 30
0.0
 11
-579.69292999999982
 21
178.84795
 31
0.0
  0
LINE
  5
638
  8
0
  6
CONTINUOUS
 62
     7
 10
-555.82294000000002
 20
169.84794999999991
 30
0.0
 11
-551.61297999999977
 21
169.84794999999991
 31
0.0
  0
LINE
  5
639
  8
0
  6
CONTINUOUS
 62
     3
 10
-633.69292999999982
 20
132.1979399999999
 30
0.0
 11
-629.11297999999999
 21
132.1979399999999
 31
0.0
  0
LINE
  5
63A
  8
0
  6
CONTINUOUS
 62
     3
 10
-622.92296999999985
 20
141.0779599999999
 30
0.0
 11
-581.69298999999978
 21
141.0779599999999
 31
0.0
  0
LINE
  5
63B
  8
0
  6
CONTINUOUS
 62
     3
 10
-486.85299999999989
 20
113.3479399999998
 30
0.0
 11
-531.1929899999999
 21
113.3479399999998
 31
0.0
  0
LINE
  5
63C
  8
0
  6
CONTINUOUS
 62
     3
 10
-579.69292999999982
 20
121.34795
 30
0.0
 11
-621.64293999999995
 21
121.34795
 31
0.0
  0
LINE
  5
63D
  8
0
  6
CONTINUOUS
 62
     3
 10
-622.73297000000002
 20
123.78795
 30
0.0
 11
-579.69292999999982
 21
123.78795
 31
0.0
  0
LINE
  5
63E
  8
0
  6
CONTINUOUS
 62
     3
 10
-579.69292999999982
 20
123.34795
 30
0.0
 11
-621.64293999999995
 21
123.34795
 31
0.0
  0
LINE
  5
63F
  8
0
  6
CONTINUOUS
 62
     3
 10
-622.86297999999999
 20
131.0079299999999
 30
0.0
 11
-579.69292999999982
 21
131.0079299999999
 31
0.0
  0
LINE
  5
640
  8
0
  6
CONTINUOUS
 62
     3
 10
-579.69292999999982
 20
131.34794999999991
 30
0.0
 11
-621.64293999999995
 21
131.34794999999991
 31
0.0
  0
LINE
  5
641
  8
0
  6
CONTINUOUS
 62
     3
 10
-500.89296999999999
 20
114.9779399999999
 30
0.0
 11
-500.89296999999999
 21
116.07795
 31
0.0
  0
LINE
  5
642
  8
0
  6
CONTINUOUS
 62
     3
 10
-483.37299000000002
 20
113.9779399999998
 30
0.0
 11
-499.89296999999988
 21
113.9779399999998
 31
0.0
  0
LINE
  5
643
  8
0
  6
CONTINUOUS
 62
     3
 10
-633.69292999999982
 20
162.49796000000001
 30
0.0
 11
-629.41295999999966
 21
162.49796000000001
 31
0.0
  0
LINE
  5
644
  8
0
  6
CONTINUOUS
 62
     3
 10
-622.86297999999999
 20
133.66794999999999
 30
0.0
 11
-579.69292999999982
 21
133.66794999999999
 31
0.0
  0
LINE
  5
645
  8
0
  6
CONTINUOUS
 62
     7
 10
-559.19299000000001
 20
180.84792999999991
 30
0.0
 11
-559.19299000000001
 21
177.34795
 31
0.0
  0
LINE
  5
646
  8
0
  6
CONTINUOUS
 62
     7
 10
-574.19299000000001
 20
180.84792999999991
 30
0.0
 11
-559.19299000000001
 21
180.84792999999991
 31
0.0
  0
LINE
  5
647
  8
0
  6
CONTINUOUS
 62
     3
 10
-581.69298999999978
 20
143.34794999999991
 30
0.0
 11
-621.64293999999995
 21
143.34794999999991
 31
0.0
  0
LINE
  5
648
  8
0
  6
CONTINUOUS
 62
     3
 10
-581.69298999999978
 20
141.34795
 30
0.0
 11
-621.64293999999995
 21
141.34795
 31
0.0
  0
LINE
  5
649
  8
0
  6
CONTINUOUS
 62
     3
 10
-622.92296999999985
 20
143.61795000000001
 30
0.0
 11
-581.69298999999978
 21
143.61795000000001
 31
0.0
  0
LINE
  5
64A
  8
0
  6
CONTINUOUS
 62
     3
 10
-499.92293999999993
 20
177.6179699999999
 30
0.0
 11
-490.42297000000002
 21
177.3479599999998
 31
0.0
  0
LINE
  5
64B
  8
0
  6
CONTINUOUS
 62
     3
 10
-500.89296999999999
 20
179.71794
 30
0.0
 11
-500.89296999999999
 21
178.61793999999981
 31
0.0
  0
LINE
  5
64C
  8
0
  6
CONTINUOUS
 62
     3
 10
-483.37299000000002
 20
180.71795999999981
 30
0.0
 11
-499.89296999999988
 21
180.71795999999981
 31
0.0
  0
LINE
  5
64D
  8
0
  6
CONTINUOUS
 62
     3
 10
-606.1929899999999
 20
184.58794
 30
0.0
 11
-606.1929899999999
 21
184.5179399999999
 31
0.0
  0
LINE
  5
64E
  8
0
  6
CONTINUOUS
 62
     3
 10
-622.92296999999985
 20
151.08794
 30
0.0
 11
-581.69298999999978
 21
151.08794
 31
0.0
  0
LINE
  5
64F
  8
0
  6
CONTINUOUS
 62
     3
 10
-622.92296999999985
 20
153.61793999999981
 30
0.0
 11
-581.69298999999978
 21
153.61793999999981
 31
0.0
  0
LINE
  5
650
  8
0
  6
CONTINUOUS
 62
     3
 10
-622.86297999999999
 20
161.02794
 30
0.0
 11
-579.69292999999982
 21
161.02794
 31
0.0
  0
LINE
  5
651
  8
0
  6
CONTINUOUS
 62
     3
 10
-622.86297999999999
 20
163.68796
 30
0.0
 11
-579.69292999999982
 21
163.68796
 31
0.0
  0
LINE
  5
652
  8
0
  6
CONTINUOUS
 62
     3
 10
-613.73297000000002
 20
170.90794
 30
0.0
 11
-579.69292999999982
 21
170.90794
 31
0.0
  0
LINE
  5
653
  8
0
  6
CONTINUOUS
 62
     3
 10
-613.73297000000002
 20
173.83795000000001
 30
0.0
 11
-579.69292999999982
 21
173.83795000000001
 31
0.0
  0
LINE
  5
654
  8
0
  6
CONTINUOUS
 62
     3
 10
-613.51300000000003
 20
180.71795999999981
 30
0.0
 11
-574.19299000000001
 21
180.71795999999981
 31
0.0
  0
LINE
  5
655
  8
0
  6
CONTINUOUS
 62
     3
 10
-613.51300000000003
 20
184.0679299999999
 30
0.0
 11
-483.37299000000002
 21
184.0679299999999
 31
0.0
  0
LINE
  5
656
  8
0
  6
CONTINUOUS
 62
     3
 10
-531.1929899999999
 20
113.3479399999998
 30
0.0
 11
-621.20294000000001
 21
113.3479399999998
 31
0.0
  0
LINE
  5
657
  8
0
  6
CONTINUOUS
 62
     3
 10
-622.73297000000002
 20
120.8579399999998
 30
0.0
 11
-579.69292999999982
 21
120.8579399999998
 31
0.0
  0
LINE
  5
658
  8
0
  6
CONTINUOUS
 62
     3
 10
-604.19299000000001
 20
83.457938999999982
 30
0.0
 11
-551.19292999999993
 21
83.457938999999982
 31
0.0
  0
LINE
  5
659
  8
0
  6
CONTINUOUS
 62
     3
 10
-622.98302999999964
 20
90.667938000000007
 30
0.0
 11
-623.94299000000001
 21
95.127953000000005
 31
0.0
  0
LINE
  5
65A
  8
0
  6
CONTINUOUS
 62
     3
 10
-625.40301999999986
 20
96.317939999999993
 30
0.0
 11
-622.99297999999976
 21
96.317939999999993
 31
0.0
  0
LINE
  5
65B
  8
0
  6
CONTINUOUS
 62
     3
 10
-625.38300000000004
 20
92.247940000000014
 30
0.0
 11
-623.3229399999999
 21
92.247940000000014
 31
0.0
  0
LINE
  5
65C
  8
0
  6
CONTINUOUS
 62
     3
 10
-604.19299000000001
 20
82.107947999999979
 30
0.0
 11
-551.19292999999993
 21
82.107947999999979
 31
0.0
  0
LINE
  5
65D
  8
0
  6
CONTINUOUS
 62
     3
 10
-627.1929899999999
 20
104.6579399999999
 30
0.0
 11
-617.19292999999982
 21
104.6579399999999
 31
0.0
  0
LINE
  5
65E
  8
0
  6
CONTINUOUS
 62
     3
 10
-621.05297999999959
 20
85.677956000000009
 30
0.0
 11
-607.69299000000001
 21
85.677956000000009
 31
0.0
  0
LINE
  5
65F
  8
0
  6
CONTINUOUS
 62
     3
 10
-604.19299000000001
 20
81.427940000000007
 30
0.0
 11
-551.19292999999993
 21
81.427940000000007
 31
0.0
  0
LINE
  5
660
  8
0
  6
CONTINUOUS
 62
     3
 10
-633.69292999999982
 20
130.06794999999991
 30
0.0
 11
-632.19292999999982
 21
130.06794999999991
 31
0.0
  0
LINE
  5
661
  8
0
  6
CONTINUOUS
 62
     3
 10
-633.69292999999982
 20
127.34795
 30
0.0
 11
-632.19299000000001
 21
127.21796000000001
 31
0.0
  0
LINE
  5
662
  8
0
  6
CONTINUOUS
 62
     3
 10
-633.69292999999982
 20
127.34795
 30
0.0
 11
-633.69292999999982
 21
147.34795
 31
0.0
  0
LINE
  5
663
  8
0
  6
CONTINUOUS
 62
     3
 10
-630.19299000000001
 20
111.95793999999979
 30
0.0
 11
-630.19299000000001
 21
113.01794
 31
0.0
  0
LINE
  5
664
  8
0
  6
CONTINUOUS
 62
     3
 10
-630.19299000000001
 20
121.7179399999998
 30
0.0
 11
-630.19299000000001
 21
123.0879399999998
 31
0.0
  0
LINE
  5
665
  8
0
  6
CONTINUOUS
 62
     3
 10
-630.19299000000001
 20
141.73795000000001
 30
0.0
 11
-630.19299000000001
 21
142.89796000000001
 31
0.0
  0
LINE
  5
666
  8
0
  6
CONTINUOUS
 62
     3
 10
-630.19299000000001
 20
131.7379599999999
 30
0.0
 11
-630.19299000000001
 21
132.95795000000001
 31
0.0
  0
LINE
  5
667
  8
0
  6
CONTINUOUS
 62
     3
 10
-628.19299000000001
 20
143.34794999999991
 30
0.0
 11
-631.1929899999999
 21
143.34794999999991
 31
0.0
  0
LINE
  5
668
  8
0
  6
CONTINUOUS
 62
     3
 10
-628.19299000000001
 20
141.34795
 30
0.0
 11
-631.1929899999999
 21
141.34795
 31
0.0
  0
LINE
  5
669
  8
0
  6
CONTINUOUS
 62
     3
 10
-628.19299000000001
 20
133.3479599999998
 30
0.0
 11
-631.1929899999999
 21
133.3479599999998
 31
0.0
  0
LINE
  5
66A
  8
0
  6
CONTINUOUS
 62
     3
 10
-628.19299000000001
 20
131.34794999999991
 30
0.0
 11
-631.1929899999999
 21
131.34794999999991
 31
0.0
  0
LINE
  5
66B
  8
0
  6
CONTINUOUS
 62
     3
 10
-628.19299000000001
 20
123.34795
 30
0.0
 11
-631.1929899999999
 21
123.34795
 31
0.0
  0
LINE
  5
66C
  8
0
  6
CONTINUOUS
 62
     3
 10
-628.19299000000001
 20
121.34795
 30
0.0
 11
-631.1929899999999
 21
121.34795
 31
0.0
  0
LINE
  5
66D
  8
0
  6
CONTINUOUS
 62
     3
 10
-630.33300999999994
 20
113.64798
 30
0.0
 11
-631.48302999999964
 21
114.00798
 31
0.0
  0
LINE
  5
66E
  8
0
  6
CONTINUOUS
 62
     3
 10
-630.04296999999985
 20
113.60795
 30
0.0
 11
-628.19299000000001
 21
113.60795
 31
0.0
  0
LINE
  5
66F
  8
0
  6
CONTINUOUS
 62
     3
 10
-630.38300000000004
 20
111.73796
 30
0.0
 11
-631.58294999999976
 21
112.25794999999999
 31
0.0
  0
LINE
  5
670
  8
0
  6
CONTINUOUS
 62
     3
 10
-629.99297999999999
 20
111.6579399999999
 30
0.0
 11
-627.89301
 21
111.6579399999999
 31
0.0
  0
LINE
  5
671
  8
0
  6
CONTINUOUS
 62
     3
 10
-632.19292999999982
 20
98.757935000000003
 30
0.0
 11
-632.19292999999982
 21
142.34796
 31
0.0
  0
LINE
  5
672
  8
0
  6
CONTINUOUS
 62
     3
 10
-627.1929899999999
 20
89.917946000000001
 30
0.0
 11
-627.1929899999999
 21
147.34795
 31
0.0
  0
LINE
  5
673
  8
0
  6
CONTINUOUS
 62
     3
 10
-483.39300999999989
 20
206.26796999999991
 30
0.0
 11
-481.95299999999992
 21
199.56794999999991
 31
0.0
  0
LINE
  5
674
  8
0
  6
CONTINUOUS
 62
     3
 10
-480.48296999999991
 20
198.38794999999999
 30
0.0
 11
-482.89296999999988
 21
198.38794999999999
 31
0.0
  0
LINE
  5
675
  8
0
  6
CONTINUOUS
 62
     3
 10
-485.48293999999981
 20
207.84792999999999
 30
0.0
 11
-480.19299000000001
 21
207.84792999999999
 31
0.0
  0
LINE
  5
676
  8
0
  6
CONTINUOUS
 62
     3
 10
-485.45294000000001
 20
207.72797999999989
 30
0.0
 11
-481.99294999999989
 21
194.80795000000001
 31
0.0
  0
LINE
  5
677
  8
0
  6
CONTINUOUS
 62
     3
 10
-581.69298999999978
 20
151.34795
 30
0.0
 11
-621.64293999999995
 21
151.34795
 31
0.0
  0
LINE
  5
678
  8
0
  6
CONTINUOUS
 62
     3
 10
-549.19299000000001
 20
211.26792999999989
 30
0.0
 11
-549.19299000000001
 21
209.20795000000001
 31
0.0
  0
LINE
  5
679
  8
0
  6
CONTINUOUS
 62
     3
 10
-581.69298999999978
 20
153.34795
 30
0.0
 11
-621.64293999999995
 21
153.34795
 31
0.0
  0
LINE
  5
67A
  8
0
  6
CONTINUOUS
 62
     3
 10
-579.69292999999982
 20
161.34792999999991
 30
0.0
 11
-621.64293999999995
 21
161.34792999999991
 31
0.0
  0
LINE
  5
67B
  8
0
  6
CONTINUOUS
 62
     3
 10
-606.1929899999999
 20
209.23793000000001
 30
0.0
 11
-606.1929899999999
 21
201.82795999999999
 31
0.0
  0
LINE
  5
67C
  8
0
  6
CONTINUOUS
 62
     3
 10
-579.69292999999982
 20
163.34794999999991
 30
0.0
 11
-621.64293999999995
 21
163.34794999999991
 31
0.0
  0
LINE
  5
67D
  8
0
  6
CONTINUOUS
 62
     3
 10
-623.02306999999985
 20
209.13797
 30
0.0
 11
-623.91309000000001
 21
205.60796999999999
 31
0.0
  0
LINE
  5
67E
  8
0
  6
CONTINUOUS
 62
     3
 10
-625.36297999999965
 20
204.46794
 30
0.0
 11
-623.71294999999986
 21
204.46794
 31
0.0
  0
LINE
  5
67F
  8
0
  6
CONTINUOUS
 62
     3
 10
-579.69292999999982
 20
171.34795
 30
0.0
 11
-612.64294000000007
 21
171.34795
 31
0.0
  0
LINE
  5
680
  8
0
  6
CONTINUOUS
 62
     3
 10
-623.00298999999995
 20
207.47797
 30
0.0
 11
-623.92302999999981
 21
203.59796
 31
0.0
  0
LINE
  5
681
  8
0
  6
CONTINUOUS
 62
     3
 10
-579.69292999999982
 20
173.34792999999991
 30
0.0
 11
-612.64294000000007
 21
173.34792999999991
 31
0.0
  0
LINE
  5
682
  8
0
  6
CONTINUOUS
 62
     3
 10
-486.85299999999989
 20
181.34794999999991
 30
0.0
 11
-612.64294000000007
 21
181.34794999999991
 31
0.0
  0
LINE
  5
683
  8
0
  6
CONTINUOUS
 62
     3
 10
-486.85299999999989
 20
183.34794999999991
 30
0.0
 11
-612.64294000000007
 21
183.34794999999991
 31
0.0
  0
LINE
  5
684
  8
0
  6
CONTINUOUS
 62
     3
 10
-625.38300000000004
 20
202.44794999999991
 30
0.0
 11
-623.3229399999999
 21
202.44794999999991
 31
0.0
  0
LINE
  5
685
  8
0
  6
CONTINUOUS
 62
     3
 10
-622.98302999999964
 20
204.03796
 30
0.0
 11
-623.94304999999997
 21
199.56796
 31
0.0
  0
LINE
  5
686
  8
0
  6
CONTINUOUS
 62
     3
 10
-625.40301999999986
 20
198.38794999999999
 30
0.0
 11
-622.99297999999976
 21
198.38794999999999
 31
0.0
  0
LINE
  5
687
  8
0
  6
CONTINUOUS
 62
     3
 10
-604.19299000000001
 20
211.23795000000001
 30
0.0
 11
-551.19292999999993
 21
211.23795000000001
 31
0.0
  0
LINE
  5
688
  8
0
  6
CONTINUOUS
 62
     3
 10
-604.19299000000001
 20
212.58794
 30
0.0
 11
-551.19292999999993
 21
212.58794
 31
0.0
  0
LINE
  5
689
  8
0
  6
CONTINUOUS
 62
     3
 10
-604.19299000000001
 20
213.2679399999999
 30
0.0
 11
-551.19292999999993
 21
213.2679399999999
 31
0.0
  0
LINE
  5
68A
  8
0
  6
CONTINUOUS
 62
     3
 10
-621.08300999999994
 20
210.6479299999998
 30
0.0
 11
-607.58300999999994
 21
210.6479299999998
 31
0.0
  0
LINE
  5
68B
  8
0
  6
CONTINUOUS
 62
     3
 10
-621.05297999999959
 20
209.01792999999989
 30
0.0
 11
-607.69299000000001
 21
209.01792999999989
 31
0.0
  0
LINE
  5
68C
  8
0
  6
CONTINUOUS
 62
     7
 10
-559.19299000000001
 20
113.84795
 30
0.0
 11
-574.19299000000001
 21
113.84795
 31
0.0
  0
LINE
  5
68D
  8
0
  6
CONTINUOUS
 62
     3
 10
-621.02295000000004
 20
205.61793999999989
 30
0.0
 11
-607.69299000000001
 21
205.61793999999989
 31
0.0
  0
LINE
  5
68E
  8
0
  6
CONTINUOUS
 62
     3
 10
-623.47302000000002
 20
195.69796999999991
 30
0.0
 11
-622.93297999999982
 21
198.68797000000001
 31
0.0
  0
LINE
  5
68F
  8
0
  6
CONTINUOUS
 62
     3
 10
-620.96294999999998
 20
200.3279599999999
 30
0.0
 11
-607.69299000000001
 21
200.3279599999999
 31
0.0
  0
LINE
  5
690
  8
0
  6
CONTINUOUS
 62
     3
 10
-604.19299000000001
 20
209.20795000000001
 30
0.0
 11
-487.38299999999981
 21
209.20795000000001
 31
0.0
  0
LINE
  5
691
  8
0
  6
CONTINUOUS
 62
     7
 10
-574.19299000000001
 20
113.84795
 30
0.0
 11
-574.19299000000001
 21
117.34795
 31
0.0
  0
LINE
  5
692
  8
0
  6
CONTINUOUS
 62
     7
 10
-581.69298999999978
 20
139.84795
 30
0.0
 11
-578.19292999999982
 21
139.84795
 31
0.0
  0
LINE
  5
693
  8
0
  6
CONTINUOUS
 62
     7
 10
-581.69298999999978
 20
139.84795
 30
0.0
 11
-581.69298999999978
 21
154.84795
 31
0.0
  0
LINE
  5
694
  8
0
  6
CONTINUOUS
 62
     7
 10
-581.69298999999978
 20
154.84795
 30
0.0
 11
-578.19292999999982
 21
154.84795
 31
0.0
  0
LINE
  5
695
  8
0
  6
CONTINUOUS
 62
     7
 10
-574.19299000000001
 20
180.84792999999991
 30
0.0
 11
-574.19299000000001
 21
177.34795
 31
0.0
  0
LINE
  5
696
  8
0
  6
CONTINUOUS
 62
     3
 10
-579.69292999999982
 20
133.3479599999998
 30
0.0
 11
-621.64293999999995
 21
133.3479599999998
 31
0.0
  0
LINE
  5
697
  8
0
  6
CONTINUOUS
 62
     7
 10
-578.19292999999982
 20
117.34795
 30
0.0
 11
-578.19292999999982
 21
177.34795
 31
0.0
  0
LINE
  5
698
  8
0
  6
CONTINUOUS
 62
     7
 10
-501.19299000000001
 20
117.34795
 30
0.0
 11
-501.19299000000001
 21
177.34795
 31
0.0
  0
LINE
  5
699
  8
0
  6
CONTINUOUS
 62
     7
 10
-559.19299000000001
 20
115.84795
 30
0.0
 11
-499.69299000000001
 21
115.84795
 31
0.0
  0
LINE
  5
69A
  8
0
  6
CONTINUOUS
 62
     7
 10
-559.19299000000001
 20
178.84795
 30
0.0
 11
-499.69299000000001
 21
178.84795
 31
0.0
  0
LINE
  5
69B
  8
0
  6
CONTINUOUS
 62
     7
 10
-578.19292999999982
 20
177.34795
 30
0.0
 11
-490.42293999999998
 21
177.34795
 31
0.0
  0
LINE
  5
69C
  8
0
  6
CONTINUOUS
 62
     7
 10
-548.99297999999965
 20
129.54793999999981
 30
0.0
 11
-548.99297999999965
 21
165.14795000000001
 31
0.0
  0
LINE
  5
69D
  8
0
  6
CONTINUOUS
 62
     7
 10
-513.39300999999966
 20
129.54793999999981
 30
0.0
 11
-513.39300999999966
 21
165.14795000000001
 31
0.0
  0
LINE
  5
69E
  8
0
  6
CONTINUOUS
 62
     7
 10
-548.99297999999965
 20
129.54793999999981
 30
0.0
 11
-513.39300999999966
 21
129.54793999999981
 31
0.0
  0
LINE
  5
69F
  8
0
  6
CONTINUOUS
 62
     7
 10
-548.99297999999965
 20
165.14795000000001
 30
0.0
 11
-513.39300999999966
 21
165.14795000000001
 31
0.0
  0
LINE
  5
6A0
  8
0
  6
CONTINUOUS
 62
     7
 10
-510.82296999999988
 20
124.8479499999999
 30
0.0
 11
-506.61295000000001
 21
124.8479499999999
 31
0.0
  0
LINE
  5
6A1
  8
0
  6
CONTINUOUS
 62
     7
 10
-559.19299000000001
 20
113.84795
 30
0.0
 11
-559.19299000000001
 21
117.34795
 31
0.0
  0
LINE
  5
6A2
  8
0
  6
CONTINUOUS
 62
     7
 10
-508.19295999999991
 20
130.3279599999999
 30
0.0
 11
-508.19295999999991
 21
170.34792999999979
 31
0.0
  0
LINE
  5
6A3
  8
0
  6
CONTINUOUS
 62
     3
 10
-627.1929899999999
 20
195.69794999999991
 30
0.0
 11
-617.19292999999982
 21
195.69794999999991
 31
0.0
  0
LINE
  5
6A4
  8
0
  6
CONTINUOUS
 62
     3
 10
-627.1929899999999
 20
190.03794999999991
 30
0.0
 11
-617.19292999999982
 21
190.03794999999991
 31
0.0
  0
LINE
  5
6A5
  8
0
  6
CONTINUOUS
 62
     3
 10
-627.1929899999999
 20
181.65793999999991
 30
0.0
 11
-617.19292999999982
 21
181.65793999999991
 31
0.0
  0
LINE
  5
6A6
  8
0
  6
CONTINUOUS
 62
     3
 10
-617.19292999999982
 20
195.69794999999991
 30
0.0
 11
-617.19292999999982
 21
181.65793999999991
 31
0.0
  0
LINE
  5
6A7
  8
0
  6
CONTINUOUS
 62
     7
 10
-508.69299000000001
 20
122.78793999999991
 30
0.0
 11
-508.69299000000001
 21
126.81796
 31
0.0
  0
LINE
  5
6A8
  8
0
  6
CONTINUOUS
 62
     7
 10
-579.69292999999982
 20
115.84795
 30
0.0
 11
-574.19299000000001
 21
115.84795
 31
0.0
  0
LINE
  5
6A9
  8
0
  6
CONTINUOUS
 62
     7
 10
-553.69299000000001
 20
167.7879299999999
 30
0.0
 11
-553.69299000000001
 21
171.80794999999981
 31
0.0
  0
LINE
  5
6AA
  8
0
  6
CONTINUOUS
 62
     7
 10
-579.69292999999982
 20
115.84795
 30
0.0
 11
-579.69292999999982
 21
139.84795
 31
0.0
  0
LINE
  5
6AB
  8
0
  6
CONTINUOUS
 62
     7
 10
-579.69292999999982
 20
178.84795
 30
0.0
 11
-574.19299000000001
 21
178.84795
 31
0.0
  0
LINE
  5
6AC
  8
0
  6
CONTINUOUS
 62
     7
 10
-554.19292999999993
 20
124.34795
 30
0.0
 11
-514.17296999999985
 21
124.34795
 31
0.0
  0
LINE
  5
6AD
  8
0
  6
CONTINUOUS
 62
     3
 10
-633.69292999999982
 20
164.62794
 30
0.0
 11
-632.19292999999982
 21
164.62794
 31
0.0
  0
LINE
  5
6AE
  8
0
  6
CONTINUOUS
 62
     3
 10
-633.69292999999982
 20
167.34796
 30
0.0
 11
-632.19299000000001
 21
167.47794999999991
 31
0.0
  0
LINE
  5
6AF
  8
0
  6
CONTINUOUS
 62
     3
 10
-633.69292999999982
 20
167.34792999999991
 30
0.0
 11
-633.69292999999982
 21
147.34795
 31
0.0
  0
LINE
  5
6B0
  8
0
  6
CONTINUOUS
 62
     3
 10
-630.19299000000001
 20
196.84794999999991
 30
0.0
 11
-630.19299000000001
 21
196.31795
 31
0.0
  0
LINE
  5
6B1
  8
0
  6
CONTINUOUS
 62
     3
 10
-630.19299000000001
 20
194.74796000000001
 30
0.0
 11
-630.19299000000001
 21
194.19794999999999
 31
0.0
  0
LINE
  5
6B2
  8
0
  6
CONTINUOUS
 62
     3
 10
-630.19299000000001
 20
190.17793
 30
0.0
 11
-630.19299000000001
 21
189.70795000000001
 31
0.0
  0
LINE
  5
6B3
  8
0
  6
CONTINUOUS
 62
     3
 10
-630.19299000000001
 20
182.73795000000001
 30
0.0
 11
-630.19299000000001
 21
181.67795000000001
 31
0.0
  0
LINE
  5
6B4
  8
0
  6
CONTINUOUS
 62
     3
 10
-630.19299000000001
 20
172.97794999999999
 30
0.0
 11
-630.19299000000001
 21
171.60795999999999
 31
0.0
  0
LINE
  5
6B5
  8
0
  6
CONTINUOUS
 62
     3
 10
-630.19299000000001
 20
152.95795000000001
 30
0.0
 11
-630.19299000000001
 21
151.79793000000001
 31
0.0
  0
LINE
  5
6B6
  8
0
  6
CONTINUOUS
 62
     3
 10
-630.19299000000001
 20
162.95793
 30
0.0
 11
-630.19299000000001
 21
161.74796000000001
 31
0.0
  0
LINE
  5
6B7
  8
0
  6
CONTINUOUS
 62
     3
 10
-628.19299000000001
 20
151.34795
 30
0.0
 11
-631.1929899999999
 21
151.34795
 31
0.0
  0
LINE
  5
6B8
  8
0
  6
CONTINUOUS
 62
     3
 10
-628.19299000000001
 20
153.34795
 30
0.0
 11
-631.1929899999999
 21
153.34795
 31
0.0
  0
LINE
  5
6B9
  8
0
  6
CONTINUOUS
 62
     3
 10
-628.19299000000001
 20
161.34792999999991
 30
0.0
 11
-631.1929899999999
 21
161.34792999999991
 31
0.0
  0
LINE
  5
6BA
  8
0
  6
CONTINUOUS
 62
     3
 10
-628.19299000000001
 20
163.34794999999991
 30
0.0
 11
-631.1929899999999
 21
163.34794999999991
 31
0.0
  0
LINE
  5
6BB
  8
0
  6
CONTINUOUS
 62
     3
 10
-628.19299000000001
 20
171.34795
 30
0.0
 11
-631.1929899999999
 21
171.34795
 31
0.0
  0
LINE
  5
6BC
  8
0
  6
CONTINUOUS
 62
     3
 10
-628.19299000000001
 20
173.34792999999991
 30
0.0
 11
-631.1929899999999
 21
173.34792999999991
 31
0.0
  0
LINE
  5
6BD
  8
0
  6
CONTINUOUS
 62
     3
 10
-630.41302000000019
 20
193.73797999999999
 30
0.0
 11
-631.66301999999985
 21
193.06795999999991
 31
0.0
  0
LINE
  5
6BE
  8
0
  6
CONTINUOUS
 62
     3
 10
-630.40295000000003
 20
195.84798000000001
 30
0.0
 11
-631.64293999999995
 21
195.21797000000001
 31
0.0
  0
LINE
  5
6BF
  8
0
  6
CONTINUOUS
 62
     3
 10
-630.33300999999994
 20
181.0479599999999
 30
0.0
 11
-631.48302999999964
 21
180.69794999999991
 31
0.0
  0
LINE
  5
6C0
  8
0
  6
CONTINUOUS
 62
     3
 10
-630.42302999999981
 20
189.19791000000001
 30
0.0
 11
-631.70299999999986
 21
188.4479199999999
 31
0.0
  0
LINE
  5
6C1
  8
0
  6
CONTINUOUS
 62
     3
 10
-629.95299999999975
 20
195.94793999999999
 30
0.0
 11
-627.69292999999982
 21
195.94793999999999
 31
0.0
  0
LINE
  5
6C2
  8
0
  6
CONTINUOUS
 62
     3
 10
-629.94292999999982
 20
193.84794999999991
 30
0.0
 11
-628.19299000000001
 21
193.84794999999991
 31
0.0
  0
LINE
  5
6C3
  8
0
  6
CONTINUOUS
 62
     3
 10
-629.92296999999985
 20
189.33794
 30
0.0
 11
-628.19299000000001
 21
189.33794
 31
0.0
  0
LINE
  5
6C4
  8
0
  6
CONTINUOUS
 62
     3
 10
-630.04296999999985
 20
181.08794
 30
0.0
 11
-628.19299000000001
 21
181.08794
 31
0.0
  0
LINE
  5
6C5
  8
0
  6
CONTINUOUS
 62
     3
 10
-629.89293999999995
 20
190.47794999999999
 30
0.0
 11
-627.1929899999999
 21
190.47794999999999
 31
0.0
  0
LINE
  5
6C6
  8
0
  6
CONTINUOUS
 62
     3
 10
-629.91296
 20
194.98793000000001
 30
0.0
 11
-627.1929899999999
 21
194.98793000000001
 31
0.0
  0
LINE
  5
6C7
  8
0
  6
CONTINUOUS
 62
     3
 10
-630.38306
 20
182.9579899999998
 30
0.0
 11
-631.58300999999994
 21
182.44799999999989
 31
0.0
  0
LINE
  5
6C8
  8
0
  6
CONTINUOUS
 62
     3
 10
-630.44299000000001
 20
190.30792
 30
0.0
 11
-631.74297999999999
 21
189.45792
 31
0.0
  0
LINE
  5
6C9
  8
0
  6
CONTINUOUS
 62
     3
 10
-630.4329799999997
 20
194.84792999999991
 30
0.0
 11
-631.71301000000005
 21
194.07793000000001
 31
0.0
  0
LINE
  5
6CA
  8
0
  6
CONTINUOUS
 62
     3
 10
-630.42296999999985
 20
196.96792999999991
 30
0.0
 11
-631.69298999999978
 21
196.22794999999991
 31
0.0
  0
LINE
  5
6CB
  8
0
  6
CONTINUOUS
 62
     3
 10
-629.99297999999999
 20
183.03795
 30
0.0
 11
-627.89301
 21
183.03795
 31
0.0
  0
LINE
  5
6CC
  8
0
  6
CONTINUOUS
 62
     3
 10
-486.85299999999989
 20
111.3479499999999
 30
0.0
 11
-531.1929899999999
 21
111.3479499999999
 31
0.0
  0
LINE
  5
6CD
  8
0
  6
CONTINUOUS
 62
     3
 10
-629.92296999999985
 20
197.09795
 30
0.0
 11
-627.69292999999982
 21
197.09795
 31
0.0
  0
LINE
  5
6CE
  8
0
  6
CONTINUOUS
 62
     3
 10
-632.19292999999982
 20
195.36794999999981
 30
0.0
 11
-632.19292999999982
 21
152.34792999999991
 31
0.0
  0
LINE
  5
6CF
  8
0
  6
CONTINUOUS
 62
     3
 10
-627.1929899999999
 20
204.77794
 30
0.0
 11
-627.1929899999999
 21
147.34795
 31
0.0
  0
LINE
  5
6D0
  8
0
  6
CONTINUOUS
 62
     3
 10
-627.19292999999982
 20
204.7779699999999
 30
0.0
 11
-624.37298999999985
 21
204.8479599999998
 31
0.0
  0
LINE
  5
6D1
  8
0
  6
CONTINUOUS
 62
     3
 10
-490.42293999999998
 20
177.34795
 30
0.0
 11
-490.42293999999998
 21
117.34795
 31
0.0
  0
LINE
  5
6D2
  8
0
  6
CONTINUOUS
 62
     3
 10
-480.19299000000001
 20
110.19795000000001
 30
0.0
 11
-472.19296000000003
 21
110.19795000000001
 31
0.0
  0
LINE
  5
6D3
  8
0
  6
CONTINUOUS
 62
     3
 10
-479.19295999999991
 20
199.3879399999999
 30
0.0
 11
-472.19296000000003
 21
199.3879399999999
 31
0.0
  0
LINE
  5
6D4
  8
0
  6
CONTINUOUS
 62
     3
 10
-480.19299000000001
 20
184.4979399999998
 30
0.0
 11
-472.19296000000003
 21
184.4979399999998
 31
0.0
  0
LINE
  5
6D5
  8
0
  6
CONTINUOUS
 62
     7
 10
-548.21294999999998
 20
170.34792999999979
 30
0.0
 11
-508.19295999999991
 21
170.34792999999979
 31
0.0
  0
LINE
  5
6D6
  8
0
  6
CONTINUOUS
 62
     3
 10
-479.19295999999991
 20
210.84792999999991
 30
0.0
 11
-472.19296000000003
 21
210.84792999999991
 31
0.0
  0
LINE
  5
6D7
  8
0
  6
CONTINUOUS
 62
     3
 10
-499.92296999999979
 20
117.07796999999979
 30
0.0
 11
-490.423
 21
117.34798000000001
 31
0.0
  0
LINE
  5
6D8
  8
0
  6
CONTINUOUS
 62
     3
 10
-480.19299000000001
 20
209.8479499999998
 30
0.0
 11
-480.19299000000001
 21
84.847938999999968
 31
0.0
  0
LINE
  5
6D9
  8
0
  6
CONTINUOUS
 62
     3
 10
-582.19298999999967
 20
193.69793999999999
 30
0.0
 11
-480.19299000000001
 21
193.69793999999999
 31
0.0
  0
LINE
  5
6DA
  8
0
  6
CONTINUOUS
 62
     7
 10
-499.69299000000001
 20
115.84795
 30
0.0
 11
-499.69299000000001
 21
178.84795
 31
0.0
  0
LINE
  5
6DB
  8
0
  6
CENTER
 62
     7
 10
-531.1929899999999
 20
185.94794999999991
 30
0.0
 11
-531.1929899999999
 21
104.69794
 31
0.0
  0
LINE
  5
6DC
  8
0
  6
CONTINUOUS
 62
     3
 10
-625.36297999999965
 20
90.227942999999996
 30
0.0
 11
-623.71294999999986
 21
90.227942999999996
 31
0.0
  0
LINE
  5
6DD
  8
0
  6
CONTINUOUS
 62
     3
 10
-606.1929899999999
 20
85.457954000000015
 30
0.0
 11
-606.1929899999999
 21
92.867934999999989
 31
0.0
  0
LINE
  5
6DE
  8
0
  6
CONTINUOUS
 62
     3
 10
-549.19299000000001
 20
83.437934999999982
 30
0.0
 11
-549.19299000000001
 21
85.487938
 31
0.0
  0
LINE
  5
6DF
  8
0
  6
CONTINUOUS
 62
     3
 10
-623.00298999999995
 20
87.217956999999984
 30
0.0
 11
-623.92302999999981
 21
91.097954000000016
 31
0.0
  0
LINE
  5
6E0
  8
0
  6
CONTINUOUS
 62
     3
 10
-623.02295000000004
 20
85.557968000000017
 30
0.0
 11
-623.91296
 21
89.097960999999984
 31
0.0
  0
LINE
  5
6E1
  8
0
  6
CONTINUOUS
 62
     3
 10
-485.45296999999988
 20
86.967940999999982
 30
0.0
 11
-481.99297999999987
 21
99.887939000000003
 31
0.0
  0
LINE
  5
6E2
  8
0
  6
CONTINUOUS
 62
     3
 10
-630.19299000000001
 20
97.847945999999993
 30
0.0
 11
-630.19299000000001
 21
98.377945000000011
 31
0.0
  0
LINE
  5
6E3
  8
0
  6
CONTINUOUS
 62
     3
 10
-617.19292999999982
 20
98.997939999999986
 30
0.0
 11
-617.19292999999982
 21
113.04794
 31
0.0
  0
LINE
  5
6E4
  8
0
  6
CONTINUOUS
 62
     3
 10
-630.41302000000019
 20
100.96795999999991
 30
0.0
 11
-631.66301999999985
 21
101.62797999999979
 31
0.0
  0
LINE
  5
6E5
  8
0
  6
CONTINUOUS
 62
     3
 10
-630.19299000000001
 20
99.947936999999996
 30
0.0
 11
-630.19299000000001
 21
100.49794
 31
0.0
  0
LINE
  5
6E6
  8
0
  6
CONTINUOUS
 62
     3
 10
-627.1929899999999
 20
98.997939999999986
 30
0.0
 11
-617.19292999999982
 21
98.997939999999986
 31
0.0
  0
LINE
  5
6E7
  8
0
  6
CONTINUOUS
 62
     3
 10
-630.19299000000001
 20
104.5179499999999
 30
0.0
 11
-630.19299000000001
 21
104.98793999999999
 31
0.0
  0
LINE
  5
6E8
  8
0
  6
CONTINUOUS
 62
     3
 10
-623.47302000000002
 20
98.997963000000013
 30
0.0
 11
-622.93297999999982
 21
96.007942000000014
 31
0.0
  0
LINE
  5
6E9
  8
0
  6
CONTINUOUS
 62
     3
 10
-620.96294999999998
 20
94.367935000000003
 30
0.0
 11
-607.69299000000001
 21
94.367935000000003
 31
0.0
  0
LINE
  5
6EA
  8
0
  6
CONTINUOUS
 62
     3
 10
-621.08300999999994
 20
84.047950999999983
 30
0.0
 11
-607.58300999999994
 21
84.047950999999983
 31
0.0
  0
LINE
  5
6EB
  8
0
  6
CONTINUOUS
 62
     3
 10
-604.19299000000001
 20
85.487938
 30
0.0
 11
-487.38299999999981
 21
85.487938
 31
0.0
  0
LINE
  5
6EC
  8
0
  6
CONTINUOUS
 62
     3
 10
-621.02295000000004
 20
89.087952000000001
 30
0.0
 11
-607.69299000000001
 21
89.087952000000001
 31
0.0
  0
LINE
  5
6ED
  8
0
  6
CONTINUOUS
 62
     3
 10
-627.1929899999999
 20
113.04794
 30
0.0
 11
-624.02295000000004
 21
113.04794
 31
0.0
  0
LINE
  5
6EE
  8
0
  6
CONTINUOUS
 62
     3
 10
-622.51300000000003
 20
110.62795
 30
0.0
 11
-531.1929899999999
 21
110.62795
 31
0.0
  0
LINE
  5
6EF
  8
0
  6
CONTINUOUS
 62
     3
 10
-531.1929899999999
 20
110.62795
 30
0.0
 11
-483.37299000000002
 21
110.62795
 31
0.0
  0
LINE
  5
6F0
  8
0
  6
CONTINUOUS
 62
     3
 10
-531.1929899999999
 20
111.3479499999999
 30
0.0
 11
-621.64293999999995
 21
111.3479499999999
 31
0.0
  0
LINE
  5
6F1
  8
0
  6
CONTINUOUS
 62
     3
 10
-622.51300000000003
 20
113.9779399999998
 30
0.0
 11
-574.19299000000001
 21
113.9779399999998
 31
0.0
  0
LINE
  5
6F2
  8
0
  6
CONTINUOUS
 62
     3
 10
-578.19292999999982
 20
117.34795
 30
0.0
 11
-490.42293999999998
 21
117.34795
 31
0.0
  0
LINE
  5
6F3
  8
0
  6
CONTINUOUS
 62
     3
 10
-485.48293999999981
 20
86.847954000000001
 30
0.0
 11
-480.19299000000001
 21
86.847954000000001
 31
0.0
  0
LINE
  5
6F4
  8
0
  6
CONTINUOUS
 62
     3
 10
-483.39300999999989
 20
88.42795599999998
 30
0.0
 11
-481.95299999999992
 21
95.127953000000005
 31
0.0
  0
LINE
  5
6F5
  8
0
  6
CONTINUOUS
 62
     3
 10
-480.48296999999991
 20
96.317939999999993
 30
0.0
 11
-482.89296999999988
 21
96.317939999999993
 31
0.0
  0
LINE
  5
6F6
  8
0
  6
CONTINUOUS
 62
     3
 10
-582.19298999999967
 20
100.99795999999991
 30
0.0
 11
-480.19299000000001
 21
100.99795999999991
 31
0.0
  0
LINE
  5
6F7
  8
0
  6
CONTINUOUS
 62
     3
 10
-479.19295999999991
 20
95.307952999999983
 30
0.0
 11
-472.19296000000003
 21
95.307952999999983
 31
0.0
  0
LINE
  5
6F8
  8
0
  6
CONTINUOUS
 62
     3
 10
-479.19295999999991
 20
83.847953999999987
 30
0.0
 11
-472.19296000000003
 21
83.847953999999987
 31
0.0
  0
LINE
  5
6F9
  8
0
  6
CONTINUOUS
 62
     3
 10
-630.42302999999981
 20
105.49797
 30
0.0
 11
-631.70299999999986
 21
106.24796000000001
 31
0.0
  0
LINE
  5
6FA
  8
0
  6
CONTINUOUS
 62
     3
 10
-629.94292999999982
 20
100.8479499999999
 30
0.0
 11
-628.19299000000001
 21
100.8479499999999
 31
0.0
  0
LINE
  5
6FB
  8
0
  6
CONTINUOUS
 62
     3
 10
-629.89293999999995
 20
104.2279399999999
 30
0.0
 11
-627.1929899999999
 21
104.2279399999999
 31
0.0
  0
LINE
  5
6FC
  8
0
  6
CONTINUOUS
 62
     3
 10
-629.92296999999985
 20
105.36794999999979
 30
0.0
 11
-628.19299000000001
 21
105.36794999999979
 31
0.0
  0
LINE
  5
6FD
  8
0
  6
CONTINUOUS
 62
     3
 10
-630.40295000000003
 20
98.857940999999997
 30
0.0
 11
-631.64293999999995
 21
99.487938
 31
0.0
  0
LINE
  5
6FE
  8
0
  6
CONTINUOUS
 62
     3
 10
-629.95299999999975
 20
98.747955000000005
 30
0.0
 11
-627.69292999999982
 21
98.747955000000005
 31
0.0
  0
LINE
  5
6FF
  8
0
  6
CONTINUOUS
 62
     3
 10
-629.92296999999985
 20
97.597938999999997
 30
0.0
 11
-627.69292999999982
 21
97.597938999999997
 31
0.0
  0
LINE
  5
700
  8
0
  6
CONTINUOUS
 62
     3
 10
-630.4329799999997
 20
99.847977000000014
 30
0.0
 11
-631.71294999999998
 21
100.61796
 31
0.0
  0
LINE
  5
701
  8
0
  6
CONTINUOUS
 62
     3
 10
-630.44299000000001
 20
104.38794
 30
0.0
 11
-631.74304000000006
 21
105.23797999999979
 31
0.0
  0
LINE
  5
702
  8
0
  6
CONTINUOUS
 62
     3
 10
-627.1929899999999
 20
89.917946000000001
 30
0.0
 11
-624.37298999999985
 21
89.847945999999979
 31
0.0
  0
LINE
  5
703
  8
0
  6
CONTINUOUS
 62
     3
 10
-630.42296999999985
 20
97.737983999999997
 30
0.0
 11
-631.69298999999978
 21
98.467979
 31
0.0
  0
LINE
  5
704
  8
0
  6
CONTINUOUS
 62
     3
 10
-629.91296
 20
99.707954000000001
 30
0.0
 11
-627.1929899999999
 21
99.707954000000001
 31
0.0
  0
LINE
  5
705
  8
0
  6
CONTINUOUS
 62
     7
 10
-220.2907999999999
 20
113.84795
 30
0.0
 11
-220.2907999999999
 21
180.84792999999991
 31
0.0
  0
LINE
  5
706
  8
0
  6
CONTINUOUS
 62
     7
 10
-237.29082
 20
117.34795
 30
0.0
 11
-237.29082
 21
113.84795
 31
0.0
  0
LINE
  5
707
  8
0
  6
CONTINUOUS
 62
     7
 10
-242.29082
 20
117.34795
 30
0.0
 11
-242.29082
 21
177.34795
 31
0.0
  0
LINE
  5
708
  8
0
  6
CONTINUOUS
 62
     7
 10
-223.79082
 20
115.84795
 30
0.0
 11
-223.79082
 21
178.84795
 31
0.0
  0
LINE
  5
709
  8
0
  6
CONTINUOUS
 62
     7
 10
-237.29082
 20
177.34795
 30
0.0
 11
-237.29082
 21
180.84792999999991
 31
0.0
  0
LINE
  5
70A
  8
0
  6
CONTINUOUS
 62
     7
 10
-223.79082
 20
178.84795
 30
0.0
 11
-220.2907999999999
 21
178.84795
 31
0.0
  0
LINE
  5
70B
  8
0
  6
CONTINUOUS
 62
     3
 10
-215.29082
 20
177.34795
 30
0.0
 11
-215.29082
 21
160.49913000000001
 31
0.0
  0
LINE
  5
70C
  8
0
  6
CONTINUOUS
 62
     7
 10
-242.29082
 20
117.34795
 30
0.0
 11
-223.79082
 21
117.34795
 31
0.0
  0
LINE
  5
70D
  8
0
  6
CONTINUOUS
 62
     3
 10
-213.51257000000001
 20
177.4466699999999
 30
0.0
 11
-217.29079999999999
 21
177.34795
 31
0.0
  0
LINE
  5
70E
  8
0
  6
CONTINUOUS
 62
     7
 10
-220.2907999999999
 20
113.84795
 30
0.0
 11
-237.29082
 21
113.84795
 31
0.0
  0
LINE
  5
70F
  8
0
  6
CONTINUOUS
 62
     7
 10
-242.29082
 20
170.34796
 30
0.0
 11
-245.29082
 21
165.1579599999998
 31
0.0
  0
LINE
  5
710
  8
0
  6
CONTINUOUS
 62
     7
 10
-582.19298999999967
 20
193.69793999999999
 30
0.0
 11
-617.19299000000001
 21
191.6679399999999
 31
0.0
  0
LINE
  5
711
  8
0
  6
CONTINUOUS
 62
     7
 10
-582.19298999999967
 20
100.99795999999991
 30
0.0
 11
-617.19299000000001
 21
103.0279699999999
 31
0.0
  0
LINE
  5
712
  8
0
  6
CONTINUOUS
 62
     7
 10
-223.79082
 20
115.84795
 30
0.0
 11
-220.2907999999999
 21
115.84795
 31
0.0
  0
LINE
  5
713
  8
0
  6
CONTINUOUS
 62
     7
 10
-501.19296000000003
 20
346.16665999999998
 30
0.0
 11
-561.19298999999978
 21
346.16665999999998
 31
0.0
  0
LINE
  5
714
  8
0
  6
CONTINUOUS
 62
     3
 10
-580.46582000000001
 20
345.16665999999992
 30
0.0
 11
-580.46582000000001
 21
341.66665999999992
 31
0.0
  0
LINE
  5
715
  8
0
  6
CONTINUOUS
 62
     3
 10
-582.46582000000001
 20
341.66665999999992
 30
0.0
 11
-500.46597000000003
 21
341.66665999999992
 31
0.0
  0
LINE
  5
716
  8
0
  6
CONTINUOUS
 62
     3
 10
-559.96594000000005
 20
338.16665999999992
 30
0.0
 11
-500.46597000000003
 21
338.16665999999992
 31
0.0
  0
LINE
  5
717
  8
0
  6
CONTINUOUS
 62
     3
 10
-571.46582000000001
 20
341.66665999999992
 30
0.0
 11
-571.46582000000001
 21
334.16665999999992
 31
0.0
  0
LINE
  5
718
  8
0
  6
CONTINUOUS
 62
     3
 10
-563.46594000000016
 20
341.66665999999992
 30
0.0
 11
-563.46594000000016
 21
334.16665999999992
 31
0.0
  0
LINE
  5
719
  8
0
  6
CONTINUOUS
 62
     3
 10
-578.96581999999978
 20
326.66762999999992
 30
0.0
 11
-582.46582000000001
 21
326.66762999999992
 31
0.0
  0
LINE
  5
71A
  8
0
  6
CONTINUOUS
 62
     3
 10
-582.46582000000001
 20
341.66665999999992
 30
0.0
 11
-582.46582000000001
 21
326.66762999999992
 31
0.0
  0
LINE
  5
71B
  8
0
  6
CONTINUOUS
 62
     3
 10
-549.76598999999999
 20
318.66663
 30
0.0
 11
-554.96600000000001
 21
321.66662999999988
 31
0.0
  0
LINE
  5
71C
  8
0
  6
CONTINUOUS
 62
     3
 10
-508.96600000000001
 20
321.66669000000002
 30
0.0
 11
-514.16594999999995
 21
318.66669000000002
 31
0.0
  0
LINE
  5
71D
  8
0
  6
CONTINUOUS
 62
     3
 10
-578.96581999999978
 20
338.16665999999992
 30
0.0
 11
-574.96581999999978
 21
338.16665999999992
 31
0.0
  0
LINE
  5
71E
  8
0
  6
CONTINUOUS
 62
     3
 10
-578.96581999999978
 20
321.66665999999992
 30
0.0
 11
-501.96597000000003
 21
321.66665999999992
 31
0.0
  0
LINE
  5
71F
  8
0
  6
CONTINUOUS
 62
     3
 10
-549.76598999999999
 20
318.66665999999992
 30
0.0
 11
-514.16602
 21
318.66665999999992
 31
0.0
  0
LINE
  5
720
  8
0
  6
CONTINUOUS
 62
     3
 10
-578.96581999999978
 20
341.66665999999992
 30
0.0
 11
-578.96581999999978
 21
321.66665999999992
 31
0.0
  0
LINE
  5
721
  8
0
  6
CONTINUOUS
 62
     3
 10
-574.96581999999978
 20
341.66665999999992
 30
0.0
 11
-574.96581999999978
 21
334.16665999999992
 31
0.0
  0
LINE
  5
722
  8
0
  6
CONTINUOUS
 62
     3
 10
-559.96594000000005
 20
334.16665999999992
 30
0.0
 11
-559.96594000000005
 21
341.66665999999992
 31
0.0
  0
LINE
  5
723
  8
0
  6
CONTINUOUS
 62
     3
 10
-501.96597000000003
 20
321.66665999999992
 30
0.0
 11
-501.96597000000003
 21
338.16665999999992
 31
0.0
  0
LINE
  5
724
  8
0
  6
CONTINUOUS
 62
     3
 10
-500.46597000000003
 20
345.16665999999992
 30
0.0
 11
-500.46597000000003
 21
338.16665999999992
 31
0.0
  0
LINE
  5
725
  8
0
  6
CONTINUOUS
 62
     3
 10
-580.46582000000001
 20
345.16665999999992
 30
0.0
 11
-500.46597000000003
 21
345.16665999999992
 31
0.0
  0
LINE
  5
726
  8
0
  6
CONTINUOUS
 62
     7
 10
-501.69296000000003
 20
346.16665999999998
 30
0.0
 11
-501.69296000000003
 21
345.16665999999992
 31
0.0
  0
LINE
  5
727
  8
0
  6
CONTINUOUS
 62
     7
 10
-560.6929899999999
 20
346.16665999999998
 30
0.0
 11
-560.6929899999999
 21
345.16665999999992
 31
0.0
  0
LINE
  5
728
  8
0
  6
CONTINUOUS
 62
     7
 10
-630.19299000000001
 20
368.66665999999992
 30
0.0
 11
-630.19299000000001
 21
369.19668999999999
 31
0.0
  0
LINE
  5
729
  8
0
  6
CONTINUOUS
 62
     7
 10
-630.19299000000001
 20
370.76662999999991
 30
0.0
 11
-630.19299000000001
 21
371.31667999999991
 31
0.0
  0
LINE
  5
72A
  8
0
  6
CONTINUOUS
 62
     7
 10
-630.19299000000001
 20
375.33670000000001
 30
0.0
 11
-630.19299000000001
 21
375.80667
 31
0.0
  0
LINE
  5
72B
  8
0
  6
CONTINUOUS
 62
     7
 10
-630.41296
 20
371.78664999999978
 30
0.0
 11
-631.66295999999966
 21
372.44662
 31
0.0
  0
LINE
  5
72C
  8
0
  6
CONTINUOUS
 62
     7
 10
-630.40295000000003
 20
369.67666999999989
 30
0.0
 11
-631.64293999999995
 21
370.30666999999988
 31
0.0
  0
LINE
  5
72D
  8
0
  6
CONTINUOUS
 62
     7
 10
-630.42296999999985
 20
376.31662
 30
0.0
 11
-631.70294000000001
 21
377.06661999999989
 31
0.0
  0
LINE
  5
72E
  8
0
  6
CONTINUOUS
 62
     7
 10
-629.95299999999975
 20
369.56667999999991
 30
0.0
 11
-627.69298999999978
 21
369.56667999999991
 31
0.0
  0
LINE
  5
72F
  8
0
  6
CONTINUOUS
 62
     7
 10
-629.94298999999978
 20
371.66665999999992
 30
0.0
 11
-628.19299000000001
 21
371.66665999999992
 31
0.0
  0
LINE
  5
730
  8
0
  6
CONTINUOUS
 62
     7
 10
-629.92296999999985
 20
376.18667999999991
 30
0.0
 11
-628.19299000000001
 21
376.18667999999991
 31
0.0
  0
LINE
  5
731
  8
0
  6
CONTINUOUS
 62
     7
 10
-629.89293999999995
 20
375.04665999999992
 30
0.0
 11
-627.1929899999999
 21
375.04665999999992
 31
0.0
  0
LINE
  5
732
  8
0
  6
CONTINUOUS
 62
     7
 10
-629.91296
 20
370.52663999999987
 30
0.0
 11
-627.1929899999999
 21
370.52663999999987
 31
0.0
  0
LINE
  5
733
  8
0
  6
CONTINUOUS
 62
     7
 10
-630.44292999999982
 20
375.20662999999979
 30
0.0
 11
-631.74292000000003
 21
376.05664000000002
 31
0.0
  0
LINE
  5
734
  8
0
  6
CONTINUOUS
 62
     7
 10
-630.43291999999985
 20
370.66663
 30
0.0
 11
-631.71294999999998
 21
371.43664999999999
 31
0.0
  0
LINE
  5
735
  8
0
  6
CONTINUOUS
 62
     7
 10
-630.42291
 20
368.55666999999988
 30
0.0
 11
-631.69292999999982
 21
369.28665000000001
 31
0.0
  0
LINE
  5
736
  8
0
  6
CONTINUOUS
 62
     7
 10
-629.92296999999985
 20
368.41665999999992
 30
0.0
 11
-627.69298999999978
 21
368.41665999999992
 31
0.0
  0
LINE
  5
737
  8
0
  6
CONTINUOUS
 62
     7
 10
-632.19299000000001
 20
370.14663999999999
 30
0.0
 11
-632.19299000000001
 21
413.16665999999992
 31
0.0
  0
LINE
  5
738
  8
0
  6
CONTINUOUS
 62
     7
 10
-631.70299999999986
 20
377.06664999999992
 30
0.0
 11
-631.72295999999994
 21
377.07662999999991
 31
0.0
  0
LINE
  5
739
  8
0
  6
CONTINUOUS
 62
     7
 10
-633.69299000000001
 20
400.88662999999991
 30
0.0
 11
-632.19299000000001
 21
400.88662999999991
 31
0.0
  0
LINE
  5
73A
  8
0
  6
CONTINUOUS
 62
     7
 10
-633.69299000000001
 20
403.01662999999991
 30
0.0
 11
-632.19299000000001
 21
403.01662999999991
 31
0.0
  0
LINE
  5
73B
  8
0
  6
CONTINUOUS
 62
     7
 10
-633.69292999999982
 20
398.16672
 30
0.0
 11
-632.19299000000001
 21
398.03671000000003
 31
0.0
  0
LINE
  5
73C
  8
0
  6
CONTINUOUS
 62
     7
 10
-633.69299000000001
 20
398.16665999999998
 30
0.0
 11
-633.69299000000001
 21
418.16665999999981
 31
0.0
  0
LINE
  5
73D
  8
0
  6
CONTINUOUS
 62
     7
 10
-630.19299000000001
 20
382.77663999999987
 30
0.0
 11
-630.19299000000001
 21
383.83670000000001
 31
0.0
  0
LINE
  5
73E
  8
0
  6
CONTINUOUS
 62
     7
 10
-630.19299000000001
 20
392.53664999999978
 30
0.0
 11
-630.19299000000001
 21
393.90665000000001
 31
0.0
  0
LINE
  5
73F
  8
0
  6
CONTINUOUS
 62
     7
 10
-630.19299000000001
 20
412.55667
 30
0.0
 11
-630.19299000000001
 21
413.71670999999998
 31
0.0
  0
LINE
  5
740
  8
0
  6
CONTINUOUS
 62
     7
 10
-630.19299000000001
 20
402.55666999999988
 30
0.0
 11
-630.19299000000001
 21
403.77663999999987
 31
0.0
  0
LINE
  5
741
  8
0
  6
CONTINUOUS
 62
     7
 10
-628.19299000000001
 20
414.16665999999981
 30
0.0
 11
-631.1929899999999
 21
414.16665999999981
 31
0.0
  0
LINE
  5
742
  8
0
  6
CONTINUOUS
 62
     7
 10
-628.19299000000001
 20
412.16665999999998
 30
0.0
 11
-631.1929899999999
 21
412.16665999999998
 31
0.0
  0
LINE
  5
743
  8
0
  6
CONTINUOUS
 62
     7
 10
-628.19299000000001
 20
404.16665999999998
 30
0.0
 11
-631.1929899999999
 21
404.16665999999998
 31
0.0
  0
LINE
  5
744
  8
0
  6
CONTINUOUS
 62
     7
 10
-628.19299000000001
 20
402.16665999999992
 30
0.0
 11
-631.1929899999999
 21
402.16665999999992
 31
0.0
  0
LINE
  5
745
  8
0
  6
CONTINUOUS
 62
     7
 10
-628.19299000000001
 20
394.16665999999992
 30
0.0
 11
-631.1929899999999
 21
394.16665999999992
 31
0.0
  0
LINE
  5
746
  8
0
  6
CONTINUOUS
 62
     7
 10
-628.19299000000001
 20
392.16665999999998
 30
0.0
 11
-631.1929899999999
 21
392.16665999999998
 31
0.0
  0
LINE
  5
747
  8
0
  6
CONTINUOUS
 62
     7
 10
-630.33294999999998
 20
384.46667000000002
 30
0.0
 11
-631.48290999999995
 21
384.82668999999999
 31
0.0
  0
LINE
  5
748
  8
0
  6
CONTINUOUS
 62
     7
 10
-630.04296999999985
 20
384.42667
 30
0.0
 11
-628.19299000000001
 21
384.42667
 31
0.0
  0
LINE
  5
749
  8
0
  6
CONTINUOUS
 62
     7
 10
-630.38300000000004
 20
382.55663999999979
 30
0.0
 11
-631.58300999999994
 21
383.07662999999991
 31
0.0
  0
LINE
  5
74A
  8
0
  6
CONTINUOUS
 62
     7
 10
-629.99292000000003
 20
382.47672
 30
0.0
 11
-627.89293999999995
 21
382.47672
 31
0.0
  0
LINE
  5
74B
  8
0
  6
CONTINUOUS
 62
     7
 10
-633.69299000000001
 20
435.44668999999999
 30
0.0
 11
-632.19299000000001
 21
435.44668999999999
 31
0.0
  0
LINE
  5
74C
  8
0
  6
CONTINUOUS
 62
     7
 10
-633.69299000000001
 20
433.31667999999979
 30
0.0
 11
-632.19299000000001
 21
433.31667999999979
 31
0.0
  0
LINE
  5
74D
  8
0
  6
CONTINUOUS
 62
     7
 10
-633.69292999999982
 20
438.16668999999979
 30
0.0
 11
-632.19292999999982
 21
438.29669000000001
 31
0.0
  0
LINE
  5
74E
  8
0
  6
CONTINUOUS
 62
     7
 10
-633.69299000000001
 20
438.16665999999992
 30
0.0
 11
-633.69299000000001
 21
418.16665999999981
 31
0.0
  0
LINE
  5
74F
  8
0
  6
CONTINUOUS
 62
     7
 10
-630.19299000000001
 20
467.66665999999992
 30
0.0
 11
-630.19299000000001
 21
467.1366299999998
 31
0.0
  0
LINE
  5
750
  8
0
  6
CONTINUOUS
 62
     7
 10
-630.19299000000001
 20
465.56667999999962
 30
0.0
 11
-630.19299000000001
 21
465.01662999999991
 31
0.0
  0
LINE
  5
751
  8
0
  6
CONTINUOUS
 62
     7
 10
-630.19299000000001
 20
460.99660999999998
 30
0.0
 11
-630.19299000000001
 21
460.52663999999987
 31
0.0
  0
LINE
  5
752
  8
0
  6
CONTINUOUS
 62
     7
 10
-630.19299000000001
 20
453.55667
 30
0.0
 11
-630.19299000000001
 21
452.49660999999992
 31
0.0
  0
LINE
  5
753
  8
0
  6
CONTINUOUS
 62
     7
 10
-630.19299000000001
 20
443.79665999999997
 30
0.0
 11
-630.19299000000001
 21
442.42667
 31
0.0
  0
LINE
  5
754
  8
0
  6
CONTINUOUS
 62
     7
 10
-630.19299000000001
 20
423.77663999999987
 30
0.0
 11
-630.19299000000001
 21
422.61660999999992
 31
0.0
  0
LINE
  5
755
  8
0
  6
CONTINUOUS
 62
     7
 10
-630.19299000000001
 20
433.77663999999987
 30
0.0
 11
-630.19299000000001
 21
432.56667999999991
 31
0.0
  0
LINE
  5
756
  8
0
  6
CONTINUOUS
 62
     7
 10
-628.19299000000001
 20
422.16665999999981
 30
0.0
 11
-631.1929899999999
 21
422.16665999999981
 31
0.0
  0
LINE
  5
757
  8
0
  6
CONTINUOUS
 62
     7
 10
-628.19299000000001
 20
424.16665999999998
 30
0.0
 11
-631.1929899999999
 21
424.16665999999998
 31
0.0
  0
LINE
  5
758
  8
0
  6
CONTINUOUS
 62
     7
 10
-628.19299000000001
 20
432.16665999999992
 30
0.0
 11
-631.1929899999999
 21
432.16665999999992
 31
0.0
  0
LINE
  5
759
  8
0
  6
CONTINUOUS
 62
     7
 10
-628.19299000000001
 20
434.16665999999992
 30
0.0
 11
-631.1929899999999
 21
434.16665999999992
 31
0.0
  0
LINE
  5
75A
  8
0
  6
CONTINUOUS
 62
     7
 10
-628.19299000000001
 20
442.16665999999998
 30
0.0
 11
-631.1929899999999
 21
442.16665999999998
 31
0.0
  0
LINE
  5
75B
  8
0
  6
CONTINUOUS
 62
     7
 10
-628.19299000000001
 20
444.16665999999992
 30
0.0
 11
-631.1929899999999
 21
444.16665999999992
 31
0.0
  0
LINE
  5
75C
  8
0
  6
CONTINUOUS
 62
     7
 10
-630.41290000000004
 20
464.55669999999981
 30
0.0
 11
-631.66295999999966
 21
463.88668999999999
 31
0.0
  0
LINE
  5
75D
  8
0
  6
CONTINUOUS
 62
     7
 10
-630.40295000000003
 20
466.66663
 30
0.0
 11
-631.64293999999995
 21
466.03662000000003
 31
0.0
  0
LINE
  5
75E
  8
0
  6
CONTINUOUS
 62
     7
 10
-630.33294999999998
 20
451.86666999999989
 30
0.0
 11
-631.48297000000002
 21
451.51665999999989
 31
0.0
  0
LINE
  5
75F
  8
0
  6
CONTINUOUS
 62
     7
 10
-630.42296999999985
 20
460.01662999999968
 30
0.0
 11
-631.70299999999986
 21
459.26659999999998
 31
0.0
  0
LINE
  5
760
  8
0
  6
CONTINUOUS
 62
     7
 10
-629.95299999999975
 20
466.76662999999991
 30
0.0
 11
-627.69298999999978
 21
466.76662999999991
 31
0.0
  0
LINE
  5
761
  8
0
  6
CONTINUOUS
 62
     7
 10
-629.94298999999978
 20
464.66665999999992
 30
0.0
 11
-628.19299000000001
 21
464.66665999999992
 31
0.0
  0
LINE
  5
762
  8
0
  6
CONTINUOUS
 62
     7
 10
-629.92296999999985
 20
460.15665000000001
 30
0.0
 11
-628.19299000000001
 21
460.15665000000001
 31
0.0
  0
LINE
  5
763
  8
0
  6
CONTINUOUS
 62
     7
 10
-630.04296999999985
 20
451.90665000000001
 30
0.0
 11
-628.19299000000001
 21
451.90665000000001
 31
0.0
  0
LINE
  5
764
  8
0
  6
CONTINUOUS
 62
     7
 10
-629.89293999999995
 20
461.29665999999997
 30
0.0
 11
-627.1929899999999
 21
461.29665999999997
 31
0.0
  0
LINE
  5
765
  8
0
  6
CONTINUOUS
 62
     7
 10
-629.91296
 20
465.80667
 30
0.0
 11
-627.1929899999999
 21
465.80667
 31
0.0
  0
LINE
  5
766
  8
0
  6
CONTINUOUS
 62
     7
 10
-630.38292999999999
 20
453.77663999999987
 30
0.0
 11
-631.58294999999976
 21
453.26662999999979
 31
0.0
  0
LINE
  5
767
  8
0
  6
CONTINUOUS
 62
     7
 10
-630.44292999999982
 20
461.12664999999998
 30
0.0
 11
-631.74297999999999
 21
460.27663999999999
 31
0.0
  0
LINE
  5
768
  8
0
  6
CONTINUOUS
 62
     7
 10
-630.4329799999997
 20
465.66663
 30
0.0
 11
-631.71294999999998
 21
464.89663999999988
 31
0.0
  0
LINE
  5
769
  8
0
  6
CONTINUOUS
 62
     7
 10
-630.42296999999985
 20
467.78670999999991
 30
0.0
 11
-631.69298999999978
 21
467.04669000000001
 31
0.0
  0
LINE
  5
76A
  8
0
  6
CONTINUOUS
 62
     7
 10
-629.99292000000003
 20
453.85660000000001
 30
0.0
 11
-627.89293999999995
 21
453.85660000000001
 31
0.0
  0
LINE
  5
76B
  8
0
  6
CONTINUOUS
 62
     7
 10
-629.92296999999985
 20
467.91665999999998
 30
0.0
 11
-627.69298999999978
 21
467.91665999999998
 31
0.0
  0
LINE
  5
76C
  8
0
  6
CONTINUOUS
 62
     7
 10
-632.19299000000001
 20
466.18667999999991
 30
0.0
 11
-632.19299000000001
 21
423.16665999999992
 31
0.0
  0
LINE
  5
76D
  8
0
  6
CONTINUOUS
 62
     7
 10
-480.19296000000003
 20
455.31667999999962
 30
0.0
 11
-472.19296000000003
 21
455.31667999999962
 31
0.0
  0
LINE
  5
76E
  8
0
  6
CONTINUOUS
 62
     7
 10
-479.19295999999991
 20
366.12662
 30
0.0
 11
-472.19296000000003
 21
366.12662
 31
0.0
  0
LINE
  5
76F
  8
0
  6
CONTINUOUS
 62
     7
 10
-480.19296000000003
 20
381.01662999999991
 30
0.0
 11
-472.19296000000003
 21
381.01662999999991
 31
0.0
  0
LINE
  5
770
  8
0
  6
CONTINUOUS
 62
     7
 10
-479.19295999999991
 20
354.66665999999998
 30
0.0
 11
-472.19296000000003
 21
354.66665999999998
 31
0.0
  0
LINE
  5
771
  8
0
  6
CONTINUOUS
 62
     7
 10
-479.19295999999991
 20
470.20670000000001
 30
0.0
 11
-472.19296000000003
 21
470.20670000000001
 31
0.0
  0
LINE
  5
772
  8
0
  6
CONTINUOUS
 62
     7
 10
-479.19295999999991
 20
481.66665999999992
 30
0.0
 11
-472.19296000000003
 21
481.66665999999992
 31
0.0
  0
LINE
  5
773
  8
0
  6
CONTINUOUS
 62
     7
 10
-627.19292999999982
 20
360.73662999999988
 30
0.0
 11
-624.37292000000002
 21
360.67663999999991
 31
0.0
  0
LINE
  5
774
  8
0
  6
CONTINUOUS
 62
     7
 10
-586.19298999999978
 20
371.81667999999991
 30
0.0
 11
-480.19296000000003
 21
371.81667999999991
 31
0.0
  0
LINE
  5
775
  8
0
  6
CONTINUOUS
 62
     7
 10
-485.48297000000002
 20
357.66665999999992
 30
0.0
 11
-480.19296000000003
 21
357.66665999999992
 31
0.0
  0
LINE
  5
776
  8
0
  6
CONTINUOUS
 62
     7
 10
-613.52295000000004
 20
384.80667
 30
0.0
 11
-519.17296999999985
 21
384.80667
 31
0.0
  0
LINE
  5
777
  8
0
  6
CONTINUOUS
 62
     7
 10
-531.1929899999999
 20
382.16665999999998
 30
0.0
 11
-612.65723000000003
 21
382.16665999999998
 31
0.0
  0
LINE
  5
778
  8
0
  6
CONTINUOUS
 62
     7
 10
-531.1929899999999
 20
381.44668999999988
 30
0.0
 11
-483.37295999999981
 21
381.44668999999988
 31
0.0
  0
LINE
  5
779
  8
0
  6
CONTINUOUS
 62
     7
 10
-613.52295000000004
 20
381.44668999999988
 30
0.0
 11
-531.1929899999999
 21
381.44668999999988
 31
0.0
  0
LINE
  5
77A
  8
0
  6
CONTINUOUS
 62
     7
 10
-613.49536000000001
 20
359.90665000000001
 30
0.0
 11
-607.69299000000001
 21
359.90665000000001
 31
0.0
  0
LINE
  5
77B
  8
0
  6
CONTINUOUS
 62
     7
 10
-604.19299000000001
 20
356.30667
 30
0.0
 11
-487.38296999999989
 21
356.30667
 31
0.0
  0
LINE
  5
77C
  8
0
  6
CONTINUOUS
 62
     7
 10
-613.43311000000006
 20
365.18667999999991
 30
0.0
 11
-607.69299000000001
 21
365.18667999999991
 31
0.0
  0
LINE
  5
77D
  8
0
  6
CONTINUOUS
 62
     7
 10
-617.19299000000001
 20
369.81667999999991
 30
0.0
 11
-617.19299000000001
 21
383.86660999999992
 31
0.0
  0
LINE
  5
77E
  8
0
  6
CONTINUOUS
 62
     7
 10
-627.1929899999999
 20
369.81667999999991
 30
0.0
 11
-617.19299000000001
 21
369.81667999999991
 31
0.0
  0
LINE
  5
77F
  8
0
  6
CONTINUOUS
 62
     7
 10
-485.45294000000001
 20
357.79656999999997
 30
0.0
 11
-481.99292000000003
 21
370.70670000000001
 31
0.0
  0
LINE
  5
780
  8
0
  6
CONTINUOUS
 62
     7
 10
-623.43169999999975
 20
358.00765999999987
 30
0.0
 11
-623.91296
 21
359.91669000000002
 31
0.0
  0
LINE
  5
781
  8
0
  6
CONTINUOUS
 62
     7
 10
-623.00292999999988
 20
358.03662000000008
 30
0.0
 11
-623.92296999999996
 21
361.91672
 31
0.0
  0
LINE
  5
782
  8
0
  6
CONTINUOUS
 62
     7
 10
-606.1929899999999
 20
356.27762000000001
 30
0.0
 11
-606.1929899999999
 21
363.68667999999991
 31
0.0
  0
LINE
  5
783
  8
0
  6
CONTINUOUS
 62
     7
 10
-625.36292000000003
 20
361.04665999999992
 30
0.0
 11
-623.71301000000005
 21
361.04665999999992
 31
0.0
  0
LINE
  5
784
  8
0
  6
CONTINUOUS
 62
     7
 10
-586.19298999999978
 20
464.51662999999962
 30
0.0
 11
-480.19296000000003
 21
464.51662999999962
 31
0.0
  0
LINE
  5
785
  8
0
  6
CONTINUOUS
 62
     7
 10
-480.19296000000003
 20
355.66665999999992
 30
0.0
 11
-480.19296000000003
 21
480.66665999999981
 31
0.0
  0
LINE
  5
786
  8
0
  6
CONTINUOUS
 62
     7
 10
-627.1929899999999
 20
475.59667999999999
 30
0.0
 11
-624.37298999999985
 21
475.66665999999992
 31
0.0
  0
LINE
  5
787
  8
0
  6
CONTINUOUS
 62
     7
 10
-627.1929899999999
 20
360.73660000000001
 30
0.0
 11
-627.1929899999999
 21
418.16665999999981
 31
0.0
  0
LINE
  5
788
  8
0
  6
CONTINUOUS
 62
     7
 10
-486.85297000000003
 20
382.16665999999998
 30
0.0
 11
-531.1929899999999
 21
382.16665999999998
 31
0.0
  0
LINE
  5
789
  8
0
  6
CONTINUOUS
 62
     7
 10
-617.19299000000001
 20
466.51663000000002
 30
0.0
 11
-617.19299000000001
 21
452.47672
 31
0.0
  0
LINE
  5
78A
  8
0
  6
CONTINUOUS
 62
     7
 10
-627.1929899999999
 20
452.47672
 30
0.0
 11
-617.19299000000001
 21
452.47672
 31
0.0
  0
LINE
  5
78B
  8
0
  6
CONTINUOUS
 62
     7
 10
-627.1929899999999
 20
460.85660000000001
 30
0.0
 11
-617.19299000000001
 21
460.85660000000001
 31
0.0
  0
LINE
  5
78C
  8
0
  6
CONTINUOUS
 62
     7
 10
-627.1929899999999
 20
466.51663000000002
 30
0.0
 11
-617.19299000000001
 21
466.51663000000002
 31
0.0
  0
LINE
  5
78D
  8
0
  6
CONTINUOUS
 62
     7
 10
-551.7508499999999
 20
404.16665999999998
 30
0.0
 11
-621.64293999999995
 21
404.16665999999998
 31
0.0
  0
LINE
  5
78E
  8
0
  6
CONTINUOUS
 62
     7
 10
-604.19299000000001
 20
480.02663999999987
 30
0.0
 11
-487.38296999999989
 21
480.02663999999987
 31
0.0
  0
LINE
  5
78F
  8
0
  6
CONTINUOUS
 62
     7
 10
-613.23864999999989
 20
471.15664999999979
 30
0.0
 11
-607.69299000000001
 21
471.15664999999979
 31
0.0
  0
LINE
  5
790
  8
0
  6
CONTINUOUS
 62
     7
 10
-615.9837
 20
465.16000000000003
 30
0.0
 11
-615.19866999999999
 21
469.50667999999979
 31
0.0
  0
LINE
  5
791
  8
0
  6
CONTINUOUS
 62
     7
 10
-613.30249000000003
 20
476.43667999999991
 30
0.0
 11
-607.69299000000001
 21
476.43667999999991
 31
0.0
  0
LINE
  5
792
  8
0
  6
CONTINUOUS
 62
     7
 10
-621.06299000000001
 20
479.83669999999989
 30
0.0
 11
-607.69299000000001
 21
479.83669999999989
 31
0.0
  0
LINE
  5
793
  8
0
  6
CONTINUOUS
 62
     7
 10
-621.08300999999994
 20
481.46670999999998
 30
0.0
 11
-607.58300999999994
 21
481.46670999999998
 31
0.0
  0
LINE
  5
794
  8
0
  6
CONTINUOUS
 62
     7
 10
-604.19299000000001
 20
484.08670000000001
 30
0.0
 11
-486.10930999999988
 21
484.08670000000001
 31
0.0
  0
LINE
  5
795
  8
0
  6
CONTINUOUS
 62
     7
 10
-604.19299000000001
 20
483.41665999999992
 30
0.0
 11
-485.96530000000001
 21
483.41665999999992
 31
0.0
  0
LINE
  5
796
  8
0
  6
CONTINUOUS
 62
     7
 10
-604.19299000000001
 20
482.05666999999988
 30
0.0
 11
-485.67299999999989
 21
482.05666999999988
 31
0.0
  0
LINE
  5
797
  8
0
  6
CONTINUOUS
 62
     7
 10
-617.6787099999998
 20
469.20670000000001
 30
0.0
 11
-615.25867000000005
 21
469.20670000000001
 31
0.0
  0
LINE
  5
798
  8
0
  6
CONTINUOUS
 62
     7
 10
-615.24865999999975
 20
474.85669000000001
 30
0.0
 11
-616.20867999999984
 21
470.38659999999987
 31
0.0
  0
LINE
  5
799
  8
0
  6
CONTINUOUS
 62
     7
 10
-625.38292999999965
 20
473.26662999999991
 30
0.0
 11
-615.59020999999996
 21
473.26662999999991
 31
0.0
  0
LINE
  5
79A
  8
0
  6
CONTINUOUS
 62
     7
 10
-486.85297000000003
 20
454.16665999999998
 30
0.0
 11
-612.64294000000007
 21
454.16665999999998
 31
0.0
  0
LINE
  5
79B
  8
0
  6
CONTINUOUS
 62
     7
 10
-486.85297000000003
 20
452.16665999999992
 30
0.0
 11
-501.19296000000003
 21
452.16665999999992
 31
0.0
  0
LINE
  5
79C
  8
0
  6
CONTINUOUS
 62
     7
 10
-486.84582999999992
 20
444.16665999999992
 30
0.0
 11
-501.19296000000003
 21
444.16665999999992
 31
0.0
  0
LINE
  5
79D
  8
0
  6
CONTINUOUS
 62
     7
 10
-623.00298999999995
 20
478.29668999999978
 30
0.0
 11
-623.92296999999996
 21
474.42663999999979
 31
0.0
  0
LINE
  5
79E
  8
0
  6
CONTINUOUS
 62
     7
 10
-486.86014000000011
 20
442.16665999999998
 30
0.0
 11
-612.64294000000007
 21
442.16665999999998
 31
0.0
  0
LINE
  5
79F
  8
0
  6
CONTINUOUS
 62
     7
 10
-625.36292000000003
 20
475.28665000000001
 30
0.0
 11
-623.71301000000005
 21
475.28665000000001
 31
0.0
  0
LINE
  5
7A0
  8
0
  6
CONTINUOUS
 62
     7
 10
-623.02300999999989
 20
479.95659999999992
 30
0.0
 11
-623.91296
 21
476.42669999999998
 31
0.0
  0
LINE
  5
7A1
  8
0
  6
CONTINUOUS
 62
     7
 10
-551.75426999999991
 20
434.16665999999992
 30
0.0
 11
-621.64293999999995
 21
434.16665999999992
 31
0.0
  0
LINE
  5
7A2
  8
0
  6
CONTINUOUS
 62
     7
 10
-606.1929899999999
 20
480.05667
 30
0.0
 11
-606.1929899999999
 21
472.65665000000001
 31
0.0
  0
LINE
  5
7A3
  8
0
  6
CONTINUOUS
 62
     7
 10
-551.75426999999991
 20
432.16665999999992
 30
0.0
 11
-621.64293999999995
 21
432.16665999999992
 31
0.0
  0
LINE
  5
7A4
  8
0
  6
CONTINUOUS
 62
     7
 10
-551.7508499999999
 20
424.16665999999998
 30
0.0
 11
-621.64293999999995
 21
424.16665999999998
 31
0.0
  0
LINE
  5
7A5
  8
0
  6
CONTINUOUS
 62
     7
 10
-551.7508499999999
 20
422.16665999999981
 30
0.0
 11
-621.64293999999995
 21
422.16665999999981
 31
0.0
  0
LINE
  5
7A6
  8
0
  6
CONTINUOUS
 62
     7
 10
-485.45296999999988
 20
478.54669000000001
 30
0.0
 11
-481.99294999999989
 21
465.62662
 31
0.0
  0
LINE
  5
7A7
  8
0
  6
CONTINUOUS
 62
     7
 10
-483.73253999999997
 20
478.66665999999998
 30
0.0
 11
-480.19296000000003
 21
478.66665999999998
 31
0.0
  0
LINE
  5
7A8
  8
0
  6
CONTINUOUS
 62
     7
 10
-480.48296999999991
 20
469.20670000000001
 30
0.0
 11
-482.90294999999981
 21
469.20670000000001
 31
0.0
  0
LINE
  5
7A9
  8
0
  6
CONTINUOUS
 62
     7
 10
-484.64275999999961
 20
482.90185999999989
 30
0.0
 11
-481.95294000000001
 21
470.38662999999991
 31
0.0
  0
LINE
  5
7AA
  8
0
  6
CONTINUOUS
 62
     7
 10
-627.1929899999999
 20
475.59670999999992
 30
0.0
 11
-627.1929899999999
 21
418.16665999999981
 31
0.0
  0
LINE
  5
7AB
  8
0
  6
CONTINUOUS
 62
     7
 10
-627.1929899999999
 20
383.86660999999992
 30
0.0
 11
-617.19299000000001
 21
383.86660999999992
 31
0.0
  0
LINE
  5
7AC
  8
0
  6
CONTINUOUS
 62
     7
 10
-621.49230999999997
 20
356.49660999999992
 30
0.0
 11
-607.45019999999977
 21
356.49660999999992
 31
0.0
  0
LINE
  5
7AD
  8
0
  6
CONTINUOUS
 62
     7
 10
-627.1929899999999
 20
375.47671999999989
 30
0.0
 11
-617.19299000000001
 21
375.47671999999989
 31
0.0
  0
LINE
  5
7AE
  8
0
  6
CONTINUOUS
 62
     7
 10
-625.38292999999965
 20
363.06667999999991
 30
0.0
 11
-615.59020999999996
 21
363.06667999999991
 31
0.0
  0
LINE
  5
7AF
  8
0
  6
CONTINUOUS
 62
     7
 10
-604.19299000000001
 20
354.27663999999999
 30
0.0
 11
-562.86658
 21
354.27663999999999
 31
0.0
  0
LINE
  5
7B0
  8
0
  6
CONTINUOUS
 62
     7
 10
-613.73290999999995
 20
391.68667999999991
 30
0.0
 11
-519.19298999999978
 21
391.68667999999991
 31
0.0
  0
LINE
  5
7B1
  8
0
  6
CONTINUOUS
 62
     7
 10
-519.19298999999978
 20
384.16665999999992
 30
0.0
 11
-612.65723000000003
 21
384.16665999999992
 31
0.0
  0
LINE
  5
7B2
  8
0
  6
CONTINUOUS
 62
     7
 10
-613.52295000000004
 20
454.89663999999999
 30
0.0
 11
-483.37295999999981
 21
454.89663999999999
 31
0.0
  0
LINE
  5
7B3
  8
0
  6
CONTINUOUS
 62
     7
 10
-613.52295000000004
 20
451.53664999999978
 30
0.0
 11
-519.17296999999985
 21
451.53664999999978
 31
0.0
  0
LINE
  5
7B4
  8
0
  6
CONTINUOUS
 62
     7
 10
-613.73290999999995
 20
444.65665000000001
 30
0.0
 11
-519.19298999999978
 21
444.65665000000001
 31
0.0
  0
LINE
  5
7B5
  8
0
  6
CONTINUOUS
 62
     7
 10
-613.73290999999995
 20
441.73660000000001
 30
0.0
 11
-483.15872000000002
 21
441.73660000000001
 31
0.0
  0
LINE
  5
7B6
  8
0
  6
CONTINUOUS
 62
     7
 10
-622.86292000000003
 20
434.51662999999979
 30
0.0
 11
-550.52172999999993
 21
434.51662999999979
 31
0.0
  0
LINE
  5
7B7
  8
0
  6
CONTINUOUS
 62
     7
 10
-622.86292000000003
 20
431.84670999999992
 30
0.0
 11
-550.53430000000003
 21
431.84670999999992
 31
0.0
  0
LINE
  5
7B8
  8
0
  6
CONTINUOUS
 62
     7
 10
-622.92296999999985
 20
424.44668999999988
 30
0.0
 11
-550.45776000000001
 21
424.44668999999988
 31
0.0
  0
LINE
  5
7B9
  8
0
  6
CONTINUOUS
 62
     7
 10
-622.92296999999985
 20
421.90665000000001
 30
0.0
 11
-550.45776000000001
 21
421.90665000000001
 31
0.0
  0
LINE
  5
7BA
  8
0
  6
CONTINUOUS
 62
     7
 10
-622.92296999999985
 20
414.43667999999991
 30
0.0
 11
-550.45776000000001
 21
414.43667999999991
 31
0.0
  0
LINE
  5
7BB
  8
0
  6
CONTINUOUS
 62
     7
 10
-551.7508499999999
 20
412.16665999999998
 30
0.0
 11
-621.64293999999995
 21
412.16665999999998
 31
0.0
  0
LINE
  5
7BC
  8
0
  6
CONTINUOUS
 62
     7
 10
-551.7508499999999
 20
414.16665999999981
 30
0.0
 11
-621.64293999999995
 21
414.16665999999981
 31
0.0
  0
LINE
  5
7BD
  8
0
  6
CONTINUOUS
 62
     7
 10
-622.86292000000003
 20
404.48659999999978
 30
0.0
 11
-550.52172999999993
 21
404.48659999999978
 31
0.0
  0
LINE
  5
7BE
  8
0
  6
CONTINUOUS
 62
     7
 10
-551.7508499999999
 20
402.16665999999992
 30
0.0
 11
-621.64293999999995
 21
402.16665999999992
 31
0.0
  0
LINE
  5
7BF
  8
0
  6
CONTINUOUS
 62
     7
 10
-622.86292000000003
 20
401.82668999999993
 30
0.0
 11
-550.52172999999993
 21
401.82668999999993
 31
0.0
  0
LINE
  5
7C0
  8
0
  6
CONTINUOUS
 62
     7
 10
-486.86014000000011
 20
394.16665999999992
 30
0.0
 11
-612.65723000000003
 21
394.16665999999992
 31
0.0
  0
LINE
  5
7C1
  8
0
  6
CONTINUOUS
 62
     7
 10
-613.73290999999995
 20
394.60660000000001
 30
0.0
 11
-483.15872000000002
 21
394.60660000000001
 31
0.0
  0
LINE
  5
7C2
  8
0
  6
CONTINUOUS
 62
     7
 10
-486.86014000000011
 20
392.16665999999998
 30
0.0
 11
-501.19296000000003
 21
392.16665999999998
 31
0.0
  0
LINE
  5
7C3
  8
0
  6
CONTINUOUS
 62
     7
 10
-486.85297000000003
 20
384.16665999999992
 30
0.0
 11
-501.19296000000003
 21
384.16665999999992
 31
0.0
  0
LINE
  5
7C4
  8
0
  6
CONTINUOUS
 62
     7
 10
-622.92296999999985
 20
411.89663999999988
 30
0.0
 11
-550.45776000000001
 21
411.89663999999988
 31
0.0
  0
LINE
  5
7C5
  8
0
  6
CONTINUOUS
 62
     7
 10
-615.9837
 20
371.17327999999998
 30
0.0
 11
-615.19866999999999
 21
366.82659999999998
 31
0.0
  0
LINE
  5
7C6
  8
0
  6
CONTINUOUS
 62
     7
 10
-617.6787099999998
 20
367.12662
 30
0.0
 11
-615.25867000000005
 21
367.12662
 31
0.0
  0
LINE
  5
7C7
  8
0
  6
CONTINUOUS
 62
     7
 10
-615.24872000000016
 20
361.47662000000003
 30
0.0
 11
-616.20867999999984
 21
365.94659000000001
 31
0.0
  0
LINE
  5
7C8
  8
0
  6
CONTINUOUS
 62
     3
 10
-561.19292999999993
 20
346.16665999999998
 30
0.0
 11
-561.45844
 21
356.30660999999992
 31
0.0
  0
LINE
  5
7C9
  8
0
  6
CONTINUOUS
 62
     3
 10
-501.19296000000003
 20
346.16663
 30
0.0
 11
-500.92742999999962
 21
356.30660999999992
 31
0.0
  0
LINE
  5
7CA
  8
0
  6
CONTINUOUS
 62
     7
 10
-499.67934999999989
 20
348.16665999999998
 30
0.0
 11
-488.17675999999989
 21
348.16665999999998
 31
0.0
  0
LINE
  5
7CB
  8
0
  6
CONTINUOUS
 62
     3
 10
-481.19292999999999
 20
357.66665999999992
 30
0.0
 11
-486.91872999999998
 21
348.84969999999993
 31
0.0
  0
LINE
  5
7CC
  8
0
  6
CONTINUOUS
 62
     7
 10
-517.69299000000001
 20
390.66665999999992
 30
0.0
 11
-517.69299000000001
 21
385.66665999999998
 31
0.0
  0
LINE
  5
7CD
  8
0
  6
CONTINUOUS
 62
     7
 10
-502.6929599999998
 20
390.66665999999992
 30
0.0
 11
-502.6929599999998
 21
385.66665999999998
 31
0.0
  0
LINE
  5
7CE
  8
0
  6
CONTINUOUS
 62
     7
 10
-519.19298999999978
 20
392.16665999999998
 30
0.0
 11
-612.65723000000003
 21
392.16665999999998
 31
0.0
  0
LINE
  5
7CF
  8
0
  6
CONTINUOUS
 62
     7
 10
-518.17296999999985
 20
390.66665999999992
 30
0.0
 11
-518.17296999999985
 21
385.80667
 31
0.0
  0
LINE
  5
7D0
  8
0
  6
CONTINUOUS
 62
     7
 10
-502.21294999999998
 20
390.66665999999992
 30
0.0
 11
-502.21294999999998
 21
385.80667
 31
0.0
  0
LINE
  5
7D1
  8
0
  6
CONTINUOUS
 62
     7
 10
-501.19296000000003
 20
391.68667999999991
 30
0.0
 11
-483.15872000000002
 21
391.68667999999991
 31
0.0
  0
LINE
  5
7D2
  8
0
  6
CONTINUOUS
 62
     7
 10
-501.21294999999992
 20
384.80667
 30
0.0
 11
-483.37295999999981
 21
384.80667
 31
0.0
  0
LINE
  5
7D3
  8
0
  6
CONTINUOUS
 62
     7
 10
-502.21294999999998
 20
445.66665999999998
 30
0.0
 11
-502.21294999999998
 21
450.52663999999999
 31
0.0
  0
LINE
  5
7D4
  8
0
  6
CONTINUOUS
 62
     7
 10
-518.17296999999985
 20
445.66665999999998
 30
0.0
 11
-518.17296999999985
 21
450.52663999999999
 31
0.0
  0
LINE
  5
7D5
  8
0
  6
CONTINUOUS
 62
     7
 10
-502.6929599999998
 20
445.66665999999998
 30
0.0
 11
-502.6929599999998
 21
450.66665999999992
 31
0.0
  0
LINE
  5
7D6
  8
0
  6
CONTINUOUS
 62
     7
 10
-517.69299000000001
 20
445.66665999999998
 30
0.0
 11
-517.69299000000001
 21
450.66665999999992
 31
0.0
  0
LINE
  5
7D7
  8
0
  6
CONTINUOUS
 62
     7
 10
-519.19298999999978
 20
452.16665999999992
 30
0.0
 11
-612.64294000000007
 21
452.16665999999992
 31
0.0
  0
LINE
  5
7D8
  8
0
  6
CONTINUOUS
 62
     7
 10
-501.21294999999992
 20
451.53664999999978
 30
0.0
 11
-483.37295999999981
 21
451.53664999999978
 31
0.0
  0
LINE
  5
7D9
  8
0
  6
CONTINUOUS
 62
     7
 10
-501.19296000000003
 20
444.65665000000001
 30
0.0
 11
-483.14724999999999
 21
444.65665000000001
 31
0.0
  0
LINE
  5
7DA
  8
0
  6
CONTINUOUS
 62
     7
 10
-519.19298999999978
 20
444.16665999999992
 30
0.0
 11
-612.64294000000007
 21
444.16665999999992
 31
0.0
  0
LINE
  5
7DB
  8
0
  6
CONTINUOUS
 62
     3
 10
-546.19299000000001
 20
438.66665999999981
 30
0.0
 11
-546.19299000000001
 21
397.66665999999992
 31
0.0
  0
LINE
  5
7DC
  8
0
  6
CONTINUOUS
 62
     3
 10
-483.19295999999991
 20
438.66665999999981
 30
0.0
 11
-483.19295999999991
 21
397.66665999999992
 31
0.0
  0
LINE
  5
7DD
  8
0
  6
CONTINUOUS
 62
     7
 10
-546.19299000000001
 20
438.66665999999981
 30
0.0
 11
-483.19295999999991
 21
438.66665999999981
 31
0.0
  0
LINE
  5
7DE
  8
0
  6
CONTINUOUS
 62
     7
 10
-546.19299000000001
 20
397.66665999999992
 30
0.0
 11
-483.19295999999991
 21
397.66665999999992
 31
0.0
  0
LINE
  5
7DF
  8
0
  6
CONTINUOUS
 62
     7
 10
-546.19299000000001
 20
431.16665999999992
 30
0.0
 11
-483.19295999999991
 21
431.16665999999992
 31
0.0
  0
LINE
  5
7E0
  8
0
  6
CONTINUOUS
 62
     3
 10
-586.19292999999982
 20
464.51659999999993
 30
0.0
 11
-617.19292999999982
 21
462.48659999999978
 31
0.0
  0
LINE
  5
7E1
  8
0
  6
CONTINUOUS
 62
     3
 10
-586.19292999999982
 20
371.81662
 30
0.0
 11
-617.19292999999982
 21
373.84661999999992
 31
0.0
  0
LINE
  5
7E2
  8
0
  6
CONTINUOUS
 62
     7
 10
-472.19296000000003
 20
366.12662
 30
0.0
 11
-442.19295999999991
 21
366.12662
 31
0.0
  0
LINE
  5
7E3
  8
0
  6
CONTINUOUS
 62
     7
 10
-472.19296000000003
 20
381.01662999999991
 30
0.0
 11
-442.19295999999991
 21
381.01662999999991
 31
0.0
  0
LINE
  5
7E4
  8
0
  6
CONTINUOUS
 62
     7
 10
-472.19296000000003
 20
455.31667999999962
 30
0.0
 11
-442.19295999999991
 21
455.31667999999962
 31
0.0
  0
LINE
  5
7E5
  8
0
  6
CONTINUOUS
 62
     7
 10
-472.19296000000003
 20
470.20670000000001
 30
0.0
 11
-442.19295999999991
 21
470.20670000000001
 31
0.0
  0
LINE
  5
7E6
  8
0
  6
CONTINUOUS
 62
     7
 10
-472.19296000000003
 20
199.3879399999999
 30
0.0
 11
-442.82607999999999
 21
199.3879399999999
 31
0.0
  0
LINE
  5
7E7
  8
0
  6
CONTINUOUS
 62
     7
 10
-472.19296000000003
 20
95.307952999999983
 30
0.0
 11
-442.19295999999991
 21
95.307952999999983
 31
0.0
  0
ARC
  5
7E8
  8
0
  6
CONTINUOUS
 62
     7
 10
-420.19299000000001
 20
364.62869000000001
 30
0.0
 40
1.0
 50
0.0
 51
90.000003000000007
  0
ARC
  5
7E9
  8
0
  6
CONTINUOUS
 62
     7
 10
-420.19299000000001
 20
361.74194
 30
0.0
 40
1.0
 50
0.0
 51
90.000003000000007
  0
ARC
  5
7EA
  8
0
  6
CONTINUOUS
 62
     7
 10
-420.19299000000001
 20
355.96843999999999
 30
0.0
 40
1.0
 50
0.0
 51
90.000003000000007
  0
ARC
  5
7EB
  8
0
  6
CONTINUOUS
 62
     7
 10
-420.19299000000001
 20
355.08166999999992
 30
0.0
 40
1.0
 50
269.99998999999991
 51
0.00000068324625
  0
ARC
  5
7EC
  8
0
  6
CONTINUOUS
 62
     7
 10
-420.19299000000001
 20
357.96841000000001
 30
0.0
 40
1.0
 50
269.99998999999991
 51
0.00000068324625
  0
ARC
  5
7ED
  8
0
  6
CONTINUOUS
 62
     7
 10
-420.19299000000001
 20
363.74194
 30
0.0
 40
1.0
 50
269.99998999999991
 51
0.00000068324625
  0
ARC
  5
7EE
  8
0
  6
CONTINUOUS
 62
     7
 10
-372.19299000000001
 20
492.59482000000003
 30
0.0
 40
2.0
 50
0.0
 51
88.499996999999965
  0
ARC
  5
7EF
  8
0
  6
CONTINUOUS
 62
     7
 10
-462.19299000000001
 20
493.38040000000001
 30
0.0
 40
2.0
 50
91.500000999999969
 51
180.00001
  0
ARC
  5
7F0
  8
0
  6
CONTINUOUS
 62
     7
 10
-372.19299000000001
 20
469.73849000000001
 30
0.0
 40
2.0
 50
271.49999999999972
 51
0.0
  0
ARC
  5
7F1
  8
0
  6
CONTINUOUS
 62
     7
 10
-452.19298999999978
 20
483.16665999999998
 30
0.0
 40
6.0
 50
359.45751000000001
 51
190.86121
  0
CIRCLE
  5
7F2
  8
0
  6
CONTINUOUS
 62
     7
 10
-382.19299000000001
 20
483.16665999999998
 30
0.0
 40
6.0
  0
ARC
  5
7F3
  8
0
  6
CONTINUOUS
 62
     7
 10
-372.19299000000001
 20
390.59618999999992
 30
0.0
 40
1.0
 50
91.999998000000005
 51
180.00001
  0
ARC
  5
7F4
  8
0
  6
CONTINUOUS
 62
     7
 10
-371.19299000000001
 20
392.63231999999999
 30
0.0
 40
1.0
 50
272.0
 51
0.0
  0
ARC
  5
7F5
  8
0
  6
CONTINUOUS
 62
     7
 10
-372.19299000000001
 20
445.73711999999989
 30
0.0
 40
1.0
 50
180.00001
 51
268.0
  0
ARC
  5
7F6
  8
0
  6
CONTINUOUS
 62
     7
 10
-371.19299000000001
 20
443.70095999999972
 30
0.0
 40
1.0
 50
0.0
 51
88.0
  0
ARC
  5
7F7
  8
0
  6
CONTINUOUS
 62
     7
 10
-372.19299000000001
 20
343.73849000000001
 30
0.0
 40
2.0
 50
271.49999999999972
 51
0.0
  0
ARC
  5
7F8
  8
0
  6
CONTINUOUS
 62
     7
 10
-462.19299000000001
 20
342.95294000000001
 30
0.0
 40
2.0
 50
180.00001
 51
268.5
  0
ARC
  5
7F9
  8
0
  6
CONTINUOUS
 62
     7
 10
-372.19299000000001
 20
366.59482000000003
 30
0.0
 40
2.0
 50
0.0
 51
88.499996999999965
  0
ARC
  5
7FA
  8
0
  6
DASHED
 62
     7
 10
-452.19298999999978
 20
353.16665999999992
 30
0.0
 40
6.0
 50
0.5425604000000001
 51
169.13879
  0
CIRCLE
  5
7FB
  8
0
  6
CONTINUOUS
 62
     7
 10
-382.19299000000001
 20
353.16665999999992
 30
0.0
 40
6.0
  0
ARC
  5
7FC
  8
0
  6
CONTINUOUS
 62
     7
 10
-378.19299000000001
 20
461.58499
 30
0.0
 40
5.0
 50
0.0
 51
85.000004000000004
  0
ARC
  5
7FD
  8
0
  6
CONTINUOUS
 62
     7
 10
-378.19299000000001
 20
374.74829
 30
0.0
 40
5.0
 50
275.0
 51
0.0
  0
ARC
  5
7FE
  8
0
  6
CONTINUOUS
 62
     7
 10
-394.19299000000001
 20
359.44763
 30
0.0
 40
5.0
 50
95.000001999999995
 51
180.00001
  0
ARC
  5
7FF
  8
0
  6
CONTINUOUS
 62
     7
 10
-394.19299000000001
 20
476.88565
 30
0.0
 40
5.0
 50
180.00001
 51
265.00000999999992
  0
ARC
  5
800
  8
0
  6
CONTINUOUS
 62
     7
 10
-394.19299000000001
 20
346.16345000000001
 30
0.0
 40
5.0
 50
180.00001
 51
271.49999999999972
  0
ARC
  5
801
  8
0
  6
CONTINUOUS
 62
     7
 10
-394.19299000000001
 20
490.16985999999991
 30
0.0
 40
5.0
 50
88.499996999999965
 51
180.00001
  0
ARC
  5
802
  8
0
  6
CONTINUOUS
 62
     7
 10
-402.19298999999978
 20
358.06934000000001
 30
0.0
 40
3.0
 50
271.49999999999972
 51
0.0
  0
ARC
  5
803
  8
0
  6
CONTINUOUS
 62
     7
 10
-422.58800999999988
 20
352.49844000000002
 30
0.0
 40
5.0
 50
271.49999999999972
 51
299.88702000000001
  0
ARC
  5
804
  8
0
  6
CONTINUOUS
 62
     7
 10
-406.96832000000001
 20
349.94155999999992
 30
0.0
 40
5.0
 50
91.500000999999969
 51
119.88701999999979
  0
ARC
  5
805
  8
0
  6
CONTINUOUS
 62
     7
 10
-389.19296000000003
 20
374.14111000000003
 30
0.0
 40
3.0
 50
271.49999999999972
 51
0.0
  0
ARC
  5
806
  8
0
  6
CONTINUOUS
 62
     7
 10
-389.19296000000003
 20
367.91565000000003
 30
0.0
 40
3.0
 50
275.0
 51
0.0
  0
ARC
  5
807
  8
0
  6
CONTINUOUS
 62
     7
 10
-382.01895000000002
 20
364.37536999999992
 30
0.0
 40
5.0
 50
95.000001999999995
 51
153.73433
  0
ARC
  5
808
  8
0
  6
CONTINUOUS
 62
     7
 10
-382.01895000000002
 20
471.95792
 30
0.0
 40
5.0
 50
206.26567
 51
265.00000999999992
  0
ARC
  5
809
  8
0
  6
CONTINUOUS
 62
     7
 10
-389.19296000000003
 20
462.19220000000001
 30
0.0
 40
3.0
 50
0.0
 51
88.499996999999965
  0
ARC
  5
80A
  8
0
  6
CONTINUOUS
 62
     7
 10
-422.58800999999988
 20
483.83487000000002
 30
0.0
 40
5.0
 50
60.11298
 51
88.499996999999965
  0
ARC
  5
80B
  8
0
  6
CONTINUOUS
 62
     7
 10
-389.19296000000003
 20
468.41765999999978
 30
0.0
 40
3.0
 50
0.0
 51
85.000004000000004
  0
ARC
  5
80C
  8
0
  6
CONTINUOUS
 62
     7
 10
-406.96832000000001
 20
486.39175
 30
0.0
 40
5.0
 50
240.11297999999999
 51
268.5
  0
ARC
  5
80D
  8
0
  6
CONTINUOUS
 62
     7
 10
-402.19298999999978
 20
478.26398
 30
0.0
 40
3.0
 50
0.0
 51
88.499996999999965
  0
ARC
  5
80E
  8
0
  6
CONTINUOUS
 62
     7
 10
-420.19299000000001
 20
472.59136999999993
 30
0.0
 40
1.0
 50
0.0
 51
90.000003000000007
  0
ARC
  5
80F
  8
0
  6
CONTINUOUS
 62
     7
 10
-420.19299000000001
 20
478.36489999999992
 30
0.0
 40
1.0
 50
0.0
 51
90.000003000000007
  0
ARC
  5
810
  8
0
  6
CONTINUOUS
 62
     7
 10
-420.19299000000001
 20
481.25164999999998
 30
0.0
 40
1.0
 50
0.0
 51
90.000003000000007
  0
ARC
  5
811
  8
0
  6
CONTINUOUS
 62
     7
 10
-420.19299000000001
 20
480.36487
 30
0.0
 40
1.0
 50
269.99998999999991
 51
0.00000068324625
  0
ARC
  5
812
  8
0
  6
CONTINUOUS
 62
     7
 10
-420.19299000000001
 20
474.59136999999998
 30
0.0
 40
1.0
 50
269.99998999999991
 51
0.00000068324625
  0
ARC
  5
813
  8
0
  6
CONTINUOUS
 62
     7
 10
-420.19299000000001
 20
471.70461999999992
 30
0.0
 40
1.0
 50
269.99998999999991
 51
0.00000068324625
  0
ARC
  5
814
  8
0
  6
CONTINUOUS
 62
     7
 10
-319.70425
 20
418.16665999999981
 30
0.0
 40
101.4887199999999
 50
151.89332999999999
 51
208.10667000000001
  0
ARC
  5
815
  8
0
  6
CONTINUOUS
 62
     7
 10
-440.1929599999998
 20
349.29827999999998
 30
0.0
 40
2.0
 50
180.00001
 51
268.5
  0
ARC
  5
816
  8
0
  6
CONTINUOUS
 62
     7
 10
-440.1929599999998
 20
487.03503000000001
 30
0.0
 40
2.0
 50
91.500000999999969
 51
180.00001
  0
ARC
  5
817
  8
0
  6
CONTINUOUS
 62
     7
 10
-445.19299000000001
 20
354.95537999999982
 30
0.0
 40
2.0
 50
180.00001
 51
270.0
  0
ARC
  5
818
  8
0
  6
CONTINUOUS
 62
     7
 10
-444.19295999999991
 20
350.95537999999982
 30
0.0
 40
2.0
 50
0.0
 51
90.000003000000007
  0
ARC
  5
819
  8
0
  6
CONTINUOUS
 62
     7
 10
-444.19295999999991
 20
485.37795999999997
 30
0.0
 40
2.0
 50
270.0
 51
0.0
  0
ARC
  5
81A
  8
0
  6
CONTINUOUS
 62
     7
 10
-445.19299000000001
 20
481.37795999999997
 30
0.0
 40
2.0
 50
90.000003000000007
 51
180.00001
  0
ARC
  5
81B
  8
0
  6
CONTINUOUS
 62
     7
 10
-360.19299000000001
 20
418.16662999999988
 30
0.0
 40
3.9999962
 50
90.000003000000007
 51
270.0
  0
CIRCLE
  5
81C
  8
0
  6
CONTINUOUS
 62
     7
 10
-203.59240999999989
 20
192.0919199999999
 30
0.0
 40
4.9999995000000004
  0
CIRCLE
  5
81D
  8
0
  6
CONTINUOUS
 62
     7
 10
-86.969475000000003
 20
192.09183999999991
 30
0.0
 40
4.9999995000000004
  0
CIRCLE
  5
81E
  8
0
  6
CONTINUOUS
 62
     7
 10
-173.40823
 20
79.442802
 30
0.0
 40
4.9999995000000004
  0
CIRCLE
  5
81F
  8
0
  6
CONTINUOUS
 62
     7
 10
-117.1537
 20
79.442802
 30
0.0
 40
4.9999995000000004
  0
ARC
  5
820
  8
0
  6
CONTINUOUS
 62
     7
 10
-420.19299000000001
 20
195.97866999999999
 30
0.0
 40
1.0
 50
270.0
 51
0.0
  0
ARC
  5
821
  8
0
  6
CONTINUOUS
 62
     7
 10
-420.19299000000001
 20
190.2051499999998
 30
0.0
 40
1.0
 50
270.0
 51
0.0
  0
ARC
  5
822
  8
0
  6
CONTINUOUS
 62
     7
 10
-420.19299000000001
 20
187.3184099999998
 30
0.0
 40
1.0
 50
270.0
 51
0.0
  0
ARC
  5
823
  8
0
  6
CONTINUOUS
 62
     7
 10
-420.19299000000001
 20
188.20515
 30
0.0
 40
1.0
 50
0.0
 51
90.000003000000007
  0
ARC
  5
824
  8
0
  6
CONTINUOUS
 62
     7
 10
-420.19299000000001
 20
193.97868
 30
0.0
 40
1.0
 50
0.0
 51
90.000003000000007
  0
ARC
  5
825
  8
0
  6
CONTINUOUS
 62
     7
 10
-420.19299000000001
 20
196.86543
 30
0.0
 40
1.0
 50
0.0
 51
90.000003000000007
  0
ARC
  5
826
  8
0
  6
CONTINUOUS
 62
     7
 10
-423.19298999999978
 20
206.87473
 30
0.0
 40
2.0
 50
270.0
 51
0.0
  0
ARC
  5
827
  8
0
  6
CONTINUOUS
 62
     7
 10
-423.19298999999978
 20
177.97266999999991
 30
0.0
 40
2.0
 50
0.0
 51
90.000003000000007
  0
ARC
  5
828
  8
0
  6
CONTINUOUS
 62
     7
 10
-423.19298999999978
 20
180.97266999999991
 30
0.0
 40
1.0
 50
179.99998999999991
 51
270.0
  0
ARC
  5
829
  8
0
  6
CONTINUOUS
 62
     7
 10
-208.61959999999999
 20
176.16528
 30
0.0
 40
5.0
 50
86.800639000000004
 51
174.01018999999991
  0
ARC
  5
82A
  8
0
  6
CONTINUOUS
 62
     7
 10
-99.779488000000001
 20
197.8812699999998
 30
0.0
 40
3.0
 50
350.70567
 51
47.999358999999998
  0
ARC
  5
82B
  8
0
  6
CONTINUOUS
 62
     7
 10
-145.2809399999999
 20
108.3479499999999
 30
0.0
 40
110.0
 50
58.263835999999991
 51
121.73617
  0
ARC
  5
82C
  8
0
  6
CONTINUOUS
 62
     7
 10
-190.3481899999999
 20
203.18436
 30
0.0
 40
5.0
 50
115.41755999999999
 51
205.06296999999989
  0
ARC
  5
82D
  8
0
  6
CONTINUOUS
 62
     7
 10
-97.940169999999995
 20
184.8910799999999
 30
0.0
 40
20.0
 50
5.9898154999999971
 51
58.263835999999991
  0
ARC
  5
82E
  8
0
  6
CONTINUOUS
 62
     7
 10
-192.6217199999999
 20
184.8910799999999
 30
0.0
 40
20.0
 50
121.73617
 51
174.01018999999991
  0
ARC
  5
82F
  8
0
  6
CONTINUOUS
 62
     7
 10
-372.19299000000001
 20
192.69324
 30
0.0
 40
2.0
 50
0.0
 51
60.000002000000002
  0
ARC
  5
830
  8
0
  6
CONTINUOUS
 62
     7
 10
-371.19296000000003
 20
137.96118000000001
 30
0.0
 40
2.0
 50
119.9999999999999
 51
180.00001
  0
ARC
  5
831
  8
0
  6
CONTINUOUS
 62
     7
 10
-371.19296000000003
 20
196.7347
 30
0.0
 40
2.0
 50
179.99998999999991
 51
240.00001
  0
ARC
  5
832
  8
0
  6
CONTINUOUS
 62
     7
 10
-372.19299000000001
 20
142.0026399999999
 30
0.0
 40
2.0
 50
300.0
 51
0.0
  0
ARC
  5
833
  8
0
  6
CONTINUOUS
 62
     7
 10
-126.2809399999998
 20
121.34793000000001
 30
0.0
 40
34.0
 50
328.53302000000002
 51
0.0
  0
ARC
  5
834
  8
0
  6
CONTINUOUS
 62
     7
 10
-99.280936999999994
 20
73.347968999999964
 30
0.0
 40
2.0
 50
0.0
 51
90.000003000000007
  0
ARC
  5
835
  8
0
  6
CONTINUOUS
 62
     7
 10
-81.942284000000001
 20
176.16528
 30
0.0
 40
5.0
 50
5.9898154999999971
 51
93.199359000000001
  0
ARC
  5
836
  8
0
  6
CONTINUOUS
 62
     7
 10
-164.2809399999999
 20
121.34793000000001
 30
0.0
 40
34.0
 50
179.99998999999991
 51
211.46697
  0
ARC
  5
837
  8
0
  6
CONTINUOUS
 62
     7
 10
-443.24362000000002
 20
89.347938999999982
 30
0.0
 40
5.0
 50
270.0
 51
348.02386999999999
  0
ARC
  5
838
  8
0
  6
CONTINUOUS
 62
     7
 10
-391.19299000000001
 20
177.1387499999999
 30
0.0
 40
8.0
 50
90.000003000000007
 51
180.00001
  0
ARC
  5
839
  8
0
  6
CONTINUOUS
 62
     7
 10
-145.2809399999999
 20
147.34795
 30
0.0
 40
71.0
 50
152.9994199999999
 51
174.01018999999991
  0
ARC
  5
83A
  8
0
  6
CONTINUOUS
 62
     7
 10
-111.2809399999999
 20
84.347945999999979
 30
0.0
 40
5.0
 50
0.0
 51
90.000003000000007
  0
ARC
  5
83B
  8
0
  6
CONTINUOUS
 62
     7
 10
-95.280951999999999
 20
82.347954000000016
 30
0.0
 40
2.0
 50
90.000003000000007
 51
180.00001
  0
ARC
  5
83C
  8
0
  6
CONTINUOUS
 62
     7
 10
-145.2809399999999
 20
147.34795
 30
0.0
 40
71.0
 50
47.999358999999998
 51
132.00065000000001
  0
ARC
  5
83D
  8
0
  6
CONTINUOUS
 62
     7
 10
-179.2809399999999
 20
84.347945999999979
 30
0.0
 40
5.0
 50
90.000003000000007
 51
180.00001
  0
ARC
  5
83E
  8
0
  6
CONTINUOUS
 62
     7
 10
-69.280936999999994
 20
82.347954000000016
 30
0.0
 40
2.0
 50
0.0
 51
90.000003000000007
  0
ARC
  5
83F
  8
0
  6
CONTINUOUS
 62
     7
 10
-145.2809399999999
 20
167.34792999999991
 30
0.0
 40
26.500001999999999
 50
270.0
 51
90.000003000000007
  0
ARC
  5
840
  8
0
  6
CONTINUOUS
 62
     7
 10
-394.19299000000001
 20
89.347938999999982
 30
0.0
 40
5.0
 50
180.00001
 51
270.0
  0
ARC
  5
841
  8
0
  6
CONTINUOUS
 62
     7
 10
-83.002678000000003
 20
195.13568000000001
 30
0.0
 40
13.999998
 50
154.93703999999991
 51
273.19936999999987
  0
ARC
  5
842
  8
0
  6
CONTINUOUS
 62
     7
 10
-195.28093000000001
 20
82.347954000000016
 30
0.0
 40
2.0
 50
0.0
 51
90.000003000000007
  0
ARC
  5
843
  8
0
  6
CONTINUOUS
 62
     7
 10
-438.19299000000001
 20
72.347960999999998
 30
0.0
 40
1.0
 50
90.000003000000007
 51
180.00001
  0
ARC
  5
844
  8
0
  6
CONTINUOUS
 62
     7
 10
-462.19299000000001
 20
82.347931000000003
 30
0.0
 40
2.0
 50
90.000003000000007
 51
180.00001
  0
ARC
  5
845
  8
0
  6
CONTINUOUS
 62
     7
 10
-372.19299000000001
 20
82.347931000000003
 30
0.0
 40
2.0
 50
0.0
 51
90.000003000000007
  0
ARC
  5
846
  8
0
  6
CONTINUOUS
 62
     7
 10
-368.19296000000003
 20
88.092499000000004
 30
0.0
 40
5.0
 50
179.99998999999991
 51
235.15011000000001
  0
ARC
  5
847
  8
0
  6
CONTINUOUS
 62
     7
 10
-391.19299000000001
 20
212.19402999999991
 30
0.0
 40
5.0
 50
0.0
 51
88.499996999999965
  0
ARC
  5
848
  8
0
  6
CONTINUOUS
 62
     7
 10
-103.28094
 20
78.347945999999979
 30
0.0
 40
3.0
 50
179.99998999999991
 51
270.0
  0
ARC
  5
849
  8
0
  6
CONTINUOUS
 62
     7
 10
-92.280952000000013
 20
89.347938999999982
 30
0.0
 40
5.0
 50
179.99998999999991
 51
270.0
  0
ARC
  5
84A
  8
0
  6
CONTINUOUS
 62
     7
 10
-207.55919999999981
 20
195.13568000000001
 30
0.0
 40
13.999998
 50
266.80063999999987
 51
25.06296900000001
  0
ARC
  5
84B
  8
0
  6
CONTINUOUS
 62
     7
 10
-390.19299000000001
 20
103.38874
 30
0.0
 40
4.0
 50
270.0
 51
0.0
  0
ARC
  5
84C
  8
0
  6
CONTINUOUS
 62
     7
 10
-145.2809399999999
 20
152.34792999999991
 30
0.0
 40
48.0
 50
0.0
 51
180.00001
  0
ARC
  5
84D
  8
0
  6
CONTINUOUS
 62
     7
 10
-221.2809399999999
 20
82.347954000000016
 30
0.0
 40
2.0
 50
90.000003000000007
 51
180.00001
  0
ARC
  5
84E
  8
0
  6
CONTINUOUS
 62
     7
 10
-145.2809399999999
 20
147.34795
 30
0.0
 40
71.0
 50
5.989814199999997
 51
27.000572999999999
  0
ARC
  5
84F
  8
0
  6
CONTINUOUS
 62
     7
 10
-145.2809399999999
 20
167.34792999999991
 30
0.0
 40
26.500001999999999
 50
90.000003000000007
 51
270.0
  0
ARC
  5
850
  8
0
  6
CONTINUOUS
 62
     7
 10
-437.19295999999991
 20
117.87241
 30
0.0
 40
5.0
 50
348.02386999999999
 51
0.0
  0
ARC
  5
851
  8
0
  6
CONTINUOUS
 62
     7
 10
-396.19299000000001
 20
72.347960999999998
 30
0.0
 40
1.0
 50
0.0
 51
90.000003000000007
  0
ARC
  5
852
  8
0
  6
CONTINUOUS
 62
     7
 10
-423.19298999999978
 20
203.8747299999998
 30
0.0
 40
1.0
 50
90.000003000000007
 51
180.00001
  0
ARC
  5
853
  8
0
  6
CONTINUOUS
 62
     7
 10
-100.2137
 20
203.18436
 30
0.0
 40
5.0
 50
334.93702999999988
 51
64.582443999999995
  0
ARC
  5
854
  8
0
  6
CONTINUOUS
 62
     7
 10
-191.28093999999999
 20
73.347968999999964
 30
0.0
 40
2.0
 50
90.000003000000007
 51
180.00001
  0
ARC
  5
855
  8
0
  6
CONTINUOUS
 62
     7
 10
-187.2809399999999
 20
78.347945999999979
 30
0.0
 40
3.0
 50
270.0
 51
0.0
  0
ARC
  5
856
  8
0
  6
CONTINUOUS
 62
     7
 10
-192.28093000000001
 20
72.347960999999998
 30
0.0
 40
1.0
 50
90.000003000000007
 51
180.00001
  0
ARC
  5
857
  8
0
  6
CONTINUOUS
 62
     7
 10
-98.280951999999985
 20
72.347960999999998
 30
0.0
 40
1.0
 50
0.0
 51
90.000003000000007
  0
ARC
  5
858
  8
0
  6
CONTINUOUS
 62
     7
 10
-97.280945000000003
 20
182.60047999999981
 30
0.0
 40
5.0
 50
0.0
 51
41.280590999999973
  0
ARC
  5
859
  8
0
  6
CONTINUOUS
 62
     7
 10
-190.78238999999991
 20
197.8812699999998
 30
0.0
 40
3.0
 50
132.00065000000001
 51
189.29434000000001
  0
ARC
  5
85A
  8
0
  6
CONTINUOUS
 62
     7
 10
-193.28093999999999
 20
182.60047999999981
 30
0.0
 40
5.0
 50
138.71941000000001
 51
180.00001
  0
ARC
  5
85B
  8
0
  6
CONTINUOUS
 62
     7
 10
-198.28093000000001
 20
89.347938999999982
 30
0.0
 40
5.0
 50
270.0
 51
0.0
  0
ARC
  5
85C
  8
0
  6
CONTINUOUS
 62
     7
 10
-205.86907999999991
 20
178.21990999999991
 30
0.0
 40
3.0
 50
95.705737999999997
 51
152.9994199999999
  0
ARC
  5
85D
  8
0
  6
CONTINUOUS
 62
     7
 10
-381.19298999999978
 20
206.06693999999999
 30
0.0
 40
5.0
 50
179.99998999999991
 51
265.0
  0
ARC
  5
85E
  8
0
  6
CONTINUOUS
 62
     7
 10
-376.19299000000001
 20
197.59895
 30
0.0
 40
3.0
 50
0.0
 51
84.999996999999979
  0
ARC
  5
85F
  8
0
  6
CONTINUOUS
 62
     7
 10
-84.69280999999998
 20
178.21990999999991
 30
0.0
 40
3.0
 50
27.000572999999999
 51
84.294260999999977
  0
CIRCLE
  5
860
  8
0
  6
CONTINUOUS
 62
     7
 10
-145.2809399999999
 20
167.34792999999991
 30
0.0
 40
4.0
  0
ARC
  5
861
  8
0
  6
CONTINUOUS
 62
     7
 10
-145.2809399999999
 20
167.34792999999991
 30
0.0
 40
14.00000099999999
 50
106.6015399999999
 51
73.398452000000006
  0
CIRCLE
  5
862
  8
0
  6
CONTINUOUS
 62
     7
 10
-145.2809399999999
 20
167.34792999999991
 30
0.0
 40
3.0
  0
ARC
  5
863
  8
0
  6
CONTINUOUS
 62
     7
 10
-440.1929599999998
 20
216.34795
 30
0.0
 40
2.0
 50
90.000003000000007
 51
180.00001
  0
ARC
  5
864
  8
0
  6
CONTINUOUS
 62
     7
 10
-445.1929599999998
 20
191.73596000000001
 30
0.0
 40
2.0
 50
179.99998999999991
 51
270.0
  0
ARC
  5
865
  8
0
  6
CONTINUOUS
 62
     7
 10
-449.1929599999998
 20
182.21526
 30
0.0
 40
2.0
 50
270.0
 51
0.0
  0
ARC
  5
866
  8
0
  6
CONTINUOUS
 62
     7
 10
-444.19298999999978
 20
200.84792999999991
 30
0.0
 40
2.0
 50
270.0
 51
0.0
  0
ARC
  5
867
  8
0
  6
CONTINUOUS
 62
     7
 10
-445.1929599999998
 20
196.84794999999991
 30
0.0
 40
2.0
 50
90.000003000000007
 51
180.00001
  0
ARC
  5
868
  8
0
  6
CONTINUOUS
 62
     7
 10
-444.19298999999978
 20
86.750884999999997
 30
0.0
 40
2.0
 50
270.0
 51
0.0
  0
ARC
  5
869
  8
0
  6
CONTINUOUS
 62
     7
 10
-445.1929599999998
 20
82.750877000000003
 30
0.0
 40
2.0
 50
90.000003000000007
 51
127.01007
  0
ARC
  5
86A
  8
0
  6
CONTINUOUS
 62
     7
 10
-449.1929599999998
 20
89.717926000000006
 30
0.0
 40
2.0
 50
0.0
 51
90.000003000000007
  0
ARC
  5
86B
  8
0
  6
CONTINUOUS
 62
     7
 10
-444.19298999999978
 20
213.58182999999991
 30
0.0
 40
2.0
 50
271.49999999999972
 51
0.0
  0
ARC
  5
86C
  8
0
  6
CONTINUOUS
 62
     3
 10
-621.64770999999985
 20
122.3479399999998
 30
0.0
 40
1.0000119000000001
 50
89.728461999999965
 51
270.27154000000002
  0
ARC
  5
86D
  8
0
  6
CONTINUOUS
 62
     3
 10
-621.64293999999995
 20
132.34794999999991
 30
0.0
 40
1.0
 50
90.000003000000007
 51
270.0
  0
ARC
  5
86E
  8
0
  6
CONTINUOUS
 62
     3
 10
-622.51984000000004
 20
112.30296
 30
0.0
 40
1.6750160000000001
 50
89.764983000000015
 51
270.23500999999987
  0
ARC
  5
86F
  8
0
  6
CONTINUOUS
 62
     3
 10
-622.92876999999999
 20
142.34796
 30
0.0
 40
1.270011999999999
 50
89.738748000000001
 51
270.26123999999999
  0
ARC
  5
870
  8
0
  6
CONTINUOUS
 62
     3
 10
-605.19775000000004
 20
112.3479499999999
 30
0.0
 40
1.0000119000000001
 50
89.726507999999981
 51
270.27347999999989
  0
ARC
  5
871
  8
0
  6
CONTINUOUS
 62
     3
 10
-605.19775000000004
 20
142.34796
 30
0.0
 40
1.0000119000000001
 50
89.726507999999981
 51
270.27347999999989
  0
ARC
  5
872
  8
0
  6
CONTINUOUS
 62
     3
 10
-621.64770999999985
 20
112.3479499999999
 30
0.0
 40
1.0000119000000001
 50
89.728461999999965
 51
270.27154000000002
  0
ARC
  5
873
  8
0
  6
CONTINUOUS
 62
     3
 10
-622.73297000000002
 20
122.3229399999999
 30
0.0
 40
1.465004
 50
90.000003000000007
 51
270.0
  0
ARC
  5
874
  8
0
  6
CONTINUOUS
 62
     3
 10
-622.86297999999999
 20
132.33795000000001
 30
0.0
 40
1.3300080000000001
 50
90.000003000000007
 51
270.0
  0
ARC
  5
875
  8
0
  6
CONTINUOUS
 62
     3
 10
-605.19775000000004
 20
122.3479399999998
 30
0.0
 40
1.0000119000000001
 50
89.726507999999981
 51
270.27347999999989
  0
ARC
  5
876
  8
0
  6
CONTINUOUS
 62
     3
 10
-605.19775000000004
 20
132.34794999999991
 30
0.0
 40
1.0000119000000001
 50
89.726507999999981
 51
270.27347999999989
  0
ARC
  5
877
  8
0
  6
CONTINUOUS
 62
     3
 10
-621.64293999999995
 20
142.34796
 30
0.0
 40
1.0
 50
90.000003000000007
 51
270.0
  0
ARC
  5
878
  8
0
  6
CONTINUOUS
 62
     3
 10
-483.37299000000002
 20
112.30296
 30
0.0
 40
1.6750041
 50
270.0
 51
90.000003000000007
  0
ARC
  5
879
  8
0
  6
CONTINUOUS
 62
     3
 10
-486.85299999999989
 20
112.3479499999999
 30
0.0
 40
1.0
 50
270.0
 51
90.000003000000007
  0
ARC
  5
87A
  8
0
  6
CONTINUOUS
 62
     3
 10
-486.85299999999989
 20
182.34792999999991
 30
0.0
 40
1.0
 50
270.0
 51
90.000003000000007
  0
ARC
  5
87B
  8
0
  6
CONTINUOUS
 62
     3
 10
-483.37299000000002
 20
182.39292999999981
 30
0.0
 40
1.6750041
 50
270.0
 51
90.000003000000007
  0
ARC
  5
87C
  8
0
  6
CONTINUOUS
 62
     3
 10
-499.89139
 20
114.9795499999999
 30
0.0
 40
1.001595999999999
 50
180.09126000000001
 51
269.90875
  0
ARC
  5
87D
  8
0
  6
CONTINUOUS
 62
     3
 10
-499.89681999999999
 20
116.0821199999999
 30
0.0
 40
0.99615997
 50
91.504365000000007
 51
180.24055000000001
  0
ARC
  5
87E
  8
0
  6
CONTINUOUS
 62
     3
 10
-499.89175
 20
178.6186999999999
 30
0.0
 40
1.001239999999999
 50
180.04312999999991
 51
268.21195999999992
  0
ARC
  5
87F
  8
0
  6
CONTINUOUS
 62
     3
 10
-499.89645000000002
 20
179.72145
 30
0.0
 40
0.996512
 50
89.798963000000015
 51
180.20103
  0
ARC
  5
880
  8
0
  6
CONTINUOUS
 62
     3
 10
-612.64770999999985
 20
172.34795
 30
0.0
 40
1.0000119000000001
 50
89.728448
 51
270.27154000000002
  0
ARC
  5
881
  8
0
  6
CONTINUOUS
 62
     3
 10
-612.64770999999985
 20
182.34792999999991
 30
0.0
 40
1.0000119000000001
 50
89.728448
 51
270.27154000000002
  0
ARC
  5
882
  8
0
  6
CONTINUOUS
 62
     3
 10
-621.64293999999995
 20
162.34795
 30
0.0
 40
1.0
 50
90.000003000000007
 51
270.0
  0
ARC
  5
883
  8
0
  6
CONTINUOUS
 62
     3
 10
-621.64293999999995
 20
152.34792999999991
 30
0.0
 40
1.0
 50
90.000003000000007
 51
270.0
  0
ARC
  5
884
  8
0
  6
CONTINUOUS
 62
     3
 10
-613.51984000000004
 20
182.39292999999981
 30
0.0
 40
1.6750160000000001
 50
89.766540000000006
 51
270.23345999999992
  0
ARC
  5
885
  8
0
  6
CONTINUOUS
 62
     3
 10
-613.73297000000002
 20
172.37294
 30
0.0
 40
1.465004
 50
90.000003000000007
 51
270.0
  0
ARC
  5
886
  8
0
  6
CONTINUOUS
 62
     3
 10
-622.86297999999999
 20
162.35793999999979
 30
0.0
 40
1.3300080000000001
 50
90.000003000000007
 51
270.0
  0
ARC
  5
887
  8
0
  6
CONTINUOUS
 62
     3
 10
-622.92876999999999
 20
152.35294999999991
 30
0.0
 40
1.265012
 50
89.737716000000006
 51
270.26227999999992
  0
ARC
  5
888
  8
0
  6
CONTINUOUS
 62
     3
 10
-605.19775000000004
 20
182.34792999999991
 30
0.0
 40
1.0000119000000001
 50
89.726507999999981
 51
270.27347999999989
  0
ARC
  5
889
  8
0
  6
CONTINUOUS
 62
     3
 10
-605.19775000000004
 20
172.34795
 30
0.0
 40
1.0000119000000001
 50
89.726507999999981
 51
270.27347999999989
  0
ARC
  5
88A
  8
0
  6
CONTINUOUS
 62
     3
 10
-605.19775000000004
 20
162.34795
 30
0.0
 40
1.0000119000000001
 50
89.726507999999981
 51
270.27347999999989
  0
ARC
  5
88B
  8
0
  6
CONTINUOUS
 62
     3
 10
-480.54760999999991
 20
99.501960999999994
 30
0.0
 40
1.495995999999999
 50
89.821707000000004
 51
165.04766000000001
  0
ARC
  5
88C
  8
0
  6
CONTINUOUS
 62
     3
 10
-551.19488999999999
 20
83.439835000000002
 30
0.0
 40
2.0019
 50
270.05437999999992
 51
359.94562000000002
  0
ARC
  5
88D
  8
0
  6
CONTINUOUS
 62
     3
 10
-551.19635000000005
 20
84.111305000000002
 30
0.0
 40
2.0033560000000001
 50
270.09593999999998
 51
359.90406000000002
  0
ARC
  5
88E
  8
0
  6
CONTINUOUS
 62
     3
 10
-551.19896999999992
 20
85.463973999999979
 30
0.0
 40
2.0060479999999981
 50
270.17248999999998
 51
359.82751000000002
  0
ARC
  5
88F
  8
0
  6
CONTINUOUS
 62
     3
 10
-607.58141999999987
 20
82.551292000000004
 30
0.0
 40
1.4966440000000001
 50
14.57574
 51
90.058278000000001
  0
ARC
  5
890
  8
0
  6
CONTINUOUS
 62
     3
 10
-607.69269000000008
 20
84.178184999999999
 30
0.0
 40
1.499755999999999
 50
359.99058999999983
 51
90.009407999999965
  0
ARC
  5
891
  8
0
  6
CONTINUOUS
 62
     3
 10
-607.6956799999997
 20
87.585227999999987
 30
0.0
 40
1.502715899999999
 50
0.103436
 51
89.896566000000007
  0
ARC
  5
892
  8
0
  6
CONTINUOUS
 62
     3
 10
-607.6945199999999
 20
92.866378999999995
 30
0.0
 40
1.501567999999998
 50
0.059805003
 51
89.940196999999998
  0
ARC
  5
893
  8
0
  6
CONTINUOUS
 62
     3
 10
-604.1990400000002
 20
83.438004000000006
 30
0.0
 40
2.000076099999998
 50
194.77497999999991
 51
270.17352999999991
  0
ARC
  5
894
  8
0
  6
CONTINUOUS
 62
     3
 10
-604.19434000000001
 20
84.106566999999998
 30
0.0
 40
1.998619899999996
 50
179.9604699999999
 51
270.03952999999967
  0
ARC
  5
895
  8
0
  6
CONTINUOUS
 62
     3
 10
-604.19164999999998
 20
85.459259000000003
 30
0.0
 40
2.0013119999999991
 50
180.03756000000001
 51
269.96244000000002
  0
ARC
  5
896
  8
0
  6
CONTINUOUS
 62
     3
 10
-604.19249999999988
 20
87.488387999999986
 30
0.0
 40
2.0004520000000001
 50
180.0129
 51
269.98709999999988
  0
ARC
  5
897
  8
0
  6
CONTINUOUS
 62
     3
 10
-621.08148000000006
 20
86.051079000000001
 30
0.0
 40
2.0031319000000001
 50
194.25158999999999
 51
269.95755000000003
  0
ARC
  5
898
  8
0
  6
CONTINUOUS
 62
     3
 10
-625.36517000000003
 20
88.729819999999961
 30
0.0
 40
1.4981281
 50
14.224575
 51
89.916113999999979
  0
ARC
  5
899
  8
0
  6
CONTINUOUS
 62
     3
 10
-625.37958000000003
 20
90.750434999999996
 30
0.0
 40
1.497512
 50
13.418233000000001
 51
90.128792999999988
  0
ARC
  5
89A
  8
0
  6
CONTINUOUS
 62
     3
 10
-621.05597
 20
87.678702999999999
 30
0.0
 40
2.0007559999999991
 50
193.3141599999999
 51
270.08645000000001
  0
ARC
  5
89B
  8
0
  6
CONTINUOUS
 62
     3
 10
-625.40985000000001
 20
94.818855000000013
 30
0.0
 40
1.4991000000000001
 50
11.89856
 51
89.736657999999963
  0
ARC
  5
89C
  8
0
  6
CONTINUOUS
 62
     3
 10
-621.02807999999982
 20
91.087326000000004
 30
0.0
 40
1.9993919999999981
 50
192.1080399999999
 51
270.14582000000001
  0
ARC
  5
89D
  8
0
  6
CONTINUOUS
 62
     3
 10
-620.96691999999985
 20
96.366371000000015
 30
0.0
 40
1.998443999999999
 50
190.33239999999989
 51
270.11368999999979
  0
ARC
  5
89E
  8
0
  6
CONTINUOUS
 62
     3
 10
-627.69257000000005
 20
97.098381000000003
 30
0.0
 40
0.49955601
 50
359.94911000000002
 51
90.050894000000014
  0
ARC
  5
89F
  8
0
  6
CONTINUOUS
 62
     3
 10
-627.69641000000001
 20
99.251335000000012
 30
0.0
 40
0.50340396
 50
270.38612999999992
 51
359.61387000000002
  0
ARC
  5
8A0
  8
0
  6
CONTINUOUS
 62
     3
 10
-628.19701999999995
 20
101.85203
 30
0.0
 40
1.0040839999999991
 50
270.23262999999992
 51
359.76737000000008
  0
ARC
  5
8A1
  8
0
  6
CONTINUOUS
 62
     3
 10
-631.19452000000001
 20
107.10724999999979
 30
0.0
 40
0.9984599899999999
 50
179.95962
 51
239.38655
  0
ARC
  5
8A2
  8
0
  6
CONTINUOUS
 62
     3
 10
-628.19542999999965
 20
106.37041000000001
 30
0.0
 40
1.002459999999999
 50
270.14037999999999
 51
359.85962000000001
  0
ARC
  5
8A3
  8
0
  6
CONTINUOUS
 62
     3
 10
-631.19421
 20
101.47144
 30
0.0
 40
0.9987800700000001
 50
179.6266699999999
 51
238.70855
  0
ARC
  5
8A4
  8
0
  6
CONTINUOUS
 62
     3
 10
-631.19524999999999
 20
102.50924000000001
 30
0.0
 40
0.99770796
 50
180.0740499999998
 51
242.04476
  0
ARC
  5
8A5
  8
0
  6
CONTINUOUS
 62
     3
 10
-631.19390999999996
 20
106.07263
 30
0.0
 40
0.9991000299999999
 50
179.69542000000001
 51
236.66176999999999
  0
ARC
  5
8A6
  8
0
  6
CONTINUOUS
 62
     3
 10
-629.92962999999986
 20
106.3689399999999
 30
0.0
 40
1.001012
 50
240.47136
 51
270.3802
  0
ARC
  5
8A7
  8
0
  6
CONTINUOUS
 62
     3
 10
-629.90021000000002
 20
105.22845
 30
0.0
 40
1.0005360000000001
 50
237.1464
 51
270.41322000000002
  0
ARC
  5
8A8
  8
0
  6
CONTINUOUS
 62
     3
 10
-629.93781000000001
 20
101.84857
 30
0.0
 40
1.0006280000000001
 50
241.64985999999999
 51
269.70470999999992
  0
ARC
  5
8A9
  8
0
  6
CONTINUOUS
 62
     3
 10
-629.92163000000016
 20
100.7116
 30
0.0
 40
1.003687999999999
 50
239.37027
 51
270.49275
  0
ARC
  5
8AA
  8
0
  6
CONTINUOUS
 62
     3
 10
-629.94713999999976
 20
99.747208000000001
 30
0.0
 40
0.99928796
 50
242.86126999999991
 51
269.66618999999992
  0
ARC
  5
8AB
  8
0
  6
CONTINUOUS
 62
     3
 10
-629.91228999999998
 20
98.599022000000005
 30
0.0
 40
1.0011358999999991
 50
239.328
 51
269.38751000000002
  0
ARC
  5
8AC
  8
0
  6
CONTINUOUS
 62
     3
 10
-631.19732999999997
 20
100.3782999999999
 30
0.0
 40
0.99566799
 50
180.02043
 51
243.40982999999991
  0
ARC
  5
8AD
  8
0
  6
CONTINUOUS
 62
     3
 10
-631.19537000000003
 20
99.332611000000014
 30
0.0
 40
0.9976240400000001
 50
180.2675099999999
 51
240.07953999999981
  0
ARC
  5
8AE
  8
0
  6
CONTINUOUS
 62
     3
 10
-618.02959999999985
 20
105.7598599999999
 30
0.0
 40
4.9985837999999987
 50
5.3731198999999981
 51
80.364975999999999
  0
ARC
  5
8AF
  8
0
  6
CONTINUOUS
 62
     3
 10
-617.56299000000001
 20
109.6951199999999
 30
0.0
 40
6.0085920999999987
 50
273.53095000000002
 51
314.61478
  0
ARC
  5
8B0
  8
0
  6
CONTINUOUS
 62
     3
 10
-480.48590000000002
 20
94.818625999999995
 30
0.0
 40
1.499328
 50
89.888150999999979
 51
168.09384
  0
ARC
  5
8B1
  8
0
  6
CONTINUOUS
 62
     3
 10
-485.35051999999979
 20
88.850554999999986
 30
0.0
 40
2.0026237999999981
 50
270.21533999999991
 51
347.81734
  0
ARC
  5
8B2
  8
0
  6
CONTINUOUS
 62
     3
 10
-614.04900999999995
 20
188.56824
 30
0.0
 40
1.0011080999999991
 50
354.25024999999982
 51
45.146993999999992
  0
ARC
  5
8B3
  8
0
  6
CONTINUOUS
 62
     3
 10
-617.57219999999995
 20
185.01502999999991
 30
0.0
 40
6.0049156999999971
 50
45.22730700000001
 51
86.379093999999981
  0
ARC
  5
8B4
  8
0
  6
CONTINUOUS
 62
     3
 10
-618.03467000000001
 20
188.9407699999999
 30
0.0
 40
5.004112199999998
 50
279.68356999999992
 51
354.57833999999991
  0
ARC
  5
8B5
  8
0
  6
CONTINUOUS
 62
     3
 10
-628.19281000000001
 20
130.3480999999999
 30
0.0
 40
0.9998440099999999
 50
359.99097999999992
 51
90.00901800000004
  0
ARC
  5
8B6
  8
0
  6
CONTINUOUS
 62
     3
 10
-628.19788000000005
 20
134.35285999999991
 30
0.0
 40
1.004928
 50
270.28023999999988
 51
359.71976000000001
  0
ARC
  5
8B7
  8
0
  6
CONTINUOUS
 62
     3
 10
-628.19281000000001
 20
140.34809999999999
 30
0.0
 40
0.99985206
 50
359.99142999999998
 51
90.008574000000024
  0
ARC
  5
8B8
  8
0
  6
CONTINUOUS
 62
     3
 10
-628.1979399999999
 20
144.35286999999991
 30
0.0
 40
1.0049318999999981
 50
270.28044999999992
 51
359.71955000000008
  0
ARC
  5
8B9
  8
0
  6
CONTINUOUS
 62
     3
 10
-631.19794000000002
 20
142.35287
 30
0.0
 40
0.9950800499999999
 50
89.715893999999963
 51
180.2841
  0
ARC
  5
8BA
  8
0
  6
CONTINUOUS
 62
     3
 10
-631.19281000000001
 20
142.34816000000001
 30
0.0
 40
1.0002040000000001
 50
180.01169999999999
 51
269.98829999999992
  0
ARC
  5
8BB
  8
0
  6
CONTINUOUS
 62
     3
 10
-631.19794000000002
 20
132.35287
 30
0.0
 40
0.99508399
 50
89.716106000000025
 51
180.2838899999999
  0
ARC
  5
8BC
  8
0
  6
CONTINUOUS
 62
     3
 10
-631.19281000000001
 20
132.34816000000001
 30
0.0
 40
1.0001999999999991
 50
180.01150000000001
 51
269.98851000000002
  0
ARC
  5
8BD
  8
0
  6
CONTINUOUS
 62
     3
 10
-631.19794000000002
 20
122.3528799999999
 30
0.0
 40
0.99508399
 50
89.716324
 51
180.28368
  0
ARC
  5
8BE
  8
0
  6
CONTINUOUS
 62
     3
 10
-631.19281000000001
 20
122.3481399999998
 30
0.0
 40
1.0001959999999981
 50
180.01127999999991
 51
269.98872
  0
ARC
  5
8BF
  8
0
  6
CONTINUOUS
 62
     3
 10
-631.19646999999975
 20
113.17641
 30
0.0
 40
0.9964760499999998
 50
179.91257999999991
 51
247.17966000000001
  0
ARC
  5
8C0
  8
0
  6
CONTINUOUS
 62
     3
 10
-631.19659000000001
 20
114.96229
 30
0.0
 40
0.9963800299999999
 50
180.24948999999981
 51
253.29706999999991
  0
ARC
  5
8C1
  8
0
  6
CONTINUOUS
 62
     3
 10
-630.05242999999984
 20
114.61063
 30
0.0
 40
1.0027280000000001
 50
253.75297
 51
270.54039999999992
  0
ARC
  5
8C2
  8
0
  6
CONTINUOUS
 62
     3
 10
-629.98999000000003
 20
112.66316999999979
 30
0.0
 40
1.005223999999999
 50
246.98628999999991
 51
269.82935999999989
  0
ARC
  5
8C3
  8
0
  6
CONTINUOUS
 62
     3
 10
-627.89239999999995
 20
110.9585
 30
0.0
 40
0.69944
 50
359.95416
 51
90.045839999999984
  0
ARC
  5
8C4
  8
0
  6
CONTINUOUS
 62
     3
 10
-628.19281000000001
 20
120.34811000000001
 30
0.0
 40
0.99984801
 50
359.99119000000002
 51
90.008807000000004
  0
ARC
  5
8C5
  8
0
  6
CONTINUOUS
 62
     3
 10
-628.19788000000005
 20
124.35285
 30
0.0
 40
1.0049238999999981
 50
270.28003999999999
 51
359.71996999999988
  0
ARC
  5
8C6
  8
0
  6
CONTINUOUS
 62
     3
 10
-628.19628999999986
 20
114.6112999999999
 30
0.0
 40
1.003363999999999
 50
270.19171
 51
359.80827999999991
  0
ARC
  5
8C7
  8
0
  6
CONTINUOUS
 62
     3
 10
-485.34551999999991
 20
205.85146999999989
 30
0.0
 40
1.996488
 50
12.040875
 51
89.926440999999969
  0
ARC
  5
8C8
  8
0
  6
CONTINUOUS
 62
     3
 10
-480.48709000000002
 20
199.88840999999991
 30
0.0
 40
1.500475999999999
 50
192.33223000000001
 51
270.15827999999999
  0
ARC
  5
8C9
  8
0
  6
CONTINUOUS
 62
     3
 10
-479.19857999999988
 20
198.39355
 30
0.0
 40
0.9944000200000001
 50
89.676490999999999
 51
180.32351
  0
ARC
  5
8CA
  8
0
  6
CONTINUOUS
 62
     3
 10
-479.19794000000002
 20
209.85289
 30
0.0
 40
0.9950640200000001
 50
89.714938000000004
 51
180.28505999999999
  0
ARC
  5
8CB
  8
0
  6
CONTINUOUS
 62
     3
 10
-487.38339000000002
 20
207.20896999999991
 30
0.0
 40
1.998987899999999
 50
15.047801
 51
89.987373000000005
  0
ARC
  5
8CC
  8
0
  6
CONTINUOUS
 62
     3
 10
-480.54271999999992
 20
195.20033000000001
 30
0.0
 40
1.502391899999999
 50
195.1400099999999
 51
269.99063999999998
  0
ARC
  5
8CD
  8
0
  6
CONTINUOUS
 62
     3
 10
-551.19475999999997
 20
211.26612999999981
 30
0.0
 40
2.0018279999999962
 50
0.052301
 51
89.947696999999977
  0
ARC
  5
8CE
  8
0
  6
CONTINUOUS
 62
     3
 10
-551.19128000000001
 20
210.58965000000001
 30
0.0
 40
1.9982919999999991
 50
359.95102999999978
 51
90.048975000000013
  0
ARC
  5
8CF
  8
0
  6
CONTINUOUS
 62
     3
 10
-551.19390999999985
 20
209.23701
 30
0.0
 40
2.0009238999999992
 50
0.026462999
 51
89.973535999999982
  0
ARC
  5
8D0
  8
0
  6
CONTINUOUS
 62
     3
 10
-607.5863599999999
 20
212.15095999999991
 30
0.0
 40
1.5030159999999959
 50
270.12945000000002
 51
345.23653999999999
  0
ARC
  5
8D1
  8
0
  6
CONTINUOUS
 62
     3
 10
-607.69780999999978
 20
210.52280999999999
 30
0.0
 40
1.5048719999999991
 50
270.18518
 51
359.81482
  0
ARC
  5
8D2
  8
0
  6
CONTINUOUS
 62
     3
 10
-607.69579999999985
 20
207.12076999999991
 30
0.0
 40
1.5028360000000001
 50
270.10793999999999
 51
359.89206000000001
  0
ARC
  5
8D3
  8
0
  6
CONTINUOUS
 62
     3
 10
-607.69964999999979
 20
201.83463999999989
 30
0.0
 40
1.506699899999999
 50
270.2541599999999
 51
359.74583999999987
  0
ARC
  5
8D4
  8
0
  6
CONTINUOUS
 62
     3
 10
-604.19745
 20
211.2692099999999
 30
0.0
 40
1.9987239999999991
 50
89.871137000000004
 51
165.55096
  0
ARC
  5
8D5
  8
0
  6
CONTINUOUS
 62
     3
 10
-604.19939999999986
 20
210.59441000000001
 30
0.0
 40
1.9935560999999991
 50
89.814515
 51
180.18548999999999
  0
ARC
  5
8D6
  8
0
  6
CONTINUOUS
 62
     3
 10
-604.19677999999999
 20
209.24176
 30
0.0
 40
1.9961880000000001
 50
89.890486999999965
 51
180.10950999999989
  0
ARC
  5
8D7
  8
0
  6
CONTINUOUS
 62
     3
 10
-604.19757000000004
 20
207.21258999999981
 30
0.0
 40
1.9953640999999991
 50
89.866758999999988
 51
180.13323
  0
ARC
  5
8D8
  8
0
  6
CONTINUOUS
 62
     3
 10
-621.08642999999995
 20
208.65111999999991
 30
0.0
 40
1.996815999999999
 50
89.901436000000004
 51
165.88940999999991
  0
ARC
  5
8D9
  8
0
  6
CONTINUOUS
 62
     3
 10
-625.37170000000003
 20
205.97114999999999
 30
0.0
 40
1.5032319999999959
 50
270.33132000000001
 51
346.01802999999978
  0
ARC
  5
8DA
  8
0
  6
CONTINUOUS
 62
     3
 10
-625.38451999999995
 20
203.95171999999999
 30
0.0
 40
1.503776
 50
270.05984000000001
 51
346.39312999999999
  0
ARC
  5
8DB
  8
0
  6
CONTINUOUS
 62
     3
 10
-621.06090999999981
 20
207.02343999999991
 30
0.0
 40
1.9945159999999991
 50
89.771334999999979
 51
166.8280399999999
  0
ARC
  5
8DC
  8
0
  6
CONTINUOUS
 62
     3
 10
-625.40868999999986
 20
199.88818000000001
 30
0.0
 40
1.500248
 50
270.21661999999992
 51
347.67500000000001
  0
ARC
  5
8DD
  8
0
  6
CONTINUOUS
 62
     3
 10
-621.02814000000001
 20
203.61864999999989
 30
0.0
 40
1.999288
 50
89.851815000000016
 51
167.89433
  0
ARC
  5
8DE
  8
0
  6
CONTINUOUS
 62
     3
 10
-620.97192000000018
 20
198.33550999999991
 30
0.0
 40
1.9924479999999991
 50
89.742107999999988
 51
169.8117899999998
  0
ARC
  5
8DF
  8
0
  6
CONTINUOUS
 62
     3
 10
-605.19775000000004
 20
152.34792999999991
 30
0.0
 40
1.0000119000000001
 50
89.726507999999981
 51
270.27347999999989
  0
ARC
  5
8E0
  8
0
  6
CONTINUOUS
 62
     3
 10
-479.19350999999989
 20
96.307411000000016
 30
0.0
 40
0.9994760199999999
 50
179.97008999999991
 51
270.02991999999989
  0
ARC
  5
8E1
  8
0
  6
CONTINUOUS
 62
     3
 10
-487.38830999999988
 20
87.493331999999981
 30
0.0
 40
2.0053917999999991
 50
270.15275000000003
 51
344.81207000000001
  0
ARC
  5
8E2
  8
0
  6
CONTINUOUS
 62
     3
 10
-479.1927799999998
 20
84.848122000000004
 30
0.0
 40
1.0001799999999981
 50
180.01031
 51
269.98967999999968
  0
ARC
  5
8E3
  8
0
  6
CONTINUOUS
 62
     3
 10
-627.69757000000004
 20
197.6025699999999
 30
0.0
 40
0.5046359900000002
 50
270.52375999999992
 51
359.47624000000002
  0
ARC
  5
8E4
  8
0
  6
CONTINUOUS
 62
     3
 10
-627.69135000000006
 20
195.44958
 30
0.0
 40
0.4983640000000002
 50
359.81141000000002
 51
90.188598000000013
  0
ARC
  5
8E5
  8
0
  6
CONTINUOUS
 62
     3
 10
-628.19195999999999
 20
192.84894
 30
0.0
 40
0.9990080599999998
 50
359.94315
 51
90.056843000000015
  0
ARC
  5
8E6
  8
0
  6
CONTINUOUS
 62
     3
 10
-627.89751999999964
 20
183.74249
 30
0.0
 40
0.7045519900000004
 50
270.36910999999992
 51
359.63088999999991
  0
ARC
  5
8E7
  8
0
  6
CONTINUOUS
 62
     3
 10
-628.19537000000003
 20
188.3355699999999
 30
0.0
 40
1.002375999999999
 50
0.13559199
 51
89.864409999999964
  0
ARC
  5
8E8
  8
0
  6
CONTINUOUS
 62
     3
 10
-628.19128000000001
 20
180.08965000000001
 30
0.0
 40
0.99829602
 50
359.90204
 51
90.097960999999998
  0
ARC
  5
8E9
  8
0
  6
CONTINUOUS
 62
     3
 10
-628.19788000000005
 20
174.35285999999991
 30
0.0
 40
1.0049318999999981
 50
270.28041999999999
 51
359.71958000000001
  0
ARC
  5
8EA
  8
0
  6
CONTINUOUS
 62
     3
 10
-628.19281000000001
 20
170.34809999999999
 30
0.0
 40
0.99985206
 50
359.99144999999999
 51
90.008546999999993
  0
ARC
  5
8EB
  8
0
  6
CONTINUOUS
 62
     3
 10
-628.19788000000005
 20
164.35285999999991
 30
0.0
 40
1.004928
 50
270.28021999999987
 51
359.71977999999979
  0
ARC
  5
8EC
  8
0
  6
CONTINUOUS
 62
     3
 10
-628.19281000000001
 20
160.34807999999981
 30
0.0
 40
0.9998440099999999
 50
359.99101000000002
 51
90.008991000000023
  0
ARC
  5
8ED
  8
0
  6
CONTINUOUS
 62
     3
 10
-628.19788000000005
 20
154.3528399999999
 30
0.0
 40
1.0049238999999981
 50
270.28001
 51
359.71999
  0
ARC
  5
8EE
  8
0
  6
CONTINUOUS
 62
     3
 10
-628.19281000000001
 20
150.34809999999979
 30
0.0
 40
0.99984801
 50
359.99121999999988
 51
90.008778999999976
  0
ARC
  5
8EF
  8
0
  6
CONTINUOUS
 62
     3
 10
-631.19281000000001
 20
152.34814
 30
0.0
 40
1.0001959999999981
 50
180.01124999999999
 51
269.98874000000001
  0
ARC
  5
8F0
  8
0
  6
CONTINUOUS
 62
     3
 10
-631.19794000000002
 20
152.35286999999991
 30
0.0
 40
0.9950879799999999
 50
89.716344999999961
 51
180.28364999999991
  0
ARC
  5
8F1
  8
0
  6
CONTINUOUS
 62
     3
 10
-631.19281000000001
 20
162.34814
 30
0.0
 40
1.0001999999999991
 50
180.0114699999998
 51
269.98852999999991
  0
ARC
  5
8F2
  8
0
  6
CONTINUOUS
 62
     3
 10
-631.19794000000002
 20
162.35285999999999
 30
0.0
 40
0.99508399
 50
89.716132999999985
 51
180.28387000000001
  0
ARC
  5
8F3
  8
0
  6
CONTINUOUS
 62
     3
 10
-631.19281000000001
 20
172.34816000000001
 30
0.0
 40
1.0002040000000001
 50
180.0116699999999
 51
269.9883200000001
  0
ARC
  5
8F4
  8
0
  6
CONTINUOUS
 62
     3
 10
-631.19794000000002
 20
172.35286999999991
 30
0.0
 40
0.9950800499999999
 50
89.71592099999998
 51
180.2840699999999
  0
ARC
  5
8F5
  8
0
  6
CONTINUOUS
 62
     3
 10
-631.19659000000001
 20
181.52952999999999
 30
0.0
 40
0.99640006
 50
112.8173899999998
 51
180.0903999999999
  0
ARC
  5
8F6
  8
0
  6
CONTINUOUS
 62
     3
 10
-631.19672000000003
 20
179.7436999999999
 30
0.0
 40
0.9962600499999998
 50
106.6974899999999
 51
180.33049
  0
ARC
  5
8F7
  8
0
  6
CONTINUOUS
 62
     3
 10
-630.05382999999995
 20
180.0952299999999
 30
0.0
 40
0.99277198
 50
89.374808000000016
 51
106.33181999999979
  0
ARC
  5
8F8
  8
0
  6
CONTINUOUS
 62
     7
 10
-553.69775000000004
 20
169.85272000000001
 30
0.0
 40
5.5071000999999971
 50
264.84087999999991
 51
5.1591262000000002
  0
ARC
  5
8F9
  8
0
  6
CONTINUOUS
 62
     3
 10
-502.69788
 20
118.8528399999998
 30
0.0
 40
1.5049160999999991
 50
270.18678
 51
359.81322
  0
ARC
  5
8FA
  8
0
  6
CONTINUOUS
 62
     3
 10
-502.69280999999989
 20
175.8480999999999
 30
0.0
 40
1.4998400000000001
 50
359.99394000000001
 51
90.006061000000003
  0
ARC
  5
8FB
  8
0
  6
CONTINUOUS
 62
     3
 10
-614.05230999999981
 20
106.12881999999991
 30
0.0
 40
1.004235999999999
 50
314.93782999999991
 51
5.6649238999999989
  0
ARC
  5
8FC
  8
0
  6
CONTINUOUS
 62
     3
 10
-629.99199999999996
 20
182.04247000000001
 30
0.0
 40
0.99548006
 50
90.057320999999988
 51
113.12703
  0
ARC
  5
8FD
  8
0
  6
CONTINUOUS
 62
     3
 10
-631.19854999999995
 20
193.22691
 30
0.0
 40
0.9944360299999999
 50
121.15217
 51
179.9404899999999
  0
ARC
  5
8FE
  8
0
  6
CONTINUOUS
 62
     7
 10
-508.69802999999962
 20
124.8529999999998
 30
0.0
 40
5.4981922999999986
 50
84.729479999999981
 51
185.27052
  0
ARC
  5
8FF
  8
0
  6
CONTINUOUS
 62
     3
 10
-631.19976999999994
 20
192.18938
 30
0.0
 40
0.9932120399999999
 50
117.7993399999999
 51
180.08183
  0
ARC
  5
900
  8
0
  6
CONTINUOUS
 62
     3
 10
-631.19817999999975
 20
188.62555
 30
0.0
 40
0.9948279899999999
 50
123.2046899999999
 51
180.43813
  0
ARC
  5
901
  8
0
  6
CONTINUOUS
 62
     3
 10
-631.19890999999996
 20
187.59113999999991
 30
0.0
 40
0.99407601
 50
120.4692
 51
180.18464
  0
ARC
  5
902
  8
0
  6
CONTINUOUS
 62
     3
 10
-629.91357000000005
 20
188.34146000000001
 30
0.0
 40
0.9965200400000001
 50
90.541213000000027
 51
120.7432799999999
  0
ARC
  5
903
  8
0
  6
CONTINUOUS
 62
     3
 10
-629.88634999999999
 20
189.48175000000001
 30
0.0
 40
0.9962120099999999
 50
90.381906000000001
 51
123.9699
  0
ARC
  5
904
  8
0
  6
CONTINUOUS
 62
     3
 10
-629.95789000000002
 20
192.8525799999999
 30
0.0
 40
0.99546796
 50
89.141447999999983
 51
117.2036599999999
  0
ARC
  5
905
  8
0
  6
CONTINUOUS
 62
     3
 10
-629.92412999999999
 20
193.9937399999998
 30
0.0
 40
0.9942600099999999
 50
89.355881999999966
 51
120.78109000000001
  0
ARC
  5
906
  8
0
  6
CONTINUOUS
 62
     3
 10
-629.96820000000002
 20
194.9539199999999
 30
0.0
 40
0.9941280500000002
 50
89.122808000000006
 51
115.93481
  0
ARC
  5
907
  8
0
  6
CONTINUOUS
 62
     3
 10
-629.93097
 20
196.10206999999991
 30
0.0
 40
0.9959119600000002
 50
89.541443999999998
 51
119.6069899999999
  0
ARC
  5
908
  8
0
  6
CONTINUOUS
 62
     3
 10
-631.19739000000004
 20
194.32764
 30
0.0
 40
0.99558806
 50
116.58749
 51
179.98224999999991
  0
ARC
  5
909
  8
0
  6
CONTINUOUS
 62
     3
 10
-631.19976999999994
 20
195.36585999999991
 30
0.0
 40
0.99319202
 50
119.7734
 51
179.87956
  0
ARC
  5
90A
  8
0
  6
CONTINUOUS
 62
     3
 10
-567.46582000000001
 20
334.16665999999992
 30
0.0
 40
4.0
 50
179.99997999999991
 51
0.000010017912
  0
ARC
  5
90B
  8
0
  6
CONTINUOUS
 62
     3
 10
-567.46582000000001
 20
334.16665999999992
 30
0.0
 40
7.5
 50
179.99997999999991
 51
0.000010017913
  0
ARC
  5
90C
  8
0
  6
CONTINUOUS
 62
     7
 10
-627.6925
 20
367.91714000000002
 30
0.0
 40
0.49952301
 50
359.94522999999992
 51
90.054773999999981
  0
ARC
  5
90D
  8
0
  6
CONTINUOUS
 62
     7
 10
-627.69628999999998
 20
370.07010000000002
 30
0.0
 40
0.5033929900000002
 50
270.38490999999982
 51
359.61509999999993
  0
ARC
  5
90E
  8
0
  6
CONTINUOUS
 62
     7
 10
-628.19701999999995
 20
372.67081000000002
 30
0.0
 40
1.004119999999999
 50
270.23460999999992
 51
359.76538999999991
  0
ARC
  5
90F
  8
0
  6
CONTINUOUS
 62
     7
 10
-628.19542999999965
 20
377.18912
 30
0.0
 40
1.002470999999999
 50
270.14107000000001
 51
359.85892999999987
  0
ARC
  5
910
  8
0
  6
CONTINUOUS
 62
     7
 10
-631.19421
 20
372.29019
 30
0.0
 40
0.9987969999999998
 50
179.62728000000001
 51
238.70795000000001
  0
ARC
  5
911
  8
0
  6
CONTINUOUS
 62
     7
 10
-631.19519000000003
 20
373.32790999999992
 30
0.0
 40
0.9977070099999998
 50
180.0740199999999
 51
242.04481000000001
  0
ARC
  5
912
  8
0
  6
CONTINUOUS
 62
     7
 10
-631.19385
 20
376.89139
 30
0.0
 40
0.9990889999999998
 50
179.69508999999991
 51
236.66209000000001
  0
ARC
  5
913
  8
0
  6
CONTINUOUS
 62
     7
 10
-631.19446000000016
 20
377.92592999999999
 30
0.0
 40
0.9984580299999999
 50
179.9595799999999
 51
239.38657000000001
  0
ARC
  5
914
  8
0
  6
CONTINUOUS
 62
     7
 10
-629.92957000000001
 20
377.18765000000002
 30
0.0
 40
1.0010449999999991
 50
240.47187
 51
270.37970999999999
  0
ARC
  5
915
  8
0
  6
CONTINUOUS
 62
     7
 10
-629.90015000000005
 20
376.04714999999987
 30
0.0
 40
1.000521999999999
 50
237.14617999999999
 51
270.41343999999998
  0
ARC
  5
916
  8
0
  6
CONTINUOUS
 62
     7
 10
-629.93773999999996
 20
372.66726999999992
 30
0.0
 40
1.0006820000000001
 50
241.65062
 51
269.7039299999999
  0
ARC
  5
917
  8
0
  6
CONTINUOUS
 62
     7
 10
-629.92163000000016
 20
371.53030000000001
 30
0.0
 40
1.0037439999999991
 50
239.37112999999999
 51
270.49189999999987
  0
ARC
  5
918
  8
0
  6
CONTINUOUS
 62
     7
 10
-629.94713999999976
 20
370.56594999999987
 30
0.0
 40
0.9993420200000001
 50
242.86199999999999
 51
269.66546
  0
ARC
  5
919
  8
0
  6
CONTINUOUS
 62
     7
 10
-629.91223000000002
 20
369.41775999999987
 30
0.0
 40
1.001123999999999
 50
239.32782000000009
 51
269.38767999999988
  0
ARC
  5
91A
  8
0
  6
CONTINUOUS
 62
     7
 10
-631.19727
 20
371.19704999999999
 30
0.0
 40
0.9956849800000001
 50
180.02112999999991
 51
243.40913999999981
  0
ARC
  5
91B
  8
0
  6
CONTINUOUS
 62
     7
 10
-631.19530999999995
 20
370.15127999999987
 30
0.0
 40
0.9976310099999999
 50
180.26780999999991
 51
240.07924
  0
ARC
  5
91C
  8
0
  6
CONTINUOUS
 62
     7
 10
-631.19446000000016
 20
377.92592999999999
 30
0.0
 40
0.9984580299999999
 50
179.9595799999999
 51
239.38657000000001
  0
ARC
  5
91D
  8
0
  6
CONTINUOUS
 62
     7
 10
-628.19617000000005
 20
377.19338999999991
 30
0.0
 40
1.0032760000000001
 50
334.19810000000001
 51
359.61810999999977
  0
ARC
  5
91E
  8
0
  6
CONTINUOUS
 62
     7
 10
-628.19275000000005
 20
401.16677999999968
 30
0.0
 40
0.9998210099999999
 50
359.98971999999998
 51
90.010281999999961
  0
ARC
  5
91F
  8
0
  6
CONTINUOUS
 62
     7
 10
-628.19788000000005
 20
405.17153999999988
 30
0.0
 40
1.004939
 50
270.28093999999999
 51
359.71906999999999
  0
ARC
  5
920
  8
0
  6
CONTINUOUS
 62
     7
 10
-628.19275000000005
 20
411.16677999999962
 30
0.0
 40
0.9998279799999998
 50
359.99015999999978
 51
90.009838000000002
  0
ARC
  5
921
  8
0
  6
CONTINUOUS
 62
     7
 10
-628.19788000000005
 20
415.17153999999988
 30
0.0
 40
1.004942999999999
 50
270.28113999999988
 51
359.71886999999992
  0
ARC
  5
922
  8
0
  6
CONTINUOUS
 62
     7
 10
-631.19788000000017
 20
413.17153999999999
 30
0.0
 40
0.9950770099999999
 50
89.715860000000006
 51
180.28413999999989
  0
ARC
  5
923
  8
0
  6
CONTINUOUS
 62
     7
 10
-631.19275000000016
 20
413.1669
 30
0.0
 40
1.0002040000000001
 50
180.01166000000001
 51
269.9883200000001
  0
ARC
  5
924
  8
0
  6
CONTINUOUS
 62
     7
 10
-631.19788000000017
 20
403.17153999999999
 30
0.0
 40
0.9950810099999999
 50
89.716071999999997
 51
180.28391999999999
  0
ARC
  5
925
  8
0
  6
CONTINUOUS
 62
     7
 10
-631.19275000000016
 20
403.16689999999988
 30
0.0
 40
1.0001999999999991
 50
180.01146
 51
269.98853999999972
  0
ARC
  5
926
  8
0
  6
CONTINUOUS
 62
     7
 10
-631.19788000000017
 20
393.17153999999988
 30
0.0
 40
0.9950849999999999
 50
89.716282999999976
 51
180.2837199999999
  0
ARC
  5
927
  8
0
  6
CONTINUOUS
 62
     7
 10
-631.19275000000016
 20
393.16689999999988
 30
0.0
 40
1.0001959999999981
 50
180.01124999999999
 51
269.98874999999992
  0
ARC
  5
928
  8
0
  6
CONTINUOUS
 62
     7
 10
-631.1964099999999
 20
383.99515000000002
 30
0.0
 40
0.9965090199999998
 50
179.91374999999999
 51
247.17845
  0
ARC
  5
929
  8
0
  6
CONTINUOUS
 62
     7
 10
-631.19653000000005
 20
385.78104000000002
 30
0.0
 40
0.99638802
 50
180.24991
 51
253.29664
  0
ARC
  5
92A
  8
0
  6
CONTINUOUS
 62
     7
 10
-630.05237
 20
385.42935
 30
0.0
 40
1.002699
 50
253.7527199999999
 51
270.54064
  0
ARC
  5
92B
  8
0
  6
CONTINUOUS
 62
     7
 10
-629.98999000000003
 20
383.48183999999992
 30
0.0
 40
1.005233
 50
246.98638999999989
 51
269.82924999999989
  0
ARC
  5
92C
  8
0
  6
CONTINUOUS
 62
     7
 10
-627.8924599999998
 20
381.77724999999992
 30
0.0
 40
0.6994530000000001
 50
359.95517000000001
 51
90.044829000000021
  0
ARC
  5
92D
  8
0
  6
CONTINUOUS
 62
     7
 10
-628.19275000000005
 20
391.16677999999979
 30
0.0
 40
0.9998239899999999
 50
359.98991999999993
 51
90.010076999999981
  0
ARC
  5
92E
  8
0
  6
CONTINUOUS
 62
     7
 10
-628.19788000000005
 20
395.17153999999988
 30
0.0
 40
1.0049469
 50
270.28136999999992
 51
359.71863000000002
  0
ARC
  5
92F
  8
0
  6
CONTINUOUS
 62
     7
 10
-628.19628999999986
 20
385.42995999999999
 30
0.0
 40
1.003352
 50
270.19110999999992
 51
359.80889999999982
  0
ARC
  5
930
  8
0
  6
CONTINUOUS
 62
     7
 10
-627.69750999999985
 20
468.4212999999998
 30
0.0
 40
0.50463498
 50
270.52382999999992
 51
359.47617000000002
  0
ARC
  5
931
  8
0
  6
CONTINUOUS
 62
     7
 10
-627.69127999999978
 20
466.26834000000002
 30
0.0
 40
0.4983060100000002
 50
359.80489
 51
90.195107000000007
  0
ARC
  5
932
  8
0
  6
CONTINUOUS
 62
     7
 10
-628.19201999999996
 20
463.66762999999992
 30
0.0
 40
0.9990100299999999
 50
359.94319000000002
 51
90.056808999999959
  0
ARC
  5
933
  8
0
  6
CONTINUOUS
 62
     7
 10
-627.89745999999957
 20
454.56118999999978
 30
0.0
 40
0.704566
 50
270.37009999999992
 51
359.62990999999982
  0
ARC
  5
934
  8
0
  6
CONTINUOUS
 62
     7
 10
-628.19530999999995
 20
459.15432999999962
 30
0.0
 40
1.002353
 50
0.13432682
 51
89.865673000000001
  0
ARC
  5
935
  8
0
  6
CONTINUOUS
 62
     7
 10
-628.19128000000001
 20
450.90835999999962
 30
0.0
 40
0.9982839799999999
 50
359.90141999999992
 51
90.098575999999994
  0
ARC
  5
936
  8
0
  6
CONTINUOUS
 62
     7
 10
-628.19788000000005
 20
445.17153999999999
 30
0.0
 40
1.004942999999999
 50
270.28111000000001
 51
359.71888999999987
  0
ARC
  5
937
  8
0
  6
CONTINUOUS
 62
     7
 10
-628.19275000000005
 20
441.16678000000002
 30
0.0
 40
0.9998289899999999
 50
359.99018999999993
 51
90.009810999999985
  0
ARC
  5
938
  8
0
  6
CONTINUOUS
 62
     7
 10
-628.19788000000005
 20
435.17153999999988
 30
0.0
 40
1.004939
 50
270.28091000000001
 51
359.71910000000008
  0
ARC
  5
939
  8
0
  6
CONTINUOUS
 62
     7
 10
-628.19275000000005
 20
431.16677999999962
 30
0.0
 40
0.9998210099999999
 50
359.98975000000002
 51
90.010255000000001
  0
ARC
  5
93A
  8
0
  6
CONTINUOUS
 62
     7
 10
-628.19788000000005
 20
425.17153999999999
 30
0.0
 40
1.0049469
 50
270.28134999999992
 51
359.71866
  0
ARC
  5
93B
  8
0
  6
CONTINUOUS
 62
     7
 10
-628.19275000000005
 20
421.16677999999979
 30
0.0
 40
0.9998249999999999
 50
359.98995000000002
 51
90.010050000000007
  0
ARC
  5
93C
  8
0
  6
CONTINUOUS
 62
     7
 10
-631.19275000000016
 20
423.1669
 30
0.0
 40
1.0001959999999981
 50
180.01122000000001
 51
269.98877999999991
  0
ARC
  5
93D
  8
0
  6
CONTINUOUS
 62
     7
 10
-631.19788000000017
 20
423.17153999999988
 30
0.0
 40
0.9950849999999999
 50
89.716311000000005
 51
180.28368999999981
  0
ARC
  5
93E
  8
0
  6
CONTINUOUS
 62
     7
 10
-631.19275000000016
 20
433.16689999999988
 30
0.0
 40
1.0001999999999991
 50
180.0114299999999
 51
269.98856999999992
  0
ARC
  5
93F
  8
0
  6
CONTINUOUS
 62
     7
 10
-631.19788000000017
 20
433.17153999999999
 30
0.0
 40
0.99508202
 50
89.716099
 51
180.28390999999991
  0
ARC
  5
940
  8
0
  6
CONTINUOUS
 62
     7
 10
-631.19275000000016
 20
443.1669
 30
0.0
 40
1.000203
 50
180.01165
 51
269.98835000000003
  0
ARC
  5
941
  8
0
  6
CONTINUOUS
 62
     7
 10
-631.19788000000017
 20
443.17153999999988
 30
0.0
 40
0.99507803
 50
89.715886999999981
 51
180.28411
  0
ARC
  5
942
  8
0
  6
CONTINUOUS
 62
     7
 10
-631.19653000000005
 20
452.34817999999979
 30
0.0
 40
0.9963999999999998
 50
112.81735999999979
 51
180.09041999999991
  0
ARC
  5
943
  8
0
  6
CONTINUOUS
 62
     7
 10
-631.19665999999995
 20
450.56240999999989
 30
0.0
 40
0.9962710099999999
 50
106.69792
 51
180.3300499999998
  0
ARC
  5
944
  8
0
  6
CONTINUOUS
 62
     7
 10
-630.05382999999995
 20
450.91397000000001
 30
0.0
 40
0.9927430199999999
 50
89.374555000000001
 51
106.33207
  0
ARC
  5
945
  8
0
  6
CONTINUOUS
 62
     7
 10
-629.99194
 20
452.86124000000001
 30
0.0
 40
0.9954450099999999
 50
90.056905000000043
 51
113.1274499999999
  0
ARC
  5
946
  8
0
  6
CONTINUOUS
 62
     7
 10
-631.19848999999965
 20
464.04567999999989
 30
0.0
 40
0.9944329899999999
 50
121.15213
 51
179.9405099999999
  0
ARC
  5
947
  8
0
  6
CONTINUOUS
 62
     7
 10
-631.19970999999998
 20
463.00808999999998
 30
0.0
 40
0.9932109699999999
 50
117.7993199999999
 51
180.08187000000001
  0
ARC
  5
948
  8
0
  6
CONTINUOUS
 62
     7
 10
-631.1981199999999
 20
459.44423999999998
 30
0.0
 40
0.9948369899999999
 50
123.20496
 51
180.4378599999998
  0
ARC
  5
949
  8
0
  6
CONTINUOUS
 62
     7
 10
-631.19897000000003
 20
458.40982000000002
 30
0.0
 40
0.99404597
 50
120.4682
 51
180.18563999999989
  0
ARC
  5
94A
  8
0
  6
CONTINUOUS
 62
     7
 10
-629.91357000000005
 20
459.16019
 30
0.0
 40
0.99648702
 50
90.540720999999976
 51
120.74377
  0
ARC
  5
94B
  8
0
  6
CONTINUOUS
 62
     7
 10
-629.88634999999999
 20
460.30044999999978
 30
0.0
 40
0.99617702
 50
90.381317999999979
 51
123.9704899999999
  0
ARC
  5
94C
  8
0
  6
CONTINUOUS
 62
     7
 10
-629.95789000000002
 20
463.67129999999992
 30
0.0
 40
0.99545902
 50
89.141291000000024
 51
117.20381999999999
  0
ARC
  5
94D
  8
0
  6
CONTINUOUS
 62
     7
 10
-629.92407000000003
 20
464.81240999999989
 30
0.0
 40
0.99427301
 50
89.356065999999984
 51
120.78091000000001
  0
ARC
  5
94E
  8
0
  6
CONTINUOUS
 62
     7
 10
-629.96813999999995
 20
465.77260999999987
 30
0.0
 40
0.99411702
 50
89.122643999999966
 51
115.93498
  0
ARC
  5
94F
  8
0
  6
CONTINUOUS
 62
     7
 10
-629.93090999999981
 20
466.92080999999962
 30
0.0
 40
0.9959030199999999
 50
89.541267000000005
 51
119.60717
  0
ARC
  5
950
  8
0
  6
CONTINUOUS
 62
     7
 10
-631.19739000000004
 20
465.14639
 30
0.0
 40
0.995579
 50
116.5870899999999
 51
179.98264
  0
ARC
  5
951
  8
0
  6
CONTINUOUS
 62
     7
 10
-631.19970999999998
 20
466.18459999999988
 30
0.0
 40
0.99319202
 50
119.77338
 51
179.87958999999981
  0
ARC
  5
952
  8
0
  6
CONTINUOUS
 62
     7
 10
-614.05212000000017
 20
376.95632999999992
 30
0.0
 40
1.0032491999999991
 50
314.98118999999991
 51
5.1676434000000002
  0
ARC
  5
953
  8
0
  6
CONTINUOUS
 62
     7
 10
-479.19315
 20
480.6669
 30
0.0
 40
0.99980682
 50
89.98893099999998
 51
180.0110699999999
  0
ARC
  5
954
  8
0
  6
CONTINUOUS
 62
     7
 10
-487.39168999999998
 20
358.31290000000001
 30
0.0
 40
2.0062942999999991
 50
270.24932999999987
 51
345.08843999999999
  0
ARC
  5
955
  8
0
  6
CONTINUOUS
 62
     7
 10
-479.19387999999992
 20
469.20755000000003
 30
0.0
 40
0.9990923399999999
 50
89.947921999999977
 51
180.0520799999999
  0
ARC
  5
956
  8
0
  6
CONTINUOUS
 62
     7
 10
-605.20019999999977
 20
423.16665999999992
 30
0.0
 40
1.0000259
 50
89.587533999999977
 51
270.41246000000001
  0
ARC
  5
957
  8
0
  6
CONTINUOUS
 62
     7
 10
-613.23351999999988
 20
469.16140999999988
 30
0.0
 40
1.9952742999999991
 50
90.148580000000024
 51
170.0352199999999
  0
ARC
  5
958
  8
0
  6
CONTINUOUS
 62
     7
 10
-613.29565000000002
 20
474.43960999999962
 30
0.0
 40
1.997119399999999
 50
89.801366999999999
 51
167.94476
  0
ARC
  5
959
  8
0
  6
CONTINUOUS
 62
     7
 10
-617.67615000000001
 20
470.70900999999998
 30
0.0
 40
1.502416299999999
 50
269.9013799999999
 51
347.60813000000002
  0
ARC
  5
95A
  8
0
  6
CONTINUOUS
 62
     7
 10
-621.06273999999985
 20
477.84438999999998
 30
0.0
 40
1.9922863
 50
90.007720999999947
 51
166.87839
  0
ARC
  5
95B
  8
0
  6
CONTINUOUS
 62
     7
 10
-625.3877
 20
474.77150999999992
 30
0.0
 40
1.5048382
 50
270.18263999999982
 51
346.7530799999999
  0
ARC
  5
95C
  8
0
  6
CONTINUOUS
 62
     7
 10
-625.37340999999981
 20
476.79201999999981
 30
0.0
 40
1.505448699999999
 50
270.39686999999992
 51
345.95247000000001
  0
ARC
  5
95D
  8
0
  6
CONTINUOUS
 62
     7
 10
-621.08812999999975
 20
479.47208000000001
 30
0.0
 40
1.994612099999999
 50
89.851992000000024
 51
165.93885999999981
  0
ARC
  5
95E
  8
0
  6
CONTINUOUS
 62
     7
 10
-604.19970999999975
 20
478.03335999999962
 30
0.0
 40
1.9933081999999991
 50
89.807322999999968
 51
180.19266999999991
  0
ARC
  5
95F
  8
0
  6
CONTINUOUS
 62
     7
 10
-604.19884999999999
 20
480.06252999999998
 30
0.0
 40
1.994130499999996
 50
89.831106000000005
 51
180.16889
  0
ARC
  5
960
  8
0
  6
CONTINUOUS
 62
     7
 10
-604.19641000000001
 20
481.42020000000002
 30
0.0
 40
1.996488899999999
 50
89.899147999999997
 51
180.10085000000001
  0
ARC
  5
961
  8
0
  6
CONTINUOUS
 62
     7
 10
-604.19921999999997
 20
482.09012000000001
 30
0.0
 40
1.9964978999999961
 50
89.821482000000003
 51
165.6006099999999
  0
ARC
  5
962
  8
0
  6
CONTINUOUS
 62
     7
 10
-607.69665999999995
 20
472.66042999999991
 30
0.0
 40
1.5037541000000001
 50
270.14287000000002
 51
359.85714000000002
  0
ARC
  5
963
  8
0
  6
CONTINUOUS
 62
     7
 10
-607.69788000000005
 20
477.94155999999998
 30
0.0
 40
1.504891299999997
 50
270.18592999999998
 51
359.81407000000002
  0
ARC
  5
964
  8
0
  6
CONTINUOUS
 62
     7
 10
-607.69983000000002
 20
481.34354000000002
 30
0.0
 40
1.506942899999999
 50
270.26337000000001
 51
359.73662999999999
  0
ARC
  5
965
  8
0
  6
CONTINUOUS
 62
     7
 10
-607.58801000000005
 20
482.97182999999973
 30
0.0
 40
1.505230099999999
 50
270.19421
 51
345.17177999999979
  0
ARC
  5
966
  8
0
  6
CONTINUOUS
 62
     7
 10
-480.54282000000001
 20
466.01895000000002
 30
0.0
 40
1.5022733999999991
 50
195.1365099999999
 51
269.99412000000001
  0
ARC
  5
967
  8
0
  6
CONTINUOUS
 62
     7
 10
-487.38350999999989
 20
478.02749999999992
 30
0.0
 40
1.9991226
 50
15.050791
 51
89.984388999999979
  0
ARC
  5
968
  8
0
  6
CONTINUOUS
 62
     7
 10
-479.19995
 20
355.65969999999999
 30
0.0
 40
0.99304521
 50
179.59730999999991
 51
270.40267999999992
  0
ARC
  5
969
  8
0
  6
CONTINUOUS
 62
     7
 10
-479.20062000000001
 20
367.11905000000002
 30
0.0
 40
0.99237448
 50
179.55802
 51
270.44197000000003
  0
ARC
  5
96A
  8
0
  6
CONTINUOUS
 62
     7
 10
-480.48727000000002
 20
470.70693999999992
 30
0.0
 40
1.500286
 50
192.32630999999989
 51
270.16417000000001
  0
ARC
  5
96B
  8
0
  6
CONTINUOUS
 62
     7
 10
-618.03734999999995
 20
459.76088999999979
 30
0.0
 40
5.0059714
 50
279.71098000000001
 51
354.67887999999999
  0
ARC
  5
96C
  8
0
  6
CONTINUOUS
 62
     7
 10
-617.57201999999995
 20
455.83413999999988
 30
0.0
 40
6.0044340999999992
 50
45.225577999999999
 51
86.380821999999966
  0
ARC
  5
96D
  8
0
  6
CONTINUOUS
 62
     7
 10
-614.05102999999986
 20
459.38735999999989
 30
0.0
 40
1.002184699999999
 50
354.80385999999987
 51
45.047306999999968
  0
ARC
  5
96E
  8
0
  6
CONTINUOUS
 62
     7
 10
-617.57324000000017
 20
380.51198999999991
 30
0.0
 40
6.0073843
 50
273.62973999999991
 51
314.76384999999999
  0
ARC
  5
96F
  8
0
  6
CONTINUOUS
 62
     7
 10
-618.03015000000005
 20
376.57816000000003
 30
0.0
 40
4.9991421999999961
 50
5.3780269000000001
 51
80.360065000000006
  0
ARC
  5
970
  8
0
  6
CONTINUOUS
 62
     7
 10
-621.05614999999977
 20
358.49722000000008
 30
0.0
 40
2.0005671999999981
 50
193.3095899999999
 51
269.80430999999999
  0
ARC
  5
971
  8
0
  6
CONTINUOUS
 62
     7
 10
-625.37975999999981
 20
361.56900000000002
 30
0.0
 40
1.497715799999999
 50
13.424379
 51
90.122644999999963
  0
ARC
  5
972
  8
0
  6
CONTINUOUS
 62
     7
 10
-625.36522999999966
 20
359.54836999999992
 30
0.0
 40
1.4982997
 50
14.22974
 51
89.910949999999985
  0
ARC
  5
973
  8
0
  6
CONTINUOUS
 62
     7
 10
-604.19286999999963
 20
358.30666999999983
 30
0.0
 40
2.0000371999999991
 50
180.00105999999991
 51
269.99892999999992
  0
ARC
  5
974
  8
0
  6
CONTINUOUS
 62
     7
 10
-604.19201999999996
 20
356.27762000000001
 30
0.0
 40
2.0009109999999981
 50
180.00001
 51
269.97390999999988
  0
ARC
  5
975
  8
0
  6
CONTINUOUS
 62
     7
 10
-607.69494999999995
 20
363.68472000000003
 30
0.0
 40
1.501982699999999
 50
0.075587202
 51
89.924413000000015
  0
ARC
  5
976
  8
0
  6
CONTINUOUS
 62
     7
 10
-607.69604000000004
 20
358.40347000000008
 30
0.0
 40
1.503128599999999
 50
0.11912965
 51
89.880870000000002
  0
ARC
  5
977
  8
0
  6
CONTINUOUS
 62
     7
 10
-480.54931999999991
 20
370.32290999999992
 30
0.0
 40
1.4937901
 50
89.756423999999981
 51
165.1129199999998
  0
ARC
  5
978
  8
0
  6
CONTINUOUS
 62
     7
 10
-605.20019999999977
 20
433.16665999999998
 30
0.0
 40
1.0000259
 50
89.587533999999977
 51
270.41246000000001
  0
ARC
  5
979
  8
0
  6
CONTINUOUS
 62
     7
 10
-605.20019999999977
 20
443.16665999999981
 30
0.0
 40
1.0000259
 50
89.587533999999977
 51
270.41246000000001
  0
ARC
  5
97A
  8
0
  6
CONTINUOUS
 62
     7
 10
-605.20019999999977
 20
453.16665999999998
 30
0.0
 40
1.0000259
 50
89.587533999999977
 51
270.41246000000001
  0
ARC
  5
97B
  8
0
  6
CONTINUOUS
 62
     7
 10
-622.93115
 20
423.17666999999989
 30
0.0
 40
1.2700266
 50
89.629328000000001
 51
270.37065999999987
  0
ARC
  5
97C
  8
0
  6
CONTINUOUS
 62
     7
 10
-622.86926000000017
 20
433.18167
 30
0.0
 40
1.3350147999999991
 50
89.730435000000014
 51
270.26956999999999
  0
ARC
  5
97D
  8
0
  6
CONTINUOUS
 62
     7
 10
-613.73864999999978
 20
443.19668999999988
 30
0.0
 40
1.460011199999999
 50
89.775248000000005
 51
270.22474
  0
ARC
  5
97E
  8
0
  6
CONTINUOUS
 62
     7
 10
-613.52295000000004
 20
453.21670999999992
 30
0.0
 40
1.6800002000000001
 50
90.000003000000007
 51
270.0
  0
ARC
  5
97F
  8
0
  6
CONTINUOUS
 62
     7
 10
-621.64293999999995
 20
423.16665999999992
 30
0.0
 40
1.0000056999999991
 50
90.000003000000007
 51
270.0
  0
ARC
  5
980
  8
0
  6
CONTINUOUS
 62
     7
 10
-621.64293999999995
 20
433.16665999999998
 30
0.0
 40
1.0000056999999991
 50
90.000003000000007
 51
270.0
  0
ARC
  5
981
  8
0
  6
CONTINUOUS
 62
     7
 10
-612.65015000000005
 20
453.16665999999998
 30
0.0
 40
1.0000255999999981
 50
89.589473999999967
 51
270.41052000000002
  0
ARC
  5
982
  8
0
  6
CONTINUOUS
 62
     7
 10
-612.65015000000005
 20
443.16665999999981
 30
0.0
 40
1.0000255999999981
 50
89.589473999999967
 51
270.41052000000002
  0
ARC
  5
983
  8
0
  6
CONTINUOUS
 62
     7
 10
-483.37295999999981
 20
453.21670999999992
 30
0.0
 40
1.6800077
 50
269.99998999999991
 51
90.000003000000007
  0
ARC
  5
984
  8
0
  6
CONTINUOUS
 62
     7
 10
-486.85297000000003
 20
453.16665999999998
 30
0.0
 40
1.0000040999999991
 50
269.99998999999991
 51
90.000003000000007
  0
ARC
  5
985
  8
0
  6
CONTINUOUS
 62
     7
 10
-486.85297000000003
 20
383.16665999999992
 30
0.0
 40
1.0000040999999991
 50
269.99998999999991
 51
90.000003000000007
  0
ARC
  5
986
  8
0
  6
CONTINUOUS
 62
     7
 10
-483.37295999999981
 20
383.12661999999989
 30
0.0
 40
1.6800077
 50
269.99998999999991
 51
90.000003000000007
  0
ARC
  5
987
  8
0
  6
CONTINUOUS
 62
     7
 10
-621.64293999999995
 20
413.16665999999992
 30
0.0
 40
1.0000056999999991
 50
90.000003000000007
 51
270.0
  0
ARC
  5
988
  8
0
  6
CONTINUOUS
 62
     7
 10
-605.20019999999977
 20
403.16665999999992
 30
0.0
 40
1.0000259
 50
89.587533999999977
 51
270.41246000000001
  0
ARC
  5
989
  8
0
  6
CONTINUOUS
 62
     7
 10
-605.20019999999977
 20
393.16665999999992
 30
0.0
 40
1.0000259
 50
89.587533999999977
 51
270.41246000000001
  0
ARC
  5
98A
  8
0
  6
CONTINUOUS
 62
     7
 10
-622.86926000000017
 20
403.15665000000001
 30
0.0
 40
1.3300148000000001
 50
89.729417999999995
 51
270.27058999999991
  0
ARC
  5
98B
  8
0
  6
CONTINUOUS
 62
     7
 10
-605.20019999999977
 20
413.16665999999992
 30
0.0
 40
1.0000259
 50
89.587533999999977
 51
270.41246000000001
  0
ARC
  5
98C
  8
0
  6
CONTINUOUS
 62
     7
 10
-605.20019999999977
 20
383.16665999999992
 30
0.0
 40
1.0000259
 50
89.587533999999977
 51
270.41246000000001
  0
ARC
  5
98D
  8
0
  6
CONTINUOUS
 62
     7
 10
-622.93115
 20
413.16665999999992
 30
0.0
 40
1.2700266
 50
89.629320999999962
 51
270.37068999999991
  0
ARC
  5
98E
  8
0
  6
CONTINUOUS
 62
     7
 10
-621.64293999999995
 20
403.16665999999992
 30
0.0
 40
1.0000056999999991
 50
90.000003000000007
 51
270.0
  0
ARC
  5
98F
  8
0
  6
CONTINUOUS
 62
     7
 10
-617.45983999999976
 20
465.42666999999989
 30
0.0
 40
1.5
 50
280.24788999999998
 51
349.76262000000008
  0
ARC
  5
990
  8
0
  6
CONTINUOUS
 62
     7
 10
-617.45983999999976
 20
370.90665000000001
 30
0.0
 40
1.5
 50
10.23737899999999
 51
79.752110000000002
  0
ARC
  5
991
  8
0
  6
CONTINUOUS
 62
     7
 10
-613.23351999999988
 20
367.17191000000003
 30
0.0
 40
1.9952742999999991
 50
189.96477999999971
 51
269.85142000000002
  0
ARC
  5
992
  8
0
  6
CONTINUOUS
 62
     7
 10
-617.67615000000001
 20
365.62429999999989
 30
0.0
 40
1.502416299999999
 50
12.39188699999999
 51
90.098617000000004
  0
ARC
  5
993
  8
0
  6
CONTINUOUS
 62
     7
 10
-613.29565000000002
 20
361.89371
 30
0.0
 40
1.997119399999999
 50
192.05524
 51
270.19862999999992
  0
ARC
  5
994
  8
0
  6
CONTINUOUS
 62
     7
 10
-613.52295000000004
 20
383.11660999999992
 30
0.0
 40
1.6800002000000001
 50
90.000003000000007
 51
270.0
  0
ARC
  5
995
  8
0
  6
CONTINUOUS
 62
     7
 10
-612.65015000000005
 20
383.16665999999992
 30
0.0
 40
1.0000255999999981
 50
89.589473999999967
 51
270.41052000000002
  0
ARC
  5
996
  8
0
  6
CONTINUOUS
 62
     7
 10
-612.65015000000005
 20
393.16665999999992
 30
0.0
 40
1.0000255999999981
 50
89.589473999999967
 51
270.41052000000002
  0
ARC
  5
997
  8
0
  6
CONTINUOUS
 62
     7
 10
-613.73864999999978
 20
393.13662999999991
 30
0.0
 40
1.460011199999999
 50
89.775248000000005
 51
270.22474
  0
ARC
  5
998
  8
0
  6
CONTINUOUS
 62
     7
 10
-562.86658
 20
352.77663999999987
 30
0.0
 40
1.5
 50
1.500002699999998
 51
90.000003000000007
  0
ARC
  5
999
  8
0
  6
CONTINUOUS
 62
     3
 10
-488.17675999999989
 20
349.66665999999992
 30
0.0
 40
1.5
 50
269.99998999999991
 51
327.0
  0
ARC
  5
99A
  8
0
  6
CONTINUOUS
 62
     7
 10
-499.67934999999989
 20
346.66665999999992
 30
0.0
 40
1.5
 50
90.000003000000007
 51
178.5
  0
ARC
  5
99B
  8
0
  6
CONTINUOUS
 62
     7
 10
-485.67299999999989
 20
480.55666999999988
 30
0.0
 40
1.5
 50
12.129792
 51
90.000003000000007
  0
ARC
  5
99C
  8
0
  6
CONTINUOUS
 62
     7
 10
-485.96530000000001
 20
481.91665999999992
 30
0.0
 40
1.5
 50
12.129792
 51
90.000003000000007
  0
ARC
  5
99D
  8
0
  6
CONTINUOUS
 62
     7
 10
-486.10930999999988
 20
482.58670000000001
 30
0.0
 40
1.5
 50
12.129792
 51
90.000003000000007
  0
ARC
  5
99E
  8
0
  6
CONTINUOUS
 62
     7
 10
-483.15297999999962
 20
393.13662999999991
 30
0.0
 40
1.460011199999999
 50
269.77525000000003
 51
90.224749999999986
  0
ARC
  5
99F
  8
0
  6
CONTINUOUS
 62
     7
 10
-486.85299999999989
 20
393.16665999999992
 30
0.0
 40
1.0000255999999981
 50
269.58947000000001
 51
90.410531000000006
  0
ARC
  5
9A0
  8
0
  6
CONTINUOUS
 62
     7
 10
-483.15297999999962
 20
443.19668999999988
 30
0.0
 40
1.460011199999999
 50
269.77525000000003
 51
90.224749999999986
  0
ARC
  5
9A1
  8
0
  6
CONTINUOUS
 62
     7
 10
-486.85299999999989
 20
443.16665999999981
 30
0.0
 40
1.0000255999999981
 50
269.58947000000001
 51
90.410531000000006
  0
ARC
  5
9A2
  8
0
  6
CONTINUOUS
 62
     7
 10
-550.52795000000003
 20
433.18167
 30
0.0
 40
1.3350147999999991
 50
269.73043000000001
 51
90.269555999999994
  0
ARC
  5
9A3
  8
0
  6
CONTINUOUS
 62
     7
 10
-551.75426999999991
 20
433.16665999999998
 30
0.0
 40
1.0000056999999991
 50
269.99998999999991
 51
90.000003000000007
  0
ARC
  5
9A4
  8
0
  6
CONTINUOUS
 62
     7
 10
-551.75426999999991
 20
423.16665999999992
 30
0.0
 40
1.0000056999999991
 50
269.99998999999991
 51
90.000003000000007
  0
ARC
  5
9A5
  8
0
  6
CONTINUOUS
 62
     7
 10
-550.46605999999997
 20
423.17666999999989
 30
0.0
 40
1.2700266
 50
269.62931999999989
 51
90.370669999999961
  0
ARC
  5
9A6
  8
0
  6
CONTINUOUS
 62
     7
 10
-551.75426999999991
 20
413.16665999999992
 30
0.0
 40
1.0000056999999991
 50
269.99998999999991
 51
90.000003000000007
  0
ARC
  5
9A7
  8
0
  6
CONTINUOUS
 62
     7
 10
-550.46605999999997
 20
413.16665999999992
 30
0.0
 40
1.2700266
 50
269.62931999999989
 51
90.370669999999961
  0
ARC
  5
9A8
  8
0
  6
CONTINUOUS
 62
     7
 10
-551.75426999999991
 20
403.16665999999992
 30
0.0
 40
1.0000056999999991
 50
269.99998999999991
 51
90.000003000000007
  0
ARC
  5
9A9
  8
0
  6
CONTINUOUS
 62
     7
 10
-550.52795000000003
 20
403.15665000000001
 30
0.0
 40
1.3300148000000001
 50
269.72941999999989
 51
90.270567000000014
  0
ARC
  5
9AA
  8
0
  6
CONTINUOUS
 62
     7
 10
-501.19296000000003
 20
390.66665999999992
 30
0.0
 40
1.5
 50
90.000003000000007
 51
180.00001
  0
ARC
  5
9AB
  8
0
  6
CONTINUOUS
 62
     7
 10
-501.19296000000003
 20
385.66665999999998
 30
0.0
 40
1.5
 50
179.99998999999991
 51
270.0
  0
ARC
  5
9AC
  8
0
  6
CONTINUOUS
 62
     7
 10
-519.19298999999978
 20
390.66665999999992
 30
0.0
 40
1.5
 50
0.0
 51
90.000003000000007
  0
ARC
  5
9AD
  8
0
  6
CONTINUOUS
 62
     7
 10
-519.19298999999978
 20
385.66665999999998
 30
0.0
 40
1.5
 50
269.99998999999991
 51
0.00000068324516
  0
ARC
  5
9AE
  8
0
  6
CONTINUOUS
 62
     7
 10
-501.19296000000003
 20
390.66665999999992
 30
0.0
 40
1.02
 50
90.000003000000007
 51
180.00001
  0
ARC
  5
9AF
  8
0
  6
CONTINUOUS
 62
     7
 10
-519.19298999999978
 20
390.66665999999992
 30
0.0
 40
1.02
 50
0.0
 51
90.000003000000007
  0
ARC
  5
9B0
  8
0
  6
CONTINUOUS
 62
     7
 10
-519.17296999999985
 20
385.80667
 30
0.0
 40
1.0
 50
269.99998999999991
 51
0.00000068324625
  0
ARC
  5
9B1
  8
0
  6
CONTINUOUS
 62
     7
 10
-501.21294999999992
 20
385.80667
 30
0.0
 40
1.0
 50
179.99998999999991
 51
270.0
  0
CIRCLE
  5
9B2
  8
0
  6
CONTINUOUS
 62
     3
 10
-512.69299000000001
 20
389.66665999999998
 30
0.0
 40
1.1000000000000001
  0
CIRCLE
  5
9B3
  8
0
  6
CONTINUOUS
 62
     3
 10
-512.69299000000001
 20
389.66665999999998
 30
0.0
 40
1.149999999999999
  0
CIRCLE
  5
9B4
  8
0
  6
CONTINUOUS
 62
     3
 10
-507.6929599999998
 20
389.66665999999998
 30
0.0
 40
1.0
  0
ARC
  5
9B5
  8
0
  6
CONTINUOUS
 62
     7
 10
-501.19296000000003
 20
445.66665999999998
 30
0.0
 40
1.5
 50
179.99998999999991
 51
270.0
  0
ARC
  5
9B6
  8
0
  6
CONTINUOUS
 62
     7
 10
-501.19296000000003
 20
450.66665999999992
 30
0.0
 40
1.5
 50
90.000003000000007
 51
180.00001
  0
ARC
  5
9B7
  8
0
  6
CONTINUOUS
 62
     7
 10
-519.19298999999978
 20
445.66665999999998
 30
0.0
 40
1.5
 50
269.99998999999991
 51
0.00000068324516
  0
ARC
  5
9B8
  8
0
  6
CONTINUOUS
 62
     7
 10
-519.19298999999978
 20
450.66665999999992
 30
0.0
 40
1.5
 50
0.0
 51
90.000003000000007
  0
ARC
  5
9B9
  8
0
  6
CONTINUOUS
 62
     7
 10
-501.19296000000003
 20
445.66665999999998
 30
0.0
 40
1.02
 50
179.99998999999991
 51
270.0
  0
ARC
  5
9BA
  8
0
  6
CONTINUOUS
 62
     7
 10
-519.19298999999978
 20
445.66665999999998
 30
0.0
 40
1.02
 50
269.99998999999991
 51
0.00000068324403
  0
ARC
  5
9BB
  8
0
  6
CONTINUOUS
 62
     7
 10
-519.17296999999985
 20
450.52663999999999
 30
0.0
 40
1.0
 50
0.0
 51
90.000003000000007
  0
ARC
  5
9BC
  8
0
  6
CONTINUOUS
 62
     7
 10
-501.21294999999992
 20
450.52663999999999
 30
0.0
 40
1.0
 50
90.000003000000007
 51
180.00001
  0
CIRCLE
  5
9BD
  8
0
  6
CONTINUOUS
 62
     3
 10
-507.6929599999998
 20
446.66665999999992
 30
0.0
 40
1.0
  0
CIRCLE
  5
9BE
  8
0
  6
CONTINUOUS
 62
     3
 10
-512.69299000000001
 20
446.66665999999992
 30
0.0
 40
1.149999999999999
  0
CIRCLE
  5
9BF
  8
0
  6
CONTINUOUS
 62
     3
 10
-512.69299000000001
 20
446.66665999999992
 30
0.0
 40
1.1000000000000001
  0
ARC
  5
9C0
  8
0
  6
CONTINUOUS
 62
     7
 10
-621.49230999999997
 20
358.49660999999992
 30
0.0
 40
2.0
 50
194.1507499999999
 51
269.99998999999991
  0
ARC
  5
9C1
  8
0
  6
CONTINUOUS
 62
     7
 10
-607.45019999999977
 20
354.99660999999992
 30
0.0
 40
1.5
 50
21.461708999999988
 51
90.000003000000007
  0
ARC
  5
9C2
  8
0
  6
CONTINUOUS
 62
     7
 10
-449.19299000000001
 20
364.12662
 30
0.0
 40
2.0
 50
0.0
 51
90.000003000000007
  0
ARC
  5
9C3
  8
0
  6
CONTINUOUS
 62
     7
 10
-449.19299000000001
 20
472.20670000000001
 30
0.0
 40
2.0
 50
270.0
 51
0.0
  0
ARC
  5
9C4
  8
0
  6
DASHED
 62
     7
 10
-452.19298999999978
 20
483.16665999999998
 30
0.0
 40
6.0
 50
190.86121
 51
359.45751999999987
  0
ARC
  5
9C5
  8
0
  6
CONTINUOUS
 62
     7
 10
-452.19298999999978
 20
353.16665999999992
 30
0.0
 40
6.0
 50
169.13879
 51
0.5425729200000001
  0
TEXT
  5
C93
  8
0
  6
CONTINUOUS
 62
     0
 10
-255.29121216084269
 20
392.30328616553879
 30
0.0
 40
10.0
  1
VX04-040M~VX04-050M
  0
ENDSEC
  0
EOF
