  0
SECTION
  2
HEADER
  9
$ACADVER
  1
AC1009
  9
$INSBASE
 10
0.0
 20
0.0
 30
0.0
  9
$EXTMIN
 10
-652.2359087062116
 20
60.975383197910219
 30
-0.0015258207003583
  9
$EXTMAX
 10
-55.276967195153247
 20
503.11023440868149
 30
0.0000000349246037
  9
$LIMMIN
 10
0.0
 20
0.0
  9
$LIMMAX
 10
12.0
 20
9.0
  9
$ORTHOMODE
 70
     0
  9
$REGENMODE
 70
     1
  9
$FILLMODE
 70
     1
  9
$QTEXTMODE
 70
     0
  9
$MIRRTEXT
 70
     1
  9
$DRAGMODE
 70
     2
  9
$LTSCALE
 40
1.0
  9
$OSMODE
 70
   551
  9
$ATTMODE
 70
     1
  9
$TEXTSIZE
 40
0.2
  9
$TRACEWID
 40
0.05
  9
$TEXTSTYLE
  7
STANDARD
  9
$CLAYER
  8
0
  9
$CELTYPE
  6
CONTINUOUS
  9
$CECOLOR
 62
   256
  9
$DIMSCALE
 40
1.0
  9
$DIMASZ
 40
0.18
  9
$DIMEXO
 40
0.0625
  9
$DIMDLI
 40
0.38
  9
$DIMRND
 40
0.0
  9
$DIMDLE
 40
0.0
  9
$DIMEXE
 40
0.18
  9
$DIMTP
 40
0.0
  9
$DIMTM
 40
0.0
  9
$DIMTXT
 40
0.18
  9
$DIMCEN
 40
0.09
  9
$DIMTSZ
 40
0.0
  9
$DIMTOL
 70
     0
  9
$DIMLIM
 70
     0
  9
$DIMTIH
 70
     1
  9
$DIMTOH
 70
     1
  9
$DIMSE1
 70
     0
  9
$DIMSE2
 70
     0
  9
$DIMTAD
 70
     0
  9
$DIMZIN
 70
     0
  9
$DIMBLK
  1

  9
$DIMASO
 70
     1
  9
$DIMSHO
 70
     1
  9
$DIMPOST
  1

  9
$DIMAPOST
  1

  9
$DIMALT
 70
     0
  9
$DIMALTD
 70
     2
  9
$DIMALTF
 40
25.399999999999999
  9
$DIMLFAC
 40
1.0
  9
$DIMTOFL
 70
     0
  9
$DIMTVP
 40
0.0
  9
$DIMTIX
 70
     0
  9
$DIMSOXD
 70
     0
  9
$DIMSAH
 70
     0
  9
$DIMBLK1
  1

  9
$DIMBLK2
  1

  9
$DIMSTYLE
  2
STANDARD
  9
$DIMCLRD
 70
     0
  9
$DIMCLRE
 70
     0
  9
$DIMCLRT
 70
     0
  9
$DIMTFAC
 40
1.0
  9
$DIMGAP
 40
0.09
  9
$LUNITS
 70
     2
  9
$LUPREC
 70
     4
  9
$SKETCHINC
 40
0.1
  9
$FILLETRAD
 40
0.0
  9
$AUNITS
 70
     0
  9
$AUPREC
 70
     0
  9
$MENU
  1
.
  9
$ELEVATION
 40
0.0
  9
$PELEVATION
 40
0.0
  9
$THICKNESS
 40
0.0
  9
$LIMCHECK
 70
     0
  9
$BLIPMODE
 70
     0
  9
$CHAMFERA
 40
0.0
  9
$CHAMFERB
 40
0.0
  9
$SKPOLY
 70
     0
  9
$TDCREATE
 40
2452300.4322043168
  9
$TDUPDATE
 40
2458540.6796934842
  9
$TDINDWG
 40
0.0382520718
  9
$TDUSRTIMER
 40
0.0382520023
  9
$USRTIMER
 70
     1
  9
$ANGBASE
 50
0.0
  9
$ANGDIR
 70
     0
  9
$PDMODE
 70
     0
  9
$PDSIZE
 40
0.0
  9
$PLINEWID
 40
0.0
  9
$COORDS
 70
     1
  9
$SPLFRAME
 70
     0
  9
$SPLINETYPE
 70
     6
  9
$SPLINESEGS
 70
     8
  9
$ATTDIA
 70
     1
  9
$ATTREQ
 70
     1
  9
$HANDLING
 70
     1
  9
$HANDSEED
  5
E2D
  9
$SURFTAB1
 70
     6
  9
$SURFTAB2
 70
     6
  9
$SURFTYPE
 70
     6
  9
$SURFU
 70
     6
  9
$SURFV
 70
     6
  9
$UCSNAME
  2

  9
$UCSORG
 10
0.0
 20
0.0
 30
0.0
  9
$UCSXDIR
 10
1.0
 20
0.0
 30
0.0
  9
$UCSYDIR
 10
0.0
 20
1.0
 30
0.0
  9
$PUCSNAME
  2

  9
$PUCSORG
 10
0.0
 20
0.0
 30
0.0
  9
$PUCSXDIR
 10
1.0
 20
0.0
 30
0.0
  9
$PUCSYDIR
 10
0.0
 20
1.0
 30
0.0
  9
$USERI1
 70
     0
  9
$USERI2
 70
     0
  9
$USERI3
 70
     0
  9
$USERI4
 70
     0
  9
$USERI5
 70
     0
  9
$USERR1
 40
0.0
  9
$USERR2
 40
0.0
  9
$USERR3
 40
0.0
  9
$USERR4
 40
0.0
  9
$USERR5
 40
0.0
  9
$WORLDVIEW
 70
     1
  9
$SHADEDGE
 70
     3
  9
$SHADEDIF
 70
    70
  9
$TILEMODE
 70
     1
  9
$MAXACTVP
 70
    64
  9
$PLIMCHECK
 70
     0
  9
$PEXTMIN
 10
1.0000000000000000E+020
 20
1.0000000000000000E+020
 30
1.0000000000000000E+020
  9
$PEXTMAX
 10
-1.0000000000000000E+020
 20
-1.0000000000000000E+020
 30
-1.0000000000000000E+020
  9
$PLIMMIN
 10
0.0
 20
0.0
  9
$PLIMMAX
 10
12.0
 20
9.0
  9
$UNITMODE
 70
     0
  9
$VISRETAIN
 70
     1
  9
$PLINEGEN
 70
     0
  9
$PSLTSCALE
 70
     1
  0
ENDSEC
  0
SECTION
  2
TABLES
  0
TABLE
  2
VPORT
 70
     1
  0
VPORT
  2
*ACTIVE
 70
     0
 10
0.0
 20
0.0
 11
1.0
 21
1.0
 12
-353.75643795068243
 22
282.04280880329588
 13
0.0
 23
0.0
 14
1.0
 24
1.0
 15
0.0
 25
0.0
 16
0.0
 26
0.0
 36
1.0
 17
0.0
 27
0.0
 37
0.0
 40
445.17010190558199
 41
1.7571592210767459
 42
50.0
 43
0.0
 44
0.0
 50
0.0
 51
0.0
 71
     0
 72
   100
 73
     1
 74
     1
 75
     0
 76
     0
 77
     0
 78
     0
  0
ENDTAB
  0
TABLE
  2
LTYPE
 70
    20
  0
LTYPE
  2
CONTINUOUS
 70
     0
  3
Solid line
 72
    65
 73
     0
 40
0.0
  0
LTYPE
  2
DASHED
 70
     0
  3
__ __ __ __ __ __ __ __ __ __ __ __ __ __ __
 72
    65
 73
     2
 40
3.5
 49
2.0
 49
-1.5
  0
LTYPE
  2
CENTER
 70
     0
  3
____ _ ____ _ ____ _ ____ _ ____ _ ____ _ ____
 72
    65
 73
     4
 40
17.5
 49
13.0
 49
-1.5
 49
1.5
 49
-1.5
  0
LTYPE
  2
PHANTOM
 70
     0
  3
_____ _ _ _____ _ _ _____ _ _ _____ _ _ ____  
 72
    65
 73
     6
 40
15.5
 49
8.0
 49
-1.5
 49
1.5
 49
-1.5
 49
1.5
 49
-1.5
  0
LTYPE
  2
DOT
 70
     0
  3
. . . . . . . . . . . . . . . . . . . . . . . .
 72
    65
 73
     2
 40
0.25
 49
0.0
 49
-0.25
  0
LTYPE
  2
AM_ISO02W050
 70
     0
  3
__ __ __ __ __ __ __ __ __ __ __ __ __ __ __
 72
    65
 73
     2
 40
7.5
 49
6.0
 49
-1.5
  0
LTYPE
  2
AM_ISO08W050
 70
     0
  3
____ . ____ . ____ . ____ . ____ . ____ . ____
 72
    65
 73
     4
 40
18.0
 49
12.0
 49
-1.5
 49
3.0
 49
-1.5
  0
LTYPE
  2
AM_ISO09W050
 70
     0
  3
_____ . . _____ . . _____ . . ____ .. ____
 72
    65
 73
     6
 40
22.5
 49
12.0
 49
-1.5
 49
3.0
 49
-1.5
 49
3.0
 49
-1.5
  0
LTYPE
  2
AMCONSTR
 70
     0
  3
_______________________
 72
    65
 73
     2
 40
9999.0
 49
9999.0
 49
0.0
  0
LTYPE
  2
AM_ISO08W050X2
 70
     0
  3
__ . __ . __ . __ . __ . __
 72
    65
 73
     4
 40
9.0
 49
6.0
 49
-0.75
 49
1.5
 49
-0.75
  0
LTYPE
  2
AM_ISO02W050X2
 70
     0
  3
 _ _ _ _ _ _ _ _ _ _ _ _
 72
    65
 73
     2
 40
3.75
 49
3.0
 49
-0.75
  0
LTYPE
  2
AMZIGZAG
 70
     0
  3
/\/-/\/-/\/-/\/-/\/-/\/
 72
    65
 73
     2
 40
11.000099999999991
 49
0.0001
 49
-11.0
  0
LTYPE
  2
HIDDEN
 70
     0
  3
Hidden __ __ __ __ __ __ __ __ __ __ __ __ __ _
 72
    65
 73
     2
 40
0.375
 49
0.25
 49
-0.125
  0
LTYPE
  2
PHANTOM2
 70
     0
  3
Phantom (.5x) ___ _ _ ___ _ _ ___ _ _ ___ _ _
 72
    65
 73
     6
 40
1.25
 49
0.625
 49
-0.125
 49
0.125
 49
-0.125
 49
0.125
 49
-0.125
  0
LTYPE
  2
CENTER2
 70
     0
  3
Center (.5x) ___ _ ___ _ ___ _ ___ _ ___ _ ___
 72
    65
 73
     4
 40
1.125
 49
0.75
 49
-0.125
 49
0.125
 49
-0.125
  0
LTYPE
  2
HIDDEN2
 70
     0
  3
Hidden (.5x) _ _ _ _ _ _ _ _ _ _ _ _ _ _ _ _ _
 72
    65
 73
     2
 40
0.1875
 49
0.125
 49
-0.0625
  0
LTYPE
  2
AMZIGZAG2
 70
     0
  3
/\/-/\/-/\/-/\/-/\/-/\/
 72
    65
 73
     2
 40
0.4401
 49
0.0001
 49
-0.4400000000000003
  0
LTYPE
  2
ACANSTGB
 70
     0
  3
__ . . __ . .
 72
    65
 73
     6
 40
0.35433070866
 49
0.15748031496
 49
-0.03937007874
 49
0.03937007874
 49
-0.03937007874
 49
0.03937007874
 49
-0.03937007874
  0
LTYPE
  2
ACANSTGL
 70
     0
  3
_ _ _ _ _
 72
    65
 73
     2
 40
0.11811023622
 49
0.07874015748
 49
-0.03937007874
  0
ENDTAB
  0
TABLE
  2
LAYER
 70
     1
  0
LAYER
  2
0
 70
     0
 62
     7
  6
CONTINUOUS
  0
ENDTAB
  0
TABLE
  2
STYLE
 70
     5
  0
STYLE
  2
STANDARD
 70
     0
 40
0.0
 41
1.0
 50
0.0
 71
     0
 42
0.2
  3
txt
  4
BIGFONT
  0
STYLE
  2
ANNOTATIVE
 70
     0
 40
0.0
 41
1.0
 50
0.0
 71
     0
 42
0.2
  3
txt
  4

  0
STYLE
  2

 70
     1
 40
0.0
 41
1.0
 50
0.0
 71
     0
 42
0.2
  3
ltypeshp.shx
  4

  0
STYLE
  2
ACANSTS
 70
     0
 40
1.0
 41
1.0
 50
0.0
 71
     0
 42
0.2
  3
romans.shx
  4
extfont.shx
  0
STYLE
  2
ACANSGDT
 70
     0
 40
0.0
 41
1.0
 50
0.0
 71
     0
 42
0.2
  3
amgdt.shx
  4

  0
ENDTAB
  0
TABLE
  2
VIEW
 70
     0
  0
ENDTAB
  0
TABLE
  2
UCS
 70
     0
  0
ENDTAB
  0
TABLE
  2
APPID
 70
    11
  0
APPID
  2
ACAD
 70
     0
  0
APPID
  2
ACADANNOTATIVE
 70
     0
  0
APPID
  2
MCAD_NO_VIS
 70
     0
  0
APPID
  2
ACAD_TEMP_GRAPHIC
 70
     0
  0
APPID
  2
ACATTRIBSERVICES
 70
     0
  0
APPID
  2
DESIGNERASSEMBLIES
 70
     0
  0
APPID
  2
ACAD_DSTYLE_DIMBREAK
 70
     0
  0
APPID
  2
ACAD_DSTYLE_DIMJAG
 70
     0
  0
APPID
  2
ACAD_NAV_VCDISPLAY
 70
     0
  0
APPID
  2
ACAD_EXEMPT_FROM_CAD_STANDARDS
 70
     0
  0
APPID
  2
ACAD_MLEADERVER
 70
     0
  0
ENDTAB
  0
TABLE
  2
DIMSTYLE
 70
     8
  0
DIMSTYLE
  2
STANDARD
 70
     0
  3

  4

  5

  6

  7

 40
1.0
 41
0.18
 42
0.0625
 43
0.38
 44
0.18
 45
0.0
 46
0.0
 47
0.0
 48
0.0
140
0.18
141
0.09
142
0.0
143
25.399999999999999
144
1.0
145
0.0
146
1.0
147
0.09
 71
     0
 72
     0
 73
     1
 74
     1
 75
     0
 76
     0
 77
     0
 78
     0
170
     0
171
     2
172
     0
173
     0
174
     0
175
     0
176
     0
177
     0
178
     0
  0
DIMSTYLE
  2
ANNOTATIVE
 70
     0
  3

  4

  5

  6

  7

 40
1.0
 41
0.18
 42
0.0625
 43
0.38
 44
0.18
 45
0.0
 46
0.0
 47
0.0
 48
0.0
140
0.18
141
0.09
142
0.0
143
25.399999999999999
144
1.0
145
0.0
146
1.0
147
0.09
 71
     0
 72
     0
 73
     1
 74
     1
 75
     0
 76
     0
 77
     0
 78
     0
170
     0
171
     2
172
     0
173
     0
174
     0
175
     0
176
     0
177
     0
178
     0
  0
DIMSTYLE
  2
AM_ANSI
 70
     0
  3

  4
mm
  5

  6

  7

 40
1.0
 41
0.1
 42
0.05
 43
0.5
 44
0.1
 45
0.0
 46
0.0
 47
0.1
 48
0.1
140
0.12
141
0.0
142
0.0
143
25.399999999999999
144
1.0
145
0.0
146
0.71
147
0.06
 71
     0
 72
     0
 73
     1
 74
     1
 75
     0
 76
     0
 77
     0
 78
     7
170
     0
171
     2
172
     0
173
     0
174
     0
175
     0
176
   256
177
   256
178
     2
  0
DIMSTYLE
  2
AM_ANSI$3
 70
     0
  3

  4
mm
  5

  6

  7

 40
1.0
 41
0.1
 42
0.05
 43
0.5
 44
0.1
 45
0.0
 46
0.0
 47
0.1
 48
0.1
140
0.12
141
0.0
142
0.0
143
25.399999999999999
144
1.0
145
0.0
146
0.71
147
0.06
 71
     0
 72
     0
 73
     1
 74
     1
 75
     0
 76
     0
 77
     0
 78
     7
170
     0
171
     2
172
     0
173
     0
174
     0
175
     0
176
   256
177
   256
178
     2
  0
DIMSTYLE
  2
AM_ANSI$4
 70
     0
  3

  4
mm
  5

  6

  7

 40
1.0
 41
0.1
 42
0.05
 43
0.5
 44
0.1
 45
0.0
 46
0.0
 47
0.1
 48
0.1
140
0.12
141
0.0
142
0.0
143
25.399999999999999
144
1.0
145
0.0
146
0.71
147
0.06
 71
     0
 72
     0
 73
     1
 74
     1
 75
     0
 76
     0
 77
     0
 78
     7
170
     0
171
     2
172
     0
173
     0
174
     0
175
     0
176
   256
177
   256
178
     2
  0
DIMSTYLE
  2
AM_ANSI$7
 70
     0
  3

  4
mm
  5

  6

  7

 40
1.0
 41
0.1
 42
0.05
 43
0.5
 44
0.1
 45
0.0
 46
0.0
 47
0.1
 48
0.1
140
0.24
141
0.0
142
0.0
143
25.399999999999999
144
1.0
145
0.0
146
0.71
147
0.06
 71
     0
 72
     0
 73
     1
 74
     1
 75
     0
 76
     0
 77
     0
 78
     7
170
     0
171
     2
172
     0
173
     0
174
     0
175
     0
176
   256
177
   256
178
     2
  0
DIMSTYLE
  2
AM_ANSI$SF
 70
     0
  3

  4
mm
  5

  6

  7

 40
1.0
 41
0.1
 42
0.05
 43
0.5
 44
0.1
 45
0.0
 46
0.0
 47
0.1
 48
0.1
140
0.12
141
0.0
142
0.0
143
25.399999999999999
144
1.0
145
0.0
146
0.71
147
0.06
 71
     0
 72
     0
 73
     1
 74
     1
 75
     1
 76
     1
 77
     0
 78
     7
170
     0
171
     2
172
     0
173
     0
174
     0
175
     0
176
   256
177
   256
178
     2
  0
DIMSTYLE
  2
AM_ANSI$SH
 70
     0
  3

  4
mm
  5

  6

  7

 40
1.0
 41
0.1
 42
0.05
 43
0.5
 44
0.1
 45
0.0
 46
0.0
 47
0.1
 48
0.1
140
0.12
141
0.0
142
0.0
143
25.399999999999999
144
1.0
145
0.0
146
0.71
147
0.06
 71
     0
 72
     0
 73
     1
 74
     1
 75
     1
 76
     1
 77
     0
 78
     7
170
     0
171
     2
172
     0
173
     1
174
     0
175
     0
176
   256
177
   256
178
     2
  0
ENDTAB
  0
ENDSEC
  0
SECTION
  2
BLOCKS
  0
BLOCK
  8
0
  2
$MODEL_SPACE
 70
     0
 10
0.0
 20
0.0
 30
0.0
  3
$MODEL_SPACE
  1

  0
ENDBLK
  5
D34
  8
0
  0
BLOCK
 67
     1
  8
0
  2
$PAPER_SPACE
 70
     0
 10
0.0
 20
0.0
 30
0.0
  3
$PAPER_SPACE
  1

  0
ENDBLK
  5
D30
 67
     1
  8
0
  0
BLOCK
  8
0
  2
GENAXEH
 70
     0
 10
0.0
 20
0.0
 30
0.0
  3
GENAXEH
  1

  0
LINE
  5
53D
  8
0
 10
-1.0
 20
0.0
 30
0.0
 11
1.0
 21
0.0
 31
0.0
  0
ENDBLK
  5
53E
  8
0
  0
BLOCK
  8
0
  2
_ACMFILLEDHALF
 70
     0
 10
0.0
 20
0.0
 30
0.0
  3
_ACMFILLEDHALF
  1

  0
TRACE
  5
ABC
  8
0
  6
CONTINUOUS
 62
     0
 10
-0.8
 20
0.0
 30
0.0
 11
-1.0
 21
0.166666666
 31
0.0
 12
0.0
 22
0.0
 32
0.0
 13
0.0
 23
0.0
 33
0.0
  0
LINE
  5
ABD
  8
0
  6
CONTINUOUS
 62
     0
 10
-1.0
 20
0.0
 30
0.0
 11
-0.8
 21
0.0
 31
0.0
  0
ENDBLK
  5
ABB
  8
0
  0
BLOCK
  8
0
  2
*U4
 70
     1
 10
0.0
 20
0.0
 30
0.0
  3
*U4
  1

  0
TEXT
  5
B43
  8
0
  6
CONTINUOUS
 62
     0
 10
4.1999993754229852
 20
4.4356759791489822
 30
0.0
 40
10.0
  1
ＶＸ０１－２４０Ｍ～ＶＸ０１－６００Ｍ
  0
ENDBLK
  5
B45
  8
0
  0
BLOCK
  8
0
  2
*U5
 70
     1
 10
0.0
 20
0.0
 30
0.0
  3
*U5
  1

  0
TEXT
  5
B47
  8
0
  6
CONTINUOUS
 62
     0
 10
-255.1302637215949
 20
309.752601361529
 30
0.0
 40
10.0
  1
ＶＸ０４－０６０Ｍ～ＶＸ０４－２００Ｍ
  0
ENDBLK
  5
B49
  8
0
  0
BLOCK
  8
0
  2
*U6
 70
     1
 10
0.0
 20
0.0
 30
0.0
  3
*U6
  1

  0
TEXT
  5
CBD
  8
0
  6
CONTINUOUS
 62
     0
 10
4.1999993754229852
 20
4.4356759791489822
 30
0.0
 40
10.0
  1
ＶＸ０１－２４０Ｍ～ＶＸ０１－６００Ｍ
  0
ENDBLK
  5
CBF
  8
0
  0
BLOCK
  8
0
  2
*U7
 70
     1
 10
0.0
 20
0.0
 30
0.0
  3
*U7
  1

  0
TEXT
  5
CC1
  8
0
  6
CONTINUOUS
 62
     0
 10
-260.90627082654009
 20
303.04684981057738
 30
0.0
 40
10.0
  1
ＶＸ０４－０６０Ｍ～ＶＸ０４－１００Ｍ
  0
ENDBLK
  5
CC3
  8
0
  0
ENDSEC
  0
SECTION
  2
ENTITIES
  0
LINE
  5
53F
  8
0
  6
CENTER
 62
     7
 10
-646.88964999999985
 20
413.09487999999988
 30
0.0
 11
-309.92684999999989
 21
413.09487999999988
 31
0.0
  0
LINE
  5
540
  8
0
  6
CONTINUOUS
 62
     7
 10
-359.63384999999982
 20
398.09487999999999
 30
0.0
 11
-356.63385
 21
398.09487999999999
 31
0.0
  0
LINE
  5
541
  8
0
  6
CONTINUOUS
 62
     7
 10
-314.63387999999992
 20
427.09491000000003
 30
0.0
 11
-314.63387999999992
 21
399.09491000000003
 31
0.0
  0
LINE
  5
542
  8
0
  6
CONTINUOUS
 62
     7
 10
-356.63385
 20
427.09491000000003
 30
0.0
 11
-314.63387999999992
 21
427.09491000000003
 31
0.0
  0
LINE
  5
543
  8
0
  6
CONTINUOUS
 62
     7
 10
-356.63385
 20
428.09487999999988
 30
0.0
 11
-356.63385
 21
398.09487999999999
 31
0.0
  0
LINE
  5
544
  8
0
  6
CONTINUOUS
 62
     7
 10
-356.63385
 20
399.09491000000003
 30
0.0
 11
-314.63387999999992
 21
399.09491000000003
 31
0.0
  0
LINE
  5
545
  8
0
  6
CONTINUOUS
 62
     7
 10
-346.63387999999992
 20
417.09484999999989
 30
0.0
 11
-346.63387999999992
 21
409.09487999999988
 31
0.0
  0
LINE
  5
546
  8
0
  6
CONTINUOUS
 62
     7
 10
-359.63384999999982
 20
428.09487999999988
 30
0.0
 11
-356.63385
 21
428.09487999999988
 31
0.0
  0
LINE
  5
547
  8
0
  6
CONTINUOUS
 62
     7
 10
-361.66000000000003
 20
442.14794999999998
 30
0.0
 11
-360.60766999999998
 21
442.12038999999999
 31
0.0
  0
LINE
  5
548
  8
0
  6
CONTINUOUS
 62
     7
 10
-467.41028
 20
477.41320999999988
 30
0.0
 11
-466.06015000000002
 21
477.05142000000001
 31
0.0
  0
LINE
  5
549
  8
0
  6
CONTINUOUS
 62
     7
 10
-469.63385
 20
499.20352000000003
 30
0.0
 11
-469.63385
 21
480.31097
 31
0.0
  0
LINE
  5
54A
  8
0
  6
CONTINUOUS
 62
     7
 10
-359.63384999999982
 20
498.26082999999988
 30
0.0
 11
-359.63384999999982
 21
471.09487999999988
 31
0.0
  0
LINE
  5
54B
  8
0
  6
CENTER
 62
     7
 10
-463.4246799999998
 20
488.09487999999988
 30
0.0
 11
-445.78612999999962
 21
488.09487999999988
 31
0.0
  0
LINE
  5
54C
  8
0
  6
CONTINUOUS
 62
     7
 10
-432.63385
 20
503.09487999999988
 30
0.0
 11
-362.55532999999991
 21
501.25979999999993
 31
0.0
  0
LINE
  5
54D
  8
0
  6
CONTINUOUS
 62
     7
 10
-466.71237000000002
 20
502.20247999999992
 30
0.0
 11
-432.63385
 21
503.09485000000001
 31
0.0
  0
LINE
  5
54E
  8
0
  6
CENTER
 62
     7
 10
-454.63385
 20
496.73290999999989
 30
0.0
 11
-454.63385
 21
479.53255999999988
 31
0.0
  0
LINE
  5
54F
  8
0
  6
CENTER
 62
     7
 10
-374.63385
 20
495.85645
 30
0.0
 11
-374.63385
 21
478.76568999999989
 31
0.0
  0
LINE
  5
550
  8
0
  6
CENTER
 62
     7
 10
-383.01040999999992
 20
488.09487999999988
 30
0.0
 11
-366.46740999999992
 21
488.09487999999988
 31
0.0
  0
LINE
  5
551
  8
0
  6
CONTINUOUS
 62
     7
 10
-432.63385
 20
497.96222
 30
0.0
 11
-432.63385
 21
495.34582999999998
 31
0.0
  0
LINE
  5
552
  8
0
  6
CONTINUOUS
 62
     7
 10
-361.66002999999989
 20
384.04183999999992
 30
0.0
 11
-360.60766999999998
 21
384.06939999999992
 31
0.0
  0
LINE
  5
553
  8
0
  6
CONTINUOUS
 62
     7
 10
-469.63385
 20
326.98621000000009
 30
0.0
 11
-469.63385
 21
345.87878000000001
 31
0.0
  0
LINE
  5
554
  8
0
  6
CONTINUOUS
 62
     7
 10
-467.41030999999992
 20
348.77654999999999
 30
0.0
 11
-466.06018
 21
349.13833999999991
 31
0.0
  0
LINE
  5
555
  8
0
  6
CONTINUOUS
 62
     7
 10
-359.63384999999982
 20
327.92892000000001
 30
0.0
 11
-359.63384999999982
 21
355.09487999999999
 31
0.0
  0
LINE
  5
556
  8
0
  6
CENTER
 62
     7
 10
-462.16640999999998
 20
338.09487999999999
 30
0.0
 11
-446.38650999999987
 21
338.09487999999999
 31
0.0
  0
LINE
  5
557
  8
0
  6
CONTINUOUS
 62
     7
 10
-432.63385
 20
323.09487999999999
 30
0.0
 11
-362.55532999999991
 21
324.92995999999999
 31
0.0
  0
LINE
  5
558
  8
0
  6
CONTINUOUS
 62
     7
 10
-466.71237000000002
 20
323.98723999999982
 30
0.0
 11
-432.63385
 21
323.09487999999999
 31
0.0
  0
LINE
  5
559
  8
0
  6
CENTER
 62
     7
 10
-454.63385
 20
329.57391000000001
 30
0.0
 11
-454.63385
 21
346.32657
 31
0.0
  0
LINE
  5
55A
  8
0
  6
CENTER
 62
     7
 10
-374.63385
 20
328.84505999999999
 30
0.0
 11
-374.63385
 21
346.07366999999982
 31
0.0
  0
LINE
  5
55B
  8
0
  6
CONTINUOUS
 62
     7
 10
-435.63384999999988
 20
330.84392999999972
 30
0.0
 11
-435.63384999999988
 21
495.34582999999998
 31
0.0
  0
LINE
  5
55C
  8
0
  6
CONTINUOUS
 62
     7
 10
-362.63385
 20
358.96785999999992
 30
0.0
 11
-362.63385
 21
467.2218899999998
 31
0.0
  0
LINE
  5
55D
  8
0
  6
CONTINUOUS
 62
     7
 10
-359.63384999999982
 20
441.12072999999998
 30
0.0
 11
-359.63384999999982
 21
385.06903
 31
0.0
  0
LINE
  5
55E
  8
0
  6
CONTINUOUS
 62
     7
 10
-436.63385
 20
501.96221999999989
 30
0.0
 11
-436.63385
 21
498.61908
 31
0.0
  0
LINE
  5
55F
  8
0
  6
CONTINUOUS
 62
     7
 10
-346.63387999999992
 20
409.09487999999988
 30
0.0
 11
-314.63387999999992
 21
409.09487999999988
 31
0.0
  0
LINE
  5
560
  8
0
  6
CONTINUOUS
 62
     7
 10
-346.63387999999992
 20
417.09484999999989
 30
0.0
 11
-314.63387999999992
 21
417.09484999999989
 31
0.0
  0
LINE
  5
561
  8
0
  6
CONTINUOUS
 62
     7
 10
-374.63385
 20
357.92334
 30
0.0
 11
-374.63385
 21
468.26641999999993
 31
0.0
  0
LINE
  5
562
  8
0
  6
CONTINUOUS
 62
     7
 10
-365.37237999999979
 20
467.33447000000001
 30
0.0
 11
-371.16782000000001
 21
467.84151999999989
 31
0.0
  0
LINE
  5
563
  8
0
  6
CONTINUOUS
 62
     7
 10
-365.37241
 20
358.85528999999991
 30
0.0
 11
-371.16782000000001
 21
358.34827000000001
 31
0.0
  0
LINE
  5
564
  8
0
  6
CONTINUOUS
 62
     7
 10
-379.45937999999978
 20
473.26339999999999
 30
0.0
 11
-384.91305999999992
 21
473.45382999999993
 31
0.0
  0
LINE
  5
565
  8
0
  6
CONTINUOUS
 62
     7
 10
-379.45934999999992
 20
352.92635999999999
 30
0.0
 11
-384.91305999999992
 21
352.73593
 31
0.0
  0
LINE
  5
566
  8
0
  6
CONTINUOUS
 62
     7
 10
-392.63384999999988
 20
329.27496000000002
 30
0.0
 11
-392.63384999999988
 21
344.74077999999992
 31
0.0
  0
LINE
  5
567
  8
0
  6
CONTINUOUS
 62
     7
 10
-392.63384999999988
 20
481.44896999999997
 30
0.0
 11
-392.63384999999988
 21
496.91478999999998
 31
0.0
  0
LINE
  5
568
  8
0
  6
CONTINUOUS
 62
     7
 10
-435.63384999999988
 20
330.84392999999972
 30
0.0
 11
-432.63385
 21
330.84392999999972
 31
0.0
  0
LINE
  5
569
  8
0
  6
CONTINUOUS
 62
     7
 10
-435.63384999999988
 20
495.34582999999998
 30
0.0
 11
-432.63385
 21
495.34582999999998
 31
0.0
  0
LINE
  5
56A
  8
0
  6
CENTER
 62
     7
 10
-383.07226999999989
 20
338.09487999999999
 30
0.0
 11
-366.50628999999992
 21
338.09487999999999
 31
0.0
  0
LINE
  5
56B
  8
0
  6
CONTINUOUS
 62
     7
 10
-432.63385
 20
328.22753999999992
 30
0.0
 11
-432.63385
 21
330.84392999999972
 31
0.0
  0
LINE
  5
56C
  8
0
  6
CONTINUOUS
 62
     7
 10
-436.63385
 20
324.22753999999998
 30
0.0
 11
-436.63385
 21
327.57067999999998
 31
0.0
  0
LINE
  5
56D
  8
0
  6
CONTINUOUS
 62
     7
 10
-435.63384999999988
 20
330.84392999999972
 30
0.0
 11
-447.80835000000002
 21
331.26907
 31
0.0
  0
LINE
  5
56E
  8
0
  6
CONTINUOUS
 62
     7
 10
-435.63387999999992
 20
495.34582999999998
 30
0.0
 11
-447.80838
 21
494.92067999999989
 31
0.0
  0
LINE
  5
56F
  8
0
  6
CONTINUOUS
 62
     7
 10
-452.63385
 20
336.26602000000008
 30
0.0
 11
-452.63385
 21
489.92374000000001
 31
0.0
  0
LINE
  5
570
  8
0
  6
CONTINUOUS
 62
     7
 10
-442.63387999999992
 20
342.00470000000001
 30
0.0
 11
-435.63384999999988
 21
342.00470000000001
 31
0.0
  0
LINE
  5
571
  8
0
  6
CONTINUOUS
 62
     7
 10
-442.63387999999992
 20
484.18505999999991
 30
0.0
 11
-435.63384999999988
 21
484.18505999999991
 31
0.0
  0
LINE
  5
572
  8
0
  6
CONTINUOUS
 62
     7
 10
-452.63385
 20
472.40337999999991
 30
0.0
 11
-442.63387999999992
 21
472.40337999999991
 31
0.0
  0
LINE
  5
573
  8
0
  6
CONTINUOUS
 62
     7
 10
-452.63385
 20
353.78638000000001
 30
0.0
 11
-442.63387999999992
 21
353.78638000000001
 31
0.0
  0
LINE
  5
574
  8
0
  6
CONTINUOUS
 62
     7
 10
-442.63387999999992
 20
342.00470000000001
 30
0.0
 11
-442.63387999999992
 21
484.18505999999991
 31
0.0
  0
LINE
  5
575
  8
0
  6
CONTINUOUS
 62
     7
 10
-479.13385
 20
349.59487999999988
 30
0.0
 11
-479.13385
 21
476.59487999999999
 31
0.0
  0
LINE
  5
576
  8
0
  6
CONTINUOUS
 62
     7
 10
-149.28093999999979
 20
187.5479399999999
 30
0.0
 11
-141.28095999999991
 21
187.5479399999999
 31
0.0
  0
LINE
  5
577
  8
0
  6
CONTINUOUS
 62
     7
 10
-149.28093999999979
 20
180.5479399999999
 30
0.0
 11
-141.28095999999991
 21
180.5479399999999
 31
0.0
  0
LINE
  5
578
  8
0
  6
CONTINUOUS
 62
     7
 10
-141.28095999999991
 20
180.5479399999999
 30
0.0
 11
-141.28095999999991
 21
187.5479399999999
 31
0.0
  0
LINE
  5
579
  8
0
  6
CONTINUOUS
 62
     7
 10
-359.63391000000001
 20
185.54793000000001
 30
0.0
 11
-356.63391000000001
 21
185.54793000000001
 31
0.0
  0
LINE
  5
57A
  8
0
  6
CONTINUOUS
 62
     7
 10
-346.63391000000001
 20
187.5479399999999
 30
0.0
 11
-346.63391000000001
 21
184.5479399999999
 31
0.0
  0
LINE
  5
57B
  8
0
  6
CONTINUOUS
 62
     7
 10
-346.63391000000001
 20
187.5479399999999
 30
0.0
 11
-314.63387999999992
 21
187.5479399999999
 31
0.0
  0
LINE
  5
57C
  8
0
  6
CENTER
 62
     7
 10
-461.27492999999993
 20
170.54793000000001
 30
0.0
 11
-309.68610000000001
 21
170.54793000000001
 31
0.0
  0
LINE
  5
57D
  8
0
  6
CONTINUOUS
 62
     7
 10
-356.63391000000001
 20
156.5479399999999
 30
0.0
 11
-314.63387999999992
 21
156.5479399999999
 31
0.0
  0
LINE
  5
57E
  8
0
  6
CONTINUOUS
 62
     7
 10
-356.63391000000001
 20
185.54793000000001
 30
0.0
 11
-356.63391000000001
 21
155.54793000000001
 31
0.0
  0
LINE
  5
57F
  8
0
  6
CONTINUOUS
 62
     7
 10
-356.63391000000001
 20
184.5479399999999
 30
0.0
 11
-314.63387999999992
 21
184.5479399999999
 31
0.0
  0
LINE
  5
580
  8
0
  6
CONTINUOUS
 62
     7
 10
-149.28093999999979
 20
180.5479399999999
 30
0.0
 11
-149.28093999999979
 21
187.5479399999999
 31
0.0
  0
LINE
  5
581
  8
0
  6
CONTINUOUS
 62
     7
 10
-314.63387999999992
 20
187.5479399999999
 30
0.0
 11
-314.63387999999992
 21
156.5479399999999
 31
0.0
  0
LINE
  5
582
  8
0
  6
CONTINUOUS
 62
     7
 10
-359.63391000000001
 20
155.54793000000001
 30
0.0
 11
-356.63391000000001
 21
155.54793000000001
 31
0.0
  0
LINE
  5
583
  8
0
  6
CONTINUOUS
 62
     7
 10
-362.63391000000001
 20
81.420913999999982
 30
0.0
 11
-362.63391000000001
 21
206.7989199999999
 31
0.0
  0
LINE
  5
584
  8
0
  6
CONTINUOUS
 62
     7
 10
-88.280959999999979
 20
79.547927999999985
 30
0.0
 11
-57.280951999999999
 21
79.547927999999985
 31
0.0
  0
LINE
  5
585
  8
0
  6
CONTINUOUS
 62
     7
 10
-71.475066999999996
 20
199.70193
 30
0.0
 11
-107.03408
 21
218.74945
 31
0.0
  0
LINE
  5
586
  8
0
  6
CONTINUOUS
 62
     7
 10
-235.2809399999999
 20
64.547943000000004
 30
0.0
 11
-235.2809399999999
 21
79.547927999999985
 31
0.0
  0
LINE
  5
587
  8
0
  6
CONTINUOUS
 62
     7
 10
-92.280951999999999
 20
66.547934999999995
 30
0.0
 11
-198.28093000000001
 21
66.547934999999995
 31
0.0
  0
LINE
  5
588
  8
0
  6
DASHED
 62
     7
 10
-214.2809399999999
 20
79.547927999999985
 30
0.0
 11
-214.2809399999999
 21
64.547943000000004
 31
0.0
  0
LINE
  5
589
  8
0
  6
DASHED
 62
     7
 10
-226.28093999999999
 20
79.547927999999985
 30
0.0
 11
-226.28093999999999
 21
64.547943000000004
 31
0.0
  0
LINE
  5
58A
  8
0
  6
CONTINUOUS
 62
     7
 10
-55.280956000000003
 20
79.547919999999976
 30
0.0
 11
-63.072097999999983
 21
186.75762999999981
 31
0.0
  0
LINE
  5
58B
  8
0
  6
CONTINUOUS
 62
     7
 10
-386.63391000000001
 20
64.547927999999985
 30
0.0
 11
-386.63391000000001
 21
64.547927999999985
 31
0.0
  0
LINE
  5
58C
  8
0
  6
CONTINUOUS
 62
     7
 10
-441.63387999999998
 20
65.547927999999999
 30
0.0
 11
-387.63387999999992
 21
65.547927999999999
 31
0.0
  0
LINE
  5
58D
  8
0
  6
CONTINUOUS
 62
     7
 10
-467.63390999999979
 20
79.547927999999985
 30
0.0
 11
-442.11957000000001
 21
79.547927999999985
 31
0.0
  0
LINE
  5
58E
  8
0
  6
CONTINUOUS
 62
     7
 10
-359.63391000000001
 20
77.547934999999981
 30
0.0
 11
-359.63391000000001
 21
64.547927999999985
 31
0.0
  0
LINE
  5
58F
  8
0
  6
CONTINUOUS
 62
     7
 10
-469.6339099999995
 20
64.547927999999985
 30
0.0
 11
-442.63390999999979
 21
64.547927999999985
 31
0.0
  0
LINE
  5
590
  8
0
  6
CONTINUOUS
 62
     7
 10
-387.63387999999992
 20
79.547927999999985
 30
0.0
 11
-361.63391000000001
 21
79.547927999999985
 31
0.0
  0
LINE
  5
591
  8
0
  6
CENTER
 62
     7
 10
-70.280968000000001
 20
62.128512999999998
 30
0.0
 11
-70.280968000000001
 21
82.242110999999966
 31
0.0
  0
LINE
  5
592
  8
0
  6
CENTER
 62
     7
 10
-220.28093999999999
 20
62.128512999999998
 30
0.0
 11
-220.28093999999999
 21
81.638701999999981
 31
0.0
  0
LINE
  5
593
  8
0
  6
DASHED
 62
     7
 10
-76.280959999999979
 20
79.547927999999985
 30
0.0
 11
-76.280959999999979
 21
64.547943000000004
 31
0.0
  0
LINE
  5
594
  8
0
  6
DASHED
 62
     7
 10
-64.280959999999993
 20
79.547927999999985
 30
0.0
 11
-64.280959999999993
 21
64.547943000000004
 31
0.0
  0
LINE
  5
595
  8
0
  6
CONTINUOUS
 62
     7
 10
-55.280956000000003
 20
79.547927999999985
 30
0.0
 11
-64.893119999999996
 21
157.28755000000001
 31
0.0
  0
LINE
  5
596
  8
0
  6
CONTINUOUS
 62
     7
 10
-235.2809799999998
 20
79.547934999999981
 30
0.0
 11
-225.66881000000001
 21
157.28753999999981
 31
0.0
  0
LINE
  5
597
  8
0
  6
CONTINUOUS
 62
     7
 10
-382.63391000000001
 20
201.78121999999991
 30
0.0
 11
-374.63391000000001
 21
201.78121999999991
 31
0.0
  0
LINE
  5
598
  8
0
  6
CONTINUOUS
 62
     7
 10
-392.63391000000001
 20
92.161216999999994
 30
0.0
 11
-379.63391000000001
 21
92.161216999999994
 31
0.0
  0
LINE
  5
599
  8
0
  6
CONTINUOUS
 62
     7
 10
-103.28095999999979
 20
71.547934999999995
 30
0.0
 11
-103.28095999999979
 21
72.547943000000004
 31
0.0
  0
LINE
  5
59A
  8
0
  6
CONTINUOUS
 62
     7
 10
-91.280959999999993
 20
84.547943000000004
 30
0.0
 11
-91.280959999999993
 21
155.54793000000001
 31
0.0
  0
LINE
  5
59B
  8
0
  6
CONTINUOUS
 62
     7
 10
-187.2809399999999
 20
71.547934999999995
 30
0.0
 11
-187.2809399999999
 21
72.547943000000004
 31
0.0
  0
LINE
  5
59C
  8
0
  6
CONTINUOUS
 62
     7
 10
-392.63391000000001
 20
84.547919999999976
 30
0.0
 11
-392.63391000000001
 21
191.78122999999991
 31
0.0
  0
LINE
  5
59D
  8
0
  6
CONTINUOUS
 62
     7
 10
-386.63391000000001
 20
64.547927999999985
 30
0.0
 11
-359.63391000000001
 21
64.547927999999985
 31
0.0
  0
LINE
  5
59E
  8
0
  6
DASHED
 62
     7
 10
-368.63391000000001
 20
79.547927999999985
 30
0.0
 11
-368.63391000000001
 21
64.547927999999985
 31
0.0
  0
LINE
  5
59F
  8
0
  6
DASHED
 62
     7
 10
-460.63390999999962
 20
79.547927999999985
 30
0.0
 11
-460.63390999999962
 21
64.547927999999985
 31
0.0
  0
LINE
  5
5A0
  8
0
  6
DASHED
 62
     7
 10
-448.6339099999995
 20
79.547927999999985
 30
0.0
 11
-448.6339099999995
 21
64.547927999999985
 31
0.0
  0
LINE
  5
5A1
  8
0
  6
DASHED
 62
     7
 10
-380.63391000000001
 20
79.547927999999985
 30
0.0
 11
-380.63391000000001
 21
64.547927999999985
 31
0.0
  0
LINE
  5
5A2
  8
0
  6
CONTINUOUS
 62
     7
 10
-432.63387999999998
 20
117.01675
 30
0.0
 11
-432.63387999999998
 21
152.33658
 31
0.0
  0
LINE
  5
5A3
  8
0
  6
CONTINUOUS
 62
     7
 10
-370.06966999999992
 20
210.19846000000001
 30
0.0
 11
-365.37241
 21
209.78750999999991
 31
0.0
  0
LINE
  5
5A4
  8
0
  6
CONTINUOUS
 62
     7
 10
-205.28093999999999
 20
118.34793000000001
 30
0.0
 11
-205.28093999999999
 21
199.79791
 31
0.0
  0
LINE
  5
5A5
  8
0
  6
CONTINUOUS
 62
     7
 10
-85.280959999999965
 20
118.34793000000001
 30
0.0
 11
-85.280959999999965
 21
199.79791
 31
0.0
  0
LINE
  5
5A6
  8
0
  6
CONTINUOUS
 62
     7
 10
-199.2809399999999
 20
84.547943000000004
 30
0.0
 11
-199.2809399999999
 21
155.54793000000001
 31
0.0
  0
LINE
  5
5A7
  8
0
  6
CONTINUOUS
 62
     7
 10
-182.2809399999999
 20
77.547934999999981
 30
0.0
 11
-108.2809499999999
 21
77.547934999999981
 31
0.0
  0
LINE
  5
5A8
  8
0
  6
CONTINUOUS
 62
     7
 10
-200.2809399999999
 20
64.547943000000004
 30
0.0
 11
-200.2809399999999
 21
77.547934999999981
 31
0.0
  0
LINE
  5
5A9
  8
0
  6
CONTINUOUS
 62
     7
 10
-200.2809399999999
 20
64.547943000000004
 30
0.0
 11
-235.2809399999999
 21
64.547943000000004
 31
0.0
  0
LINE
  5
5AA
  8
0
  6
CONTINUOUS
 62
     7
 10
-90.280959999999993
 20
64.547943000000004
 30
0.0
 11
-55.28096
 21
64.547943000000004
 31
0.0
  0
LINE
  5
5AB
  8
0
  6
CONTINUOUS
 62
     7
 10
-90.280959999999993
 20
64.547943000000004
 30
0.0
 11
-90.280959999999993
 21
77.547934999999981
 31
0.0
  0
LINE
  5
5AC
  8
0
  6
CONTINUOUS
 62
     7
 10
-55.28096
 20
64.547943000000004
 30
0.0
 11
-55.28096
 21
79.547927999999985
 31
0.0
  0
LINE
  5
5AD
  8
0
  6
CONTINUOUS
 62
     7
 10
-374.63391000000001
 20
97.161231999999998
 30
0.0
 11
-374.63391000000001
 21
221.87980999999991
 31
0.0
  0
LINE
  5
5AE
  8
0
  6
CONTINUOUS
 62
     7
 10
-469.6339099999995
 20
77.547934999999981
 30
0.0
 11
-469.6339099999995
 21
64.547927999999985
 31
0.0
  0
LINE
  5
5AF
  8
0
  6
CENTER
 62
     7
 10
-181.35903999999999
 20
170.54793000000001
 30
0.0
 11
-109.02269
 21
170.54793000000001
 31
0.0
  0
LINE
  5
5B0
  8
0
  6
CENTER
 62
     7
 10
-145.2809399999999
 20
61.013194999999982
 30
0.0
 11
-145.2809399999999
 21
234.44772
 31
0.0
  0
LINE
  5
5B1
  8
0
  6
CENTER
 62
     7
 10
-231.63766000000001
 20
147.34795
 30
0.0
 11
-57.770907999999991
 21
147.34795
 31
0.0
  0
LINE
  5
5B2
  8
0
  6
CENTER
 62
     7
 10
-374.63394
 20
81.561339999999987
 30
0.0
 11
-374.63394
 21
61.67595699999999
 31
0.0
  0
LINE
  5
5B3
  8
0
  6
CENTER
 62
     7
 10
-454.63390999999979
 20
81.30986799999998
 30
0.0
 11
-454.63390999999979
 21
62.146366
 31
0.0
  0
LINE
  5
5B4
  8
0
  6
CONTINUOUS
 62
     7
 10
-202.2809399999999
 20
79.547927999999985
 30
0.0
 11
-233.2809399999999
 21
79.547927999999985
 31
0.0
  0
LINE
  5
5B5
  8
0
  6
CONTINUOUS
 62
     7
 10
-435.63384999999988
 20
228.3479499999998
 30
0.0
 11
-379.50299000000001
 21
226.87810999999991
 31
0.0
  0
LINE
  5
5B6
  8
0
  6
CONTINUOUS
 62
     7
 10
-219.08685
 20
199.70195000000001
 30
0.0
 11
-183.52785
 21
218.74947
 31
0.0
  0
LINE
  5
5B7
  8
0
  6
CONTINUOUS
 62
     7
 10
-359.63391000000001
 20
142.52208999999999
 30
0.0
 11
-359.63391000000001
 21
198.57378
 31
0.0
  0
LINE
  5
5B8
  8
0
  6
CONTINUOUS
 62
     7
 10
-361.6601
 20
141.4948599999999
 30
0.0
 11
-360.60772999999989
 21
141.5224199999999
 31
0.0
  0
LINE
  5
5B9
  8
0
  6
CONTINUOUS
 62
     7
 10
-361.6601
 20
199.60097999999991
 30
0.0
 11
-360.60772999999989
 21
199.57343
 31
0.0
  0
LINE
  5
5BA
  8
0
  6
CONTINUOUS
 62
     7
 10
-432.72100999999998
 20
116.08728000000001
 30
0.0
 11
-439.17180999999988
 21
81.990242000000009
 31
0.0
  0
LINE
  5
5BB
  8
0
  6
CONTINUOUS
 62
     7
 10
-400.63390999999979
 20
187.84795
 30
0.0
 11
-400.63390999999979
 21
170.54793000000001
 31
0.0
  0
LINE
  5
5BC
  8
0
  6
CONTINUOUS
 62
     7
 10
-235.28095999999999
 20
79.547934999999981
 30
0.0
 11
-227.4898199999999
 21
186.75759999999991
 31
0.0
  0
LINE
  5
5BD
  8
0
  6
CONTINUOUS
 62
     7
 10
-442.63390999999979
 20
64.547927999999985
 30
0.0
 11
-442.63390999999979
 21
64.547927999999985
 31
0.0
  0
LINE
  5
5BE
  8
0
  6
CONTINUOUS
 62
     7
 10
-435.63387999999992
 20
228.3479499999998
 30
0.0
 11
-435.63387999999992
 21
100.6907999999999
 31
0.0
  0
LINE
  5
5BF
  8
0
  6
CONTINUOUS
 62
     7
 10
-479.13387999999998
 20
110.20001000000001
 30
0.0
 11
-452.6339099999995
 21
110.20001000000001
 31
0.0
  0
LINE
  5
5C0
  8
0
  6
CONTINUOUS
 62
     7
 10
-452.6339099999995
 20
218.1702699999999
 30
0.0
 11
-452.6339099999995
 21
79.547927999999985
 31
0.0
  0
LINE
  5
5C1
  8
0
  6
CONTINUOUS
 62
     7
 10
-447.80838
 20
223.16725
 30
0.0
 11
-447.1632399999998
 21
223.1897899999999
 31
0.0
  0
LINE
  5
5C2
  8
0
  6
CONTINUOUS
 62
     7
 10
-456.35302999999999
 20
211.6921199999999
 30
0.0
 11
-455.11291999999997
 21
211.91077999999999
 31
0.0
  0
LINE
  5
5C3
  8
0
  6
CONTINUOUS
 62
     7
 10
-456.4908099999995
 20
83.028023000000005
 30
0.0
 11
-455.11297999999999
 21
82.785071999999985
 31
0.0
  0
LINE
  5
5C4
  8
0
  6
CONTINUOUS
 62
     7
 10
-435.63387999999992
 20
228.3479499999998
 30
0.0
 11
-440.70366999999987
 21
228.17090999999999
 31
0.0
  0
LINE
  5
5C5
  8
0
  6
CENTER
 62
     7
 10
-652.21564000000001
 20
147.34795
 30
0.0
 11
-429.27233999999982
 21
147.34795
 31
0.0
  0
LINE
  5
5C6
  8
0
  6
CONTINUOUS
 62
     7
 10
-442.63390999999979
 20
226.17212000000001
 30
0.0
 11
-442.63390999999979
 21
203.68200999999991
 31
0.0
  0
LINE
  5
5C7
  8
0
  6
CONTINUOUS
 62
     7
 10
-479.13387999999998
 20
83.847938999999982
 30
0.0
 11
-456.90706999999998
 21
83.071761999999978
 31
0.0
  0
LINE
  5
5C8
  8
0
  6
CONTINUOUS
 62
     7
 10
-479.13387999999998
 20
210.84795
 30
0.0
 11
-457.0467799999995
 21
211.61924999999991
 31
0.0
  0
LINE
  5
5C9
  8
0
  6
CONTINUOUS
 62
     7
 10
-479.13387999999998
 20
184.49588
 30
0.0
 11
-452.6339099999995
 21
184.49588
 31
0.0
  0
LINE
  5
5CA
  8
0
  6
CONTINUOUS
 62
     7
 10
-450.63387999999992
 20
180.49715
 30
0.0
 11
-444.63387999999992
 21
180.49715
 31
0.0
  0
LINE
  5
5CB
  8
0
  6
CONTINUOUS
 62
     7
 10
-450.63387999999992
 20
201.68201999999999
 30
0.0
 11
-444.63387999999992
 21
201.68201999999999
 31
0.0
  0
LINE
  5
5CC
  8
0
  6
CONTINUOUS
 62
     7
 10
-451.71847999999989
 20
174.0200199999999
 30
0.0
 11
-444.63387999999992
 21
174.0200199999999
 31
0.0
  0
LINE
  5
5CD
  8
0
  6
CONTINUOUS
 62
     7
 10
-450.63387999999992
 20
85.803954999999988
 30
0.0
 11
-444.63387999999992
 21
85.803954999999988
 31
0.0
  0
LINE
  5
5CE
  8
0
  6
CONTINUOUS
 62
     7
 10
-442.63390999999979
 20
178.49713
 30
0.0
 11
-442.63390999999979
 21
87.80394699999998
 31
0.0
  0
LINE
  5
5CF
  8
0
  6
CONTINUOUS
 62
     7
 10
-232.78829999999991
 20
113.84795
 30
0.0
 11
-237.29082
 21
113.84795
 31
0.0
  0
LINE
  5
5D0
  8
0
  6
CONTINUOUS
 62
     7
 10
-242.29082
 20
117.34795
 30
0.0
 11
-232.53395
 21
117.34795
 31
0.0
  0
LINE
  5
5D1
  8
0
  6
CONTINUOUS
 62
     7
 10
-237.29082
 20
177.34795
 30
0.0
 11
-237.29082
 21
180.84792999999991
 31
0.0
  0
LINE
  5
5D2
  8
0
  6
CONTINUOUS
 62
     7
 10
-242.29082
 20
117.34795
 30
0.0
 11
-242.29082
 21
177.34795
 31
0.0
  0
LINE
  5
5D3
  8
0
  6
CONTINUOUS
 62
     7
 10
-237.29082
 20
117.34795
 30
0.0
 11
-237.29082
 21
113.84795
 31
0.0
  0
LINE
  5
5D4
  8
0
  6
CONTINUOUS
 62
     3
 10
-636.85388
 20
99.707954000000001
 30
0.0
 11
-634.1339099999999
 21
99.707954000000001
 31
0.0
  0
LINE
  5
5D5
  8
0
  6
CONTINUOUS
 62
     3
 10
-637.3638900000002
 20
97.737960999999999
 30
0.0
 11
-638.63385000000005
 21
98.467949000000004
 31
0.0
  0
LINE
  5
5D6
  8
0
  6
CONTINUOUS
 62
     3
 10
-634.13385000000005
 20
89.917938000000007
 30
0.0
 11
-631.31389999999965
 21
89.847938999999968
 31
0.0
  0
LINE
  5
5D7
  8
0
  6
CONTINUOUS
 62
     3
 10
-637.38385000000005
 20
104.38795
 30
0.0
 11
-638.68389999999999
 21
105.23795
 31
0.0
  0
LINE
  5
5D8
  8
0
  6
CONTINUOUS
 62
     3
 10
-637.37390000000005
 20
99.847960999999998
 30
0.0
 11
-638.65386999999998
 21
100.61794
 31
0.0
  0
LINE
  5
5D9
  8
0
  6
CONTINUOUS
 62
     3
 10
-636.86388999999986
 20
97.597938999999997
 30
0.0
 11
-634.63385000000005
 21
97.597938999999997
 31
0.0
  0
LINE
  5
5DA
  8
0
  6
CONTINUOUS
 62
     3
 10
-636.89391999999975
 20
98.747955000000005
 30
0.0
 11
-634.63385000000005
 21
98.747955000000005
 31
0.0
  0
LINE
  5
5DB
  8
0
  6
CONTINUOUS
 62
     3
 10
-637.34387000000004
 20
98.857947999999993
 30
0.0
 11
-638.58385999999985
 21
99.487945999999994
 31
0.0
  0
LINE
  5
5DC
  8
0
  6
CONTINUOUS
 62
     3
 10
-636.86388999999986
 20
105.36794999999979
 30
0.0
 11
-635.13391000000001
 21
105.36794999999979
 31
0.0
  0
LINE
  5
5DD
  8
0
  6
CONTINUOUS
 62
     3
 10
-636.83385999999985
 20
104.2279399999999
 30
0.0
 11
-634.1339099999999
 21
104.2279399999999
 31
0.0
  0
LINE
  5
5DE
  8
0
  6
CONTINUOUS
 62
     3
 10
-636.88385000000005
 20
100.8479499999999
 30
0.0
 11
-635.13391000000001
 21
100.8479499999999
 31
0.0
  0
LINE
  5
5DF
  8
0
  6
CONTINUOUS
 62
     3
 10
-637.3638900000002
 20
105.49797
 30
0.0
 11
-638.6438599999999
 21
106.24796000000001
 31
0.0
  0
LINE
  5
5E0
  8
0
  6
CONTINUOUS
 62
     3
 10
-486.13387999999992
 20
83.847953999999987
 30
0.0
 11
-479.13387999999998
 21
83.847953999999987
 31
0.0
  0
LINE
  5
5E1
  8
0
  6
CONTINUOUS
 62
     3
 10
-486.13387999999992
 20
95.307952999999983
 30
0.0
 11
-479.13387999999998
 21
95.307952999999983
 31
0.0
  0
LINE
  5
5E2
  8
0
  6
CONTINUOUS
 62
     3
 10
-589.13391000000001
 20
100.99795999999991
 30
0.0
 11
-487.13390999999979
 21
100.99795999999991
 31
0.0
  0
LINE
  5
5E3
  8
0
  6
CONTINUOUS
 62
     7
 10
-479.13387999999998
 20
210.84791999999999
 30
0.0
 11
-479.13387999999998
 21
83.847884999999977
 31
0.0
  0
LINE
  5
5E4
  8
0
  6
CONTINUOUS
 62
     3
 10
-487.42388999999991
 20
96.317939999999993
 30
0.0
 11
-489.83389
 21
96.317939999999993
 31
0.0
  0
LINE
  5
5E5
  8
0
  6
CONTINUOUS
 62
     3
 10
-490.33389
 20
88.427940000000007
 30
0.0
 11
-488.89389
 21
95.127937000000017
 31
0.0
  0
LINE
  5
5E6
  8
0
  6
CONTINUOUS
 62
     3
 10
-492.42385999999988
 20
86.847954000000001
 30
0.0
 11
-487.13390999999979
 21
86.847954000000001
 31
0.0
  0
LINE
  5
5E7
  8
0
  6
CONTINUOUS
 62
     3
 10
-585.13385000000005
 20
117.34795
 30
0.0
 11
-497.36385999999999
 21
117.34795
 31
0.0
  0
LINE
  5
5E8
  8
0
  6
CONTINUOUS
 62
     3
 10
-629.45392000000004
 20
113.9779399999998
 30
0.0
 11
-581.13391000000001
 21
113.9779399999998
 31
0.0
  0
LINE
  5
5E9
  8
0
  6
CONTINUOUS
 62
     3
 10
-538.1339099999999
 20
111.3479499999999
 30
0.0
 11
-628.58385999999985
 21
111.3479499999999
 31
0.0
  0
LINE
  5
5EA
  8
0
  6
CONTINUOUS
 62
     3
 10
-538.1339099999999
 20
110.62795
 30
0.0
 11
-490.31389999999999
 21
110.62795
 31
0.0
  0
LINE
  5
5EB
  8
0
  6
CONTINUOUS
 62
     3
 10
-629.45392000000004
 20
110.62795
 30
0.0
 11
-538.1339099999999
 21
110.62795
 31
0.0
  0
LINE
  5
5EC
  8
0
  6
CONTINUOUS
 62
     3
 10
-634.1339099999999
 20
113.04794
 30
0.0
 11
-630.96387000000004
 21
113.04794
 31
0.0
  0
LINE
  5
5ED
  8
0
  6
CONTINUOUS
 62
     3
 10
-627.96387000000004
 20
89.087952000000001
 30
0.0
 11
-614.63391000000001
 21
89.087952000000001
 31
0.0
  0
LINE
  5
5EE
  8
0
  6
CONTINUOUS
 62
     3
 10
-611.13391000000001
 20
85.487938
 30
0.0
 11
-494.32390999999961
 21
85.487938
 31
0.0
  0
LINE
  5
5EF
  8
0
  6
CONTINUOUS
 62
     3
 10
-628.02392999999995
 20
84.047950999999983
 30
0.0
 11
-614.52392999999995
 21
84.047950999999983
 31
0.0
  0
LINE
  5
5F0
  8
0
  6
CONTINUOUS
 62
     3
 10
-627.90386999999998
 20
94.367935000000003
 30
0.0
 11
-614.63391000000001
 21
94.367935000000003
 31
0.0
  0
LINE
  5
5F1
  8
0
  6
CONTINUOUS
 62
     3
 10
-630.41387999999995
 20
98.997917000000015
 30
0.0
 11
-629.87390000000016
 21
96.007926999999995
 31
0.0
  0
LINE
  5
5F2
  8
0
  6
CONTINUOUS
 62
     3
 10
-637.13391000000001
 20
104.5179499999999
 30
0.0
 11
-637.13391000000001
 21
104.98793999999999
 31
0.0
  0
LINE
  5
5F3
  8
0
  6
CONTINUOUS
 62
     3
 10
-634.1339099999999
 20
98.997939999999986
 30
0.0
 11
-624.13385000000017
 21
98.997939999999986
 31
0.0
  0
LINE
  5
5F4
  8
0
  6
CONTINUOUS
 62
     3
 10
-637.13391000000001
 20
99.947936999999996
 30
0.0
 11
-637.13391000000001
 21
100.49794
 31
0.0
  0
LINE
  5
5F5
  8
0
  6
CONTINUOUS
 62
     3
 10
-637.35394000000019
 20
100.96795999999991
 30
0.0
 11
-638.60388
 21
101.62795
 31
0.0
  0
LINE
  5
5F6
  8
0
  6
CONTINUOUS
 62
     3
 10
-624.13385000000017
 20
98.997939999999986
 30
0.0
 11
-624.13385000000017
 21
113.04794
 31
0.0
  0
LINE
  5
5F7
  8
0
  6
CONTINUOUS
 62
     3
 10
-637.13391000000001
 20
97.847945999999993
 30
0.0
 11
-637.13391000000001
 21
98.377945000000011
 31
0.0
  0
LINE
  5
5F8
  8
0
  6
CONTINUOUS
 62
     3
 10
-492.39391999999992
 20
86.967949000000004
 30
0.0
 11
-488.93389999999988
 21
99.887946999999997
 31
0.0
  0
LINE
  5
5F9
  8
0
  6
CONTINUOUS
 62
     3
 10
-629.96380999999997
 20
85.557961000000006
 30
0.0
 11
-630.85382000000004
 21
89.097960999999984
 31
0.0
  0
LINE
  5
5FA
  8
0
  6
CONTINUOUS
 62
     3
 10
-629.94384999999988
 20
87.217934000000014
 30
0.0
 11
-630.86388999999997
 21
91.097931000000003
 31
0.0
  0
LINE
  5
5FB
  8
0
  6
CONTINUOUS
 62
     3
 10
-556.13391000000001
 20
83.437934999999982
 30
0.0
 11
-556.13391000000001
 21
85.487938
 31
0.0
  0
LINE
  5
5FC
  8
0
  6
CONTINUOUS
 62
     3
 10
-613.1339099999999
 20
85.457954000000015
 30
0.0
 11
-613.1339099999999
 21
92.867934999999989
 31
0.0
  0
LINE
  5
5FD
  8
0
  6
CONTINUOUS
 62
     3
 10
-632.30389000000002
 20
90.227942999999996
 30
0.0
 11
-630.65386999999987
 21
90.227942999999996
 31
0.0
  0
LINE
  5
5FE
  8
0
  6
CENTER
 62
     7
 10
-538.1339099999999
 20
185.94794999999991
 30
0.0
 11
-538.1339099999999
 21
104.69794
 31
0.0
  0
LINE
  5
5FF
  8
0
  6
CONTINUOUS
 62
     7
 10
-506.6339099999995
 20
115.84795
 30
0.0
 11
-506.6339099999995
 21
178.84795
 31
0.0
  0
LINE
  5
600
  8
0
  6
CONTINUOUS
 62
     3
 10
-589.13391000000001
 20
193.69793999999999
 30
0.0
 11
-487.13390999999979
 21
193.69793999999999
 31
0.0
  0
LINE
  5
601
  8
0
  6
CONTINUOUS
 62
     3
 10
-487.13390999999979
 20
209.8479499999998
 30
0.0
 11
-487.13390999999979
 21
84.847938999999968
 31
0.0
  0
LINE
  5
602
  8
0
  6
CONTINUOUS
 62
     3
 10
-506.86389000000003
 20
117.0779299999999
 30
0.0
 11
-497.36383000000001
 21
117.34793000000001
 31
0.0
  0
LINE
  5
603
  8
0
  6
CONTINUOUS
 62
     3
 10
-486.13387999999992
 20
210.84792999999991
 30
0.0
 11
-479.13387999999998
 21
210.84792999999991
 31
0.0
  0
LINE
  5
604
  8
0
  6
CONTINUOUS
 62
     7
 10
-555.15386999999998
 20
170.34792999999979
 30
0.0
 11
-515.13391000000001
 21
170.34792999999979
 31
0.0
  0
LINE
  5
605
  8
0
  6
CONTINUOUS
 62
     3
 10
-487.13390999999979
 20
184.4979399999998
 30
0.0
 11
-479.13387999999998
 21
184.4979399999998
 31
0.0
  0
LINE
  5
606
  8
0
  6
CONTINUOUS
 62
     3
 10
-486.13387999999992
 20
199.3879399999999
 30
0.0
 11
-479.13387999999998
 21
199.3879399999999
 31
0.0
  0
LINE
  5
607
  8
0
  6
CONTINUOUS
 62
     3
 10
-487.13390999999979
 20
110.19795000000001
 30
0.0
 11
-479.13387999999998
 21
110.19795000000001
 31
0.0
  0
LINE
  5
608
  8
0
  6
CONTINUOUS
 62
     3
 10
-497.36385999999999
 20
177.34795
 30
0.0
 11
-497.36385999999999
 21
117.34795
 31
0.0
  0
LINE
  5
609
  8
0
  6
CONTINUOUS
 62
     3
 10
-634.13385000000005
 20
204.77794
 30
0.0
 11
-631.31389999999965
 21
204.84792999999991
 31
0.0
  0
LINE
  5
60A
  8
0
  6
CONTINUOUS
 62
     3
 10
-634.1339099999999
 20
204.77794
 30
0.0
 11
-634.1339099999999
 21
147.34795
 31
0.0
  0
LINE
  5
60B
  8
0
  6
CONTINUOUS
 62
     3
 10
-639.13385000000005
 20
195.36794999999981
 30
0.0
 11
-639.13385000000005
 21
152.34792999999991
 31
0.0
  0
LINE
  5
60C
  8
0
  6
CONTINUOUS
 62
     3
 10
-636.86388999999986
 20
197.09795
 30
0.0
 11
-634.63385000000005
 21
197.09795
 31
0.0
  0
LINE
  5
60D
  8
0
  6
CONTINUOUS
 62
     3
 10
-493.79390999999998
 20
111.3479499999999
 30
0.0
 11
-538.1339099999999
 21
111.3479499999999
 31
0.0
  0
LINE
  5
60E
  8
0
  6
CONTINUOUS
 62
     3
 10
-636.93389999999999
 20
183.03795
 30
0.0
 11
-634.83392000000003
 21
183.03795
 31
0.0
  0
LINE
  5
60F
  8
0
  6
CONTINUOUS
 62
     3
 10
-637.3638900000002
 20
196.96796000000001
 30
0.0
 11
-638.63385000000005
 21
196.22794999999991
 31
0.0
  0
LINE
  5
610
  8
0
  6
CONTINUOUS
 62
     3
 10
-637.37390000000005
 20
194.84792999999991
 30
0.0
 11
-638.65386999999998
 21
194.07791
 31
0.0
  0
LINE
  5
611
  8
0
  6
CONTINUOUS
 62
     3
 10
-637.38391000000001
 20
190.30794
 30
0.0
 11
-638.68389999999999
 21
189.45795000000001
 31
0.0
  0
LINE
  5
612
  8
0
  6
CONTINUOUS
 62
     3
 10
-637.32384999999999
 20
182.95796000000001
 30
0.0
 11
-638.52386000000001
 21
182.44794999999991
 31
0.0
  0
LINE
  5
613
  8
0
  6
CONTINUOUS
 62
     3
 10
-636.85388
 20
194.98793000000001
 30
0.0
 11
-634.1339099999999
 21
194.98793000000001
 31
0.0
  0
LINE
  5
614
  8
0
  6
CONTINUOUS
 62
     3
 10
-636.83385999999985
 20
190.47794999999999
 30
0.0
 11
-634.1339099999999
 21
190.47794999999999
 31
0.0
  0
LINE
  5
615
  8
0
  6
CONTINUOUS
 62
     3
 10
-636.9838900000002
 20
181.08794
 30
0.0
 11
-635.13391000000001
 21
181.08794
 31
0.0
  0
LINE
  5
616
  8
0
  6
CONTINUOUS
 62
     3
 10
-636.86388999999986
 20
189.33794
 30
0.0
 11
-635.13391000000001
 21
189.33794
 31
0.0
  0
LINE
  5
617
  8
0
  6
CONTINUOUS
 62
     3
 10
-636.88385000000005
 20
193.84794999999991
 30
0.0
 11
-635.13391000000001
 21
193.84794999999991
 31
0.0
  0
LINE
  5
618
  8
0
  6
CONTINUOUS
 62
     3
 10
-636.89391999999975
 20
195.94793999999999
 30
0.0
 11
-634.63385000000005
 21
195.94793999999999
 31
0.0
  0
LINE
  5
619
  8
0
  6
CONTINUOUS
 62
     3
 10
-637.3638900000002
 20
189.1979199999999
 30
0.0
 11
-638.6438599999999
 21
188.44793999999999
 31
0.0
  0
LINE
  5
61A
  8
0
  6
CONTINUOUS
 62
     3
 10
-637.2738599999999
 20
181.04794000000001
 30
0.0
 11
-638.42389000000003
 21
180.69794999999991
 31
0.0
  0
LINE
  5
61B
  8
0
  6
CONTINUOUS
 62
     3
 10
-637.34387000000004
 20
195.84792999999999
 30
0.0
 11
-638.58392000000003
 21
195.21793
 31
0.0
  0
LINE
  5
61C
  8
0
  6
CONTINUOUS
 62
     3
 10
-637.35388
 20
193.73793000000001
 30
0.0
 11
-638.60388
 21
193.0679299999999
 31
0.0
  0
LINE
  5
61D
  8
0
  6
CONTINUOUS
 62
     3
 10
-635.13391000000001
 20
173.34792999999991
 30
0.0
 11
-638.1339099999999
 21
173.34792999999991
 31
0.0
  0
LINE
  5
61E
  8
0
  6
CONTINUOUS
 62
     3
 10
-635.13391000000001
 20
171.34795
 30
0.0
 11
-638.1339099999999
 21
171.34795
 31
0.0
  0
LINE
  5
61F
  8
0
  6
CONTINUOUS
 62
     3
 10
-635.13391000000001
 20
163.34794999999991
 30
0.0
 11
-638.1339099999999
 21
163.34794999999991
 31
0.0
  0
LINE
  5
620
  8
0
  6
CONTINUOUS
 62
     3
 10
-635.13391000000001
 20
161.34792999999991
 30
0.0
 11
-638.1339099999999
 21
161.34792999999991
 31
0.0
  0
LINE
  5
621
  8
0
  6
CONTINUOUS
 62
     3
 10
-635.13391000000001
 20
153.34795
 30
0.0
 11
-638.1339099999999
 21
153.34795
 31
0.0
  0
LINE
  5
622
  8
0
  6
CONTINUOUS
 62
     3
 10
-635.13391000000001
 20
151.34795
 30
0.0
 11
-638.1339099999999
 21
151.34795
 31
0.0
  0
LINE
  5
623
  8
0
  6
CONTINUOUS
 62
     3
 10
-637.13391000000001
 20
162.95793
 30
0.0
 11
-637.13391000000001
 21
161.74796000000001
 31
0.0
  0
LINE
  5
624
  8
0
  6
CONTINUOUS
 62
     3
 10
-637.13391000000001
 20
152.95795000000001
 30
0.0
 11
-637.13391000000001
 21
151.79793000000001
 31
0.0
  0
LINE
  5
625
  8
0
  6
CONTINUOUS
 62
     3
 10
-637.13391000000001
 20
172.97794999999999
 30
0.0
 11
-637.13391000000001
 21
171.60795999999999
 31
0.0
  0
LINE
  5
626
  8
0
  6
CONTINUOUS
 62
     3
 10
-637.13391000000001
 20
182.73795000000001
 30
0.0
 11
-637.13391000000001
 21
181.67795000000001
 31
0.0
  0
LINE
  5
627
  8
0
  6
CONTINUOUS
 62
     3
 10
-637.13391000000001
 20
190.17793
 30
0.0
 11
-637.13391000000001
 21
189.70795000000001
 31
0.0
  0
LINE
  5
628
  8
0
  6
CONTINUOUS
 62
     3
 10
-637.13391000000001
 20
194.74796000000001
 30
0.0
 11
-637.13391000000001
 21
194.19794999999999
 31
0.0
  0
LINE
  5
629
  8
0
  6
CONTINUOUS
 62
     3
 10
-637.13391000000001
 20
196.84794999999991
 30
0.0
 11
-637.13391000000001
 21
196.31795
 31
0.0
  0
LINE
  5
62A
  8
0
  6
CONTINUOUS
 62
     3
 10
-640.63385000000017
 20
167.34792999999991
 30
0.0
 11
-640.63385000000017
 21
147.34795
 31
0.0
  0
LINE
  5
62B
  8
0
  6
CONTINUOUS
 62
     3
 10
-640.63385000000017
 20
167.34795
 30
0.0
 11
-639.13391000000001
 21
167.47793999999999
 31
0.0
  0
LINE
  5
62C
  8
0
  6
CONTINUOUS
 62
     3
 10
-640.63385000000017
 20
164.62794
 30
0.0
 11
-639.13385000000005
 21
164.62794
 31
0.0
  0
LINE
  5
62D
  8
0
  6
CONTINUOUS
 62
     7
 10
-561.13385000000005
 20
124.34795
 30
0.0
 11
-521.11388999999986
 21
124.34795
 31
0.0
  0
LINE
  5
62E
  8
0
  6
CONTINUOUS
 62
     7
 10
-586.63385000000017
 20
178.84795
 30
0.0
 11
-581.13391000000001
 21
178.84795
 31
0.0
  0
LINE
  5
62F
  8
0
  6
CONTINUOUS
 62
     7
 10
-586.63385000000017
 20
115.84795
 30
0.0
 11
-586.63385000000017
 21
139.84795
 31
0.0
  0
LINE
  5
630
  8
0
  6
CONTINUOUS
 62
     7
 10
-560.63391000000001
 20
167.7879299999999
 30
0.0
 11
-560.63391000000001
 21
171.80794999999981
 31
0.0
  0
LINE
  5
631
  8
0
  6
CONTINUOUS
 62
     7
 10
-586.63385000000017
 20
115.84795
 30
0.0
 11
-581.13391000000001
 21
115.84795
 31
0.0
  0
LINE
  5
632
  8
0
  6
CONTINUOUS
 62
     7
 10
-515.63391000000001
 20
122.78793999999991
 30
0.0
 11
-515.63391000000001
 21
126.81796
 31
0.0
  0
LINE
  5
633
  8
0
  6
CONTINUOUS
 62
     3
 10
-624.13385000000017
 20
195.69794999999991
 30
0.0
 11
-624.13385000000017
 21
181.65793999999991
 31
0.0
  0
LINE
  5
634
  8
0
  6
CONTINUOUS
 62
     3
 10
-634.1339099999999
 20
181.65793999999991
 30
0.0
 11
-624.13385000000017
 21
181.65793999999991
 31
0.0
  0
LINE
  5
635
  8
0
  6
CONTINUOUS
 62
     3
 10
-634.1339099999999
 20
190.03794999999991
 30
0.0
 11
-624.13385000000017
 21
190.03794999999991
 31
0.0
  0
LINE
  5
636
  8
0
  6
CONTINUOUS
 62
     3
 10
-634.1339099999999
 20
195.69794999999991
 30
0.0
 11
-624.13385000000017
 21
195.69794999999991
 31
0.0
  0
LINE
  5
637
  8
0
  6
CONTINUOUS
 62
     7
 10
-515.13391000000001
 20
130.3279599999999
 30
0.0
 11
-515.13391000000001
 21
170.34792999999979
 31
0.0
  0
LINE
  5
638
  8
0
  6
CONTINUOUS
 62
     7
 10
-566.13391000000001
 20
113.84795
 30
0.0
 11
-566.13391000000001
 21
117.34795
 31
0.0
  0
LINE
  5
639
  8
0
  6
CONTINUOUS
 62
     7
 10
-517.76385000000005
 20
124.8479499999999
 30
0.0
 11
-513.55389000000002
 21
124.8479499999999
 31
0.0
  0
LINE
  5
63A
  8
0
  6
CONTINUOUS
 62
     7
 10
-555.93389999999999
 20
165.14795000000001
 30
0.0
 11
-520.33392000000003
 21
165.14795000000001
 31
0.0
  0
LINE
  5
63B
  8
0
  6
CONTINUOUS
 62
     7
 10
-555.93389999999999
 20
129.54793999999981
 30
0.0
 11
-520.33392000000003
 21
129.54793999999981
 31
0.0
  0
LINE
  5
63C
  8
0
  6
CONTINUOUS
 62
     7
 10
-520.33392000000003
 20
129.54793999999981
 30
0.0
 11
-520.33392000000003
 21
165.14795000000001
 31
0.0
  0
LINE
  5
63D
  8
0
  6
CONTINUOUS
 62
     7
 10
-555.93389999999999
 20
129.54793999999981
 30
0.0
 11
-555.93389999999999
 21
165.14795000000001
 31
0.0
  0
LINE
  5
63E
  8
0
  6
CONTINUOUS
 62
     7
 10
-585.13385000000005
 20
177.34795
 30
0.0
 11
-497.36385999999999
 21
177.34795
 31
0.0
  0
LINE
  5
63F
  8
0
  6
CONTINUOUS
 62
     7
 10
-566.13391000000001
 20
178.84795
 30
0.0
 11
-506.6339099999995
 21
178.84795
 31
0.0
  0
LINE
  5
640
  8
0
  6
CONTINUOUS
 62
     7
 10
-566.13391000000001
 20
115.84795
 30
0.0
 11
-506.6339099999995
 21
115.84795
 31
0.0
  0
LINE
  5
641
  8
0
  6
CONTINUOUS
 62
     7
 10
-508.13391000000001
 20
117.34795
 30
0.0
 11
-508.13391000000001
 21
177.34795
 31
0.0
  0
LINE
  5
642
  8
0
  6
CONTINUOUS
 62
     7
 10
-585.13385000000005
 20
117.34795
 30
0.0
 11
-585.13385000000005
 21
177.34795
 31
0.0
  0
LINE
  5
643
  8
0
  6
CONTINUOUS
 62
     3
 10
-586.63385000000017
 20
133.3479599999998
 30
0.0
 11
-628.58385999999985
 21
133.3479599999998
 31
0.0
  0
LINE
  5
644
  8
0
  6
CONTINUOUS
 62
     7
 10
-581.13391000000001
 20
180.84792999999991
 30
0.0
 11
-581.13391000000001
 21
177.34795
 31
0.0
  0
LINE
  5
645
  8
0
  6
CONTINUOUS
 62
     7
 10
-588.63390999999979
 20
154.84795
 30
0.0
 11
-585.13385000000005
 21
154.84795
 31
0.0
  0
LINE
  5
646
  8
0
  6
CONTINUOUS
 62
     7
 10
-588.63390999999979
 20
139.84795
 30
0.0
 11
-588.63390999999979
 21
154.84795
 31
0.0
  0
LINE
  5
647
  8
0
  6
CONTINUOUS
 62
     7
 10
-588.63390999999979
 20
139.84795
 30
0.0
 11
-585.13385000000005
 21
139.84795
 31
0.0
  0
LINE
  5
648
  8
0
  6
CONTINUOUS
 62
     7
 10
-581.13391000000001
 20
113.84795
 30
0.0
 11
-581.13391000000001
 21
117.34795
 31
0.0
  0
LINE
  5
649
  8
0
  6
CONTINUOUS
 62
     3
 10
-611.13391000000001
 20
209.20795000000001
 30
0.0
 11
-494.32390999999961
 21
209.20795000000001
 31
0.0
  0
LINE
  5
64A
  8
0
  6
CONTINUOUS
 62
     3
 10
-627.90386999999998
 20
200.3279599999999
 30
0.0
 11
-614.63391000000001
 21
200.3279599999999
 31
0.0
  0
LINE
  5
64B
  8
0
  6
CONTINUOUS
 62
     3
 10
-630.41387999999995
 20
195.69794999999991
 30
0.0
 11
-629.87390000000016
 21
198.68796
 31
0.0
  0
LINE
  5
64C
  8
0
  6
CONTINUOUS
 62
     3
 10
-627.96387000000004
 20
205.61793999999989
 30
0.0
 11
-614.63391000000001
 21
205.61793999999989
 31
0.0
  0
LINE
  5
64D
  8
0
  6
CONTINUOUS
 62
     7
 10
-566.13391000000001
 20
113.84795
 30
0.0
 11
-581.13391000000001
 21
113.84795
 31
0.0
  0
LINE
  5
64E
  8
0
  6
CONTINUOUS
 62
     3
 10
-627.99390000000005
 20
209.01792999999989
 30
0.0
 11
-614.63391000000001
 21
209.01792999999989
 31
0.0
  0
LINE
  5
64F
  8
0
  6
CONTINUOUS
 62
     3
 10
-628.02392999999995
 20
210.6479299999998
 30
0.0
 11
-614.52392999999995
 21
210.6479299999998
 31
0.0
  0
LINE
  5
650
  8
0
  6
CONTINUOUS
 62
     3
 10
-611.13391000000001
 20
213.2679399999999
 30
0.0
 11
-558.13385000000005
 21
213.2679399999999
 31
0.0
  0
LINE
  5
651
  8
0
  6
CONTINUOUS
 62
     3
 10
-611.13391000000001
 20
212.58794
 30
0.0
 11
-558.13385000000005
 21
212.58794
 31
0.0
  0
LINE
  5
652
  8
0
  6
CONTINUOUS
 62
     3
 10
-611.13391000000001
 20
211.23795000000001
 30
0.0
 11
-558.13385000000005
 21
211.23795000000001
 31
0.0
  0
LINE
  5
653
  8
0
  6
CONTINUOUS
 62
     3
 10
-632.34393
 20
198.38794999999999
 30
0.0
 11
-629.93389999999977
 21
198.38794999999999
 31
0.0
  0
LINE
  5
654
  8
0
  6
CONTINUOUS
 62
     3
 10
-629.92389000000003
 20
204.03794999999991
 30
0.0
 11
-630.88391000000001
 21
199.56794999999991
 31
0.0
  0
LINE
  5
655
  8
0
  6
CONTINUOUS
 62
     3
 10
-632.32390999999996
 20
202.44794999999991
 30
0.0
 11
-630.26385000000005
 21
202.44794999999991
 31
0.0
  0
LINE
  5
656
  8
0
  6
CONTINUOUS
 62
     3
 10
-493.79390999999998
 20
183.34794999999991
 30
0.0
 11
-619.58385999999996
 21
183.34794999999991
 31
0.0
  0
LINE
  5
657
  8
0
  6
CONTINUOUS
 62
     3
 10
-493.79390999999998
 20
181.34794999999991
 30
0.0
 11
-619.58385999999996
 21
181.34794999999991
 31
0.0
  0
LINE
  5
658
  8
0
  6
CONTINUOUS
 62
     3
 10
-586.63385000000017
 20
173.34792999999991
 30
0.0
 11
-619.58385999999996
 21
173.34792999999991
 31
0.0
  0
LINE
  5
659
  8
0
  6
CONTINUOUS
 62
     3
 10
-629.94384999999988
 20
207.47794999999991
 30
0.0
 11
-630.86388999999997
 21
203.5979499999998
 31
0.0
  0
LINE
  5
65A
  8
0
  6
CONTINUOUS
 62
     3
 10
-586.63385000000017
 20
171.34795
 30
0.0
 11
-619.58385999999996
 21
171.34795
 31
0.0
  0
LINE
  5
65B
  8
0
  6
CONTINUOUS
 62
     3
 10
-632.30389000000002
 20
204.46794
 30
0.0
 11
-630.65386999999987
 21
204.46794
 31
0.0
  0
LINE
  5
65C
  8
0
  6
CONTINUOUS
 62
     3
 10
-629.96392999999989
 20
209.1379499999999
 30
0.0
 11
-630.85393999999985
 21
205.60795999999991
 31
0.0
  0
LINE
  5
65D
  8
0
  6
CONTINUOUS
 62
     3
 10
-586.63385000000017
 20
163.34794999999991
 30
0.0
 11
-628.58385999999985
 21
163.34794999999991
 31
0.0
  0
LINE
  5
65E
  8
0
  6
CONTINUOUS
 62
     3
 10
-613.1339099999999
 20
209.23793000000001
 30
0.0
 11
-613.1339099999999
 21
201.82795999999999
 31
0.0
  0
LINE
  5
65F
  8
0
  6
CONTINUOUS
 62
     3
 10
-586.63385000000017
 20
161.34792999999991
 30
0.0
 11
-628.58385999999985
 21
161.34792999999991
 31
0.0
  0
LINE
  5
660
  8
0
  6
CONTINUOUS
 62
     3
 10
-588.63390999999979
 20
153.34795
 30
0.0
 11
-628.58385999999985
 21
153.34795
 31
0.0
  0
LINE
  5
661
  8
0
  6
CONTINUOUS
 62
     3
 10
-556.13391000000001
 20
211.26792999999989
 30
0.0
 11
-556.13391000000001
 21
209.20795000000001
 31
0.0
  0
LINE
  5
662
  8
0
  6
CONTINUOUS
 62
     3
 10
-588.63390999999979
 20
151.34795
 30
0.0
 11
-628.58385999999985
 21
151.34795
 31
0.0
  0
LINE
  5
663
  8
0
  6
CONTINUOUS
 62
     3
 10
-492.39385999999962
 20
207.72797
 30
0.0
 11
-488.93387000000001
 21
194.80799999999999
 31
0.0
  0
LINE
  5
664
  8
0
  6
CONTINUOUS
 62
     3
 10
-492.42385999999988
 20
207.84792999999999
 30
0.0
 11
-487.13390999999979
 21
207.84792999999999
 31
0.0
  0
LINE
  5
665
  8
0
  6
CONTINUOUS
 62
     7
 10
-589.13385000000005
 20
193.6979199999999
 30
0.0
 11
-624.13385000000017
 21
191.66792000000001
 31
0.0
  0
LINE
  5
666
  8
0
  6
CONTINUOUS
 62
     7
 10
-589.13391000000001
 20
100.99795
 30
0.0
 11
-624.13385000000017
 21
103.02795
 31
0.0
  0
LINE
  5
667
  8
0
  6
CONTINUOUS
 62
     7
 10
-227.91927999999999
 20
180.84792999999991
 30
0.0
 11
-237.29082
 21
180.84792999999991
 31
0.0
  0
LINE
  5
668
  8
0
  6
CONTINUOUS
 62
     3
 10
-487.42388999999991
 20
198.38794999999999
 30
0.0
 11
-489.83389
 21
198.38794999999999
 31
0.0
  0
LINE
  5
669
  8
0
  6
CONTINUOUS
 62
     3
 10
-490.33389
 20
206.2679399999999
 30
0.0
 11
-488.89389
 21
199.56794999999991
 31
0.0
  0
LINE
  5
66A
  8
0
  6
CONTINUOUS
 62
     3
 10
-634.1339099999999
 20
89.917946000000001
 30
0.0
 11
-634.1339099999999
 21
147.34795
 31
0.0
  0
LINE
  5
66B
  8
0
  6
CONTINUOUS
 62
     3
 10
-639.13385000000005
 20
98.757935000000003
 30
0.0
 11
-639.13385000000005
 21
142.34796
 31
0.0
  0
LINE
  5
66C
  8
0
  6
CONTINUOUS
 62
     3
 10
-636.93389999999999
 20
111.6579399999999
 30
0.0
 11
-634.83392000000003
 21
111.6579399999999
 31
0.0
  0
LINE
  5
66D
  8
0
  6
CONTINUOUS
 62
     3
 10
-637.32379000000003
 20
111.73792
 30
0.0
 11
-638.52386000000001
 21
112.2579299999999
 31
0.0
  0
LINE
  5
66E
  8
0
  6
CONTINUOUS
 62
     3
 10
-636.9838900000002
 20
113.60795
 30
0.0
 11
-635.13391000000001
 21
113.60795
 31
0.0
  0
LINE
  5
66F
  8
0
  6
CONTINUOUS
 62
     3
 10
-637.2738599999999
 20
113.6479499999998
 30
0.0
 11
-638.42382999999995
 21
114.00793999999991
 31
0.0
  0
LINE
  5
670
  8
0
  6
CONTINUOUS
 62
     3
 10
-635.13391000000001
 20
121.34795
 30
0.0
 11
-638.1339099999999
 21
121.34795
 31
0.0
  0
LINE
  5
671
  8
0
  6
CONTINUOUS
 62
     3
 10
-635.13391000000001
 20
123.34795
 30
0.0
 11
-638.1339099999999
 21
123.34795
 31
0.0
  0
LINE
  5
672
  8
0
  6
CONTINUOUS
 62
     3
 10
-635.13391000000001
 20
131.34794999999991
 30
0.0
 11
-638.1339099999999
 21
131.34794999999991
 31
0.0
  0
LINE
  5
673
  8
0
  6
CONTINUOUS
 62
     3
 10
-635.13391000000001
 20
133.3479599999998
 30
0.0
 11
-638.1339099999999
 21
133.3479599999998
 31
0.0
  0
LINE
  5
674
  8
0
  6
CONTINUOUS
 62
     3
 10
-635.13391000000001
 20
141.34795
 30
0.0
 11
-638.1339099999999
 21
141.34795
 31
0.0
  0
LINE
  5
675
  8
0
  6
CONTINUOUS
 62
     3
 10
-635.13391000000001
 20
143.34794999999991
 30
0.0
 11
-638.1339099999999
 21
143.34794999999991
 31
0.0
  0
LINE
  5
676
  8
0
  6
CONTINUOUS
 62
     3
 10
-637.13391000000001
 20
131.7379599999999
 30
0.0
 11
-637.13391000000001
 21
132.95795000000001
 31
0.0
  0
LINE
  5
677
  8
0
  6
CONTINUOUS
 62
     3
 10
-637.13391000000001
 20
141.73795000000001
 30
0.0
 11
-637.13391000000001
 21
142.89796000000001
 31
0.0
  0
LINE
  5
678
  8
0
  6
CONTINUOUS
 62
     3
 10
-637.13391000000001
 20
121.7179399999998
 30
0.0
 11
-637.13391000000001
 21
123.0879399999998
 31
0.0
  0
LINE
  5
679
  8
0
  6
CONTINUOUS
 62
     3
 10
-637.13391000000001
 20
111.95793999999979
 30
0.0
 11
-637.13391000000001
 21
113.01794
 31
0.0
  0
LINE
  5
67A
  8
0
  6
CONTINUOUS
 62
     3
 10
-640.63385000000017
 20
127.34795
 30
0.0
 11
-640.63385000000017
 21
147.34795
 31
0.0
  0
LINE
  5
67B
  8
0
  6
CONTINUOUS
 62
     3
 10
-640.63391000000001
 20
127.34795
 30
0.0
 11
-639.13385000000005
 21
127.2179399999999
 31
0.0
  0
LINE
  5
67C
  8
0
  6
CONTINUOUS
 62
     3
 10
-640.63385000000017
 20
130.06794999999991
 30
0.0
 11
-639.13385000000005
 21
130.06794999999991
 31
0.0
  0
LINE
  5
67D
  8
0
  6
CONTINUOUS
 62
     3
 10
-611.13391000000001
 20
81.427940000000007
 30
0.0
 11
-558.13385000000005
 21
81.427940000000007
 31
0.0
  0
LINE
  5
67E
  8
0
  6
CONTINUOUS
 62
     3
 10
-627.99390000000005
 20
85.677956000000009
 30
0.0
 11
-614.63391000000001
 21
85.677956000000009
 31
0.0
  0
LINE
  5
67F
  8
0
  6
CONTINUOUS
 62
     3
 10
-634.1339099999999
 20
104.6579399999999
 30
0.0
 11
-624.13385000000017
 21
104.6579399999999
 31
0.0
  0
LINE
  5
680
  8
0
  6
CONTINUOUS
 62
     3
 10
-611.13391000000001
 20
82.107947999999979
 30
0.0
 11
-558.13385000000005
 21
82.107947999999979
 31
0.0
  0
LINE
  5
681
  8
0
  6
CONTINUOUS
 62
     3
 10
-632.32390999999996
 20
92.247940000000014
 30
0.0
 11
-630.26385000000005
 21
92.247940000000014
 31
0.0
  0
LINE
  5
682
  8
0
  6
CONTINUOUS
 62
     3
 10
-632.34393
 20
96.317939999999993
 30
0.0
 11
-629.93389999999977
 21
96.317939999999993
 31
0.0
  0
LINE
  5
683
  8
0
  6
CONTINUOUS
 62
     3
 10
-629.92389000000003
 20
90.667930999999996
 30
0.0
 11
-630.88391000000001
 21
95.127930000000006
 31
0.0
  0
LINE
  5
684
  8
0
  6
CONTINUOUS
 62
     3
 10
-611.13391000000001
 20
83.457938999999982
 30
0.0
 11
-558.13385000000005
 21
83.457938999999982
 31
0.0
  0
LINE
  5
685
  8
0
  6
CONTINUOUS
 62
     3
 10
-629.67389000000003
 20
120.8579399999998
 30
0.0
 11
-586.63385000000017
 21
120.8579399999998
 31
0.0
  0
LINE
  5
686
  8
0
  6
CONTINUOUS
 62
     3
 10
-538.1339099999999
 20
113.3479399999998
 30
0.0
 11
-628.14386000000002
 21
113.3479399999998
 31
0.0
  0
LINE
  5
687
  8
0
  6
CONTINUOUS
 62
     3
 10
-620.45392000000004
 20
184.0679299999999
 30
0.0
 11
-490.31389999999999
 21
184.0679299999999
 31
0.0
  0
LINE
  5
688
  8
0
  6
CONTINUOUS
 62
     3
 10
-620.45392000000004
 20
180.71795999999981
 30
0.0
 11
-581.13391000000001
 21
180.71795999999981
 31
0.0
  0
LINE
  5
689
  8
0
  6
CONTINUOUS
 62
     3
 10
-620.67389000000003
 20
173.83795000000001
 30
0.0
 11
-586.63385000000017
 21
173.83795000000001
 31
0.0
  0
LINE
  5
68A
  8
0
  6
CONTINUOUS
 62
     3
 10
-620.67389000000003
 20
170.90794
 30
0.0
 11
-586.63385000000017
 21
170.90794
 31
0.0
  0
LINE
  5
68B
  8
0
  6
CONTINUOUS
 62
     3
 10
-629.80389000000002
 20
163.68796
 30
0.0
 11
-586.63385000000017
 21
163.68796
 31
0.0
  0
LINE
  5
68C
  8
0
  6
CONTINUOUS
 62
     3
 10
-629.80389000000002
 20
161.02794
 30
0.0
 11
-586.63385000000017
 21
161.02794
 31
0.0
  0
LINE
  5
68D
  8
0
  6
CONTINUOUS
 62
     3
 10
-629.8638900000002
 20
153.61793999999981
 30
0.0
 11
-588.63390999999979
 21
153.61793999999981
 31
0.0
  0
LINE
  5
68E
  8
0
  6
CONTINUOUS
 62
     3
 10
-629.8638900000002
 20
151.08794
 30
0.0
 11
-588.63390999999979
 21
151.08794
 31
0.0
  0
LINE
  5
68F
  8
0
  6
CONTINUOUS
 62
     3
 10
-613.1339099999999
 20
184.58794
 30
0.0
 11
-613.1339099999999
 21
184.5179399999999
 31
0.0
  0
LINE
  5
690
  8
0
  6
CONTINUOUS
 62
     3
 10
-490.31389999999999
 20
180.71795999999981
 30
0.0
 11
-506.83389
 21
180.71795999999981
 31
0.0
  0
LINE
  5
691
  8
0
  6
CONTINUOUS
 62
     3
 10
-507.83389
 20
179.71794
 30
0.0
 11
-507.83389
 21
178.61793999999981
 31
0.0
  0
LINE
  5
692
  8
0
  6
CONTINUOUS
 62
     3
 10
-506.86385999999982
 20
177.61794
 30
0.0
 11
-497.36389000000003
 21
177.34792999999991
 31
0.0
  0
LINE
  5
693
  8
0
  6
CONTINUOUS
 62
     7
 10
-242.29082999999989
 20
170.34795
 30
0.0
 11
-245.2908299999998
 21
165.15793999999991
 31
0.0
  0
LINE
  5
694
  8
0
  6
CONTINUOUS
 62
     3
 10
-629.8638900000002
 20
143.61795000000001
 30
0.0
 11
-588.63390999999979
 21
143.61795000000001
 31
0.0
  0
LINE
  5
695
  8
0
  6
CONTINUOUS
 62
     3
 10
-588.63390999999979
 20
141.34795
 30
0.0
 11
-628.58385999999985
 21
141.34795
 31
0.0
  0
LINE
  5
696
  8
0
  6
CONTINUOUS
 62
     3
 10
-588.63390999999979
 20
143.34794999999991
 30
0.0
 11
-628.58385999999985
 21
143.34794999999991
 31
0.0
  0
LINE
  5
697
  8
0
  6
CONTINUOUS
 62
     7
 10
-581.13391000000001
 20
180.84792999999991
 30
0.0
 11
-566.13391000000001
 21
180.84792999999991
 31
0.0
  0
LINE
  5
698
  8
0
  6
CONTINUOUS
 62
     7
 10
-566.13391000000001
 20
180.84792999999991
 30
0.0
 11
-566.13391000000001
 21
177.34795
 31
0.0
  0
LINE
  5
699
  8
0
  6
CONTINUOUS
 62
     3
 10
-629.80389000000002
 20
133.66794999999999
 30
0.0
 11
-586.63385000000017
 21
133.66794999999999
 31
0.0
  0
LINE
  5
69A
  8
0
  6
CONTINUOUS
 62
     3
 10
-640.63385000000017
 20
162.49796000000001
 30
0.0
 11
-636.35388
 21
162.49796000000001
 31
0.0
  0
LINE
  5
69B
  8
0
  6
CONTINUOUS
 62
     3
 10
-490.31389999999999
 20
113.9779399999998
 30
0.0
 11
-506.83389
 21
113.9779399999998
 31
0.0
  0
LINE
  5
69C
  8
0
  6
CONTINUOUS
 62
     3
 10
-507.83389
 20
114.9779399999999
 30
0.0
 11
-507.83389
 21
116.07795
 31
0.0
  0
LINE
  5
69D
  8
0
  6
CONTINUOUS
 62
     3
 10
-586.63385000000017
 20
131.34794999999991
 30
0.0
 11
-628.58385999999985
 21
131.34794999999991
 31
0.0
  0
LINE
  5
69E
  8
0
  6
CONTINUOUS
 62
     3
 10
-629.80389000000002
 20
131.0079299999999
 30
0.0
 11
-586.63385000000017
 21
131.0079299999999
 31
0.0
  0
LINE
  5
69F
  8
0
  6
CONTINUOUS
 62
     3
 10
-586.63385000000017
 20
123.34795
 30
0.0
 11
-628.58385999999985
 21
123.34795
 31
0.0
  0
LINE
  5
6A0
  8
0
  6
CONTINUOUS
 62
     3
 10
-629.67389000000003
 20
123.78795
 30
0.0
 11
-586.63385000000017
 21
123.78795
 31
0.0
  0
LINE
  5
6A1
  8
0
  6
CONTINUOUS
 62
     3
 10
-586.63385000000017
 20
121.34795
 30
0.0
 11
-628.58385999999985
 21
121.34795
 31
0.0
  0
LINE
  5
6A2
  8
0
  6
CONTINUOUS
 62
     3
 10
-493.79390999999998
 20
113.3479399999998
 30
0.0
 11
-538.1339099999999
 21
113.3479399999998
 31
0.0
  0
LINE
  5
6A3
  8
0
  6
CONTINUOUS
 62
     3
 10
-629.8638900000002
 20
141.0779599999999
 30
0.0
 11
-588.63390999999979
 21
141.0779599999999
 31
0.0
  0
LINE
  5
6A4
  8
0
  6
CONTINUOUS
 62
     3
 10
-640.63385000000017
 20
132.1979399999999
 30
0.0
 11
-636.05389000000002
 21
132.1979399999999
 31
0.0
  0
LINE
  5
6A5
  8
0
  6
CONTINUOUS
 62
     7
 10
-562.76385000000005
 20
169.84794999999991
 30
0.0
 11
-558.55389000000002
 21
169.84794999999991
 31
0.0
  0
LINE
  5
6A6
  8
0
  6
CONTINUOUS
 62
     7
 10
-586.63385000000017
 20
154.84795
 30
0.0
 11
-586.63385000000017
 21
178.84795
 31
0.0
  0
LINE
  5
6A7
  8
0
  6
CONTINUOUS
 62
     7
 10
-561.13385000000005
 20
124.34795
 30
0.0
 11
-561.13385000000005
 21
164.36794
 31
0.0
  0
LINE
  5
6A8
  8
0
  6
CONTINUOUS
 62
     7
 10
-242.29082
 20
124.34793000000001
 30
0.0
 11
-245.2907999999999
 21
129.54793000000001
 31
0.0
  0
LINE
  5
6A9
  8
0
  6
CONTINUOUS
 62
     7
 10
-245.29082
 20
129.54793999999981
 30
0.0
 11
-245.29082
 21
165.15793999999991
 31
0.0
  0
LINE
  5
6AA
  8
0
  6
CONTINUOUS
 62
     7
 10
-242.29082
 20
177.34795
 30
0.0
 11
-228.17362999999989
 21
177.34795
 31
0.0
  0
LINE
  5
6AB
  8
0
  6
CONTINUOUS
 62
     7
 10
-479.13387999999998
 20
95.307952999999983
 30
0.0
 11
-452.6339099999995
 21
95.307952999999983
 31
0.0
  0
LINE
  5
6AC
  8
0
  6
CONTINUOUS
 62
     7
 10
-479.13387999999998
 20
199.3879399999999
 30
0.0
 11
-452.6339099999995
 21
199.3879399999999
 31
0.0
  0
LINE
  5
6AD
  8
0
  6
CONTINUOUS
 62
     7
 10
-479.13385
 20
465.13488999999998
 30
0.0
 11
-452.63387999999992
 21
465.13488999999998
 31
0.0
  0
LINE
  5
6AE
  8
0
  6
CONTINUOUS
 62
     7
 10
-479.13385
 20
450.24279999999999
 30
0.0
 11
-452.63387999999992
 21
450.24279999999999
 31
0.0
  0
LINE
  5
6AF
  8
0
  6
CONTINUOUS
 62
     7
 10
-479.13385
 20
476.59487999999999
 30
0.0
 11
-455.52913999999993
 21
477.41918999999979
 31
0.0
  0
LINE
  5
6B0
  8
0
  6
CONTINUOUS
 62
     7
 10
-479.13382000000001
 20
349.59485000000001
 30
0.0
 11
-455.52917000000002
 21
348.77057000000002
 31
0.0
  0
LINE
  5
6B1
  8
0
  6
CONTINUOUS
 62
     7
 10
-479.13385
 20
375.94695999999999
 30
0.0
 11
-452.63387999999992
 21
375.94695999999999
 31
0.0
  0
LINE
  5
6B2
  8
0
  6
CONTINUOUS
 62
     7
 10
-479.13385
 20
361.05486999999988
 30
0.0
 11
-452.63387999999992
 21
361.05486999999988
 31
0.0
  0
LINE
  5
6B3
  8
0
  6
CONTINUOUS
 62
     7
 10
-508.13385
 20
341.09487999999988
 30
0.0
 11
-568.13391000000001
 21
341.09487999999988
 31
0.0
  0
LINE
  5
6B4
  8
0
  6
CONTINUOUS
 62
     3
 10
-587.40674000000001
 20
340.09487999999999
 30
0.0
 11
-587.40674000000001
 21
336.59487999999982
 31
0.0
  0
LINE
  5
6B5
  8
0
  6
CONTINUOUS
 62
     3
 10
-589.4067399999999
 20
336.59487999999982
 30
0.0
 11
-507.40685999999988
 21
336.59487999999982
 31
0.0
  0
LINE
  5
6B6
  8
0
  6
CONTINUOUS
 62
     3
 10
-566.90686000000005
 20
333.09487999999982
 30
0.0
 11
-507.40685999999988
 21
333.09487999999982
 31
0.0
  0
LINE
  5
6B7
  8
0
  6
CONTINUOUS
 62
     3
 10
-578.40674000000001
 20
336.59487999999982
 30
0.0
 11
-578.40674000000001
 21
329.09487999999982
 31
0.0
  0
LINE
  5
6B8
  8
0
  6
CONTINUOUS
 62
     3
 10
-570.40686000000017
 20
336.59487999999982
 30
0.0
 11
-570.40686000000017
 21
329.09487999999982
 31
0.0
  0
LINE
  5
6B9
  8
0
  6
CONTINUOUS
 62
     3
 10
-585.90673999999979
 20
321.59586000000002
 30
0.0
 11
-589.4067399999999
 21
321.59586000000002
 31
0.0
  0
LINE
  5
6BA
  8
0
  6
CONTINUOUS
 62
     3
 10
-589.4067399999999
 20
336.59487999999982
 30
0.0
 11
-589.4067399999999
 21
321.59586000000002
 31
0.0
  0
LINE
  5
6BB
  8
0
  6
CONTINUOUS
 62
     3
 10
-556.70690999999999
 20
313.59487999999982
 30
0.0
 11
-561.90686000000005
 21
316.59485000000001
 31
0.0
  0
LINE
  5
6BC
  8
0
  6
CONTINUOUS
 62
     3
 10
-515.90686000000005
 20
316.59487999999982
 30
0.0
 11
-521.10687000000007
 21
313.59487999999982
 31
0.0
  0
LINE
  5
6BD
  8
0
  6
CONTINUOUS
 62
     3
 10
-585.90673999999979
 20
333.09487999999982
 30
0.0
 11
-581.90674000000001
 21
333.09487999999982
 31
0.0
  0
LINE
  5
6BE
  8
0
  6
CONTINUOUS
 62
     3
 10
-585.90673999999979
 20
316.59487999999982
 30
0.0
 11
-508.90685999999988
 21
316.59487999999982
 31
0.0
  0
LINE
  5
6BF
  8
0
  6
CONTINUOUS
 62
     3
 10
-556.70690999999999
 20
313.59487999999982
 30
0.0
 11
-521.10681
 21
313.59487999999982
 31
0.0
  0
LINE
  5
6C0
  8
0
  6
CONTINUOUS
 62
     3
 10
-585.90673999999979
 20
336.59487999999982
 30
0.0
 11
-585.90673999999979
 21
316.59487999999982
 31
0.0
  0
LINE
  5
6C1
  8
0
  6
CONTINUOUS
 62
     3
 10
-581.90674000000001
 20
336.59487999999982
 30
0.0
 11
-581.90674000000001
 21
329.09487999999982
 31
0.0
  0
LINE
  5
6C2
  8
0
  6
CONTINUOUS
 62
     3
 10
-566.90686000000005
 20
329.09487999999982
 30
0.0
 11
-566.90686000000005
 21
336.59487999999982
 31
0.0
  0
LINE
  5
6C3
  8
0
  6
CONTINUOUS
 62
     3
 10
-508.90685999999988
 20
316.59487999999982
 30
0.0
 11
-508.90685999999988
 21
333.09487999999982
 31
0.0
  0
LINE
  5
6C4
  8
0
  6
CONTINUOUS
 62
     3
 10
-507.40685999999988
 20
340.09487999999999
 30
0.0
 11
-507.40685999999988
 21
333.09487999999982
 31
0.0
  0
LINE
  5
6C5
  8
0
  6
CONTINUOUS
 62
     3
 10
-587.40674000000001
 20
340.09487999999999
 30
0.0
 11
-507.40685999999988
 21
340.09487999999999
 31
0.0
  0
LINE
  5
6C6
  8
0
  6
CONTINUOUS
 62
     7
 10
-508.63385
 20
341.09487999999988
 30
0.0
 11
-508.63385
 21
340.09487999999999
 31
0.0
  0
LINE
  5
6C7
  8
0
  6
CONTINUOUS
 62
     7
 10
-567.63390999999979
 20
341.09487999999988
 30
0.0
 11
-567.63390999999979
 21
340.09487999999999
 31
0.0
  0
LINE
  5
6C8
  8
0
  6
CONTINUOUS
 62
     7
 10
-637.13391000000001
 20
363.59487999999988
 30
0.0
 11
-637.13391000000001
 21
364.12491
 31
0.0
  0
LINE
  5
6C9
  8
0
  6
CONTINUOUS
 62
     7
 10
-637.13391000000001
 20
365.69484999999992
 30
0.0
 11
-637.13391000000001
 21
366.24489999999992
 31
0.0
  0
LINE
  5
6CA
  8
0
  6
CONTINUOUS
 62
     7
 10
-637.13391000000001
 20
370.26492000000002
 30
0.0
 11
-637.13391000000001
 21
370.73488999999989
 31
0.0
  0
LINE
  5
6CB
  8
0
  6
CONTINUOUS
 62
     7
 10
-637.35388
 20
366.71487000000002
 30
0.0
 11
-638.60382000000004
 21
367.37484999999992
 31
0.0
  0
LINE
  5
6CC
  8
0
  6
CONTINUOUS
 62
     7
 10
-637.34387000000004
 20
364.60489000000001
 30
0.0
 11
-638.58385999999985
 21
365.23489000000001
 31
0.0
  0
LINE
  5
6CD
  8
0
  6
CONTINUOUS
 62
     7
 10
-637.3638900000002
 20
371.24486999999988
 30
0.0
 11
-638.6438599999999
 21
371.99486999999988
 31
0.0
  0
LINE
  5
6CE
  8
0
  6
CONTINUOUS
 62
     7
 10
-636.89380000000006
 20
364.49489999999992
 30
0.0
 11
-634.63391000000001
 21
364.49489999999992
 31
0.0
  0
LINE
  5
6CF
  8
0
  6
CONTINUOUS
 62
     7
 10
-636.88391000000001
 20
366.59487999999988
 30
0.0
 11
-635.13391000000001
 21
366.59487999999988
 31
0.0
  0
LINE
  5
6D0
  8
0
  6
CONTINUOUS
 62
     7
 10
-636.86388999999986
 20
371.11489999999992
 30
0.0
 11
-635.13391000000001
 21
371.11489999999992
 31
0.0
  0
LINE
  5
6D1
  8
0
  6
CONTINUOUS
 62
     7
 10
-636.83385999999985
 20
369.97487999999998
 30
0.0
 11
-634.1339099999999
 21
369.97487999999998
 31
0.0
  0
LINE
  5
6D2
  8
0
  6
CONTINUOUS
 62
     7
 10
-636.85388
 20
365.45486
 30
0.0
 11
-634.1339099999999
 21
365.45486
 31
0.0
  0
LINE
  5
6D3
  8
0
  6
CONTINUOUS
 62
     7
 10
-637.38385000000005
 20
370.13488999999993
 30
0.0
 11
-638.68384000000003
 21
370.98486000000003
 31
0.0
  0
LINE
  5
6D4
  8
0
  6
CONTINUOUS
 62
     7
 10
-637.37378000000001
 20
365.59485000000001
 30
0.0
 11
-638.65380999999979
 21
366.36486999999988
 31
0.0
  0
LINE
  5
6D5
  8
0
  6
CONTINUOUS
 62
     7
 10
-637.36383000000001
 20
363.48486000000003
 30
0.0
 11
-638.63378999999998
 21
364.21487000000002
 31
0.0
  0
LINE
  5
6D6
  8
0
  6
CONTINUOUS
 62
     7
 10
-636.86388999999986
 20
363.34487999999999
 30
0.0
 11
-634.63391000000001
 21
363.34487999999999
 31
0.0
  0
LINE
  5
6D7
  8
0
  6
CONTINUOUS
 62
     7
 10
-639.13391000000001
 20
365.07486
 30
0.0
 11
-639.13391000000001
 21
408.09487999999988
 31
0.0
  0
LINE
  5
6D8
  8
0
  6
CONTINUOUS
 62
     7
 10
-638.6438599999999
 20
371.99486999999988
 30
0.0
 11
-638.66381999999999
 21
372.00484999999992
 31
0.0
  0
LINE
  5
6D9
  8
0
  6
CONTINUOUS
 62
     7
 10
-640.63391000000001
 20
395.81484999999998
 30
0.0
 11
-639.13391000000001
 21
395.81484999999998
 31
0.0
  0
LINE
  5
6DA
  8
0
  6
CONTINUOUS
 62
     7
 10
-640.63391000000001
 20
397.94484999999992
 30
0.0
 11
-639.13391000000001
 21
397.94484999999992
 31
0.0
  0
LINE
  5
6DB
  8
0
  6
CONTINUOUS
 62
     7
 10
-640.63385000000017
 20
393.09491000000003
 30
0.0
 11
-639.13385000000005
 21
392.96489999999989
 31
0.0
  0
LINE
  5
6DC
  8
0
  6
CONTINUOUS
 62
     7
 10
-640.63391000000001
 20
393.09487999999988
 30
0.0
 11
-640.63391000000001
 21
413.09487999999988
 31
0.0
  0
LINE
  5
6DD
  8
0
  6
CONTINUOUS
 62
     7
 10
-637.13391000000001
 20
377.70486
 30
0.0
 11
-637.13391000000001
 21
378.76492000000002
 31
0.0
  0
LINE
  5
6DE
  8
0
  6
CONTINUOUS
 62
     7
 10
-637.13391000000001
 20
387.46487000000002
 30
0.0
 11
-637.13391000000001
 21
388.83487000000002
 31
0.0
  0
LINE
  5
6DF
  8
0
  6
CONTINUOUS
 62
     7
 10
-637.13391000000001
 20
407.48489000000001
 30
0.0
 11
-637.13391000000001
 21
408.64492999999987
 31
0.0
  0
LINE
  5
6E0
  8
0
  6
CONTINUOUS
 62
     7
 10
-637.13391000000001
 20
397.48488999999989
 30
0.0
 11
-637.13391000000001
 21
398.70485999999988
 31
0.0
  0
LINE
  5
6E1
  8
0
  6
CONTINUOUS
 62
     7
 10
-635.13391000000001
 20
409.09487999999988
 30
0.0
 11
-638.1339099999999
 21
409.09487999999988
 31
0.0
  0
LINE
  5
6E2
  8
0
  6
CONTINUOUS
 62
     7
 10
-635.13391000000001
 20
407.09487999999999
 30
0.0
 11
-638.1339099999999
 21
407.09487999999999
 31
0.0
  0
LINE
  5
6E3
  8
0
  6
CONTINUOUS
 62
     7
 10
-635.13391000000001
 20
399.09487999999988
 30
0.0
 11
-638.1339099999999
 21
399.09487999999988
 31
0.0
  0
LINE
  5
6E4
  8
0
  6
CONTINUOUS
 62
     7
 10
-635.13391000000001
 20
397.09487999999999
 30
0.0
 11
-638.1339099999999
 21
397.09487999999999
 31
0.0
  0
LINE
  5
6E5
  8
0
  6
CONTINUOUS
 62
     7
 10
-635.13391000000001
 20
389.09487999999988
 30
0.0
 11
-638.1339099999999
 21
389.09487999999988
 31
0.0
  0
LINE
  5
6E6
  8
0
  6
CONTINUOUS
 62
     7
 10
-635.13391000000001
 20
387.09487999999988
 30
0.0
 11
-638.1339099999999
 21
387.09487999999988
 31
0.0
  0
LINE
  5
6E7
  8
0
  6
CONTINUOUS
 62
     7
 10
-637.2738599999999
 20
379.39490000000001
 30
0.0
 11
-638.42382999999995
 21
379.75490999999988
 31
0.0
  0
LINE
  5
6E8
  8
0
  6
CONTINUOUS
 62
     7
 10
-636.9838900000002
 20
379.35489000000001
 30
0.0
 11
-635.13391000000001
 21
379.35489000000001
 31
0.0
  0
LINE
  5
6E9
  8
0
  6
CONTINUOUS
 62
     7
 10
-637.32390999999996
 20
377.48486000000003
 30
0.0
 11
-638.52386000000001
 21
378.00484999999992
 31
0.0
  0
LINE
  5
6EA
  8
0
  6
CONTINUOUS
 62
     7
 10
-636.93384000000003
 20
377.40493999999978
 30
0.0
 11
-634.83385999999985
 21
377.40493999999978
 31
0.0
  0
LINE
  5
6EB
  8
0
  6
CONTINUOUS
 62
     7
 10
-640.63391000000001
 20
430.37490999999989
 30
0.0
 11
-639.13391000000001
 21
430.37490999999989
 31
0.0
  0
LINE
  5
6EC
  8
0
  6
CONTINUOUS
 62
     7
 10
-640.63391000000001
 20
428.2448999999998
 30
0.0
 11
-639.13391000000001
 21
428.2448999999998
 31
0.0
  0
LINE
  5
6ED
  8
0
  6
CONTINUOUS
 62
     7
 10
-640.6337900000002
 20
433.09494000000001
 30
0.0
 11
-639.13378999999986
 21
433.22494999999992
 31
0.0
  0
LINE
  5
6EE
  8
0
  6
CONTINUOUS
 62
     7
 10
-640.63391000000001
 20
433.09487999999988
 30
0.0
 11
-640.63391000000001
 21
413.09487999999988
 31
0.0
  0
LINE
  5
6EF
  8
0
  6
CONTINUOUS
 62
     7
 10
-637.13391000000001
 20
462.59487999999988
 30
0.0
 11
-637.13391000000001
 21
462.06484999999992
 31
0.0
  0
LINE
  5
6F0
  8
0
  6
CONTINUOUS
 62
     7
 10
-637.13391000000001
 20
460.49489999999992
 30
0.0
 11
-637.13391000000001
 21
459.94484999999997
 31
0.0
  0
LINE
  5
6F1
  8
0
  6
CONTINUOUS
 62
     7
 10
-637.13391000000001
 20
455.92484000000002
 30
0.0
 11
-637.13391000000001
 21
455.45485999999988
 31
0.0
  0
LINE
  5
6F2
  8
0
  6
CONTINUOUS
 62
     7
 10
-637.13391000000001
 20
448.48489000000012
 30
0.0
 11
-637.13391000000001
 21
447.42484000000002
 31
0.0
  0
LINE
  5
6F3
  8
0
  6
CONTINUOUS
 62
     7
 10
-637.13391000000001
 20
438.72487999999998
 30
0.0
 11
-637.13391000000001
 21
437.35489000000001
 31
0.0
  0
LINE
  5
6F4
  8
0
  6
CONTINUOUS
 62
     7
 10
-637.13391000000001
 20
418.70485999999988
 30
0.0
 11
-637.13391000000001
 21
417.54482999999999
 31
0.0
  0
LINE
  5
6F5
  8
0
  6
CONTINUOUS
 62
     7
 10
-637.13391000000001
 20
428.70485999999988
 30
0.0
 11
-637.13391000000001
 21
427.49489999999992
 31
0.0
  0
LINE
  5
6F6
  8
0
  6
CONTINUOUS
 62
     7
 10
-635.13391000000001
 20
417.09487999999988
 30
0.0
 11
-638.1339099999999
 21
417.09487999999988
 31
0.0
  0
LINE
  5
6F7
  8
0
  6
CONTINUOUS
 62
     7
 10
-635.13391000000001
 20
419.09487999999999
 30
0.0
 11
-638.1339099999999
 21
419.09487999999999
 31
0.0
  0
LINE
  5
6F8
  8
0
  6
CONTINUOUS
 62
     7
 10
-635.13391000000001
 20
427.09487999999999
 30
0.0
 11
-638.1339099999999
 21
427.09487999999999
 31
0.0
  0
LINE
  5
6F9
  8
0
  6
CONTINUOUS
 62
     7
 10
-635.13391000000001
 20
429.09487999999988
 30
0.0
 11
-638.1339099999999
 21
429.09487999999988
 31
0.0
  0
LINE
  5
6FA
  8
0
  6
CONTINUOUS
 62
     7
 10
-635.13391000000001
 20
437.09487999999988
 30
0.0
 11
-638.1339099999999
 21
437.09487999999988
 31
0.0
  0
LINE
  5
6FB
  8
0
  6
CONTINUOUS
 62
     7
 10
-635.13391000000001
 20
439.09487999999999
 30
0.0
 11
-638.1339099999999
 21
439.09487999999999
 31
0.0
  0
LINE
  5
6FC
  8
0
  6
CONTINUOUS
 62
     7
 10
-637.35382000000004
 20
459.48489000000001
 30
0.0
 11
-638.60388
 21
458.81487999999979
 31
0.0
  0
LINE
  5
6FD
  8
0
  6
CONTINUOUS
 62
     7
 10
-637.34387000000004
 20
461.59487999999988
 30
0.0
 11
-638.58385999999985
 21
460.96487000000002
 31
0.0
  0
LINE
  5
6FE
  8
0
  6
CONTINUOUS
 62
     7
 10
-637.2738599999999
 20
446.79489000000001
 30
0.0
 11
-638.42389000000003
 21
446.44488999999987
 31
0.0
  0
LINE
  5
6FF
  8
0
  6
CONTINUOUS
 62
     7
 10
-637.36383000000001
 20
454.94488999999987
 30
0.0
 11
-638.6438599999999
 21
454.19488999999999
 31
0.0
  0
LINE
  5
700
  8
0
  6
CONTINUOUS
 62
     7
 10
-636.89380000000006
 20
461.69484999999992
 30
0.0
 11
-634.63391000000001
 21
461.69484999999992
 31
0.0
  0
LINE
  5
701
  8
0
  6
CONTINUOUS
 62
     7
 10
-636.88391000000001
 20
459.59487999999999
 30
0.0
 11
-635.13391000000001
 21
459.59487999999999
 31
0.0
  0
LINE
  5
702
  8
0
  6
CONTINUOUS
 62
     7
 10
-636.86388999999986
 20
455.08487000000002
 30
0.0
 11
-635.13391000000001
 21
455.08487000000002
 31
0.0
  0
LINE
  5
703
  8
0
  6
CONTINUOUS
 62
     7
 10
-636.9838900000002
 20
446.83486999999991
 30
0.0
 11
-635.13391000000001
 21
446.83486999999991
 31
0.0
  0
LINE
  5
704
  8
0
  6
CONTINUOUS
 62
     7
 10
-636.83385999999985
 20
456.22487999999981
 30
0.0
 11
-634.1339099999999
 21
456.22487999999981
 31
0.0
  0
LINE
  5
705
  8
0
  6
CONTINUOUS
 62
     7
 10
-636.85388
 20
460.73488999999989
 30
0.0
 11
-634.1339099999999
 21
460.73488999999989
 31
0.0
  0
LINE
  5
706
  8
0
  6
CONTINUOUS
 62
     7
 10
-637.32379000000003
 20
448.70482999999962
 30
0.0
 11
-638.52380000000005
 21
448.19481999999988
 31
0.0
  0
LINE
  5
707
  8
0
  6
CONTINUOUS
 62
     7
 10
-637.38378999999975
 20
456.05486999999999
 30
0.0
 11
-638.68384000000003
 21
455.20485999999988
 31
0.0
  0
LINE
  5
708
  8
0
  6
CONTINUOUS
 62
     7
 10
-637.37383999999975
 20
460.59485000000001
 30
0.0
 11
-638.65380999999979
 21
459.82485999999989
 31
0.0
  0
LINE
  5
709
  8
0
  6
CONTINUOUS
 62
     7
 10
-637.3638900000002
 20
462.71494000000001
 30
0.0
 11
-638.63385000000005
 21
461.97494999999998
 31
0.0
  0
LINE
  5
70A
  8
0
  6
CONTINUOUS
 62
     7
 10
-636.93384000000003
 20
448.78482000000002
 30
0.0
 11
-634.83385999999985
 21
448.78482000000002
 31
0.0
  0
LINE
  5
70B
  8
0
  6
CONTINUOUS
 62
     7
 10
-636.86388999999986
 20
462.84487999999999
 30
0.0
 11
-634.63391000000001
 21
462.84487999999999
 31
0.0
  0
LINE
  5
70C
  8
0
  6
CONTINUOUS
 62
     7
 10
-639.13391000000001
 20
461.11489999999998
 30
0.0
 11
-639.13391000000001
 21
418.09487999999999
 31
0.0
  0
LINE
  5
70D
  8
0
  6
CONTINUOUS
 62
     7
 10
-487.13385
 20
450.24489999999992
 30
0.0
 11
-479.13385
 21
450.24489999999992
 31
0.0
  0
LINE
  5
70E
  8
0
  6
CONTINUOUS
 62
     7
 10
-486.13385
 20
361.05484000000001
 30
0.0
 11
-479.13385
 21
361.05484000000001
 31
0.0
  0
LINE
  5
70F
  8
0
  6
CONTINUOUS
 62
     7
 10
-487.13385
 20
375.94484999999992
 30
0.0
 11
-479.13385
 21
375.94484999999992
 31
0.0
  0
LINE
  5
710
  8
0
  6
CONTINUOUS
 62
     7
 10
-486.13385
 20
349.59487999999988
 30
0.0
 11
-479.13385
 21
349.59487999999988
 31
0.0
  0
LINE
  5
711
  8
0
  6
CONTINUOUS
 62
     7
 10
-486.13385
 20
465.13492000000002
 30
0.0
 11
-479.13385
 21
465.13492000000002
 31
0.0
  0
LINE
  5
712
  8
0
  6
CONTINUOUS
 62
     7
 10
-486.13385
 20
476.59487999999999
 30
0.0
 11
-479.13385
 21
476.59487999999999
 31
0.0
  0
LINE
  5
713
  8
0
  6
CONTINUOUS
 62
     7
 10
-634.13385000000005
 20
355.66485999999992
 30
0.0
 11
-631.31377999999995
 21
355.60485999999997
 31
0.0
  0
LINE
  5
714
  8
0
  6
CONTINUOUS
 62
     7
 10
-593.13391000000001
 20
366.74489999999992
 30
0.0
 11
-487.13385
 21
366.74489999999992
 31
0.0
  0
LINE
  5
715
  8
0
  6
CONTINUOUS
 62
     7
 10
-492.42385999999988
 20
352.59487999999999
 30
0.0
 11
-487.13385
 21
352.59487999999999
 31
0.0
  0
LINE
  5
716
  8
0
  6
CONTINUOUS
 62
     7
 10
-620.46387000000004
 20
379.73489000000001
 30
0.0
 11
-526.11388999999986
 21
379.73489000000001
 31
0.0
  0
LINE
  5
717
  8
0
  6
CONTINUOUS
 62
     7
 10
-538.1339099999999
 20
377.09487999999988
 30
0.0
 11
-619.59813999999994
 21
377.09487999999988
 31
0.0
  0
LINE
  5
718
  8
0
  6
CONTINUOUS
 62
     7
 10
-538.1339099999999
 20
376.37491
 30
0.0
 11
-490.31384000000003
 21
376.37491
 31
0.0
  0
LINE
  5
719
  8
0
  6
CONTINUOUS
 62
     7
 10
-620.46387000000004
 20
376.37491
 30
0.0
 11
-538.1339099999999
 21
376.37491
 31
0.0
  0
LINE
  5
71A
  8
0
  6
CONTINUOUS
 62
     7
 10
-620.43628000000001
 20
354.83487000000002
 30
0.0
 11
-614.63391000000001
 21
354.83487000000002
 31
0.0
  0
LINE
  5
71B
  8
0
  6
CONTINUOUS
 62
     7
 10
-611.13391000000001
 20
351.23489000000001
 30
0.0
 11
-494.32384999999988
 21
351.23489000000001
 31
0.0
  0
LINE
  5
71C
  8
0
  6
CONTINUOUS
 62
     7
 10
-620.37401999999975
 20
360.11489999999992
 30
0.0
 11
-614.63391000000001
 21
360.11489999999992
 31
0.0
  0
LINE
  5
71D
  8
0
  6
CONTINUOUS
 62
     7
 10
-624.13391000000001
 20
364.74489999999992
 30
0.0
 11
-624.13391000000001
 21
378.79482999999999
 31
0.0
  0
LINE
  5
71E
  8
0
  6
CONTINUOUS
 62
     7
 10
-634.1339099999999
 20
364.74489999999992
 30
0.0
 11
-624.13391000000001
 21
364.74489999999992
 31
0.0
  0
LINE
  5
71F
  8
0
  6
CONTINUOUS
 62
     7
 10
-492.39385999999962
 20
352.72482000000002
 30
0.0
 11
-488.9338399999998
 21
365.63492000000002
 31
0.0
  0
LINE
  5
720
  8
0
  6
CONTINUOUS
 62
     7
 10
-630.37255999999979
 20
352.93588
 30
0.0
 11
-630.85388
 21
354.84487999999999
 31
0.0
  0
LINE
  5
721
  8
0
  6
CONTINUOUS
 62
     7
 10
-629.94390999999985
 20
352.96481
 30
0.0
 11
-630.86388999999997
 21
356.84491000000008
 31
0.0
  0
LINE
  5
722
  8
0
  6
CONTINUOUS
 62
     7
 10
-613.1339099999999
 20
351.20583999999991
 30
0.0
 11
-613.1339099999999
 21
358.61489999999992
 31
0.0
  0
LINE
  5
723
  8
0
  6
CONTINUOUS
 62
     7
 10
-632.30382999999995
 20
355.97487999999993
 30
0.0
 11
-630.65380999999979
 21
355.97487999999993
 31
0.0
  0
LINE
  5
724
  8
0
  6
CONTINUOUS
 62
     7
 10
-593.13391000000001
 20
459.44484999999992
 30
0.0
 11
-487.13385
 21
459.44484999999992
 31
0.0
  0
LINE
  5
725
  8
0
  6
CONTINUOUS
 62
     7
 10
-487.13385
 20
350.59487999999999
 30
0.0
 11
-487.13385
 21
475.59487999999988
 31
0.0
  0
LINE
  5
726
  8
0
  6
CONTINUOUS
 62
     7
 10
-634.13385000000005
 20
470.5249
 30
0.0
 11
-631.31384000000003
 21
470.59487999999988
 31
0.0
  0
LINE
  5
727
  8
0
  6
CONTINUOUS
 62
     7
 10
-634.1339099999999
 20
355.66482999999982
 30
0.0
 11
-634.1339099999999
 21
413.09487999999988
 31
0.0
  0
LINE
  5
728
  8
0
  6
CONTINUOUS
 62
     7
 10
-493.79385000000002
 20
377.09487999999988
 30
0.0
 11
-538.1339099999999
 21
377.09487999999988
 31
0.0
  0
LINE
  5
729
  8
0
  6
CONTINUOUS
 62
     7
 10
-624.13391000000001
 20
461.44484999999992
 30
0.0
 11
-624.13391000000001
 21
447.40494000000001
 31
0.0
  0
LINE
  5
72A
  8
0
  6
CONTINUOUS
 62
     7
 10
-634.1339099999999
 20
447.40494000000001
 30
0.0
 11
-624.13391000000001
 21
447.40494000000001
 31
0.0
  0
LINE
  5
72B
  8
0
  6
CONTINUOUS
 62
     7
 10
-634.1339099999999
 20
455.78482000000002
 30
0.0
 11
-624.13391000000001
 21
455.78482000000002
 31
0.0
  0
LINE
  5
72C
  8
0
  6
CONTINUOUS
 62
     7
 10
-634.1339099999999
 20
461.44484999999992
 30
0.0
 11
-624.13391000000001
 21
461.44484999999992
 31
0.0
  0
LINE
  5
72D
  8
0
  6
CONTINUOUS
 62
     7
 10
-558.69176999999979
 20
399.09487999999988
 30
0.0
 11
-628.58385999999985
 21
399.09487999999988
 31
0.0
  0
LINE
  5
72E
  8
0
  6
CONTINUOUS
 62
     7
 10
-611.13391000000001
 20
474.95485999999988
 30
0.0
 11
-494.32384999999988
 21
474.95485999999988
 31
0.0
  0
LINE
  5
72F
  8
0
  6
CONTINUOUS
 62
     7
 10
-620.1795699999999
 20
466.08487000000002
 30
0.0
 11
-614.63391000000001
 21
466.08487000000002
 31
0.0
  0
LINE
  5
730
  8
0
  6
CONTINUOUS
 62
     7
 10
-622.92455999999981
 20
460.0882299999995
 30
0.0
 11
-622.13953000000004
 21
464.43490999999989
 31
0.0
  0
LINE
  5
731
  8
0
  6
CONTINUOUS
 62
     7
 10
-620.2434099999997
 20
471.36489999999998
 30
0.0
 11
-614.63391000000001
 21
471.36489999999998
 31
0.0
  0
LINE
  5
732
  8
0
  6
CONTINUOUS
 62
     7
 10
-628.00391000000002
 20
474.76492000000002
 30
0.0
 11
-614.63391000000001
 21
474.76492000000002
 31
0.0
  0
LINE
  5
733
  8
0
  6
CONTINUOUS
 62
     7
 10
-628.02380000000005
 20
476.39492999999999
 30
0.0
 11
-614.52380000000005
 21
476.39492999999999
 31
0.0
  0
LINE
  5
734
  8
0
  6
CONTINUOUS
 62
     7
 10
-611.13391000000001
 20
479.01492000000002
 30
0.0
 11
-493.05020000000002
 21
479.01492000000002
 31
0.0
  0
LINE
  5
735
  8
0
  6
CONTINUOUS
 62
     7
 10
-611.13391000000001
 20
478.34487999999999
 30
0.0
 11
-492.90618999999992
 21
478.34487999999999
 31
0.0
  0
LINE
  5
736
  8
0
  6
CONTINUOUS
 62
     7
 10
-611.13391000000001
 20
476.98489000000001
 30
0.0
 11
-492.61389000000003
 21
476.98489000000001
 31
0.0
  0
LINE
  5
737
  8
0
  6
CONTINUOUS
 62
     7
 10
-624.61963000000003
 20
464.13492000000002
 30
0.0
 11
-622.19957999999997
 21
464.13492000000002
 31
0.0
  0
LINE
  5
738
  8
0
  6
CONTINUOUS
 62
     7
 10
-622.18957999999975
 20
469.78490999999991
 30
0.0
 11
-623.14959999999985
 21
465.31482
 31
0.0
  0
LINE
  5
739
  8
0
  6
CONTINUOUS
 62
     7
 10
-632.32384999999999
 20
468.1948499999998
 30
0.0
 11
-622.53112999999985
 21
468.1948499999998
 31
0.0
  0
LINE
  5
73A
  8
0
  6
CONTINUOUS
 62
     7
 10
-493.79385000000002
 20
449.09487999999988
 30
0.0
 11
-619.58385999999996
 21
449.09487999999988
 31
0.0
  0
LINE
  5
73B
  8
0
  6
CONTINUOUS
 62
     7
 10
-493.79385000000002
 20
447.09487999999999
 30
0.0
 11
-508.13385
 21
447.09487999999999
 31
0.0
  0
LINE
  5
73C
  8
0
  6
CONTINUOUS
 62
     7
 10
-493.78671000000003
 20
439.09487999999999
 30
0.0
 11
-508.13385
 21
439.09487999999999
 31
0.0
  0
LINE
  5
73D
  8
0
  6
CONTINUOUS
 62
     7
 10
-629.94384999999988
 20
473.2249099999998
 30
0.0
 11
-630.86388999999997
 21
469.3548599999998
 31
0.0
  0
LINE
  5
73E
  8
0
  6
CONTINUOUS
 62
     7
 10
-493.80103000000003
 20
437.09487999999988
 30
0.0
 11
-619.58385999999996
 21
437.09487999999988
 31
0.0
  0
LINE
  5
73F
  8
0
  6
CONTINUOUS
 62
     7
 10
-632.30382999999995
 20
470.21487000000002
 30
0.0
 11
-630.65380999999979
 21
470.21487000000002
 31
0.0
  0
LINE
  5
740
  8
0
  6
CONTINUOUS
 62
     7
 10
-629.96380999999997
 20
474.88482999999968
 30
0.0
 11
-630.85382000000004
 21
471.35489000000001
 31
0.0
  0
LINE
  5
741
  8
0
  6
CONTINUOUS
 62
     7
 10
-558.69519000000003
 20
429.09487999999988
 30
0.0
 11
-628.58385999999985
 21
429.09487999999988
 31
0.0
  0
LINE
  5
742
  8
0
  6
CONTINUOUS
 62
     7
 10
-613.1339099999999
 20
474.98488999999989
 30
0.0
 11
-613.1339099999999
 21
467.58487000000002
 31
0.0
  0
LINE
  5
743
  8
0
  6
CONTINUOUS
 62
     7
 10
-558.69519000000003
 20
427.09487999999999
 30
0.0
 11
-628.58385999999985
 21
427.09487999999999
 31
0.0
  0
LINE
  5
744
  8
0
  6
CONTINUOUS
 62
     7
 10
-558.69176999999979
 20
419.09487999999999
 30
0.0
 11
-628.58385999999985
 21
419.09487999999999
 31
0.0
  0
LINE
  5
745
  8
0
  6
CONTINUOUS
 62
     7
 10
-558.69176999999979
 20
417.09487999999988
 30
0.0
 11
-628.58385999999985
 21
417.09487999999988
 31
0.0
  0
LINE
  5
746
  8
0
  6
CONTINUOUS
 62
     7
 10
-492.39385999999962
 20
473.47491000000002
 30
0.0
 11
-488.9338399999998
 21
460.55483999999979
 31
0.0
  0
LINE
  5
747
  8
0
  6
CONTINUOUS
 62
     7
 10
-490.67343
 20
473.59487999999999
 30
0.0
 11
-487.13385
 21
473.59487999999999
 31
0.0
  0
LINE
  5
748
  8
0
  6
CONTINUOUS
 62
     7
 10
-487.42385999999988
 20
464.13492000000002
 30
0.0
 11
-489.84384
 21
464.13492000000002
 31
0.0
  0
LINE
  5
749
  8
0
  6
CONTINUOUS
 62
     7
 10
-491.58368000000002
 20
477.83008000000001
 30
0.0
 11
-488.89382999999992
 21
465.31484999999992
 31
0.0
  0
LINE
  5
74A
  8
0
  6
CONTINUOUS
 62
     7
 10
-634.1339099999999
 20
470.52492999999998
 30
0.0
 11
-634.1339099999999
 21
413.09487999999988
 31
0.0
  0
LINE
  5
74B
  8
0
  6
CONTINUOUS
 62
     7
 10
-634.1339099999999
 20
378.79482999999999
 30
0.0
 11
-624.13391000000001
 21
378.79482999999999
 31
0.0
  0
LINE
  5
74C
  8
0
  6
CONTINUOUS
 62
     7
 10
-628.43322999999987
 20
351.42484000000002
 30
0.0
 11
-614.39110999999946
 21
351.42484000000002
 31
0.0
  0
LINE
  5
74D
  8
0
  6
CONTINUOUS
 62
     7
 10
-634.1339099999999
 20
370.40494000000001
 30
0.0
 11
-624.13391000000001
 21
370.40494000000001
 31
0.0
  0
LINE
  5
74E
  8
0
  6
CONTINUOUS
 62
     7
 10
-632.32384999999999
 20
357.99489999999992
 30
0.0
 11
-622.53112999999985
 21
357.99489999999992
 31
0.0
  0
LINE
  5
74F
  8
0
  6
CONTINUOUS
 62
     7
 10
-611.13391000000001
 20
349.20485999999983
 30
0.0
 11
-569.8075
 21
349.20485999999983
 31
0.0
  0
LINE
  5
750
  8
0
  6
CONTINUOUS
 62
     7
 10
-620.67382999999995
 20
386.61489999999998
 30
0.0
 11
-526.13385000000005
 21
386.61489999999998
 31
0.0
  0
LINE
  5
751
  8
0
  6
CONTINUOUS
 62
     7
 10
-526.13385000000005
 20
379.09487999999988
 30
0.0
 11
-619.59813999999994
 21
379.09487999999988
 31
0.0
  0
LINE
  5
752
  8
0
  6
CONTINUOUS
 62
     7
 10
-620.46387000000004
 20
449.82485999999989
 30
0.0
 11
-490.31384000000003
 21
449.82485999999989
 31
0.0
  0
LINE
  5
753
  8
0
  6
CONTINUOUS
 62
     7
 10
-620.46387000000004
 20
446.46487000000002
 30
0.0
 11
-526.11388999999986
 21
446.46487000000002
 31
0.0
  0
LINE
  5
754
  8
0
  6
CONTINUOUS
 62
     7
 10
-620.67382999999995
 20
439.58487000000002
 30
0.0
 11
-526.13385000000005
 21
439.58487000000002
 31
0.0
  0
LINE
  5
755
  8
0
  6
CONTINUOUS
 62
     7
 10
-620.67382999999995
 20
436.66482999999999
 30
0.0
 11
-490.09960999999993
 21
436.66482999999999
 31
0.0
  0
LINE
  5
756
  8
0
  6
CONTINUOUS
 62
     7
 10
-629.80382999999995
 20
429.44484999999992
 30
0.0
 11
-557.46265000000005
 21
429.44484999999992
 31
0.0
  0
LINE
  5
757
  8
0
  6
CONTINUOUS
 62
     7
 10
-629.80382999999995
 20
426.77492999999998
 30
0.0
 11
-557.4751
 21
426.77492999999998
 31
0.0
  0
LINE
  5
758
  8
0
  6
CONTINUOUS
 62
     7
 10
-629.8638900000002
 20
419.37490999999989
 30
0.0
 11
-557.39868000000001
 21
419.37490999999989
 31
0.0
  0
LINE
  5
759
  8
0
  6
CONTINUOUS
 62
     7
 10
-629.8638900000002
 20
416.83487000000002
 30
0.0
 11
-557.39868000000001
 21
416.83487000000002
 31
0.0
  0
LINE
  5
75A
  8
0
  6
CONTINUOUS
 62
     7
 10
-629.8638900000002
 20
409.36489999999998
 30
0.0
 11
-557.39868000000001
 21
409.36489999999998
 31
0.0
  0
LINE
  5
75B
  8
0
  6
CONTINUOUS
 62
     7
 10
-558.69176999999979
 20
407.09487999999999
 30
0.0
 11
-628.58385999999985
 21
407.09487999999999
 31
0.0
  0
LINE
  5
75C
  8
0
  6
CONTINUOUS
 62
     7
 10
-558.69176999999979
 20
409.09487999999988
 30
0.0
 11
-628.58385999999985
 21
409.09487999999988
 31
0.0
  0
LINE
  5
75D
  8
0
  6
CONTINUOUS
 62
     7
 10
-629.80382999999995
 20
399.41482999999988
 30
0.0
 11
-557.46265000000005
 21
399.41482999999988
 31
0.0
  0
LINE
  5
75E
  8
0
  6
CONTINUOUS
 62
     7
 10
-558.69176999999979
 20
397.09487999999999
 30
0.0
 11
-628.58385999999985
 21
397.09487999999999
 31
0.0
  0
LINE
  5
75F
  8
0
  6
CONTINUOUS
 62
     7
 10
-629.80382999999995
 20
396.75490999999988
 30
0.0
 11
-557.46265000000005
 21
396.75490999999988
 31
0.0
  0
LINE
  5
760
  8
0
  6
CONTINUOUS
 62
     7
 10
-493.80103000000003
 20
389.09487999999988
 30
0.0
 11
-619.59813999999994
 21
389.09487999999988
 31
0.0
  0
LINE
  5
761
  8
0
  6
CONTINUOUS
 62
     7
 10
-620.67382999999995
 20
389.53482000000002
 30
0.0
 11
-490.09960999999993
 21
389.53482000000002
 31
0.0
  0
LINE
  5
762
  8
0
  6
CONTINUOUS
 62
     7
 10
-493.80103000000003
 20
387.09487999999988
 30
0.0
 11
-508.13385
 21
387.09487999999988
 31
0.0
  0
LINE
  5
763
  8
0
  6
CONTINUOUS
 62
     7
 10
-493.79385000000002
 20
379.09487999999988
 30
0.0
 11
-508.13385
 21
379.09487999999988
 31
0.0
  0
LINE
  5
764
  8
0
  6
CONTINUOUS
 62
     7
 10
-629.8638900000002
 20
406.82486
 30
0.0
 11
-557.39868000000001
 21
406.82486
 31
0.0
  0
LINE
  5
765
  8
0
  6
CONTINUOUS
 62
     7
 10
-622.92462
 20
366.10149999999987
 30
0.0
 11
-622.13959
 21
361.75481999999988
 31
0.0
  0
LINE
  5
766
  8
0
  6
CONTINUOUS
 62
     7
 10
-624.61963000000003
 20
362.05484000000001
 30
0.0
 11
-622.19957999999997
 21
362.05484000000001
 31
0.0
  0
LINE
  5
767
  8
0
  6
CONTINUOUS
 62
     7
 10
-622.18957999999975
 20
356.40487999999999
 30
0.0
 11
-623.14954
 21
360.87484999999992
 31
0.0
  0
LINE
  5
768
  8
0
  6
CONTINUOUS
 62
     3
 10
-568.13385000000005
 20
341.09487999999988
 30
0.0
 11
-568.39935000000003
 21
351.23482999999987
 31
0.0
  0
LINE
  5
769
  8
0
  6
CONTINUOUS
 62
     3
 10
-508.13385
 20
341.09487999999988
 30
0.0
 11
-507.86831999999993
 21
351.23482999999987
 31
0.0
  0
LINE
  5
76A
  8
0
  6
CONTINUOUS
 62
     7
 10
-506.62024000000002
 20
343.09487999999988
 30
0.0
 11
-495.11765000000003
 21
343.09487999999988
 31
0.0
  0
LINE
  5
76B
  8
0
  6
CONTINUOUS
 62
     3
 10
-488.13382000000001
 20
352.59487999999999
 30
0.0
 11
-493.85962000000001
 21
343.77791999999999
 31
0.0
  0
LINE
  5
76C
  8
0
  6
CONTINUOUS
 62
     7
 10
-524.63385000000005
 20
385.59487999999999
 30
0.0
 11
-524.63385000000005
 21
380.59487999999988
 31
0.0
  0
LINE
  5
76D
  8
0
  6
CONTINUOUS
 62
     7
 10
-509.63384999999988
 20
385.59487999999999
 30
0.0
 11
-509.63384999999988
 21
380.59487999999988
 31
0.0
  0
LINE
  5
76E
  8
0
  6
CONTINUOUS
 62
     7
 10
-526.13385000000005
 20
387.09487999999988
 30
0.0
 11
-619.59813999999994
 21
387.09487999999988
 31
0.0
  0
LINE
  5
76F
  8
0
  6
CONTINUOUS
 62
     7
 10
-525.11388999999986
 20
385.59487999999999
 30
0.0
 11
-525.11388999999986
 21
380.73489000000001
 31
0.0
  0
LINE
  5
770
  8
0
  6
CONTINUOUS
 62
     7
 10
-509.15384000000012
 20
385.59487999999999
 30
0.0
 11
-509.15384000000012
 21
380.73489000000001
 31
0.0
  0
LINE
  5
771
  8
0
  6
CONTINUOUS
 62
     7
 10
-508.13385
 20
386.61489999999998
 30
0.0
 11
-490.09960999999993
 21
386.61489999999998
 31
0.0
  0
LINE
  5
772
  8
0
  6
CONTINUOUS
 62
     7
 10
-508.15384
 20
379.73489000000001
 30
0.0
 11
-490.31384000000003
 21
379.73489000000001
 31
0.0
  0
LINE
  5
773
  8
0
  6
CONTINUOUS
 62
     7
 10
-509.15384000000012
 20
440.59487999999988
 30
0.0
 11
-509.15384000000012
 21
445.45485999999988
 31
0.0
  0
LINE
  5
774
  8
0
  6
CONTINUOUS
 62
     7
 10
-525.11388999999986
 20
440.59487999999988
 30
0.0
 11
-525.11388999999986
 21
445.45485999999988
 31
0.0
  0
LINE
  5
775
  8
0
  6
CONTINUOUS
 62
     7
 10
-509.63384999999988
 20
440.59487999999988
 30
0.0
 11
-509.63384999999988
 21
445.59487999999988
 31
0.0
  0
LINE
  5
776
  8
0
  6
CONTINUOUS
 62
     7
 10
-524.63385000000005
 20
440.59487999999988
 30
0.0
 11
-524.63385000000005
 21
445.59487999999988
 31
0.0
  0
LINE
  5
777
  8
0
  6
CONTINUOUS
 62
     7
 10
-526.13385000000005
 20
447.09487999999999
 30
0.0
 11
-619.58385999999996
 21
447.09487999999999
 31
0.0
  0
LINE
  5
778
  8
0
  6
CONTINUOUS
 62
     7
 10
-508.15384
 20
446.46487000000002
 30
0.0
 11
-490.31384000000003
 21
446.46487000000002
 31
0.0
  0
LINE
  5
779
  8
0
  6
CONTINUOUS
 62
     7
 10
-508.13385
 20
439.58487000000002
 30
0.0
 11
-490.08816999999999
 21
439.58487000000002
 31
0.0
  0
LINE
  5
77A
  8
0
  6
CONTINUOUS
 62
     7
 10
-526.13385000000005
 20
439.09487999999999
 30
0.0
 11
-619.58385999999996
 21
439.09487999999999
 31
0.0
  0
LINE
  5
77B
  8
0
  6
CONTINUOUS
 62
     3
 10
-553.13391000000001
 20
433.59487999999988
 30
0.0
 11
-553.13391000000001
 21
392.59487999999999
 31
0.0
  0
LINE
  5
77C
  8
0
  6
CONTINUOUS
 62
     3
 10
-490.13385
 20
433.59487999999988
 30
0.0
 11
-490.13385
 21
392.59487999999999
 31
0.0
  0
LINE
  5
77D
  8
0
  6
CONTINUOUS
 62
     7
 10
-553.13391000000001
 20
433.59487999999988
 30
0.0
 11
-490.13385
 21
433.59487999999988
 31
0.0
  0
LINE
  5
77E
  8
0
  6
CONTINUOUS
 62
     7
 10
-553.13391000000001
 20
392.59487999999999
 30
0.0
 11
-490.13385
 21
392.59487999999999
 31
0.0
  0
LINE
  5
77F
  8
0
  6
CONTINUOUS
 62
     7
 10
-553.13391000000001
 20
426.09487999999988
 30
0.0
 11
-490.13385
 21
426.09487999999988
 31
0.0
  0
LINE
  5
780
  8
0
  6
CONTINUOUS
 62
     3
 10
-593.13385000000005
 20
459.44481999999999
 30
0.0
 11
-624.13385000000017
 21
457.41482999999999
 31
0.0
  0
LINE
  5
781
  8
0
  6
CONTINUOUS
 62
     3
 10
-593.13385000000005
 20
366.74484000000001
 30
0.0
 11
-624.13385000000017
 21
368.77483999999993
 31
0.0
  0
LINE
  5
782
  8
0
  6
CONTINUOUS
 62
     7
 10
-435.63384999999988
 20
332.98752000000002
 30
0.0
 11
-451.23052999999999
 21
332.79271999999992
 31
0.0
  0
LINE
  5
783
  8
0
  6
CONTINUOUS
 62
     7
 10
-435.63384999999988
 20
374.81979000000001
 30
0.0
 11
-442.63387999999992
 21
374.81979000000001
 31
0.0
  0
LINE
  5
784
  8
0
  6
CONTINUOUS
 62
     7
 10
-435.63384999999988
 20
493.20224000000002
 30
0.0
 11
-451.23055999999991
 21
493.39702999999992
 31
0.0
  0
LINE
  5
785
  8
0
  6
CONTINUOUS
 62
     7
 10
-435.63384999999988
 20
451.36995999999988
 30
0.0
 11
-442.63387999999992
 21
451.36995999999988
 31
0.0
  0
ARC
  5
786
  8
0
  6
CONTINUOUS
 62
     7
 10
-361.63384999999988
 20
443.14758
 30
0.0
 40
1.0
 50
180.00001
 51
268.5
  0
ARC
  5
787
  8
0
  6
CONTINUOUS
 62
     7
 10
-360.63385
 20
441.12072999999998
 30
0.0
 40
1.0
 50
0.0
 51
88.499996999999965
  0
CIRCLE
  5
788
  8
0
  6
CONTINUOUS
 62
     7
 10
-374.63385
 20
488.09487999999988
 30
0.0
 40
6.0
  0
ARC
  5
789
  8
0
  6
CONTINUOUS
 62
     7
 10
-466.63385
 20
499.20352000000003
 30
0.0
 40
3.0
 50
91.500000999999969
 51
180.00001
  0
ARC
  5
78A
  8
0
  6
CONTINUOUS
 62
     7
 10
-362.63385
 20
498.26082999999988
 30
0.0
 40
3.0
 50
0.0
 51
88.499996999999965
  0
ARC
  5
78B
  8
0
  6
CONTINUOUS
 62
     7
 10
-454.63385
 20
488.09487999999988
 30
0.0
 40
6.0
 50
57.788072
 51
289.47122999999999
  0
ARC
  5
78C
  8
0
  6
CONTINUOUS
 62
     7
 10
-362.63385
 20
471.09487999999988
 30
0.0
 40
3.0
 50
284.47751
 51
0.0
  0
ARC
  5
78D
  8
0
  6
CONTINUOUS
 62
     7
 10
-466.63385
 20
480.31097
 30
0.0
 40
3.0
 50
180.00001
 51
254.99998999999991
  0
ARC
  5
78E
  8
0
  6
CONTINUOUS
 62
     7
 10
-361.63384999999988
 20
383.04217999999992
 30
0.0
 40
1.0
 50
91.500000999999969
 51
180.00001
  0
ARC
  5
78F
  8
0
  6
CONTINUOUS
 62
     7
 10
-360.63385
 20
385.06903
 30
0.0
 40
1.0
 50
271.49999999999972
 51
0.0
  0
CIRCLE
  5
790
  8
0
  6
CONTINUOUS
 62
     7
 10
-374.63385
 20
338.09487999999999
 30
0.0
 40
6.0
  0
ARC
  5
791
  8
0
  6
CONTINUOUS
 62
     7
 10
-466.63385
 20
326.98621000000009
 30
0.0
 40
3.0
 50
180.00001
 51
268.5
  0
ARC
  5
792
  8
0
  6
CONTINUOUS
 62
     7
 10
-362.63385
 20
327.92892000000001
 30
0.0
 40
3.0
 50
271.49999999999972
 51
0.0
  0
ARC
  5
793
  8
0
  6
CONTINUOUS
 62
     7
 10
-454.63385
 20
338.09487999999999
 30
0.0
 40
6.0
 50
70.528779
 51
302.21188000000001
  0
ARC
  5
794
  8
0
  6
CONTINUOUS
 62
     7
 10
-362.63385
 20
355.09487999999999
 30
0.0
 40
3.0
 50
0.0
 51
75.522487999999981
  0
ARC
  5
795
  8
0
  6
CONTINUOUS
 62
     7
 10
-466.63385
 20
345.87878000000001
 30
0.0
 40
3.0
 50
105.0
 51
180.00001
  0
ARC
  5
796
  8
0
  6
CONTINUOUS
 62
     7
 10
-437.63385
 20
497.96222
 30
0.0
 40
5.0
 50
0.0
 51
91.500000999999969
  0
ARC
  5
797
  8
0
  6
CONTINUOUS
 62
     7
 10
-437.63385
 20
492.96221999999989
 30
0.0
 40
5.0
 50
28.47123899999999
 51
70.528779
  0
ARC
  5
798
  8
0
  6
CONTINUOUS
 62
     7
 10
-435.63384999999988
 20
498.61908
 30
0.0
 40
1.0
 50
180.00001
 51
250.52877000000001
  0
ARC
  5
799
  8
0
  6
CONTINUOUS
 62
     7
 10
-437.63385
 20
501.96221999999989
 30
0.0
 40
1.0
 50
0.0
 51
90.000003000000007
  0
ARC
  5
79A
  8
0
  6
CONTINUOUS
 62
     7
 10
-346.63387999999992
 20
413.09485000000001
 30
0.0
 40
3.9999962
 50
90.000003000000007
 51
270.0
  0
ARC
  5
79B
  8
0
  6
CONTINUOUS
 62
     7
 10
-361.63384999999988
 20
358.96785999999992
 30
0.0
 40
1.0
 50
180.00001
 51
255.52249
  0
ARC
  5
79C
  8
0
  6
CONTINUOUS
 62
     7
 10
-361.63384999999988
 20
467.2218899999998
 30
0.0
 40
1.0
 50
104.47751
 51
180.00001
  0
ARC
  5
79D
  8
0
  6
CONTINUOUS
 62
     7
 10
-365.63384999999988
 20
361.84386999999998
 30
0.0
 40
3.0
 50
275.0
 51
0.0
  0
ARC
  5
79E
  8
0
  6
CONTINUOUS
 62
     7
 10
-365.63384999999988
 20
464.34589
 30
0.0
 40
3.0
 50
0.0
 51
85.000004000000004
  0
ARC
  5
79F
  8
0
  6
CONTINUOUS
 62
     7
 10
-379.63385
 20
468.26641999999993
 30
0.0
 40
5.0
 50
0.0
 51
88.0
  0
ARC
  5
7A0
  8
0
  6
CONTINUOUS
 62
     7
 10
-379.63385
 20
357.92334
 30
0.0
 40
5.0
 50
272.0
 51
0.0
  0
ARC
  5
7A1
  8
0
  6
CONTINUOUS
 62
     7
 10
-370.73203000000001
 20
472.82247999999993
 30
0.0
 40
5.0
 50
207.1038099999999
 51
265.00000999999992
  0
ARC
  5
7A2
  8
0
  6
CONTINUOUS
 62
     7
 10
-370.73203000000001
 20
353.36727999999999
 30
0.0
 40
5.0
 50
95.000001999999995
 51
152.89618999999979
  0
ARC
  5
7A3
  8
0
  6
CONTINUOUS
 62
     7
 10
-387.63385
 20
329.27496000000002
 30
0.0
 40
5.0
 50
180.00001
 51
271.49999999999972
  0
ARC
  5
7A4
  8
0
  6
CONTINUOUS
 62
     7
 10
-387.63385
 20
496.91478999999998
 30
0.0
 40
5.0
 50
88.499996999999965
 51
180.00001
  0
ARC
  5
7A5
  8
0
  6
CONTINUOUS
 62
     7
 10
-384.63384999999988
 20
481.44896999999997
 30
0.0
 40
8.0
 50
180.00001
 51
268.0
  0
ARC
  5
7A6
  8
0
  6
CONTINUOUS
 62
     7
 10
-384.63384999999988
 20
344.74077999999992
 30
0.0
 40
8.0
 50
91.999998000000005
 51
180.00001
  0
ARC
  5
7A7
  8
0
  6
CONTINUOUS
 62
     7
 10
-437.63385
 20
328.22753999999992
 30
0.0
 40
5.0
 50
268.5
 51
0.0000006832456
  0
ARC
  5
7A8
  8
0
  6
CONTINUOUS
 62
     7
 10
-437.63385
 20
333.22753999999992
 30
0.0
 40
5.0
 50
289.47122999999999
 51
331.52875999999998
  0
ARC
  5
7A9
  8
0
  6
CONTINUOUS
 62
     7
 10
-435.63384999999988
 20
327.57067999999998
 30
0.0
 40
1.0
 50
109.47122
 51
180.00001
  0
ARC
  5
7AA
  8
0
  6
CONTINUOUS
 62
     7
 10
-437.63385
 20
324.22753999999998
 30
0.0
 40
1.0
 50
270.0
 51
0.0
  0
CIRCLE
  5
7AB
  8
0
  6
CONTINUOUS
 62
     7
 10
-145.2809399999999
 20
170.54793000000001
 30
0.0
 40
4.0
  0
ARC
  5
7AC
  8
0
  6
CONTINUOUS
 62
     7
 10
-145.2809399999999
 20
170.54793000000001
 30
0.0
 40
14.00000099999999
 50
106.6015399999999
 51
73.398452000000006
  0
CIRCLE
  5
7AD
  8
0
  6
CONTINUOUS
 62
     7
 10
-145.2809399999999
 20
170.54793000000001
 30
0.0
 40
3.0
  0
ARC
  5
7AE
  8
0
  6
CONTINUOUS
 62
     7
 10
-379.63391000000001
 20
221.87980999999991
 30
0.0
 40
5.0
 50
0.0
 51
88.499996999999965
  0
ARC
  5
7AF
  8
0
  6
CONTINUOUS
 62
     7
 10
-90.280959999999993
 20
199.79791
 30
0.0
 40
5.0
 50
0.0
 51
43.64050000000001
  0
ARC
  5
7B0
  8
0
  6
CONTINUOUS
 62
     7
 10
-145.2809399999999
 20
147.34795
 30
0.0
 40
81.0
 50
7.0485985999999992
 51
172.95139999999981
  0
ARC
  5
7B1
  8
0
  6
CONTINUOUS
 62
     7
 10
-57.280951999999999
 20
77.547934999999981
 30
0.0
 40
2.0
 50
0.0
 51
90.000003000000007
  0
ARC
  5
7B2
  8
0
  6
CONTINUOUS
 62
     7
 10
-369.63387999999992
 20
215.17946000000001
 30
0.0
 40
5.0
 50
179.99998999999991
 51
265.0
  0
ARC
  5
7B3
  8
0
  6
CONTINUOUS
 62
     7
 10
-192.28093000000001
 20
71.547934999999995
 30
0.0
 40
5.0
 50
270.0
 51
0.0
  0
ARC
  5
7B4
  8
0
  6
CONTINUOUS
 62
     7
 10
-198.28093000000001
 20
64.547943000000004
 30
0.0
 40
2.0
 50
90.000003000000007
 51
180.00001
  0
ARC
  5
7B5
  8
0
  6
CONTINUOUS
 62
     7
 10
-202.2809399999999
 20
77.547934999999981
 30
0.0
 40
2.0
 50
0.0
 51
90.000003000000007
  0
ARC
  5
7B6
  8
0
  6
CONTINUOUS
 62
     7
 10
-98.280951999999985
 20
71.547934999999995
 30
0.0
 40
5.0
 50
179.99998999999991
 51
270.0
  0
ARC
  5
7B7
  8
0
  6
CONTINUOUS
 62
     7
 10
-233.2809399999999
 20
77.547934999999981
 30
0.0
 40
2.0
 50
90.000003000000007
 51
180.00001
  0
ARC
  5
7B8
  8
0
  6
CONTINUOUS
 62
     7
 10
-379.63391000000001
 20
97.161231999999998
 30
0.0
 40
5.0
 50
270.0
 51
0.0
  0
ARC
  5
7B9
  8
0
  6
CONTINUOUS
 62
     7
 10
-387.63387999999992
 20
84.547919999999976
 30
0.0
 40
5.0
 50
179.99998999999991
 51
270.0
  0
ARC
  5
7BA
  8
0
  6
CONTINUOUS
 62
     7
 10
-200.2809399999999
 20
199.79791
 30
0.0
 40
5.0
 50
136.35948999999999
 51
180.00001
  0
ARC
  5
7BB
  8
0
  6
CONTINUOUS
 62
     7
 10
-145.2809399999999
 20
155.54793000000001
 30
0.0
 40
54.0
 50
0.0
 51
180.00001
  0
ARC
  5
7BC
  8
0
  6
CONTINUOUS
 62
     7
 10
-365.63391000000001
 20
206.7989199999999
 30
0.0
 40
3.0
 50
0.0
 51
84.999996999999979
  0
ARC
  5
7BD
  8
0
  6
CONTINUOUS
 62
     7
 10
-441.63387999999998
 20
64.547927999999985
 30
0.0
 40
1.0
 50
90.000003000000007
 51
180.00001
  0
ARC
  5
7BE
  8
0
  6
CONTINUOUS
 62
     7
 10
-442.11957000000001
 20
82.547927999999999
 30
0.0
 40
3.0
 50
270.0
 51
349.28688
  0
ARC
  5
7BF
  8
0
  6
CONTINUOUS
 62
     7
 10
-361.63391000000001
 20
77.547934999999981
 30
0.0
 40
2.0
 50
0.0
 51
90.000003000000007
  0
ARC
  5
7C0
  8
0
  6
CONTINUOUS
 62
     7
 10
-467.63390999999979
 20
77.547934999999981
 30
0.0
 40
2.0
 50
90.000003000000007
 51
180.00001
  0
ARC
  5
7C1
  8
0
  6
CONTINUOUS
 62
     7
 10
-145.2809399999999
 20
118.34793000000001
 30
0.0
 40
60.0
 50
334.15807000000001
 51
0.0
  0
ARC
  5
7C2
  8
0
  6
CONTINUOUS
 62
     7
 10
-145.2809399999999
 20
118.34793000000001
 30
0.0
 40
60.0
 50
180.00001
 51
205.84192999999991
  0
ARC
  5
7C3
  8
0
  6
CONTINUOUS
 62
     7
 10
-382.63391000000001
 20
191.78122999999991
 30
0.0
 40
10.0
 50
90.000003000000007
 51
180.00001
  0
ARC
  5
7C4
  8
0
  6
CONTINUOUS
 62
     7
 10
-88.280959999999979
 20
77.547934999999981
 30
0.0
 40
2.0
 50
90.000003000000007
 51
180.00001
  0
ARC
  5
7C5
  8
0
  6
CONTINUOUS
 62
     7
 10
-92.280951999999999
 20
64.547943000000004
 30
0.0
 40
2.0
 50
0.0
 51
90.000003000000007
  0
ARC
  5
7C6
  8
0
  6
CONTINUOUS
 62
     7
 10
-108.2809499999999
 20
72.547943000000004
 30
0.0
 40
5.0
 50
0.0
 51
90.000003000000007
  0
CIRCLE
  5
7C7
  8
0
  6
CONTINUOUS
 62
     7
 10
-145.2809399999999
 20
170.54793000000001
 30
0.0
 40
29.0
  0
ARC
  5
7C8
  8
0
  6
CONTINUOUS
 62
     7
 10
-182.2809399999999
 20
72.547943000000004
 30
0.0
 40
5.0
 50
90.000003000000007
 51
180.00001
  0
ARC
  5
7C9
  8
0
  6
CONTINUOUS
 62
     7
 10
-360.63387999999992
 20
81.420913999999982
 30
0.0
 40
2.0
 50
179.99998999999991
 51
255.52249
  0
ARC
  5
7CA
  8
0
  6
CONTINUOUS
 62
     7
 10
-145.2809399999999
 20
147.34792999999991
 30
0.0
 40
81.0
 50
265.97275000000002
 51
274.02724999999992
  0
ARC
  5
7CB
  8
0
  6
CONTINUOUS
 62
     7
 10
-204.28093000000001
 20
84.547943000000004
 30
0.0
 40
5.0
 50
270.0
 51
0.0
  0
ARC
  5
7CC
  8
0
  6
CONTINUOUS
 62
     7
 10
-86.280951999999999
 20
84.547943000000004
 30
0.0
 40
5.0
 50
179.99998999999991
 51
270.0
  0
ARC
  5
7CD
  8
0
  6
CONTINUOUS
 62
     7
 10
-360.63387999999992
 20
142.52208999999999
 30
0.0
 40
1.0
 50
271.49999999999972
 51
0.0
  0
ARC
  5
7CE
  8
0
  6
CONTINUOUS
 62
     7
 10
-361.63391000000001
 20
200.60065
 30
0.0
 40
1.0
 50
179.99998999999991
 51
268.50000999999992
  0
ARC
  5
7CF
  8
0
  6
CONTINUOUS
 62
     7
 10
-360.63387999999992
 20
198.57378
 30
0.0
 40
1.0
 50
0.0
 51
88.499996999999965
  0
ARC
  5
7D0
  8
0
  6
CONTINUOUS
 62
     7
 10
-361.63391000000001
 20
140.4952099999999
 30
0.0
 40
1.0
 50
91.500000999999969
 51
180.00001
  0
ARC
  5
7D1
  8
0
  6
CONTINUOUS
 62
     7
 10
-437.63391000000001
 20
117.01675
 30
0.0
 40
5.0
 50
349.28688
 51
0.0
  0
ARC
  5
7D2
  8
0
  6
CONTINUOUS
 62
     7
 10
-387.63387999999992
 20
64.547927999999985
 30
0.0
 40
1.0
 50
0.0
 51
90.000003000000007
  0
ARC
  5
7D3
  8
0
  6
CONTINUOUS
 62
     7
 10
-447.63387999999992
 20
218.1702699999999
 30
0.0
 40
5.0
 50
91.999998000000005
 51
180.00001
  0
ARC
  5
7D4
  8
0
  6
CONTINUOUS
 62
     7
 10
-450.63387999999992
 20
83.803962999999996
 30
0.0
 40
2.0
 50
90.000003000000007
 51
180.00001
  0
ARC
  5
7D5
  8
0
  6
CONTINUOUS
 62
     7
 10
-455.63390999999967
 20
214.86525
 30
0.0
 40
3.0
 50
280.0
 51
0.0
  0
ARC
  5
7D6
  8
0
  6
CONTINUOUS
 62
     7
 10
-444.63387999999992
 20
87.80394699999998
 30
0.0
 40
2.0
 50
270.0
 51
0.0
  0
ARC
  5
7D7
  8
0
  6
CONTINUOUS
 62
     7
 10
-440.6339099999995
 20
226.17212000000001
 30
0.0
 40
2.0
 50
91.999998000000005
 51
163.27365
  0
ARC
  5
7D8
  8
0
  6
CONTINUOUS
 62
     7
 10
-444.63387999999992
 20
172.02002999999991
 30
0.0
 40
2.0
 50
0.0
 51
90.000003000000007
  0
ARC
  5
7D9
  8
0
  6
CONTINUOUS
 62
     7
 10
-447.3377099999995
 20
228.18672000000001
 30
0.0
 40
5.0
 50
272.0
 51
343.27366000000001
  0
ARC
  5
7DA
  8
0
  6
CONTINUOUS
 62
     7
 10
-455.63390999999967
 20
79.830643000000023
 30
0.0
 40
3.0
 50
0.0
 51
79.999998000000005
  0
ARC
  5
7DB
  8
0
  6
CONTINUOUS
 62
     7
 10
-450.63387999999992
 20
199.68201999999991
 30
0.0
 40
2.0
 50
90.000003000000007
 51
180.00001
  0
ARC
  5
7DC
  8
0
  6
CONTINUOUS
 62
     7
 10
-457.01177999999999
 20
80.073600999999968
 30
0.0
 40
3.0
 50
79.999998000000005
 51
88.0
  0
ARC
  5
7DD
  8
0
  6
CONTINUOUS
 62
     7
 10
-457.22127999999992
 20
216.61619999999991
 30
0.0
 40
5.0
 50
272.0
 51
280.0
  0
ARC
  5
7DE
  8
0
  6
CONTINUOUS
 62
     7
 10
-444.63387999999992
 20
178.49713
 30
0.0
 40
2.0
 50
0.0
 51
90.000003000000007
  0
ARC
  5
7DF
  8
0
  6
CONTINUOUS
 62
     7
 10
-450.63387999999992
 20
182.49715
 30
0.0
 40
2.0
 50
179.99998999999991
 51
270.0
  0
ARC
  5
7E0
  8
0
  6
CONTINUOUS
 62
     7
 10
-444.63387999999992
 20
203.68200999999991
 30
0.0
 40
2.0
 50
270.0
 51
0.0
  0
ARC
  5
7E1
  8
0
  6
CONTINUOUS
 62
     3
 10
-638.14068999999995
 20
195.36585999999991
 30
0.0
 40
0.99319202
 50
119.7734
 51
179.87956
  0
ARC
  5
7E2
  8
0
  6
CONTINUOUS
 62
     3
 10
-638.13830999999982
 20
194.32764
 30
0.0
 40
0.99558806
 50
116.58749
 51
179.98224999999991
  0
ARC
  5
7E3
  8
0
  6
CONTINUOUS
 62
     3
 10
-636.87189000000001
 20
196.10206999999991
 30
0.0
 40
0.9959119600000002
 50
89.541443999999998
 51
119.6069899999999
  0
ARC
  5
7E4
  8
0
  6
CONTINUOUS
 62
     3
 10
-636.90912000000003
 20
194.9539199999999
 30
0.0
 40
0.9941280500000002
 50
89.122808000000006
 51
115.93481
  0
ARC
  5
7E5
  8
0
  6
CONTINUOUS
 62
     3
 10
-636.86505
 20
193.9937399999998
 30
0.0
 40
0.9942600099999999
 50
89.355881999999966
 51
120.78109000000001
  0
ARC
  5
7E6
  8
0
  6
CONTINUOUS
 62
     3
 10
-636.89880000000005
 20
192.8525799999999
 30
0.0
 40
0.99546796
 50
89.141447999999983
 51
117.2036599999999
  0
ARC
  5
7E7
  8
0
  6
CONTINUOUS
 62
     3
 10
-636.82727
 20
189.48175000000001
 30
0.0
 40
0.9962120099999999
 50
90.381906000000001
 51
123.9699
  0
ARC
  5
7E8
  8
0
  6
CONTINUOUS
 62
     3
 10
-636.85449000000006
 20
188.34146000000001
 30
0.0
 40
0.9965200400000001
 50
90.541213000000027
 51
120.7432799999999
  0
ARC
  5
7E9
  8
0
  6
CONTINUOUS
 62
     3
 10
-638.13982999999985
 20
187.59113999999991
 30
0.0
 40
0.99407601
 50
120.4692
 51
180.18464
  0
ARC
  5
7EA
  8
0
  6
CONTINUOUS
 62
     3
 10
-638.13909999999976
 20
188.62555
 30
0.0
 40
0.9948279899999999
 50
123.2046899999999
 51
180.43813
  0
ARC
  5
7EB
  8
0
  6
CONTINUOUS
 62
     3
 10
-638.14068999999995
 20
192.18938
 30
0.0
 40
0.9932120399999999
 50
117.7993399999999
 51
180.08183
  0
ARC
  5
7EC
  8
0
  6
CONTINUOUS
 62
     7
 10
-515.63891999999964
 20
124.8529999999998
 30
0.0
 40
5.4981922999999986
 50
84.729479999999981
 51
185.27052
  0
ARC
  5
7ED
  8
0
  6
CONTINUOUS
 62
     3
 10
-638.13947000000019
 20
193.22691
 30
0.0
 40
0.9944360299999999
 50
121.15217
 51
179.9404899999999
  0
ARC
  5
7EE
  8
0
  6
CONTINUOUS
 62
     3
 10
-636.93291999999997
 20
182.04247000000001
 30
0.0
 40
0.99548006
 50
90.057320999999988
 51
113.12703
  0
ARC
  5
7EF
  8
0
  6
CONTINUOUS
 62
     3
 10
-620.99322999999981
 20
106.12881999999991
 30
0.0
 40
1.004235999999999
 50
314.93782999999991
 51
5.6649238999999989
  0
ARC
  5
7F0
  8
0
  6
CONTINUOUS
 62
     3
 10
-509.63373000000001
 20
175.8480999999999
 30
0.0
 40
1.4998400000000001
 50
359.99394000000001
 51
90.006061000000003
  0
ARC
  5
7F1
  8
0
  6
CONTINUOUS
 62
     3
 10
-509.6387899999998
 20
118.8528399999998
 30
0.0
 40
1.5049160999999991
 50
270.18678
 51
359.81322
  0
ARC
  5
7F2
  8
0
  6
CONTINUOUS
 62
     7
 10
-560.63867000000005
 20
169.85272000000001
 30
0.0
 40
5.5071000999999971
 50
264.84087999999991
 51
5.1591262000000002
  0
ARC
  5
7F3
  8
0
  6
CONTINUOUS
 62
     3
 10
-636.99474999999995
 20
180.0952299999999
 30
0.0
 40
0.99277198
 50
89.374808000000016
 51
106.33181999999979
  0
ARC
  5
7F4
  8
0
  6
CONTINUOUS
 62
     3
 10
-638.13762999999994
 20
179.7436999999999
 30
0.0
 40
0.9962600499999998
 50
106.6974899999999
 51
180.33049
  0
ARC
  5
7F5
  8
0
  6
CONTINUOUS
 62
     3
 10
-638.13750999999957
 20
181.52952999999999
 30
0.0
 40
0.99640006
 50
112.8173899999998
 51
180.0903999999999
  0
ARC
  5
7F6
  8
0
  6
CONTINUOUS
 62
     3
 10
-638.13885000000005
 20
172.35286999999991
 30
0.0
 40
0.9950800499999999
 50
89.71592099999998
 51
180.2840699999999
  0
ARC
  5
7F7
  8
0
  6
CONTINUOUS
 62
     3
 10
-638.13373000000001
 20
172.34816000000001
 30
0.0
 40
1.0002040000000001
 50
180.0116699999999
 51
269.9883200000001
  0
ARC
  5
7F8
  8
0
  6
CONTINUOUS
 62
     3
 10
-638.13885000000005
 20
162.35285999999999
 30
0.0
 40
0.99508399
 50
89.716132999999985
 51
180.28387000000001
  0
ARC
  5
7F9
  8
0
  6
CONTINUOUS
 62
     3
 10
-638.13373000000001
 20
162.34814
 30
0.0
 40
1.0001999999999991
 50
180.0114699999998
 51
269.98852999999991
  0
ARC
  5
7FA
  8
0
  6
CONTINUOUS
 62
     3
 10
-638.13885000000005
 20
152.35286999999991
 30
0.0
 40
0.9950879799999999
 50
89.716344999999961
 51
180.28364999999991
  0
ARC
  5
7FB
  8
0
  6
CONTINUOUS
 62
     3
 10
-638.13373000000001
 20
152.34814
 30
0.0
 40
1.0001959999999981
 50
180.01124999999999
 51
269.98874000000001
  0
ARC
  5
7FC
  8
0
  6
CONTINUOUS
 62
     3
 10
-635.1337299999999
 20
150.34809999999979
 30
0.0
 40
0.99984801
 50
359.99121999999988
 51
90.008778999999976
  0
ARC
  5
7FD
  8
0
  6
CONTINUOUS
 62
     3
 10
-635.13878999999963
 20
154.3528399999999
 30
0.0
 40
1.0049238999999981
 50
270.28001
 51
359.71999
  0
ARC
  5
7FE
  8
0
  6
CONTINUOUS
 62
     3
 10
-635.1337299999999
 20
160.34807999999981
 30
0.0
 40
0.9998440099999999
 50
359.99101000000002
 51
90.008991000000023
  0
ARC
  5
7FF
  8
0
  6
CONTINUOUS
 62
     3
 10
-635.13878999999963
 20
164.35285999999991
 30
0.0
 40
1.004928
 50
270.28021999999987
 51
359.71977999999979
  0
ARC
  5
800
  8
0
  6
CONTINUOUS
 62
     3
 10
-635.1337299999999
 20
170.34809999999999
 30
0.0
 40
0.99985206
 50
359.99144999999999
 51
90.008546999999993
  0
ARC
  5
801
  8
0
  6
CONTINUOUS
 62
     3
 10
-635.13878999999963
 20
174.35285999999991
 30
0.0
 40
1.0049318999999981
 50
270.28041999999999
 51
359.71958000000001
  0
ARC
  5
802
  8
0
  6
CONTINUOUS
 62
     3
 10
-635.13220000000001
 20
180.08965000000001
 30
0.0
 40
0.99829602
 50
359.90204
 51
90.097960999999998
  0
ARC
  5
803
  8
0
  6
CONTINUOUS
 62
     3
 10
-635.13629000000003
 20
188.3355699999999
 30
0.0
 40
1.002375999999999
 50
0.13559199
 51
89.864409999999964
  0
ARC
  5
804
  8
0
  6
CONTINUOUS
 62
     3
 10
-634.83843999999999
 20
183.74249
 30
0.0
 40
0.7045519900000004
 50
270.36910999999992
 51
359.63088999999991
  0
ARC
  5
805
  8
0
  6
CONTINUOUS
 62
     3
 10
-635.13287000000003
 20
192.84894
 30
0.0
 40
0.9990080599999998
 50
359.94315
 51
90.056843000000015
  0
ARC
  5
806
  8
0
  6
CONTINUOUS
 62
     3
 10
-634.63225999999975
 20
195.44958
 30
0.0
 40
0.4983640000000002
 50
359.81141000000002
 51
90.188598000000013
  0
ARC
  5
807
  8
0
  6
CONTINUOUS
 62
     3
 10
-634.63849000000016
 20
197.6025699999999
 30
0.0
 40
0.5046359900000002
 50
270.52375999999992
 51
359.47624000000002
  0
ARC
  5
808
  8
0
  6
CONTINUOUS
 62
     3
 10
-486.13369999999981
 20
84.848122000000004
 30
0.0
 40
1.0001799999999981
 50
180.01031
 51
269.98967999999968
  0
ARC
  5
809
  8
0
  6
CONTINUOUS
 62
     3
 10
-494.32922000000002
 20
87.493331999999981
 30
0.0
 40
2.0053917999999991
 50
270.15275000000003
 51
344.81207000000001
  0
ARC
  5
80A
  8
0
  6
CONTINUOUS
 62
     3
 10
-486.13442999999978
 20
96.307411000000016
 30
0.0
 40
0.9994760199999999
 50
179.97008999999991
 51
270.02991999999989
  0
ARC
  5
80B
  8
0
  6
CONTINUOUS
 62
     3
 10
-612.13867000000016
 20
152.34792999999991
 30
0.0
 40
1.0000119000000001
 50
89.726507999999981
 51
270.27347999999989
  0
ARC
  5
80C
  8
0
  6
CONTINUOUS
 62
     3
 10
-627.91284000000019
 20
198.33550999999991
 30
0.0
 40
1.9924479999999991
 50
89.742107999999988
 51
169.8117899999998
  0
ARC
  5
80D
  8
0
  6
CONTINUOUS
 62
     3
 10
-627.96906000000001
 20
203.61864999999989
 30
0.0
 40
1.999288
 50
89.851815000000016
 51
167.89433
  0
ARC
  5
80E
  8
0
  6
CONTINUOUS
 62
     3
 10
-632.34960999999976
 20
199.88818000000001
 30
0.0
 40
1.500248
 50
270.21661999999992
 51
347.67500000000001
  0
ARC
  5
80F
  8
0
  6
CONTINUOUS
 62
     3
 10
-628.00182999999981
 20
207.02343999999991
 30
0.0
 40
1.9945159999999991
 50
89.771334999999979
 51
166.8280399999999
  0
ARC
  5
810
  8
0
  6
CONTINUOUS
 62
     3
 10
-632.32543999999984
 20
203.95171999999999
 30
0.0
 40
1.503776
 50
270.05984000000001
 51
346.39312999999999
  0
ARC
  5
811
  8
0
  6
CONTINUOUS
 62
     3
 10
-632.31262000000004
 20
205.97114999999999
 30
0.0
 40
1.503231999999995
 50
270.33132000000001
 51
346.01802999999978
  0
ARC
  5
812
  8
0
  6
CONTINUOUS
 62
     3
 10
-628.02733999999975
 20
208.65111999999991
 30
0.0
 40
1.996815999999999
 50
89.901436000000004
 51
165.88940999999991
  0
ARC
  5
813
  8
0
  6
CONTINUOUS
 62
     3
 10
-611.13849000000005
 20
207.21258999999981
 30
0.0
 40
1.9953640999999991
 50
89.866758999999988
 51
180.13323
  0
ARC
  5
814
  8
0
  6
CONTINUOUS
 62
     3
 10
-611.1377
 20
209.24176
 30
0.0
 40
1.9961880000000001
 50
89.890486999999965
 51
180.10950999999989
  0
ARC
  5
815
  8
0
  6
CONTINUOUS
 62
     3
 10
-611.14031999999975
 20
210.59441000000001
 30
0.0
 40
1.9935560999999991
 50
89.814515
 51
180.18548999999999
  0
ARC
  5
816
  8
0
  6
CONTINUOUS
 62
     3
 10
-611.13837000000001
 20
211.2692099999999
 30
0.0
 40
1.9987239999999991
 50
89.871137000000004
 51
165.55096
  0
ARC
  5
817
  8
0
  6
CONTINUOUS
 62
     3
 10
-614.64056000000005
 20
201.83463999999989
 30
0.0
 40
1.506699899999999
 50
270.2541599999999
 51
359.74583999999987
  0
ARC
  5
818
  8
0
  6
CONTINUOUS
 62
     3
 10
-614.63671999999997
 20
207.12076999999991
 30
0.0
 40
1.5028360000000001
 50
270.10793999999999
 51
359.89206000000001
  0
ARC
  5
819
  8
0
  6
CONTINUOUS
 62
     3
 10
-614.63873000000001
 20
210.52280999999999
 30
0.0
 40
1.5048719999999991
 50
270.18518
 51
359.81482
  0
ARC
  5
81A
  8
0
  6
CONTINUOUS
 62
     3
 10
-614.52728000000002
 20
212.15095999999991
 30
0.0
 40
1.503015999999995
 50
270.12945000000002
 51
345.23653999999999
  0
ARC
  5
81B
  8
0
  6
CONTINUOUS
 62
     3
 10
-558.13482999999997
 20
209.23701
 30
0.0
 40
2.0009238999999992
 50
0.026462999
 51
89.973535999999982
  0
ARC
  5
81C
  8
0
  6
CONTINUOUS
 62
     3
 10
-558.13220000000001
 20
210.58965000000001
 30
0.0
 40
1.9982919999999991
 50
359.95102999999978
 51
90.048975000000013
  0
ARC
  5
81D
  8
0
  6
CONTINUOUS
 62
     3
 10
-558.13567999999998
 20
211.26612999999981
 30
0.0
 40
2.0018279999999962
 50
0.052301
 51
89.947696999999977
  0
ARC
  5
81E
  8
0
  6
CONTINUOUS
 62
     3
 10
-487.48363999999992
 20
195.20033000000001
 30
0.0
 40
1.502391899999999
 50
195.1400099999999
 51
269.99063999999998
  0
ARC
  5
81F
  8
0
  6
CONTINUOUS
 62
     3
 10
-494.32431000000003
 20
207.20896999999991
 30
0.0
 40
1.998987899999999
 50
15.047801
 51
89.987373000000005
  0
ARC
  5
820
  8
0
  6
CONTINUOUS
 62
     3
 10
-486.13884999999999
 20
209.85289
 30
0.0
 40
0.9950640200000001
 50
89.714938000000004
 51
180.28505999999999
  0
ARC
  5
821
  8
0
  6
CONTINUOUS
 62
     3
 10
-486.13949999999988
 20
198.39355
 30
0.0
 40
0.9944000200000001
 50
89.676490999999999
 51
180.32351
  0
ARC
  5
822
  8
0
  6
CONTINUOUS
 62
     3
 10
-487.42800999999997
 20
199.88840999999991
 30
0.0
 40
1.500475999999999
 50
192.33223000000001
 51
270.15827999999999
  0
ARC
  5
823
  8
0
  6
CONTINUOUS
 62
     3
 10
-492.28644000000003
 20
205.85146999999989
 30
0.0
 40
1.996488
 50
12.040875
 51
89.926440999999969
  0
ARC
  5
824
  8
0
  6
CONTINUOUS
 62
     3
 10
-635.13720999999975
 20
114.6112999999999
 30
0.0
 40
1.003363999999999
 50
270.19171
 51
359.80827999999991
  0
ARC
  5
825
  8
0
  6
CONTINUOUS
 62
     3
 10
-635.13878999999963
 20
124.35285
 30
0.0
 40
1.0049238999999981
 50
270.28003999999999
 51
359.71996999999988
  0
ARC
  5
826
  8
0
  6
CONTINUOUS
 62
     3
 10
-635.1337299999999
 20
120.34811000000001
 30
0.0
 40
0.99984801
 50
359.99119000000002
 51
90.008807000000004
  0
ARC
  5
827
  8
0
  6
CONTINUOUS
 62
     3
 10
-634.83330999999976
 20
110.9585
 30
0.0
 40
0.69944
 50
359.95416
 51
90.045839999999984
  0
ARC
  5
828
  8
0
  6
CONTINUOUS
 62
     3
 10
-636.9309099999997
 20
112.66316999999979
 30
0.0
 40
1.005223999999999
 50
246.98628999999991
 51
269.82935999999989
  0
ARC
  5
829
  8
0
  6
CONTINUOUS
 62
     3
 10
-636.99334999999996
 20
114.61063
 30
0.0
 40
1.0027280000000001
 50
253.75297
 51
270.54039999999992
  0
ARC
  5
82A
  8
0
  6
CONTINUOUS
 62
     3
 10
-638.13750999999957
 20
114.96229
 30
0.0
 40
0.9963800299999999
 50
180.24948999999981
 51
253.29706999999991
  0
ARC
  5
82B
  8
0
  6
CONTINUOUS
 62
     3
 10
-638.13738999999975
 20
113.17641
 30
0.0
 40
0.9964760499999998
 50
179.91257999999991
 51
247.17966000000001
  0
ARC
  5
82C
  8
0
  6
CONTINUOUS
 62
     3
 10
-638.13373000000001
 20
122.3481399999998
 30
0.0
 40
1.0001959999999981
 50
180.01127999999991
 51
269.98872
  0
ARC
  5
82D
  8
0
  6
CONTINUOUS
 62
     3
 10
-638.13885000000005
 20
122.3528799999999
 30
0.0
 40
0.99508399
 50
89.716324
 51
180.28368
  0
ARC
  5
82E
  8
0
  6
CONTINUOUS
 62
     3
 10
-638.13373000000001
 20
132.34816000000001
 30
0.0
 40
1.0001999999999991
 50
180.01150000000001
 51
269.98851000000002
  0
ARC
  5
82F
  8
0
  6
CONTINUOUS
 62
     3
 10
-638.13885000000005
 20
132.35287
 30
0.0
 40
0.99508399
 50
89.716106000000025
 51
180.2838899999999
  0
ARC
  5
830
  8
0
  6
CONTINUOUS
 62
     3
 10
-638.13373000000001
 20
142.34816000000001
 30
0.0
 40
1.0002040000000001
 50
180.01169999999999
 51
269.98829999999992
  0
ARC
  5
831
  8
0
  6
CONTINUOUS
 62
     3
 10
-638.13885000000005
 20
142.35287
 30
0.0
 40
0.9950800499999999
 50
89.715893999999963
 51
180.2841
  0
ARC
  5
832
  8
0
  6
CONTINUOUS
 62
     3
 10
-635.13885000000005
 20
144.35286999999991
 30
0.0
 40
1.0049318999999981
 50
270.28044999999992
 51
359.71955000000008
  0
ARC
  5
833
  8
0
  6
CONTINUOUS
 62
     3
 10
-635.1337299999999
 20
140.34809999999999
 30
0.0
 40
0.99985206
 50
359.99142999999998
 51
90.008574000000024
  0
ARC
  5
834
  8
0
  6
CONTINUOUS
 62
     3
 10
-635.13878999999963
 20
134.35285999999991
 30
0.0
 40
1.004928
 50
270.28023999999988
 51
359.71976000000001
  0
ARC
  5
835
  8
0
  6
CONTINUOUS
 62
     3
 10
-635.1337299999999
 20
130.3480999999999
 30
0.0
 40
0.9998440099999999
 50
359.99097999999992
 51
90.00901800000004
  0
ARC
  5
836
  8
0
  6
CONTINUOUS
 62
     3
 10
-624.97559000000001
 20
188.9407699999999
 30
0.0
 40
5.004112199999998
 50
279.68356999999992
 51
354.57833999999991
  0
ARC
  5
837
  8
0
  6
CONTINUOUS
 62
     3
 10
-624.51312000000019
 20
185.01502999999991
 30
0.0
 40
6.0049156999999971
 50
45.22730700000001
 51
86.379093999999981
  0
ARC
  5
838
  8
0
  6
CONTINUOUS
 62
     3
 10
-620.98992999999996
 20
188.56824
 30
0.0
 40
1.0011080999999991
 50
354.25024999999982
 51
45.146993999999992
  0
ARC
  5
839
  8
0
  6
CONTINUOUS
 62
     3
 10
-492.29144000000002
 20
88.850554999999986
 30
0.0
 40
2.0026237999999981
 50
270.21533999999991
 51
347.81734
  0
ARC
  5
83A
  8
0
  6
CONTINUOUS
 62
     3
 10
-487.42682000000002
 20
94.818625999999995
 30
0.0
 40
1.499328
 50
89.888150999999979
 51
168.09384
  0
ARC
  5
83B
  8
0
  6
CONTINUOUS
 62
     3
 10
-624.50391000000002
 20
109.6951199999999
 30
0.0
 40
6.0085920999999987
 50
273.53095000000002
 51
314.61478
  0
ARC
  5
83C
  8
0
  6
CONTINUOUS
 62
     3
 10
-624.97051999999996
 20
105.7598599999999
 30
0.0
 40
4.9985837999999987
 50
5.3731198999999981
 51
80.364975999999999
  0
ARC
  5
83D
  8
0
  6
CONTINUOUS
 62
     3
 10
-638.13629000000003
 20
99.332611000000014
 30
0.0
 40
0.9976240400000001
 50
180.2675099999999
 51
240.07953999999981
  0
ARC
  5
83E
  8
0
  6
CONTINUOUS
 62
     3
 10
-638.13823999999966
 20
100.3782999999999
 30
0.0
 40
0.99566799
 50
180.02043
 51
243.40982999999991
  0
ARC
  5
83F
  8
0
  6
CONTINUOUS
 62
     3
 10
-636.85320999999999
 20
98.599022000000005
 30
0.0
 40
1.0011358999999991
 50
239.328
 51
269.38751000000002
  0
ARC
  5
840
  8
0
  6
CONTINUOUS
 62
     3
 10
-636.88805999999977
 20
99.747208000000001
 30
0.0
 40
0.99928796
 50
242.86126999999991
 51
269.66618999999992
  0
ARC
  5
841
  8
0
  6
CONTINUOUS
 62
     3
 10
-636.86255000000017
 20
100.7116
 30
0.0
 40
1.003687999999999
 50
239.37027
 51
270.49275
  0
ARC
  5
842
  8
0
  6
CONTINUOUS
 62
     3
 10
-636.87872000000004
 20
101.84857
 30
0.0
 40
1.0006280000000001
 50
241.64985999999999
 51
269.70470999999992
  0
ARC
  5
843
  8
0
  6
CONTINUOUS
 62
     3
 10
-636.84112999999979
 20
105.22845
 30
0.0
 40
1.0005360000000001
 50
237.1464
 51
270.41322000000002
  0
ARC
  5
844
  8
0
  6
CONTINUOUS
 62
     3
 10
-636.87054000000001
 20
106.3689399999999
 30
0.0
 40
1.001012
 50
240.47136
 51
270.3802
  0
ARC
  5
845
  8
0
  6
CONTINUOUS
 62
     3
 10
-638.13482999999985
 20
106.07263
 30
0.0
 40
0.9991000299999999
 50
179.69542000000001
 51
236.66176999999999
  0
ARC
  5
846
  8
0
  6
CONTINUOUS
 62
     3
 10
-638.13616999999999
 20
102.50924000000001
 30
0.0
 40
0.99770796
 50
180.0740499999998
 51
242.04476
  0
ARC
  5
847
  8
0
  6
CONTINUOUS
 62
     3
 10
-638.13513
 20
101.47144
 30
0.0
 40
0.9987800700000001
 50
179.6266699999999
 51
238.70855
  0
ARC
  5
848
  8
0
  6
CONTINUOUS
 62
     3
 10
-635.13634999999965
 20
106.37041000000001
 30
0.0
 40
1.002459999999999
 50
270.14037999999999
 51
359.85962000000001
  0
ARC
  5
849
  8
0
  6
CONTINUOUS
 62
     3
 10
-638.13544000000002
 20
107.10724999999979
 30
0.0
 40
0.9984599899999999
 50
179.95962
 51
239.38655
  0
ARC
  5
84A
  8
0
  6
CONTINUOUS
 62
     3
 10
-635.13793999999984
 20
101.85203
 30
0.0
 40
1.0040839999999991
 50
270.23262999999992
 51
359.76737000000008
  0
ARC
  5
84B
  8
0
  6
CONTINUOUS
 62
     3
 10
-634.63733000000002
 20
99.251335000000012
 30
0.0
 40
0.50340396
 50
270.38612999999992
 51
359.61387000000002
  0
ARC
  5
84C
  8
0
  6
CONTINUOUS
 62
     3
 10
-634.63347999999996
 20
97.098381000000003
 30
0.0
 40
0.49955601
 50
359.94911000000002
 51
90.050894000000014
  0
ARC
  5
84D
  8
0
  6
CONTINUOUS
 62
     3
 10
-627.90784000000019
 20
96.366371000000015
 30
0.0
 40
1.998443999999999
 50
190.33239999999989
 51
270.11368999999979
  0
ARC
  5
84E
  8
0
  6
CONTINUOUS
 62
     3
 10
-627.96899000000008
 20
91.087326000000004
 30
0.0
 40
1.9993919999999981
 50
192.1080399999999
 51
270.14582000000001
  0
ARC
  5
84F
  8
0
  6
CONTINUOUS
 62
     3
 10
-632.35077000000001
 20
94.818854999999999
 30
0.0
 40
1.4991000000000001
 50
11.89856
 51
89.736657999999963
  0
ARC
  5
850
  8
0
  6
CONTINUOUS
 62
     3
 10
-627.99689000000001
 20
87.678702999999999
 30
0.0
 40
2.0007559999999991
 50
193.3141599999999
 51
270.08645000000001
  0
ARC
  5
851
  8
0
  6
CONTINUOUS
 62
     3
 10
-632.32050000000004
 20
90.750434999999996
 30
0.0
 40
1.497512
 50
13.418233000000001
 51
90.128792999999988
  0
ARC
  5
852
  8
0
  6
CONTINUOUS
 62
     3
 10
-632.30609000000004
 20
88.729819999999961
 30
0.0
 40
1.4981281
 50
14.224575
 51
89.916113999999979
  0
ARC
  5
853
  8
0
  6
CONTINUOUS
 62
     3
 10
-628.02239999999995
 20
86.051079000000001
 30
0.0
 40
2.0031319000000001
 50
194.25158999999999
 51
269.95755000000003
  0
ARC
  5
854
  8
0
  6
CONTINUOUS
 62
     3
 10
-611.13341999999989
 20
87.488387999999986
 30
0.0
 40
2.0004520000000001
 50
180.0129
 51
269.98709999999988
  0
ARC
  5
855
  8
0
  6
CONTINUOUS
 62
     3
 10
-611.13256999999999
 20
85.459259000000003
 30
0.0
 40
2.0013119999999991
 50
180.03756000000001
 51
269.96244000000002
  0
ARC
  5
856
  8
0
  6
CONTINUOUS
 62
     3
 10
-611.13525000000004
 20
84.106566999999998
 30
0.0
 40
1.9986198999999949
 50
179.9604699999999
 51
270.03952999999967
  0
ARC
  5
857
  8
0
  6
CONTINUOUS
 62
     3
 10
-611.13995
 20
83.438004000000006
 30
0.0
 40
2.000076099999998
 50
194.77497999999991
 51
270.17352999999991
  0
ARC
  5
858
  8
0
  6
CONTINUOUS
 62
     3
 10
-614.63543999999979
 20
92.866378999999995
 30
0.0
 40
1.501567999999998
 50
0.059805003
 51
89.940196999999998
  0
ARC
  5
859
  8
0
  6
CONTINUOUS
 62
     3
 10
-614.63660000000004
 20
87.585227999999987
 30
0.0
 40
1.502715899999999
 50
0.103436
 51
89.896566000000007
  0
ARC
  5
85A
  8
0
  6
CONTINUOUS
 62
     3
 10
-614.63360999999998
 20
84.178184999999999
 30
0.0
 40
1.499755999999999
 50
359.99058999999983
 51
90.009407999999965
  0
ARC
  5
85B
  8
0
  6
CONTINUOUS
 62
     3
 10
-614.52233999999987
 20
82.551292000000004
 30
0.0
 40
1.4966440000000001
 50
14.57574
 51
90.058278000000001
  0
ARC
  5
85C
  8
0
  6
CONTINUOUS
 62
     3
 10
-558.13989000000004
 20
85.463973999999979
 30
0.0
 40
2.0060479999999981
 50
270.17248999999998
 51
359.82751000000002
  0
ARC
  5
85D
  8
0
  6
CONTINUOUS
 62
     3
 10
-558.13727000000006
 20
84.111305000000002
 30
0.0
 40
2.0033560000000001
 50
270.09593999999998
 51
359.90406000000002
  0
ARC
  5
85E
  8
0
  6
CONTINUOUS
 62
     3
 10
-558.13580000000002
 20
83.439835000000002
 30
0.0
 40
2.0019
 50
270.05437999999992
 51
359.94562000000002
  0
ARC
  5
85F
  8
0
  6
CONTINUOUS
 62
     3
 10
-487.4885299999998
 20
99.501960999999994
 30
0.0
 40
1.495995999999999
 50
89.821707000000004
 51
165.04766000000001
  0
ARC
  5
860
  8
0
  6
CONTINUOUS
 62
     3
 10
-612.13867000000016
 20
162.34795
 30
0.0
 40
1.0000119000000001
 50
89.726507999999981
 51
270.27347999999989
  0
ARC
  5
861
  8
0
  6
CONTINUOUS
 62
     3
 10
-612.13867000000016
 20
172.34795
 30
0.0
 40
1.0000119000000001
 50
89.726507999999981
 51
270.27347999999989
  0
ARC
  5
862
  8
0
  6
CONTINUOUS
 62
     3
 10
-612.13867000000016
 20
182.34792999999991
 30
0.0
 40
1.0000119000000001
 50
89.726507999999981
 51
270.27347999999989
  0
ARC
  5
863
  8
0
  6
CONTINUOUS
 62
     3
 10
-629.86968999999999
 20
152.35294999999991
 30
0.0
 40
1.265012
 50
89.737716000000006
 51
270.26227999999992
  0
ARC
  5
864
  8
0
  6
CONTINUOUS
 62
     3
 10
-629.80389000000002
 20
162.35793999999979
 30
0.0
 40
1.3300080000000001
 50
90.000003000000007
 51
270.0
  0
ARC
  5
865
  8
0
  6
CONTINUOUS
 62
     3
 10
-620.67389000000003
 20
172.37294
 30
0.0
 40
1.465004
 50
90.000003000000007
 51
270.0
  0
ARC
  5
866
  8
0
  6
CONTINUOUS
 62
     3
 10
-620.46074999999985
 20
182.39292999999981
 30
0.0
 40
1.6750160000000001
 50
89.766540000000006
 51
270.23345999999992
  0
ARC
  5
867
  8
0
  6
CONTINUOUS
 62
     3
 10
-628.58385999999985
 20
152.34792999999991
 30
0.0
 40
1.0
 50
90.000003000000007
 51
270.0
  0
ARC
  5
868
  8
0
  6
CONTINUOUS
 62
     3
 10
-628.58385999999985
 20
162.34795
 30
0.0
 40
1.0
 50
90.000003000000007
 51
270.0
  0
ARC
  5
869
  8
0
  6
CONTINUOUS
 62
     3
 10
-619.58861999999999
 20
182.34792999999991
 30
0.0
 40
1.0000119000000001
 50
89.728448
 51
270.27154000000002
  0
ARC
  5
86A
  8
0
  6
CONTINUOUS
 62
     3
 10
-619.58861999999999
 20
172.34795
 30
0.0
 40
1.0000119000000001
 50
89.728448
 51
270.27154000000002
  0
ARC
  5
86B
  8
0
  6
CONTINUOUS
 62
     3
 10
-506.83737000000002
 20
179.72145
 30
0.0
 40
0.996512
 50
89.798963000000015
 51
180.20103
  0
ARC
  5
86C
  8
0
  6
CONTINUOUS
 62
     3
 10
-506.83267000000001
 20
178.6186999999999
 30
0.0
 40
1.001239999999999
 50
180.04312999999991
 51
268.21195999999992
  0
ARC
  5
86D
  8
0
  6
CONTINUOUS
 62
     3
 10
-506.83774000000011
 20
116.0821199999999
 30
0.0
 40
0.99615997
 50
91.504365000000007
 51
180.24055000000001
  0
ARC
  5
86E
  8
0
  6
CONTINUOUS
 62
     3
 10
-506.83230999999989
 20
114.9795499999999
 30
0.0
 40
1.001595999999999
 50
180.09126000000001
 51
269.90875
  0
ARC
  5
86F
  8
0
  6
CONTINUOUS
 62
     3
 10
-490.31389999999999
 20
182.39292999999981
 30
0.0
 40
1.6750041
 50
270.0
 51
90.000003000000007
  0
ARC
  5
870
  8
0
  6
CONTINUOUS
 62
     3
 10
-493.79390999999998
 20
182.34792999999991
 30
0.0
 40
1.0
 50
270.0
 51
90.000003000000007
  0
ARC
  5
871
  8
0
  6
CONTINUOUS
 62
     3
 10
-493.79390999999998
 20
112.3479499999999
 30
0.0
 40
1.0
 50
270.0
 51
90.000003000000007
  0
ARC
  5
872
  8
0
  6
CONTINUOUS
 62
     3
 10
-490.31389999999999
 20
112.30296
 30
0.0
 40
1.6750041
 50
270.0
 51
90.000003000000007
  0
ARC
  5
873
  8
0
  6
CONTINUOUS
 62
     3
 10
-628.58385999999985
 20
142.34796
 30
0.0
 40
1.0
 50
90.000003000000007
 51
270.0
  0
ARC
  5
874
  8
0
  6
CONTINUOUS
 62
     3
 10
-612.13867000000016
 20
132.34794999999991
 30
0.0
 40
1.0000119000000001
 50
89.726507999999981
 51
270.27347999999989
  0
ARC
  5
875
  8
0
  6
CONTINUOUS
 62
     3
 10
-612.13867000000016
 20
122.3479399999998
 30
0.0
 40
1.0000119000000001
 50
89.726507999999981
 51
270.27347999999989
  0
ARC
  5
876
  8
0
  6
CONTINUOUS
 62
     3
 10
-629.80389000000002
 20
132.33795000000001
 30
0.0
 40
1.3300080000000001
 50
90.000003000000007
 51
270.0
  0
ARC
  5
877
  8
0
  6
CONTINUOUS
 62
     3
 10
-629.67389000000003
 20
122.3229399999999
 30
0.0
 40
1.465004
 50
90.000003000000007
 51
270.0
  0
ARC
  5
878
  8
0
  6
CONTINUOUS
 62
     3
 10
-628.58861999999999
 20
112.3479499999999
 30
0.0
 40
1.0000119000000001
 50
89.728461999999965
 51
270.27154000000002
  0
ARC
  5
879
  8
0
  6
CONTINUOUS
 62
     3
 10
-612.13867000000016
 20
142.34796
 30
0.0
 40
1.0000119000000001
 50
89.726507999999981
 51
270.27347999999989
  0
ARC
  5
87A
  8
0
  6
CONTINUOUS
 62
     3
 10
-612.13867000000016
 20
112.3479499999999
 30
0.0
 40
1.0000119000000001
 50
89.726507999999981
 51
270.27347999999989
  0
ARC
  5
87B
  8
0
  6
CONTINUOUS
 62
     3
 10
-629.86968999999999
 20
142.34796
 30
0.0
 40
1.270011999999999
 50
89.738748000000001
 51
270.26123999999999
  0
ARC
  5
87C
  8
0
  6
CONTINUOUS
 62
     3
 10
-629.46074999999985
 20
112.30296
 30
0.0
 40
1.6750160000000001
 50
89.764983000000015
 51
270.23500999999987
  0
ARC
  5
87D
  8
0
  6
CONTINUOUS
 62
     3
 10
-628.58385999999985
 20
132.34794999999991
 30
0.0
 40
1.0
 50
90.000003000000007
 51
270.0
  0
ARC
  5
87E
  8
0
  6
CONTINUOUS
 62
     3
 10
-628.58861999999999
 20
122.3479399999998
 30
0.0
 40
1.0000119000000001
 50
89.728461999999965
 51
270.27154000000002
  0
ARC
  5
87F
  8
0
  6
CONTINUOUS
 62
     7
 10
-211.53189
 20
185.59795
 30
0.0
 40
16.0
 50
118.1761399999998
 51
175.8435099999999
  0
ARC
  5
880
  8
0
  6
CONTINUOUS
 62
     7
 10
-79.03001399999998
 20
185.59795
 30
0.0
 40
16.0
 50
4.1564915999999981
 51
61.823859999999989
  0
ARC
  5
881
  8
0
  6
CONTINUOUS
 62
     7
 10
-447.63384999999988
 20
336.26602000000008
 30
0.0
 40
5.0
 50
180.00001
 51
268.0
  0
ARC
  5
882
  8
0
  6
CONTINUOUS
 62
     7
 10
-447.63384999999988
 20
489.92374000000001
 30
0.0
 40
5.0
 50
91.999998000000005
 51
180.00001
  0
ARC
  5
883
  8
0
  6
CONTINUOUS
 62
     7
 10
-455.63384999999988
 20
345.7724
 30
0.0
 40
3.0
 50
0.0
 51
88.0
  0
ARC
  5
884
  8
0
  6
CONTINUOUS
 62
     7
 10
-455.63384999999988
 20
480.41735999999992
 30
0.0
 40
3.0
 50
272.0
 51
0.0
  0
ARC
  5
885
  8
0
  6
CONTINUOUS
 62
     3
 10
-574.40674000000001
 20
329.09487999999982
 30
0.0
 40
4.0
 50
179.99997999999991
 51
0.000010017912
  0
ARC
  5
886
  8
0
  6
CONTINUOUS
 62
     3
 10
-574.40674000000001
 20
329.09487999999982
 30
0.0
 40
7.5
 50
179.99997999999991
 51
0.000010017913
  0
ARC
  5
887
  8
0
  6
CONTINUOUS
 62
     7
 10
-634.63342
 20
362.84537
 30
0.0
 40
0.49952301
 50
359.94522999999992
 51
90.054773999999981
  0
ARC
  5
888
  8
0
  6
CONTINUOUS
 62
     7
 10
-634.63720999999987
 20
364.99831999999992
 30
0.0
 40
0.5033929900000002
 50
270.38490999999982
 51
359.61509999999993
  0
ARC
  5
889
  8
0
  6
CONTINUOUS
 62
     7
 10
-635.13793999999984
 20
367.59902999999991
 30
0.0
 40
1.004119999999999
 50
270.23460999999992
 51
359.76538999999991
  0
ARC
  5
88A
  8
0
  6
CONTINUOUS
 62
     7
 10
-635.13634999999965
 20
372.11734000000001
 30
0.0
 40
1.002470999999999
 50
270.14107000000001
 51
359.85892999999987
  0
ARC
  5
88B
  8
0
  6
CONTINUOUS
 62
     7
 10
-638.13513
 20
367.21840999999989
 30
0.0
 40
0.9987969999999998
 50
179.62728000000001
 51
238.70795000000001
  0
ARC
  5
88C
  8
0
  6
CONTINUOUS
 62
     7
 10
-638.1361099999998
 20
368.25612999999993
 30
0.0
 40
0.9977070099999998
 50
180.0740199999999
 51
242.04481000000001
  0
ARC
  5
88D
  8
0
  6
CONTINUOUS
 62
     7
 10
-638.13477
 20
371.81961000000001
 30
0.0
 40
0.9990889999999998
 50
179.69508999999991
 51
236.66209000000001
  0
ARC
  5
88E
  8
0
  6
CONTINUOUS
 62
     7
 10
-638.13538000000017
 20
372.85415999999992
 30
0.0
 40
0.9984580299999999
 50
179.9595799999999
 51
239.38657000000001
  0
ARC
  5
88F
  8
0
  6
CONTINUOUS
 62
     7
 10
-636.8704799999997
 20
372.11587999999989
 30
0.0
 40
1.0010449999999991
 50
240.47187
 51
270.37970999999999
  0
ARC
  5
890
  8
0
  6
CONTINUOUS
 62
     7
 10
-636.84105999999986
 20
370.97537
 30
0.0
 40
1.000521999999999
 50
237.14617999999999
 51
270.41343999999998
  0
ARC
  5
891
  8
0
  6
CONTINUOUS
 62
     7
 10
-636.87865999999985
 20
367.59548999999993
 30
0.0
 40
1.0006820000000001
 50
241.65062
 51
269.7039299999999
  0
ARC
  5
892
  8
0
  6
CONTINUOUS
 62
     7
 10
-636.86243000000002
 20
366.45853
 30
0.0
 40
1.0037439999999991
 50
239.37112999999999
 51
270.49189999999987
  0
ARC
  5
893
  8
0
  6
CONTINUOUS
 62
     7
 10
-636.88805999999977
 20
365.49417
 30
0.0
 40
0.9993420200000001
 50
242.86199999999999
 51
269.66546
  0
ARC
  5
894
  8
0
  6
CONTINUOUS
 62
     7
 10
-636.85315000000003
 20
364.34598
 30
0.0
 40
1.001123999999999
 50
239.32782000000009
 51
269.38767999999988
  0
ARC
  5
895
  8
0
  6
CONTINUOUS
 62
     7
 10
-638.13818000000003
 20
366.12526999999989
 30
0.0
 40
0.9956849800000001
 50
180.02112999999991
 51
243.40913999999981
  0
ARC
  5
896
  8
0
  6
CONTINUOUS
 62
     7
 10
-638.13622999999995
 20
365.0795
 30
0.0
 40
0.9976310099999999
 50
180.26780999999991
 51
240.07924
  0
ARC
  5
897
  8
0
  6
CONTINUOUS
 62
     7
 10
-638.13538000000017
 20
372.85415999999992
 30
0.0
 40
0.9984580299999999
 50
179.9595799999999
 51
239.38657000000001
  0
ARC
  5
898
  8
0
  6
CONTINUOUS
 62
     7
 10
-635.13707999999986
 20
372.12160999999992
 30
0.0
 40
1.0032760000000001
 50
334.19810000000001
 51
359.61810999999977
  0
ARC
  5
899
  8
0
  6
CONTINUOUS
 62
     7
 10
-635.13367000000005
 20
396.09500000000003
 30
0.0
 40
0.9998210099999999
 50
359.98971999999998
 51
90.010281999999961
  0
ARC
  5
89A
  8
0
  6
CONTINUOUS
 62
     7
 10
-635.13878999999963
 20
400.09975999999989
 30
0.0
 40
1.004939
 50
270.28093999999999
 51
359.71906999999999
  0
ARC
  5
89B
  8
0
  6
CONTINUOUS
 62
     7
 10
-635.13367000000005
 20
406.09500000000003
 30
0.0
 40
0.9998279799999998
 50
359.99015999999978
 51
90.009838000000002
  0
ARC
  5
89C
  8
0
  6
CONTINUOUS
 62
     7
 10
-635.13878999999963
 20
410.09976
 30
0.0
 40
1.004942999999999
 50
270.28113999999988
 51
359.71886999999992
  0
ARC
  5
89D
  8
0
  6
CONTINUOUS
 62
     7
 10
-638.13878999999997
 20
408.09975999999989
 30
0.0
 40
0.9950770099999999
 50
89.715860000000006
 51
180.28413999999989
  0
ARC
  5
89E
  8
0
  6
CONTINUOUS
 62
     7
 10
-638.13367000000017
 20
408.09512000000001
 30
0.0
 40
1.0002040000000001
 50
180.01166000000001
 51
269.9883200000001
  0
ARC
  5
89F
  8
0
  6
CONTINUOUS
 62
     7
 10
-638.13878999999997
 20
398.09976
 30
0.0
 40
0.9950810099999999
 50
89.716071999999997
 51
180.28391999999999
  0
ARC
  5
8A0
  8
0
  6
CONTINUOUS
 62
     7
 10
-638.13367000000017
 20
398.09512000000001
 30
0.0
 40
1.0001999999999991
 50
180.01146
 51
269.98853999999972
  0
ARC
  5
8A1
  8
0
  6
CONTINUOUS
 62
     7
 10
-638.13878999999997
 20
388.09976
 30
0.0
 40
0.9950849999999999
 50
89.716282999999976
 51
180.2837199999999
  0
ARC
  5
8A2
  8
0
  6
CONTINUOUS
 62
     7
 10
-638.13367000000017
 20
388.09512000000001
 30
0.0
 40
1.0001959999999981
 50
180.01124999999999
 51
269.98874999999992
  0
ARC
  5
8A3
  8
0
  6
CONTINUOUS
 62
     7
 10
-638.13732999999979
 20
378.92336999999998
 30
0.0
 40
0.9965090199999998
 50
179.91374999999999
 51
247.17845
  0
ARC
  5
8A4
  8
0
  6
CONTINUOUS
 62
     7
 10
-638.13744999999994
 20
380.70925999999992
 30
0.0
 40
0.99638802
 50
180.24991
 51
253.29664
  0
ARC
  5
8A5
  8
0
  6
CONTINUOUS
 62
     7
 10
-636.99329
 20
380.35757000000001
 30
0.0
 40
1.002699
 50
253.7527199999999
 51
270.54064
  0
ARC
  5
8A6
  8
0
  6
CONTINUOUS
 62
     7
 10
-636.9309099999997
 20
378.41005999999987
 30
0.0
 40
1.005233
 50
246.98638999999989
 51
269.82924999999989
  0
ARC
  5
8A7
  8
0
  6
CONTINUOUS
 62
     7
 10
-634.83325000000002
 20
376.70546999999999
 30
0.0
 40
0.6994530000000001
 50
359.95517000000001
 51
90.044829000000021
  0
ARC
  5
8A8
  8
0
  6
CONTINUOUS
 62
     7
 10
-635.13367000000005
 20
386.09500000000003
 30
0.0
 40
0.9998239899999999
 50
359.98991999999993
 51
90.010076999999981
  0
ARC
  5
8A9
  8
0
  6
CONTINUOUS
 62
     7
 10
-635.13878999999963
 20
390.09976
 30
0.0
 40
1.0049469
 50
270.28136999999992
 51
359.71863000000002
  0
ARC
  5
8AA
  8
0
  6
CONTINUOUS
 62
     7
 10
-635.13720999999975
 20
380.35817999999989
 30
0.0
 40
1.003352
 50
270.19110999999992
 51
359.80889999999982
  0
ARC
  5
8AB
  8
0
  6
CONTINUOUS
 62
     7
 10
-634.63842999999963
 20
463.34951999999993
 30
0.0
 40
0.50463498
 50
270.52382999999992
 51
359.47617000000002
  0
ARC
  5
8AC
  8
0
  6
CONTINUOUS
 62
     7
 10
-634.63220000000001
 20
461.19655999999992
 30
0.0
 40
0.4983060100000002
 50
359.80489
 51
90.195107000000007
  0
ARC
  5
8AD
  8
0
  6
CONTINUOUS
 62
     7
 10
-635.13280999999995
 20
458.59585999999962
 30
0.0
 40
0.9990100299999999
 50
359.94319000000002
 51
90.056808999999959
  0
ARC
  5
8AE
  8
0
  6
CONTINUOUS
 62
     7
 10
-634.83838000000003
 20
449.48940999999979
 30
0.0
 40
0.704566
 50
270.37009999999992
 51
359.62990999999982
  0
ARC
  5
8AF
  8
0
  6
CONTINUOUS
 62
     7
 10
-635.13622999999995
 20
454.08255000000003
 30
0.0
 40
1.002353
 50
0.13432682
 51
89.865673000000001
  0
ARC
  5
8B0
  8
0
  6
CONTINUOUS
 62
     7
 10
-635.13207999999975
 20
445.83658000000003
 30
0.0
 40
0.9982839799999999
 50
359.90141999999992
 51
90.098575999999994
  0
ARC
  5
8B1
  8
0
  6
CONTINUOUS
 62
     7
 10
-635.13878999999963
 20
440.09975999999989
 30
0.0
 40
1.004942999999999
 50
270.28111000000001
 51
359.71888999999987
  0
ARC
  5
8B2
  8
0
  6
CONTINUOUS
 62
     7
 10
-635.13367000000005
 20
436.09500000000003
 30
0.0
 40
0.9998289899999999
 50
359.99018999999993
 51
90.009810999999985
  0
ARC
  5
8B3
  8
0
  6
CONTINUOUS
 62
     7
 10
-635.13878999999963
 20
430.09975999999989
 30
0.0
 40
1.004939
 50
270.28091000000001
 51
359.71910000000008
  0
ARC
  5
8B4
  8
0
  6
CONTINUOUS
 62
     7
 10
-635.13367000000005
 20
426.09500000000003
 30
0.0
 40
0.9998210099999999
 50
359.98975000000002
 51
90.010255000000001
  0
ARC
  5
8B5
  8
0
  6
CONTINUOUS
 62
     7
 10
-635.13878999999963
 20
420.09975999999989
 30
0.0
 40
1.0049469
 50
270.28134999999992
 51
359.71866
  0
ARC
  5
8B6
  8
0
  6
CONTINUOUS
 62
     7
 10
-635.13367000000005
 20
416.09500000000003
 30
0.0
 40
0.9998249999999999
 50
359.98995000000002
 51
90.010050000000007
  0
ARC
  5
8B7
  8
0
  6
CONTINUOUS
 62
     7
 10
-638.13367000000017
 20
418.09511999999989
 30
0.0
 40
1.0001959999999981
 50
180.01122000000001
 51
269.98877999999991
  0
ARC
  5
8B8
  8
0
  6
CONTINUOUS
 62
     7
 10
-638.13878999999997
 20
418.09976
 30
0.0
 40
0.9950849999999999
 50
89.716311000000005
 51
180.28368999999981
  0
ARC
  5
8B9
  8
0
  6
CONTINUOUS
 62
     7
 10
-638.13367000000017
 20
428.09512000000001
 30
0.0
 40
1.0001999999999991
 50
180.0114299999999
 51
269.98856999999992
  0
ARC
  5
8BA
  8
0
  6
CONTINUOUS
 62
     7
 10
-638.13878999999997
 20
428.09975999999989
 30
0.0
 40
0.99508202
 50
89.716099
 51
180.28390999999991
  0
ARC
  5
8BB
  8
0
  6
CONTINUOUS
 62
     7
 10
-638.13367000000017
 20
438.09512000000001
 30
0.0
 40
1.000203
 50
180.01165
 51
269.98835000000003
  0
ARC
  5
8BC
  8
0
  6
CONTINUOUS
 62
     7
 10
-638.13878999999997
 20
438.09975999999989
 30
0.0
 40
0.99507803
 50
89.715886999999981
 51
180.28411
  0
ARC
  5
8BD
  8
0
  6
CONTINUOUS
 62
     7
 10
-638.13744999999994
 20
447.27640000000002
 30
0.0
 40
0.9963999999999998
 50
112.81735999999979
 51
180.09041999999991
  0
ARC
  5
8BE
  8
0
  6
CONTINUOUS
 62
     7
 10
-638.13756999999976
 20
445.49062999999961
 30
0.0
 40
0.9962710099999999
 50
106.69792
 51
180.3300499999998
  0
ARC
  5
8BF
  8
0
  6
CONTINUOUS
 62
     7
 10
-636.99474999999995
 20
445.84219000000002
 30
0.0
 40
0.9927430199999999
 50
89.374555000000001
 51
106.33207
  0
ARC
  5
8C0
  8
0
  6
CONTINUOUS
 62
     7
 10
-636.93286000000001
 20
447.78945999999991
 30
0.0
 40
0.9954450099999999
 50
90.056905000000043
 51
113.1274499999999
  0
ARC
  5
8C1
  8
0
  6
CONTINUOUS
 62
     7
 10
-638.13940000000002
 20
458.97390999999999
 30
0.0
 40
0.9944329899999999
 50
121.15213
 51
179.9405099999999
  0
ARC
  5
8C2
  8
0
  6
CONTINUOUS
 62
     7
 10
-638.14062999999999
 20
457.93630999999988
 30
0.0
 40
0.9932109699999999
 50
117.7993199999999
 51
180.08187000000001
  0
ARC
  5
8C3
  8
0
  6
CONTINUOUS
 62
     7
 10
-638.13904000000002
 20
454.37247000000002
 30
0.0
 40
0.9948369899999999
 50
123.20496
 51
180.4378599999998
  0
ARC
  5
8C4
  8
0
  6
CONTINUOUS
 62
     7
 10
-638.13976999999988
 20
453.33803999999992
 30
0.0
 40
0.99404597
 50
120.4682
 51
180.18563999999989
  0
ARC
  5
8C5
  8
0
  6
CONTINUOUS
 62
     7
 10
-636.85449000000006
 20
454.0884099999995
 30
0.0
 40
0.99648702
 50
90.540720999999976
 51
120.74377
  0
ARC
  5
8C6
  8
0
  6
CONTINUOUS
 62
     7
 10
-636.82727
 20
455.22867000000002
 30
0.0
 40
0.99617702
 50
90.381317999999979
 51
123.9704899999999
  0
ARC
  5
8C7
  8
0
  6
CONTINUOUS
 62
     7
 10
-636.89880000000005
 20
458.59951999999998
 30
0.0
 40
0.99545902
 50
89.141291000000024
 51
117.20381999999999
  0
ARC
  5
8C8
  8
0
  6
CONTINUOUS
 62
     7
 10
-636.86499000000003
 20
459.7406299999995
 30
0.0
 40
0.99427301
 50
89.356065999999984
 51
120.78091000000001
  0
ARC
  5
8C9
  8
0
  6
CONTINUOUS
 62
     7
 10
-636.90905999999995
 20
460.70084000000003
 30
0.0
 40
0.99411702
 50
89.122643999999966
 51
115.93498
  0
ARC
  5
8CA
  8
0
  6
CONTINUOUS
 62
     7
 10
-636.87182999999982
 20
461.84902999999991
 30
0.0
 40
0.9959030199999999
 50
89.541267000000005
 51
119.60717
  0
ARC
  5
8CB
  8
0
  6
CONTINUOUS
 62
     7
 10
-638.13830999999982
 20
460.07461999999992
 30
0.0
 40
0.995579
 50
116.5870899999999
 51
179.98264
  0
ARC
  5
8CC
  8
0
  6
CONTINUOUS
 62
     7
 10
-638.14062999999999
 20
461.11282
 30
0.0
 40
0.99319202
 50
119.77338
 51
179.87958999999981
  0
ARC
  5
8CD
  8
0
  6
CONTINUOUS
 62
     7
 10
-620.99304000000006
 20
371.88454999999999
 30
0.0
 40
1.0032491999999991
 50
314.98118999999991
 51
5.1676434000000002
  0
ARC
  5
8CE
  8
0
  6
CONTINUOUS
 62
     7
 10
-486.13403
 20
475.59512000000001
 30
0.0
 40
0.99980682
 50
89.98893099999998
 51
180.0110699999999
  0
ARC
  5
8CF
  8
0
  6
CONTINUOUS
 62
     7
 10
-494.33258000000001
 20
353.24112000000002
 30
0.0
 40
2.0062942999999991
 50
270.24932999999987
 51
345.08843999999999
  0
ARC
  5
8D0
  8
0
  6
CONTINUOUS
 62
     7
 10
-486.13477
 20
464.13576999999992
 30
0.0
 40
0.9990923399999999
 50
89.947921999999977
 51
180.0520799999999
  0
ARC
  5
8D1
  8
0
  6
CONTINUOUS
 62
     7
 10
-612.14110999999946
 20
418.09487999999999
 30
0.0
 40
1.0000259
 50
89.587533999999977
 51
270.41246000000001
  0
ARC
  5
8D2
  8
0
  6
CONTINUOUS
 62
     7
 10
-620.17443999999989
 20
464.08963
 30
0.0
 40
1.9952742999999991
 50
90.148580000000024
 51
170.0352199999999
  0
ARC
  5
8D3
  8
0
  6
CONTINUOUS
 62
     7
 10
-620.23657000000003
 20
469.36783000000003
 30
0.0
 40
1.997119399999999
 50
89.801366999999999
 51
167.94476
  0
ARC
  5
8D4
  8
0
  6
CONTINUOUS
 62
     7
 10
-624.61707000000001
 20
465.63724000000002
 30
0.0
 40
1.502416299999999
 50
269.9013799999999
 51
347.60813000000002
  0
ARC
  5
8D5
  8
0
  6
CONTINUOUS
 62
     7
 10
-628.00354000000004
 20
472.77260999999987
 30
0.0
 40
1.9922863
 50
90.007720999999947
 51
166.87839
  0
ARC
  5
8D6
  8
0
  6
CONTINUOUS
 62
     7
 10
-632.3286099999998
 20
469.69973999999979
 30
0.0
 40
1.5048382
 50
270.18263999999982
 51
346.7530799999999
  0
ARC
  5
8D7
  8
0
  6
CONTINUOUS
 62
     7
 10
-632.31432999999981
 20
471.72024999999991
 30
0.0
 40
1.505448699999999
 50
270.39686999999992
 51
345.95247000000001
  0
ARC
  5
8D8
  8
0
  6
CONTINUOUS
 62
     7
 10
-628.02904999999976
 20
474.40030000000002
 30
0.0
 40
1.994612099999999
 50
89.851992000000024
 51
165.93885999999981
  0
ARC
  5
8D9
  8
0
  6
CONTINUOUS
 62
     7
 10
-611.14049999999975
 20
472.96157999999991
 30
0.0
 40
1.9933081999999991
 50
89.807322999999968
 51
180.19266999999991
  0
ARC
  5
8DA
  8
0
  6
CONTINUOUS
 62
     7
 10
-611.13977
 20
474.99074999999988
 30
0.0
 40
1.9941304999999949
 50
89.831106000000005
 51
180.16889
  0
ARC
  5
8DB
  8
0
  6
CONTINUOUS
 62
     7
 10
-611.13733000000002
 20
476.34841999999992
 30
0.0
 40
1.996488899999999
 50
89.899147999999997
 51
180.10085000000001
  0
ARC
  5
8DC
  8
0
  6
CONTINUOUS
 62
     7
 10
-611.14013999999997
 20
477.01834000000002
 30
0.0
 40
1.9964978999999961
 50
89.821482000000003
 51
165.6006099999999
  0
ARC
  5
8DD
  8
0
  6
CONTINUOUS
 62
     7
 10
-614.63756999999998
 20
467.5886499999998
 30
0.0
 40
1.5037541000000001
 50
270.14287000000002
 51
359.85714000000002
  0
ARC
  5
8DE
  8
0
  6
CONTINUOUS
 62
     7
 10
-614.63878999999963
 20
472.86977999999988
 30
0.0
 40
1.5048912999999959
 50
270.18592999999998
 51
359.81407000000002
  0
ARC
  5
8DF
  8
0
  6
CONTINUOUS
 62
     7
 10
-614.64075000000003
 20
476.27175999999997
 30
0.0
 40
1.506942899999999
 50
270.26337000000001
 51
359.73662999999999
  0
ARC
  5
8E0
  8
0
  6
CONTINUOUS
 62
     7
 10
-614.52892999999995
 20
477.90005000000002
 30
0.0
 40
1.505230099999999
 50
270.19421
 51
345.17177999999979
  0
ARC
  5
8E1
  8
0
  6
CONTINUOUS
 62
     7
 10
-487.4837
 20
460.94717000000003
 30
0.0
 40
1.5022733999999991
 50
195.1365099999999
 51
269.99412000000001
  0
ARC
  5
8E2
  8
0
  6
CONTINUOUS
 62
     7
 10
-494.32439999999991
 20
472.95571999999999
 30
0.0
 40
1.9991226
 50
15.050791
 51
89.984388999999979
  0
ARC
  5
8E3
  8
0
  6
CONTINUOUS
 62
     7
 10
-486.14084000000003
 20
350.58791999999983
 30
0.0
 40
0.99304521
 50
179.59730999999991
 51
270.40267999999992
  0
ARC
  5
8E4
  8
0
  6
CONTINUOUS
 62
     7
 10
-486.14150999999998
 20
362.04727000000003
 30
0.0
 40
0.99237448
 50
179.55802
 51
270.44197000000003
  0
ARC
  5
8E5
  8
0
  6
CONTINUOUS
 62
     7
 10
-487.42815999999988
 20
465.63515999999993
 30
0.0
 40
1.500286
 50
192.32630999999989
 51
270.16417000000001
  0
ARC
  5
8E6
  8
0
  6
CONTINUOUS
 62
     7
 10
-624.97826999999995
 20
454.68912
 30
0.0
 40
5.0059714
 50
279.71098000000001
 51
354.67887999999999
  0
ARC
  5
8E7
  8
0
  6
CONTINUOUS
 62
     7
 10
-624.51293999999984
 20
450.76235999999989
 30
0.0
 40
6.0044340999999992
 50
45.225577999999999
 51
86.380821999999966
  0
ARC
  5
8E8
  8
0
  6
CONTINUOUS
 62
     7
 10
-620.99194
 20
454.31558000000001
 30
0.0
 40
1.002184699999999
 50
354.80385999999987
 51
45.047306999999968
  0
ARC
  5
8E9
  8
0
  6
CONTINUOUS
 62
     7
 10
-624.51415999999995
 20
375.44022000000001
 30
0.0
 40
6.0073843
 50
273.62973999999991
 51
314.76384999999999
  0
ARC
  5
8EA
  8
0
  6
CONTINUOUS
 62
     7
 10
-624.97095000000002
 20
371.50637999999992
 30
0.0
 40
4.9991421999999961
 50
5.3780269000000001
 51
80.360065000000006
  0
ARC
  5
8EB
  8
0
  6
CONTINUOUS
 62
     7
 10
-627.99706999999978
 20
353.42545000000001
 30
0.0
 40
2.0005671999999981
 50
193.3095899999999
 51
269.80430999999999
  0
ARC
  5
8EC
  8
0
  6
CONTINUOUS
 62
     7
 10
-632.32067999999981
 20
356.49722000000008
 30
0.0
 40
1.497715799999999
 50
13.424379
 51
90.122644999999963
  0
ARC
  5
8ED
  8
0
  6
CONTINUOUS
 62
     7
 10
-632.30615
 20
354.47658999999987
 30
0.0
 40
1.4982997
 50
14.22974
 51
89.910949999999985
  0
ARC
  5
8EE
  8
0
  6
CONTINUOUS
 62
     7
 10
-611.1337900000002
 20
353.23489000000001
 30
0.0
 40
2.0000371999999991
 50
180.00105999999991
 51
269.99892999999992
  0
ARC
  5
8EF
  8
0
  6
CONTINUOUS
 62
     7
 10
-611.13292999999999
 20
351.20583999999991
 30
0.0
 40
2.0009109999999981
 50
180.00001
 51
269.97390999999988
  0
ARC
  5
8F0
  8
0
  6
CONTINUOUS
 62
     7
 10
-614.63585999999998
 20
358.61295000000001
 30
0.0
 40
1.501982699999999
 50
0.075587202
 51
89.924413000000015
  0
ARC
  5
8F1
  8
0
  6
CONTINUOUS
 62
     7
 10
-614.63695999999982
 20
353.33170000000001
 30
0.0
 40
1.503128599999999
 50
0.11912965
 51
89.880870000000002
  0
ARC
  5
8F2
  8
0
  6
CONTINUOUS
 62
     7
 10
-487.49020000000002
 20
365.25112999999999
 30
0.0
 40
1.4937901
 50
89.756423999999981
 51
165.1129199999998
  0
ARC
  5
8F3
  8
0
  6
CONTINUOUS
 62
     7
 10
-612.14110999999946
 20
428.09487999999988
 30
0.0
 40
1.0000259
 50
89.587533999999977
 51
270.41246000000001
  0
ARC
  5
8F4
  8
0
  6
CONTINUOUS
 62
     7
 10
-612.14110999999946
 20
438.09487999999988
 30
0.0
 40
1.0000259
 50
89.587533999999977
 51
270.41246000000001
  0
ARC
  5
8F5
  8
0
  6
CONTINUOUS
 62
     7
 10
-612.14110999999946
 20
448.09487999999999
 30
0.0
 40
1.0000259
 50
89.587533999999977
 51
270.41246000000001
  0
ARC
  5
8F6
  8
0
  6
CONTINUOUS
 62
     7
 10
-629.87207000000001
 20
418.10489000000001
 30
0.0
 40
1.2700266
 50
89.629328000000001
 51
270.37065999999987
  0
ARC
  5
8F7
  8
0
  6
CONTINUOUS
 62
     7
 10
-629.81017999999995
 20
428.10988999999989
 30
0.0
 40
1.3350147999999991
 50
89.730435000000014
 51
270.26956999999999
  0
ARC
  5
8F8
  8
0
  6
CONTINUOUS
 62
     7
 10
-620.67957000000001
 20
438.12490999999989
 30
0.0
 40
1.460011199999999
 50
89.775248000000005
 51
270.22474
  0
ARC
  5
8F9
  8
0
  6
CONTINUOUS
 62
     7
 10
-620.46387000000004
 20
448.14492999999999
 30
0.0
 40
1.6800002000000001
 50
90.000003000000007
 51
270.0
  0
ARC
  5
8FA
  8
0
  6
CONTINUOUS
 62
     7
 10
-628.58385999999985
 20
418.09487999999999
 30
0.0
 40
1.0000056999999991
 50
90.000003000000007
 51
270.0
  0
ARC
  5
8FB
  8
0
  6
CONTINUOUS
 62
     7
 10
-628.58385999999985
 20
428.09487999999988
 30
0.0
 40
1.0000056999999991
 50
90.000003000000007
 51
270.0
  0
ARC
  5
8FC
  8
0
  6
CONTINUOUS
 62
     7
 10
-619.59105999999986
 20
448.09487999999999
 30
0.0
 40
1.0000255999999981
 50
89.589473999999967
 51
270.41052000000002
  0
ARC
  5
8FD
  8
0
  6
CONTINUOUS
 62
     7
 10
-619.59105999999986
 20
438.09487999999988
 30
0.0
 40
1.0000255999999981
 50
89.589473999999967
 51
270.41052000000002
  0
ARC
  5
8FE
  8
0
  6
CONTINUOUS
 62
     7
 10
-490.31384000000003
 20
448.14492999999999
 30
0.0
 40
1.6800077
 50
269.99998999999991
 51
90.000003000000007
  0
ARC
  5
8FF
  8
0
  6
CONTINUOUS
 62
     7
 10
-493.79385000000002
 20
448.09487999999999
 30
0.0
 40
1.0000040999999991
 50
269.99998999999991
 51
90.000003000000007
  0
ARC
  5
900
  8
0
  6
CONTINUOUS
 62
     7
 10
-493.79385000000002
 20
378.09487999999988
 30
0.0
 40
1.0000040999999991
 50
269.99998999999991
 51
90.000003000000007
  0
ARC
  5
901
  8
0
  6
CONTINUOUS
 62
     7
 10
-490.31384000000003
 20
378.05484000000001
 30
0.0
 40
1.6800077
 50
269.99998999999991
 51
90.000003000000007
  0
ARC
  5
902
  8
0
  6
CONTINUOUS
 62
     7
 10
-628.58385999999985
 20
408.09487999999988
 30
0.0
 40
1.0000056999999991
 50
90.000003000000007
 51
270.0
  0
ARC
  5
903
  8
0
  6
CONTINUOUS
 62
     7
 10
-612.14110999999946
 20
398.09487999999999
 30
0.0
 40
1.0000259
 50
89.587533999999977
 51
270.41246000000001
  0
ARC
  5
904
  8
0
  6
CONTINUOUS
 62
     7
 10
-612.14110999999946
 20
388.09487999999999
 30
0.0
 40
1.0000259
 50
89.587533999999977
 51
270.41246000000001
  0
ARC
  5
905
  8
0
  6
CONTINUOUS
 62
     7
 10
-629.81017999999995
 20
398.08487000000002
 30
0.0
 40
1.3300148000000001
 50
89.729417999999995
 51
270.27058999999991
  0
ARC
  5
906
  8
0
  6
CONTINUOUS
 62
     7
 10
-612.14110999999946
 20
408.09487999999988
 30
0.0
 40
1.0000259
 50
89.587533999999977
 51
270.41246000000001
  0
ARC
  5
907
  8
0
  6
CONTINUOUS
 62
     7
 10
-612.14110999999946
 20
378.09487999999988
 30
0.0
 40
1.0000259
 50
89.587533999999977
 51
270.41246000000001
  0
ARC
  5
908
  8
0
  6
CONTINUOUS
 62
     7
 10
-629.87207000000001
 20
408.09487999999988
 30
0.0
 40
1.2700266
 50
89.629320999999962
 51
270.37068999999991
  0
ARC
  5
909
  8
0
  6
CONTINUOUS
 62
     7
 10
-628.58385999999985
 20
398.09487999999999
 30
0.0
 40
1.0000056999999991
 50
90.000003000000007
 51
270.0
  0
ARC
  5
90A
  8
0
  6
CONTINUOUS
 62
     7
 10
-624.40075999999965
 20
460.35488999999978
 30
0.0
 40
1.5
 50
280.24788999999998
 51
349.76262000000008
  0
ARC
  5
90B
  8
0
  6
CONTINUOUS
 62
     7
 10
-624.40075999999965
 20
365.83487000000002
 30
0.0
 40
1.5
 50
10.23737899999999
 51
79.752110000000002
  0
ARC
  5
90C
  8
0
  6
CONTINUOUS
 62
     7
 10
-620.17443999999989
 20
362.10012999999992
 30
0.0
 40
1.9952742999999991
 50
189.96477999999971
 51
269.85142000000002
  0
ARC
  5
90D
  8
0
  6
CONTINUOUS
 62
     7
 10
-624.61707000000001
 20
360.55252000000002
 30
0.0
 40
1.502416299999999
 50
12.39188699999999
 51
90.098617000000004
  0
ARC
  5
90E
  8
0
  6
CONTINUOUS
 62
     7
 10
-620.23657000000003
 20
356.82192999999978
 30
0.0
 40
1.997119399999999
 50
192.05524
 51
270.19862999999992
  0
ARC
  5
90F
  8
0
  6
CONTINUOUS
 62
     7
 10
-620.46387000000004
 20
378.04482999999988
 30
0.0
 40
1.6800002000000001
 50
90.000003000000007
 51
270.0
  0
ARC
  5
910
  8
0
  6
CONTINUOUS
 62
     7
 10
-619.59105999999986
 20
378.09487999999988
 30
0.0
 40
1.0000255999999981
 50
89.589473999999967
 51
270.41052000000002
  0
ARC
  5
911
  8
0
  6
CONTINUOUS
 62
     7
 10
-619.59105999999986
 20
388.09487999999999
 30
0.0
 40
1.0000255999999981
 50
89.589473999999967
 51
270.41052000000002
  0
ARC
  5
912
  8
0
  6
CONTINUOUS
 62
     7
 10
-620.67957000000001
 20
388.06484999999992
 30
0.0
 40
1.460011199999999
 50
89.775248000000005
 51
270.22474
  0
ARC
  5
913
  8
0
  6
CONTINUOUS
 62
     7
 10
-569.8075
 20
347.70485999999983
 30
0.0
 40
1.5
 50
1.5000026999999969
 51
90.000003000000007
  0
ARC
  5
914
  8
0
  6
CONTINUOUS
 62
     3
 10
-495.11765000000003
 20
344.59487999999999
 30
0.0
 40
1.5
 50
269.99998999999991
 51
327.0
  0
ARC
  5
915
  8
0
  6
CONTINUOUS
 62
     7
 10
-506.62024000000002
 20
341.59487999999982
 30
0.0
 40
1.5
 50
90.000003000000007
 51
178.5
  0
ARC
  5
916
  8
0
  6
CONTINUOUS
 62
     7
 10
-492.61389000000003
 20
475.48488999999989
 30
0.0
 40
1.5
 50
12.129792
 51
90.000003000000007
  0
ARC
  5
917
  8
0
  6
CONTINUOUS
 62
     7
 10
-492.90618999999992
 20
476.84487999999988
 30
0.0
 40
1.5
 50
12.129792
 51
90.000003000000007
  0
ARC
  5
918
  8
0
  6
CONTINUOUS
 62
     7
 10
-493.05020000000002
 20
477.51492000000002
 30
0.0
 40
1.5
 50
12.129792
 51
90.000003000000007
  0
ARC
  5
919
  8
0
  6
CONTINUOUS
 62
     7
 10
-490.09386999999998
 20
388.06484999999992
 30
0.0
 40
1.460011199999999
 50
269.77525000000003
 51
90.224749999999986
  0
ARC
  5
91A
  8
0
  6
CONTINUOUS
 62
     7
 10
-493.79388
 20
388.09487999999999
 30
0.0
 40
1.0000255999999981
 50
269.58947000000001
 51
90.410531000000006
  0
ARC
  5
91B
  8
0
  6
CONTINUOUS
 62
     7
 10
-490.09386999999998
 20
438.12490999999989
 30
0.0
 40
1.460011199999999
 50
269.77525000000003
 51
90.224749999999986
  0
ARC
  5
91C
  8
0
  6
CONTINUOUS
 62
     7
 10
-493.79388
 20
438.09487999999988
 30
0.0
 40
1.0000255999999981
 50
269.58947000000001
 51
90.410531000000006
  0
ARC
  5
91D
  8
0
  6
CONTINUOUS
 62
     7
 10
-557.46887000000004
 20
428.10988999999989
 30
0.0
 40
1.3350147999999991
 50
269.73043000000001
 51
90.269555999999994
  0
ARC
  5
91E
  8
0
  6
CONTINUOUS
 62
     7
 10
-558.69519000000003
 20
428.09487999999988
 30
0.0
 40
1.0000056999999991
 50
269.99998999999991
 51
90.000003000000007
  0
ARC
  5
91F
  8
0
  6
CONTINUOUS
 62
     7
 10
-558.69519000000003
 20
418.09487999999999
 30
0.0
 40
1.0000056999999991
 50
269.99998999999991
 51
90.000003000000007
  0
ARC
  5
920
  8
0
  6
CONTINUOUS
 62
     7
 10
-557.40697999999998
 20
418.10489000000001
 30
0.0
 40
1.2700266
 50
269.62931999999989
 51
90.370669999999961
  0
ARC
  5
921
  8
0
  6
CONTINUOUS
 62
     7
 10
-558.69519000000003
 20
408.09487999999988
 30
0.0
 40
1.0000056999999991
 50
269.99998999999991
 51
90.000003000000007
  0
ARC
  5
922
  8
0
  6
CONTINUOUS
 62
     7
 10
-557.40697999999998
 20
408.09487999999988
 30
0.0
 40
1.2700266
 50
269.62931999999989
 51
90.370669999999961
  0
ARC
  5
923
  8
0
  6
CONTINUOUS
 62
     7
 10
-558.69519000000003
 20
398.09487999999999
 30
0.0
 40
1.0000056999999991
 50
269.99998999999991
 51
90.000003000000007
  0
ARC
  5
924
  8
0
  6
CONTINUOUS
 62
     7
 10
-557.46887000000004
 20
398.08487000000002
 30
0.0
 40
1.3300148000000001
 50
269.72941999999989
 51
90.270567000000014
  0
ARC
  5
925
  8
0
  6
CONTINUOUS
 62
     7
 10
-508.13385
 20
385.59487999999999
 30
0.0
 40
1.5
 50
90.000003000000007
 51
180.00001
  0
ARC
  5
926
  8
0
  6
CONTINUOUS
 62
     7
 10
-508.13385
 20
380.59487999999988
 30
0.0
 40
1.5
 50
179.99998999999991
 51
270.0
  0
ARC
  5
927
  8
0
  6
CONTINUOUS
 62
     7
 10
-526.13385000000005
 20
385.59487999999999
 30
0.0
 40
1.5
 50
0.0
 51
90.000003000000007
  0
ARC
  5
928
  8
0
  6
CONTINUOUS
 62
     7
 10
-526.13385000000005
 20
380.59487999999988
 30
0.0
 40
1.5
 50
269.99998999999991
 51
0.00000068324516
  0
ARC
  5
929
  8
0
  6
CONTINUOUS
 62
     7
 10
-508.13385
 20
385.59487999999999
 30
0.0
 40
1.02
 50
90.000003000000007
 51
180.00001
  0
ARC
  5
92A
  8
0
  6
CONTINUOUS
 62
     7
 10
-526.13385000000005
 20
385.59487999999999
 30
0.0
 40
1.02
 50
0.0
 51
90.000003000000007
  0
ARC
  5
92B
  8
0
  6
CONTINUOUS
 62
     7
 10
-526.11388999999986
 20
380.73489000000001
 30
0.0
 40
1.0
 50
269.99998999999991
 51
0.00000068324625
  0
ARC
  5
92C
  8
0
  6
CONTINUOUS
 62
     7
 10
-508.15384
 20
380.73489000000001
 30
0.0
 40
1.0
 50
179.99998999999991
 51
270.0
  0
CIRCLE
  5
92D
  8
0
  6
CONTINUOUS
 62
     3
 10
-519.63385000000005
 20
384.59487999999999
 30
0.0
 40
1.1000000000000001
  0
CIRCLE
  5
92E
  8
0
  6
CONTINUOUS
 62
     3
 10
-519.63385000000005
 20
384.59487999999999
 30
0.0
 40
1.149999999999999
  0
CIRCLE
  5
92F
  8
0
  6
CONTINUOUS
 62
     3
 10
-514.63385000000005
 20
384.59487999999999
 30
0.0
 40
1.0
  0
ARC
  5
930
  8
0
  6
CONTINUOUS
 62
     7
 10
-508.13385
 20
440.59487999999988
 30
0.0
 40
1.5
 50
179.99998999999991
 51
270.0
  0
ARC
  5
931
  8
0
  6
CONTINUOUS
 62
     7
 10
-508.13385
 20
445.59487999999988
 30
0.0
 40
1.5
 50
90.000003000000007
 51
180.00001
  0
ARC
  5
932
  8
0
  6
CONTINUOUS
 62
     7
 10
-526.13385000000005
 20
440.59487999999988
 30
0.0
 40
1.5
 50
269.99998999999991
 51
0.00000068324516
  0
ARC
  5
933
  8
0
  6
CONTINUOUS
 62
     7
 10
-526.13385000000005
 20
445.59487999999988
 30
0.0
 40
1.5
 50
0.0
 51
90.000003000000007
  0
ARC
  5
934
  8
0
  6
CONTINUOUS
 62
     7
 10
-508.13385
 20
440.59487999999988
 30
0.0
 40
1.02
 50
179.99998999999991
 51
270.0
  0
ARC
  5
935
  8
0
  6
CONTINUOUS
 62
     7
 10
-526.13385000000005
 20
440.59487999999988
 30
0.0
 40
1.02
 50
269.99998999999991
 51
0.00000068324403
  0
ARC
  5
936
  8
0
  6
CONTINUOUS
 62
     7
 10
-526.11388999999986
 20
445.45485999999988
 30
0.0
 40
1.0
 50
0.0
 51
90.000003000000007
  0
ARC
  5
937
  8
0
  6
CONTINUOUS
 62
     7
 10
-508.15384
 20
445.45485999999988
 30
0.0
 40
1.0
 50
90.000003000000007
 51
180.00001
  0
CIRCLE
  5
938
  8
0
  6
CONTINUOUS
 62
     3
 10
-514.63385000000005
 20
441.59487999999988
 30
0.0
 40
1.0
  0
CIRCLE
  5
939
  8
0
  6
CONTINUOUS
 62
     3
 10
-519.63385000000005
 20
441.59487999999988
 30
0.0
 40
1.149999999999999
  0
CIRCLE
  5
93A
  8
0
  6
CONTINUOUS
 62
     3
 10
-519.63385000000005
 20
441.59487999999988
 30
0.0
 40
1.1000000000000001
  0
ARC
  5
93B
  8
0
  6
CONTINUOUS
 62
     7
 10
-628.43322999999987
 20
353.42484000000002
 30
0.0
 40
2.0
 50
194.1507499999999
 51
269.99998999999991
  0
ARC
  5
93C
  8
0
  6
CONTINUOUS
 62
     7
 10
-614.39110999999946
 20
349.92484000000002
 30
0.0
 40
1.5
 50
21.461708999999988
 51
90.000003000000007
  0
ARC
  5
93D
  8
0
  6
DASHED
 62
     7
 10
-454.63385
 20
338.09487999999999
 30
0.0
 40
6.0
 50
302.21188000000001
 51
70.528779
  0
ARC
  5
93E
  8
0
  6
DASHED
 62
     7
 10
-454.63385
 20
488.09487999999988
 30
0.0
 40
6.0
 50
289.47122999999999
 51
57.788072
  0
POLYLINE
  5
93F
  8
0
  6
CONTINUOUS
 62
     7
 66
     1
 10
0.0
 20
0.0
 30
0.0
  0
VERTEX
  5
940
  8
0
  6
CONTINUOUS
 62
     7
 10
-435.63384999999988
 20
374.81979000000001
 30
0.0
 42
-0.059991193
  0
VERTEX
  5
941
  8
0
  6
CONTINUOUS
 62
     7
 10
-410.0450399999998
 20
358.88757999999979
 30
0.0
 42
-0.30883796
  0
VERTEX
  5
942
  8
0
  6
CONTINUOUS
 62
     7
 10
-400.63387999999992
 20
342.94684000000001
 30
0.0
 42
-0.25905842
  0
VERTEX
  5
943
  8
0
  6
CONTINUOUS
 62
     7
 10
-435.08355
 20
323.15877999999992
 30
0.0
  0
SEQEND
  5
944
  8
0
 62
     7
  0
POLYLINE
  5
945
  8
0
  6
CONTINUOUS
 62
     7
 66
     1
 10
0.0
 20
0.0
 30
0.0
  0
VERTEX
  5
946
  8
0
  6
CONTINUOUS
 62
     7
 10
-434.37030999999979
 20
333.16590000000002
 30
0.0
 42
0.021277534
  0
VERTEX
  5
947
  8
0
  6
CONTINUOUS
 62
     7
 10
-423.54016999999988
 20
335.22242
 30
0.0
 42
0.020622971
  0
VERTEX
  5
948
  8
0
  6
CONTINUOUS
 62
     7
 10
-413.41540999999989
 20
338.03946000000002
 30
0.0
 42
0.022709
  0
VERTEX
  5
949
  8
0
  6
CONTINUOUS
 62
     7
 10
-402.60848999999979
 20
342.08501999999987
 30
0.0
  0
SEQEND
  5
94A
  8
0
 62
     7
  0
POLYLINE
  5
94B
  8
0
  6
CONTINUOUS
 62
     7
 66
     1
 10
0.0
 20
0.0
 30
0.0
  0
VERTEX
  5
94C
  8
0
  6
CONTINUOUS
 62
     7
 10
-435.63384999999988
 20
451.36995999999988
 30
0.0
 42
0.059991175
  0
VERTEX
  5
94D
  8
0
  6
CONTINUOUS
 62
     7
 10
-410.0450399999998
 20
467.30216999999988
 30
0.0
 42
0.30883786
  0
VERTEX
  5
94E
  8
0
  6
CONTINUOUS
 62
     7
 10
-400.63387999999992
 20
483.24291999999991
 30
0.0
 42
0.25905849
  0
VERTEX
  5
94F
  8
0
  6
CONTINUOUS
 62
     7
 10
-435.08352999999988
 20
503.03097000000002
 30
0.0
  0
SEQEND
  5
950
  8
0
 62
     7
  0
POLYLINE
  5
951
  8
0
  6
CONTINUOUS
 62
     7
 66
     1
 10
0.0
 20
0.0
 30
0.0
  0
VERTEX
  5
952
  8
0
  6
CONTINUOUS
 62
     7
 10
-434.37030999999979
 20
493.02386000000001
 30
0.0
 42
-0.021277534
  0
VERTEX
  5
953
  8
0
  6
CONTINUOUS
 62
     7
 10
-423.54016999999988
 20
490.96733999999992
 30
0.0
 42
-0.020622971
  0
VERTEX
  5
954
  8
0
  6
CONTINUOUS
 62
     7
 10
-413.41540999999989
 20
488.15030000000002
 30
0.0
 42
-0.022709
  0
VERTEX
  5
955
  8
0
  6
CONTINUOUS
 62
     7
 10
-402.60848999999979
 20
484.10473999999988
 30
0.0
  0
SEQEND
  5
956
  8
0
 62
     7
  0
POLYLINE
  5
957
  8
0
  6
CONTINUOUS
 62
     7
 66
     1
 10
0.0
 20
0.0
 30
0.0
  0
VERTEX
  5
958
  8
0
  6
CONTINUOUS
 62
     7
 10
-400.63390999999979
 20
187.84795
 30
0.0
 42
0.029628768
  0
VERTEX
  5
959
  8
0
  6
CONTINUOUS
 62
     7
 10
-400.82555000000002
 20
191.0772399999999
 30
0.0
 42
0.029364851
  0
VERTEX
  5
95A
  8
0
  6
CONTINUOUS
 62
     7
 10
-401.39620999999988
 20
194.26220000000001
 30
0.0
 42
0.028846954
  0
VERTEX
  5
95B
  8
0
  6
CONTINUOUS
 62
     7
 10
-402.33293999999989
 20
197.3589199999999
 30
0.0
 42
0.028138212
  0
VERTEX
  5
95C
  8
0
  6
CONTINUOUS
 62
     7
 10
-403.61588999999998
 20
200.32921999999991
 30
0.0
 42
0.027295408
  0
VERTEX
  5
95D
  8
0
  6
CONTINUOUS
 62
     7
 10
-405.21994000000001
 20
203.1399599999998
 30
0.0
 42
0.026361391
  0
VERTEX
  5
95E
  8
0
  6
CONTINUOUS
 62
     7
 10
-407.11517999999978
 20
205.76193000000001
 30
0.0
 42
0.025425248
  0
VERTEX
  5
95F
  8
0
  6
CONTINUOUS
 62
     7
 10
-409.27221999999989
 20
208.17498999999981
 30
0.0
 42
0.024501812
  0
VERTEX
  5
960
  8
0
  6
CONTINUOUS
 62
     7
 10
-411.65902
 20
210.36109999999991
 30
0.0
 42
0.023637303
  0
VERTEX
  5
961
  8
0
  6
CONTINUOUS
 62
     7
 10
-414.24489999999997
 20
212.30777
 30
0.0
 42
0.022856357
  0
VERTEX
  5
962
  8
0
  6
CONTINUOUS
 62
     7
 10
-417.00045
 20
214.0061299999999
 30
0.0
 42
0.022174316
  0
VERTEX
  5
963
  8
0
  6
CONTINUOUS
 62
     7
 10
-419.89773000000002
 20
215.4499899999999
 30
0.0
 42
0.021600182
  0
VERTEX
  5
964
  8
0
  6
CONTINUOUS
 62
     7
 10
-422.91034999999988
 20
216.63522
 30
0.0
 42
0.021138593
  0
VERTEX
  5
965
  8
0
  6
CONTINUOUS
 62
     7
 10
-426.01332000000002
 20
217.55911
 30
0.0
 42
0.02079144
  0
VERTEX
  5
966
  8
0
  6
CONTINUOUS
 62
     7
 10
-429.18284
 20
218.21999999999991
 30
0.0
 42
0.020559068
  0
VERTEX
  5
967
  8
0
  6
CONTINUOUS
 62
     7
 10
-432.39602000000002
 20
218.61691999999999
 30
0.0
 42
0.020441293
  0
VERTEX
  5
968
  8
0
  6
CONTINUOUS
 62
     7
 10
-435.63062000000002
 20
218.74943999999991
 30
0.0
  0
SEQEND
  5
969
  8
0
 62
     7
  0
POLYLINE
  5
96A
  8
0
  6
CONTINUOUS
 62
     7
 66
     1
 10
0.0
 20
0.0
 30
0.0
  0
VERTEX
  5
96B
  8
0
  6
CONTINUOUS
 62
     7
 10
-402.5564
 20
189.7273999999999
 30
0.0
 42
0.032714798
  0
VERTEX
  5
96C
  8
0
  6
CONTINUOUS
 62
     7
 10
-404.50591999999989
 20
190.47676000000001
 30
0.0
 42
0.016800325
  0
VERTEX
  5
96D
  8
0
  6
CONTINUOUS
 62
     7
 10
-406.51825000000002
 20
191.03896999999981
 30
0.0
 42
0.010827931
  0
VERTEX
  5
96E
  8
0
  6
CONTINUOUS
 62
     7
 10
-408.55885000000001
 20
191.49174999999991
 30
0.0
 42
0.0078595033
  0
VERTEX
  5
96F
  8
0
  6
CONTINUOUS
 62
     7
 10
-410.61468999999988
 20
191.8688699999999
 30
0.0
 42
0.0061446325
  0
VERTEX
  5
970
  8
0
  6
CONTINUOUS
 62
     7
 10
-412.68081999999998
 20
192.1887999999999
 30
0.0
 42
0.0050517219
  0
VERTEX
  5
971
  8
0
  6
CONTINUOUS
 62
     7
 10
-414.75355000000002
 20
192.46261000000001
 30
0.0
 42
0.0043110032
  0
VERTEX
  5
972
  8
0
  6
CONTINUOUS
 62
     7
 10
-416.83132000000001
 20
192.6977399999999
 30
0.0
 42
0.0037845238
  0
VERTEX
  5
973
  8
0
  6
CONTINUOUS
 62
     7
 10
-418.91219999999998
 20
192.89923999999999
 30
0.0
 42
0.0034013122
  0
VERTEX
  5
974
  8
0
  6
CONTINUOUS
 62
     7
 10
-420.99624
 20
193.07092
 30
0.0
 42
0.0031157526
  0
VERTEX
  5
975
  8
0
  6
CONTINUOUS
 62
     7
 10
-423.08275999999989
 20
193.21549999999999
 30
0.0
 42
0.0029006397
  0
VERTEX
  5
976
  8
0
  6
CONTINUOUS
 62
     7
 10
-425.17084999999992
 20
193.33498999999981
 30
0.0
 42
0.0027395348
  0
VERTEX
  5
977
  8
0
  6
CONTINUOUS
 62
     7
 10
-427.26019000000002
 20
193.43093999999999
 30
0.0
 42
0.0026210338
  0
VERTEX
  5
978
  8
0
  6
CONTINUOUS
 62
     7
 10
-429.35050000000001
 20
193.50451000000001
 30
0.0
 42
0.0025375867
  0
VERTEX
  5
979
  8
0
  6
CONTINUOUS
 62
     7
 10
-431.44148999999999
 20
193.55653000000001
 30
0.0
 42
0.0024842931
  0
VERTEX
  5
97A
  8
0
  6
CONTINUOUS
 62
     7
 10
-433.53291000000002
 20
193.58755999999991
 30
0.0
 42
0.0024582579
  0
VERTEX
  5
97B
  8
0
  6
CONTINUOUS
 62
     7
 10
-435.62450999999987
 20
193.59792999999991
 30
0.0
  0
SEQEND
  5
97C
  8
0
 62
     7
  0
POLYLINE
  5
97D
  8
0
  6
CONTINUOUS
 62
     7
 66
     1
 10
0.0
 20
0.0
 30
0.0
  0
VERTEX
  5
97E
  8
0
  6
CONTINUOUS
 62
     7
 10
-432.63394000000011
 20
79.547927999999985
 30
0.0
 42
0.12796127
  0
VERTEX
  5
97F
  8
0
  6
CONTINUOUS
 62
     7
 10
-426.53717
 20
81.214818999999963
 30
0.0
 42
0.075865216
  0
VERTEX
  5
980
  8
0
  6
CONTINUOUS
 62
     7
 10
-421.55525999999992
 20
85.175593999999975
 30
0.0
 42
0.043906055
  0
VERTEX
  5
981
  8
0
  6
CONTINUOUS
 62
     7
 10
-417.61426999999981
 20
90.194518999999985
 30
0.0
 42
0.0284671
  0
VERTEX
  5
982
  8
0
  6
CONTINUOUS
 62
     7
 10
-414.42117000000002
 20
95.724575000000002
 30
0.0
 42
0.020364409
  0
VERTEX
  5
983
  8
0
  6
CONTINUOUS
 62
     7
 10
-411.77472999999992
 20
101.5382599999998
 30
0.0
 42
0.015653206
  0
VERTEX
  5
984
  8
0
  6
CONTINUOUS
 62
     7
 10
-409.54987
 20
107.52652999999979
 30
0.0
 42
0.01268762
  0
VERTEX
  5
985
  8
0
  6
CONTINUOUS
 62
     7
 10
-407.66559999999981
 20
113.6314999999999
 30
0.0
 42
0.010704126
  0
VERTEX
  5
986
  8
0
  6
CONTINUOUS
 62
     7
 10
-406.06787000000003
 20
119.8170799999999
 30
0.0
 42
0.0093243216
  0
VERTEX
  5
987
  8
0
  6
CONTINUOUS
 62
     7
 10
-404.71811999999989
 20
126.06273
 30
0.0
 42
0.0083328998
  0
VERTEX
  5
988
  8
0
  6
CONTINUOUS
 62
     7
 10
-403.58926000000002
 20
132.35183000000001
 30
0.0
 42
0.0076107037
  0
VERTEX
  5
989
  8
0
  6
CONTINUOUS
 62
     7
 10
-402.66106000000002
 20
138.67407
 30
0.0
 42
0.0070818713
  0
VERTEX
  5
98A
  8
0
  6
CONTINUOUS
 62
     7
 10
-401.91873999999979
 20
145.02088000000001
 30
0.0
 42
0.0067000052
  0
VERTEX
  5
98B
  8
0
  6
CONTINUOUS
 62
     7
 10
-401.35139999999978
 20
151.3859699999999
 30
0.0
 42
0.006434791
  0
VERTEX
  5
98C
  8
0
  6
CONTINUOUS
 62
     7
 10
-400.95125000000002
 20
157.76398
 30
0.0
 42
0.0062670693
  0
VERTEX
  5
98D
  8
0
  6
CONTINUOUS
 62
     7
 10
-400.71308999999991
 20
164.15014999999991
 30
0.0
 42
0.0061855335
  0
VERTEX
  5
98E
  8
0
  6
CONTINUOUS
 62
     7
 10
-400.63390999999979
 20
170.54004
 30
0.0
  0
SEQEND
  5
98F
  8
0
 62
     7
  0
TEXT
  5
DDB
  8
0
  6
CONTINUOUS
 62
     0
 10
-247.75288260823419
 20
389.80808442374928
 30
0.0
 40
10.0
  1
VX04-060M~VX04-100M
  0
ENDSEC
  0
EOF
