  0
SECTION
  2
HEADER
  9
$ACADVER
  1
AC1009
  9
$INSBASE
 10
0.0
 20
0.0
 30
0.0
  9
$EXTMIN
 10
-740.78608198030156
 20
64.4549381633542
 30
-0.0000000000112498
  9
$EXTMAX
 10
-5.9037874024174917
 20
627.39457099875494
 30
0.0000000000002956
  9
$LIMMIN
 10
0.0
 20
0.0
  9
$LIMMAX
 10
12.0
 20
9.0
  9
$ORTHOMODE
 70
     0
  9
$REGENMODE
 70
     1
  9
$FILLMODE
 70
     1
  9
$QTEXTMODE
 70
     0
  9
$MIRRTEXT
 70
     1
  9
$DRAGMODE
 70
     2
  9
$LTSCALE
 40
1.0
  9
$OSMODE
 70
   551
  9
$ATTMODE
 70
     1
  9
$TEXTSIZE
 40
0.2
  9
$TRACEWID
 40
0.05
  9
$TEXTSTYLE
  7
STANDARD
  9
$CLAYER
  8
0
  9
$CELTYPE
  6
CONTINUOUS
  9
$CECOLOR
 62
   256
  9
$DIMSCALE
 40
1.0
  9
$DIMASZ
 40
0.18
  9
$DIMEXO
 40
0.0625
  9
$DIMDLI
 40
0.38
  9
$DIMRND
 40
0.0
  9
$DIMDLE
 40
0.0
  9
$DIMEXE
 40
0.18
  9
$DIMTP
 40
0.0
  9
$DIMTM
 40
0.0
  9
$DIMTXT
 40
0.18
  9
$DIMCEN
 40
0.09
  9
$DIMTSZ
 40
0.0
  9
$DIMTOL
 70
     0
  9
$DIMLIM
 70
     0
  9
$DIMTIH
 70
     1
  9
$DIMTOH
 70
     1
  9
$DIMSE1
 70
     0
  9
$DIMSE2
 70
     0
  9
$DIMTAD
 70
     0
  9
$DIMZIN
 70
     0
  9
$DIMBLK
  1

  9
$DIMASO
 70
     1
  9
$DIMSHO
 70
     1
  9
$DIMPOST
  1

  9
$DIMAPOST
  1

  9
$DIMALT
 70
     0
  9
$DIMALTD
 70
     2
  9
$DIMALTF
 40
25.399999999999999
  9
$DIMLFAC
 40
1.0
  9
$DIMTOFL
 70
     0
  9
$DIMTVP
 40
0.0
  9
$DIMTIX
 70
     0
  9
$DIMSOXD
 70
     0
  9
$DIMSAH
 70
     0
  9
$DIMBLK1
  1

  9
$DIMBLK2
  1

  9
$DIMSTYLE
  2
STANDARD
  9
$DIMCLRD
 70
     0
  9
$DIMCLRE
 70
     0
  9
$DIMCLRT
 70
     0
  9
$DIMTFAC
 40
1.0
  9
$DIMGAP
 40
0.09
  9
$LUNITS
 70
     2
  9
$LUPREC
 70
     4
  9
$SKETCHINC
 40
0.1
  9
$FILLETRAD
 40
0.0
  9
$AUNITS
 70
     0
  9
$AUPREC
 70
     0
  9
$MENU
  1
.
  9
$ELEVATION
 40
0.0
  9
$PELEVATION
 40
0.0
  9
$THICKNESS
 40
0.0
  9
$LIMCHECK
 70
     0
  9
$BLIPMODE
 70
     0
  9
$CHAMFERA
 40
0.0
  9
$CHAMFERB
 40
0.0
  9
$SKPOLY
 70
     0
  9
$TDCREATE
 40
2452300.4325929512
  9
$TDUPDATE
 40
2458540.6802197569
  9
$TDINDWG
 40
0.0350677315
  9
$TDUSRTIMER
 40
0.0350676852
  9
$USRTIMER
 70
     1
  9
$ANGBASE
 50
0.0
  9
$ANGDIR
 70
     0
  9
$PDMODE
 70
     0
  9
$PDSIZE
 40
0.0
  9
$PLINEWID
 40
0.0
  9
$COORDS
 70
     1
  9
$SPLFRAME
 70
     0
  9
$SPLINETYPE
 70
     6
  9
$SPLINESEGS
 70
     8
  9
$ATTDIA
 70
     1
  9
$ATTREQ
 70
     1
  9
$HANDLING
 70
     1
  9
$HANDSEED
  5
CB3
  9
$SURFTAB1
 70
     6
  9
$SURFTAB2
 70
     6
  9
$SURFTYPE
 70
     6
  9
$SURFU
 70
     6
  9
$SURFV
 70
     6
  9
$UCSNAME
  2

  9
$UCSORG
 10
0.0
 20
0.0
 30
0.0
  9
$UCSXDIR
 10
1.0
 20
0.0
 30
0.0
  9
$UCSYDIR
 10
0.0
 20
1.0
 30
0.0
  9
$PUCSNAME
  2

  9
$PUCSORG
 10
0.0
 20
0.0
 30
0.0
  9
$PUCSXDIR
 10
1.0
 20
0.0
 30
0.0
  9
$PUCSYDIR
 10
0.0
 20
1.0
 30
0.0
  9
$USERI1
 70
     0
  9
$USERI2
 70
     0
  9
$USERI3
 70
     0
  9
$USERI4
 70
     0
  9
$USERI5
 70
     0
  9
$USERR1
 40
0.0
  9
$USERR2
 40
0.0
  9
$USERR3
 40
0.0
  9
$USERR4
 40
0.0
  9
$USERR5
 40
0.0
  9
$WORLDVIEW
 70
     1
  9
$SHADEDGE
 70
     3
  9
$SHADEDIF
 70
    70
  9
$TILEMODE
 70
     1
  9
$MAXACTVP
 70
    64
  9
$PLIMCHECK
 70
     0
  9
$PEXTMIN
 10
1.0000000000000000E+020
 20
1.0000000000000000E+020
 30
1.0000000000000000E+020
  9
$PEXTMAX
 10
-1.0000000000000000E+020
 20
-1.0000000000000000E+020
 30
-1.0000000000000000E+020
  9
$PLIMMIN
 10
0.0
 20
0.0
  9
$PLIMMAX
 10
12.0
 20
9.0
  9
$UNITMODE
 70
     0
  9
$VISRETAIN
 70
     1
  9
$PLINEGEN
 70
     0
  9
$PSLTSCALE
 70
     1
  0
ENDSEC
  0
SECTION
  2
TABLES
  0
TABLE
  2
VPORT
 70
     1
  0
VPORT
  2
*ACTIVE
 70
     0
 10
0.0
 20
0.0
 11
1.0
 21
1.0
 12
-373.34493469135953
 22
345.92475458105457
 13
0.0
 23
0.0
 14
1.0
 24
1.0
 15
0.0
 25
0.0
 16
0.0
 26
0.0
 36
1.0
 17
0.0
 27
0.0
 37
0.0
 40
566.80420697385887
 41
1.7571592210767459
 42
50.0
 43
0.0
 44
0.0
 50
0.0
 51
0.0
 71
     0
 72
   100
 73
     1
 74
     1
 75
     0
 76
     0
 77
     0
 78
     0
  0
ENDTAB
  0
TABLE
  2
LTYPE
 70
    20
  0
LTYPE
  2
CONTINUOUS
 70
     0
  3
Solid line
 72
    65
 73
     0
 40
0.0
  0
LTYPE
  2
DASHED
 70
     0
  3
__ __ __ __ __ __ __ __ __ __ __ __ __ __ __
 72
    65
 73
     2
 40
3.5
 49
2.0
 49
-1.5
  0
LTYPE
  2
CENTER
 70
     0
  3
____ _ ____ _ ____ _ ____ _ ____ _ ____ _ ____
 72
    65
 73
     4
 40
17.5
 49
13.0
 49
-1.5
 49
1.5
 49
-1.5
  0
LTYPE
  2
PHANTOM
 70
     0
  3
_____ _ _ _____ _ _ _____ _ _ _____ _ _ ____  
 72
    65
 73
     6
 40
15.5
 49
8.0
 49
-1.5
 49
1.5
 49
-1.5
 49
1.5
 49
-1.5
  0
LTYPE
  2
DOT
 70
     0
  3
. . . . . . . . . . . . . . . . . . . . . . . .
 72
    65
 73
     2
 40
0.25
 49
0.0
 49
-0.25
  0
LTYPE
  2
AM_ISO02W050
 70
     0
  3
__ __ __ __ __ __ __ __ __ __ __ __ __ __ __
 72
    65
 73
     2
 40
7.5
 49
6.0
 49
-1.5
  0
LTYPE
  2
AM_ISO08W050
 70
     0
  3
____ . ____ . ____ . ____ . ____ . ____ . ____
 72
    65
 73
     4
 40
18.0
 49
12.0
 49
-1.5
 49
3.0
 49
-1.5
  0
LTYPE
  2
AM_ISO09W050
 70
     0
  3
_____ . . _____ . . _____ . . ____ .. ____
 72
    65
 73
     6
 40
22.5
 49
12.0
 49
-1.5
 49
3.0
 49
-1.5
 49
3.0
 49
-1.5
  0
LTYPE
  2
AMCONSTR
 70
     0
  3
_______________________
 72
    65
 73
     2
 40
9999.0
 49
9999.0
 49
0.0
  0
LTYPE
  2
AM_ISO08W050X2
 70
     0
  3
__ . __ . __ . __ . __ . __
 72
    65
 73
     4
 40
9.0
 49
6.0
 49
-0.75
 49
1.5
 49
-0.75
  0
LTYPE
  2
AM_ISO02W050X2
 70
     0
  3
 _ _ _ _ _ _ _ _ _ _ _ _
 72
    65
 73
     2
 40
3.75
 49
3.0
 49
-0.75
  0
LTYPE
  2
AMZIGZAG
 70
     0
  3
/\/-/\/-/\/-/\/-/\/-/\/
 72
    65
 73
     2
 40
11.000099999999991
 49
0.0001
 49
-11.0
  0
LTYPE
  2
HIDDEN
 70
     0
  3
Hidden __ __ __ __ __ __ __ __ __ __ __ __ __ _
 72
    65
 73
     2
 40
0.375
 49
0.25
 49
-0.125
  0
LTYPE
  2
PHANTOM2
 70
     0
  3
Phantom (.5x) ___ _ _ ___ _ _ ___ _ _ ___ _ _
 72
    65
 73
     6
 40
1.25
 49
0.625
 49
-0.125
 49
0.125
 49
-0.125
 49
0.125
 49
-0.125
  0
LTYPE
  2
CENTER2
 70
     0
  3
Center (.5x) ___ _ ___ _ ___ _ ___ _ ___ _ ___
 72
    65
 73
     4
 40
1.125
 49
0.75
 49
-0.125
 49
0.125
 49
-0.125
  0
LTYPE
  2
HIDDEN2
 70
     0
  3
Hidden (.5x) _ _ _ _ _ _ _ _ _ _ _ _ _ _ _ _ _
 72
    65
 73
     2
 40
0.1875
 49
0.125
 49
-0.0625
  0
LTYPE
  2
AMZIGZAG2
 70
     0
  3
/\/-/\/-/\/-/\/-/\/-/\/
 72
    65
 73
     2
 40
0.4401
 49
0.0001
 49
-0.4400000000000003
  0
LTYPE
  2
ACANSTGB
 70
     0
  3
__ . . __ . .
 72
    65
 73
     6
 40
0.35433070866
 49
0.15748031496
 49
-0.03937007874
 49
0.03937007874
 49
-0.03937007874
 49
0.03937007874
 49
-0.03937007874
  0
LTYPE
  2
ACANSTGL
 70
     0
  3
_ _ _ _ _
 72
    65
 73
     2
 40
0.11811023622
 49
0.07874015748
 49
-0.03937007874
  0
ENDTAB
  0
TABLE
  2
LAYER
 70
     1
  0
LAYER
  2
0
 70
     0
 62
     7
  6
CONTINUOUS
  0
ENDTAB
  0
TABLE
  2
STYLE
 70
     5
  0
STYLE
  2
STANDARD
 70
     0
 40
0.0
 41
1.0
 50
0.0
 71
     0
 42
0.2
  3
txt
  4
BIGFONT
  0
STYLE
  2
ANNOTATIVE
 70
     0
 40
0.0
 41
1.0
 50
0.0
 71
     0
 42
0.2
  3
txt
  4

  0
STYLE
  2

 70
     1
 40
0.0
 41
1.0
 50
0.0
 71
     0
 42
0.2
  3
ltypeshp.shx
  4

  0
STYLE
  2
ACANSTS
 70
     0
 40
1.0
 41
1.0
 50
0.0
 71
     0
 42
0.2
  3
romans.shx
  4
extfont.shx
  0
STYLE
  2
ACANSGDT
 70
     0
 40
0.0
 41
1.0
 50
0.0
 71
     0
 42
0.2
  3
amgdt.shx
  4

  0
ENDTAB
  0
TABLE
  2
VIEW
 70
     0
  0
ENDTAB
  0
TABLE
  2
UCS
 70
     0
  0
ENDTAB
  0
TABLE
  2
APPID
 70
    11
  0
APPID
  2
ACAD
 70
     0
  0
APPID
  2
ACADANNOTATIVE
 70
     0
  0
APPID
  2
MCAD_NO_VIS
 70
     0
  0
APPID
  2
ACAD_TEMP_GRAPHIC
 70
     0
  0
APPID
  2
ACATTRIBSERVICES
 70
     0
  0
APPID
  2
DESIGNERASSEMBLIES
 70
     0
  0
APPID
  2
ACAD_DSTYLE_DIMBREAK
 70
     0
  0
APPID
  2
ACAD_DSTYLE_DIMJAG
 70
     0
  0
APPID
  2
ACAD_NAV_VCDISPLAY
 70
     0
  0
APPID
  2
ACAD_EXEMPT_FROM_CAD_STANDARDS
 70
     0
  0
APPID
  2
ACAD_MLEADERVER
 70
     0
  0
ENDTAB
  0
TABLE
  2
DIMSTYLE
 70
     8
  0
DIMSTYLE
  2
STANDARD
 70
     0
  3

  4

  5

  6

  7

 40
1.0
 41
0.18
 42
0.0625
 43
0.38
 44
0.18
 45
0.0
 46
0.0
 47
0.0
 48
0.0
140
0.18
141
0.09
142
0.0
143
25.399999999999999
144
1.0
145
0.0
146
1.0
147
0.09
 71
     0
 72
     0
 73
     1
 74
     1
 75
     0
 76
     0
 77
     0
 78
     0
170
     0
171
     2
172
     0
173
     0
174
     0
175
     0
176
     0
177
     0
178
     0
  0
DIMSTYLE
  2
ANNOTATIVE
 70
     0
  3

  4

  5

  6

  7

 40
1.0
 41
0.18
 42
0.0625
 43
0.38
 44
0.18
 45
0.0
 46
0.0
 47
0.0
 48
0.0
140
0.18
141
0.09
142
0.0
143
25.399999999999999
144
1.0
145
0.0
146
1.0
147
0.09
 71
     0
 72
     0
 73
     1
 74
     1
 75
     0
 76
     0
 77
     0
 78
     0
170
     0
171
     2
172
     0
173
     0
174
     0
175
     0
176
     0
177
     0
178
     0
  0
DIMSTYLE
  2
AM_ANSI
 70
     0
  3

  4
mm
  5

  6

  7

 40
1.0
 41
0.1
 42
0.05
 43
0.5
 44
0.1
 45
0.0
 46
0.0
 47
0.1
 48
0.1
140
0.12
141
0.0
142
0.0
143
25.399999999999999
144
1.0
145
0.0
146
0.71
147
0.06
 71
     0
 72
     0
 73
     1
 74
     1
 75
     0
 76
     0
 77
     0
 78
     7
170
     0
171
     2
172
     0
173
     0
174
     0
175
     0
176
   256
177
   256
178
     2
  0
DIMSTYLE
  2
AM_ANSI$3
 70
     0
  3

  4
mm
  5

  6

  7

 40
1.0
 41
0.1
 42
0.05
 43
0.5
 44
0.1
 45
0.0
 46
0.0
 47
0.1
 48
0.1
140
0.12
141
0.0
142
0.0
143
25.399999999999999
144
1.0
145
0.0
146
0.71
147
0.06
 71
     0
 72
     0
 73
     1
 74
     1
 75
     0
 76
     0
 77
     0
 78
     7
170
     0
171
     2
172
     0
173
     0
174
     0
175
     0
176
   256
177
   256
178
     2
  0
DIMSTYLE
  2
AM_ANSI$4
 70
     0
  3

  4
mm
  5

  6

  7

 40
1.0
 41
0.1
 42
0.05
 43
0.5
 44
0.1
 45
0.0
 46
0.0
 47
0.1
 48
0.1
140
0.12
141
0.0
142
0.0
143
25.399999999999999
144
1.0
145
0.0
146
0.71
147
0.06
 71
     0
 72
     0
 73
     1
 74
     1
 75
     0
 76
     0
 77
     0
 78
     7
170
     0
171
     2
172
     0
173
     0
174
     0
175
     0
176
   256
177
   256
178
     2
  0
DIMSTYLE
  2
AM_ANSI$7
 70
     0
  3

  4
mm
  5

  6

  7

 40
1.0
 41
0.1
 42
0.05
 43
0.5
 44
0.1
 45
0.0
 46
0.0
 47
0.1
 48
0.1
140
0.24
141
0.0
142
0.0
143
25.399999999999999
144
1.0
145
0.0
146
0.71
147
0.06
 71
     0
 72
     0
 73
     1
 74
     1
 75
     0
 76
     0
 77
     0
 78
     7
170
     0
171
     2
172
     0
173
     0
174
     0
175
     0
176
   256
177
   256
178
     2
  0
DIMSTYLE
  2
AM_ANSI$SF
 70
     0
  3

  4
mm
  5

  6

  7

 40
1.0
 41
0.1
 42
0.05
 43
0.5
 44
0.1
 45
0.0
 46
0.0
 47
0.1
 48
0.1
140
0.12
141
0.0
142
0.0
143
25.399999999999999
144
1.0
145
0.0
146
0.71
147
0.06
 71
     0
 72
     0
 73
     1
 74
     1
 75
     1
 76
     1
 77
     0
 78
     7
170
     0
171
     2
172
     0
173
     0
174
     0
175
     0
176
   256
177
   256
178
     2
  0
DIMSTYLE
  2
AM_ANSI$SH
 70
     0
  3

  4
mm
  5

  6

  7

 40
1.0
 41
0.1
 42
0.05
 43
0.5
 44
0.1
 45
0.0
 46
0.0
 47
0.1
 48
0.1
140
0.12
141
0.0
142
0.0
143
25.399999999999999
144
1.0
145
0.0
146
0.71
147
0.06
 71
     0
 72
     0
 73
     1
 74
     1
 75
     1
 76
     1
 77
     0
 78
     7
170
     0
171
     2
172
     0
173
     1
174
     0
175
     0
176
   256
177
   256
178
     2
  0
ENDTAB
  0
ENDSEC
  0
SECTION
  2
BLOCKS
  0
BLOCK
  8
0
  2
$MODEL_SPACE
 70
     0
 10
0.0
 20
0.0
 30
0.0
  3
$MODEL_SPACE
  1

  0
ENDBLK
  5
BBE
  8
0
  0
BLOCK
 67
     1
  8
0
  2
$PAPER_SPACE
 70
     0
 10
0.0
 20
0.0
 30
0.0
  3
$PAPER_SPACE
  1

  0
ENDBLK
  5
BBA
 67
     1
  8
0
  0
BLOCK
  8
0
  2
GENAXEH
 70
     0
 10
0.0
 20
0.0
 30
0.0
  3
GENAXEH
  1

  0
LINE
  5
52F
  8
0
 10
-1.0
 20
0.0
 30
0.0
 11
1.0
 21
0.0
 31
0.0
  0
ENDBLK
  5
530
  8
0
  0
BLOCK
  8
0
  2
_ACMFILLEDHALF
 70
     0
 10
0.0
 20
0.0
 30
0.0
  3
_ACMFILLEDHALF
  1

  0
TRACE
  5
AAC
  8
0
  6
CONTINUOUS
 62
     0
 10
-0.8
 20
0.0
 30
0.0
 11
-1.0
 21
0.166666666
 31
0.0
 12
0.0
 22
0.0
 32
0.0
 13
0.0
 23
0.0
 33
0.0
  0
LINE
  5
AAD
  8
0
  6
CONTINUOUS
 62
     0
 10
-1.0
 20
0.0
 30
0.0
 11
-0.8
 21
0.0
 31
0.0
  0
ENDBLK
  5
AAB
  8
0
  0
BLOCK
  8
0
  2
*U4
 70
     1
 10
0.0
 20
0.0
 30
0.0
  3
*U4
  1

  0
TEXT
  5
B47
  8
0
  6
CONTINUOUS
 62
     0
 10
4.1999993754229852
 20
4.4356759791489822
 30
0.0
 40
10.0
  1
ＶＸ０１－２４０Ｍ～ＶＸ０１－６００Ｍ
  0
ENDBLK
  5
B49
  8
0
  0
BLOCK
  8
0
  2
*U5
 70
     1
 10
0.0
 20
0.0
 30
0.0
  3
*U5
  1

  0
TEXT
  5
B4B
  8
0
  6
CONTINUOUS
 62
     0
 10
-267.00479785041011
 20
381.1773436031454
 30
0.0
 40
15.0
  1
ＶＸ０４－１２０Ｍ～ＶＸ０４－２００Ｍ
  0
ENDBLK
  5
B4D
  8
0
  0
ENDSEC
  0
SECTION
  2
ENTITIES
  0
LINE
  5
531
  8
0
  6
CENTER
 62
     7
 10
-737.87060999999983
 20
512.36658
 30
0.0
 11
-349.97030999999998
 21
512.36658
 31
0.0
  0
LINE
  5
532
  8
0
  6
CONTINUOUS
 62
     7
 10
-357.88315
 20
225.54792999999981
 30
0.0
 11
-415.88311999999979
 21
225.54792999999981
 31
0.0
  0
LINE
  5
533
  8
0
  6
CONTINUOUS
 62
     7
 10
-357.88315
 20
228.54792999999989
 30
0.0
 11
-402.88311999999991
 21
228.54792999999989
 31
0.0
  0
LINE
  5
534
  8
0
  6
CONTINUOUS
 62
     7
 10
-415.88311999999979
 20
192.0479399999999
 30
0.0
 11
-419.88314999999989
 21
192.0479399999999
 31
0.0
  0
LINE
  5
535
  8
0
  6
DASHED
 62
     7
 10
-217.29079999999999
 20
215.04792999999981
 30
0.0
 11
-237.29082
 21
215.04792999999981
 31
0.0
  0
LINE
  5
536
  8
0
  6
CONTINUOUS
 62
     7
 10
-150.28093000000001
 20
220.5479399999999
 30
0.0
 11
-140.28095999999991
 21
220.5479399999999
 31
0.0
  0
LINE
  5
537
  8
0
  6
CONTINUOUS
 62
     1
 10
-150.28093000000001
 20
220.5479399999999
 30
0.0
 11
-150.28093000000001
 21
228.54792999999989
 31
0.0
  0
LINE
  5
538
  8
0
  6
CONTINUOUS
 62
     7
 10
-357.88315
 20
193.54794000000001
 30
0.0
 11
-415.88311999999979
 21
193.54794000000001
 31
0.0
  0
LINE
  5
539
  8
0
  6
CONTINUOUS
 62
     1
 10
-140.28095999999991
 20
220.5479399999999
 30
0.0
 11
-140.28095999999991
 21
228.54792999999989
 31
0.0
  0
LINE
  5
53A
  8
0
  6
DASHED
 62
     7
 10
-430.38315
 20
87.547934999999981
 30
0.0
 11
-430.38315
 21
69.547943000000004
 31
0.0
  0
LINE
  5
53B
  8
0
  6
CONTINUOUS
 62
     7
 10
-402.88311999999991
 20
225.54792999999981
 30
0.0
 11
-402.88311999999991
 21
228.54792999999989
 31
0.0
  0
LINE
  5
53C
  8
0
  6
CENTER
 62
     7
 10
-437.88315
 20
66.547943000000004
 30
0.0
 11
-437.88315
 21
91.076355000000007
 31
0.0
  0
LINE
  5
53D
  8
0
  6
CENTER
 62
     7
 10
-562.88311999999985
 20
66.547943000000004
 30
0.0
 11
-562.88311999999985
 21
91.076355000000007
 31
0.0
  0
LINE
  5
53E
  8
0
  6
CONTINUOUS
 62
     7
 10
-532.88311999999985
 20
125.0479399999999
 30
0.0
 11
-532.88311999999985
 21
281.04793999999998
 31
0.0
  0
LINE
  5
53F
  8
0
  6
CENTER
 62
     1
 10
-568.11737000000005
 20
209.54793000000001
 30
0.0
 11
-355.10393999999991
 21
209.54793000000001
 31
0.0
  0
LINE
  5
540
  8
0
  6
CENTER
 62
     7
 10
-50.280945000000003
 20
91.797263999999984
 30
0.0
 11
-50.280945000000003
 21
65.508049
 31
0.0
  0
LINE
  5
541
  8
0
  6
CENTER
 62
     1
 10
-184.2809399999999
 20
209.54793000000001
 30
0.0
 11
-106.2809399999999
 21
209.54793000000001
 31
0.0
  0
LINE
  5
542
  8
0
  6
CONTINUOUS
 62
     7
 10
-415.88311999999979
 20
192.0479399999999
 30
0.0
 11
-415.88311999999979
 21
227.04792999999981
 31
0.0
  0
LINE
  5
543
  8
0
  6
CENTER
 62
     1
 10
-145.2809399999999
 20
64.492133999999993
 30
0.0
 11
-145.2809399999999
 21
286.7843299999999
 31
0.0
  0
LINE
  5
544
  8
0
  6
CONTINUOUS
 62
     7
 10
-357.88315
 20
193.54794000000001
 30
0.0
 11
-357.88315
 21
228.54792999999989
 31
0.0
  0
LINE
  5
545
  8
0
  6
CENTER
 62
     7
 10
-240.2809299999999
 20
92.559830000000005
 30
0.0
 11
-240.2809299999999
 21
66.216637000000006
 31
0.0
  0
LINE
  5
546
  8
0
  6
DASHED
 62
     7
 10
-445.38314999999989
 20
87.547934999999981
 30
0.0
 11
-445.38314999999989
 21
69.547943000000004
 31
0.0
  0
LINE
  5
547
  8
0
  6
CONTINUOUS
 62
     7
 10
-150.28093000000001
 20
228.54792999999989
 30
0.0
 11
-140.28095999999991
 21
228.54792999999989
 31
0.0
  0
LINE
  5
548
  8
0
  6
CONTINUOUS
 62
     7
 10
-415.88311999999979
 20
227.04792999999981
 30
0.0
 11
-419.88314999999989
 21
227.04792999999981
 31
0.0
  0
LINE
  5
549
  8
0
  6
CONTINUOUS
 62
     7
 10
-542.88311999999985
 20
259.68322999999992
 30
0.0
 11
-532.88311999999985
 21
259.68322999999992
 31
0.0
  0
LINE
  5
54A
  8
0
  6
CONTINUOUS
 62
     7
 10
-210.2809299999999
 20
83.547927999999999
 30
0.0
 11
-210.2809299999999
 21
69.547943000000004
 31
0.0
  0
LINE
  5
54B
  8
0
  6
DASHED
 62
     7
 10
-57.780944999999988
 20
87.547934999999981
 30
0.0
 11
-57.780944999999988
 21
69.547943000000004
 31
0.0
  0
LINE
  5
54C
  8
0
  6
DASHED
 62
     7
 10
-42.780945000000003
 20
87.547934999999981
 30
0.0
 11
-42.780945000000003
 21
69.547943000000004
 31
0.0
  0
LINE
  5
54D
  8
0
  6
CONTINUOUS
 62
     7
 10
-260.28090999999989
 20
69.547943000000004
 30
0.0
 11
-210.2809299999999
 21
69.547943000000004
 31
0.0
  0
LINE
  5
54E
  8
0
  6
CONTINUOUS
 62
     7
 10
-260.28090999999989
 20
84.547934999999995
 30
0.0
 11
-260.28090999999989
 21
69.547943000000004
 31
0.0
  0
LINE
  5
54F
  8
0
  6
CONTINUOUS
 62
     7
 10
-80.280944999999988
 20
69.547943000000004
 30
0.0
 11
-30.280940999999999
 21
69.547943000000004
 31
0.0
  0
LINE
  5
550
  8
0
  6
CONTINUOUS
 62
     7
 10
-80.280944999999988
 20
83.547927999999999
 30
0.0
 11
-80.280944999999988
 21
69.547943000000004
 31
0.0
  0
LINE
  5
551
  8
0
  6
CONTINUOUS
 62
     7
 10
-30.280940999999999
 20
84.547934999999995
 30
0.0
 11
-30.280940999999999
 21
69.547943000000004
 31
0.0
  0
LINE
  5
552
  8
0
  6
CONTINUOUS
 62
     7
 10
-214.2809399999999
 20
87.547934999999981
 30
0.0
 11
-257.28091000000001
 21
87.547934999999981
 31
0.0
  0
LINE
  5
553
  8
0
  6
CONTINUOUS
 62
     7
 10
-76.280945000000003
 20
87.547934999999981
 30
0.0
 11
-33.280940999999991
 21
87.547934999999981
 31
0.0
  0
LINE
  5
554
  8
0
  6
CONTINUOUS
 62
     7
 10
-419.88314999999989
 20
209.54793000000001
 30
0.0
 11
-419.88314999999989
 21
236.8158699999999
 31
0.0
  0
LINE
  5
555
  8
0
  6
CONTINUOUS
 62
     7
 10
-419.88314999999989
 20
182.2799999999998
 30
0.0
 11
-419.88314999999989
 21
209.54793000000001
 31
0.0
  0
LINE
  5
556
  8
0
  6
CONTINUOUS
 62
     7
 10
-425.38317999999992
 20
177.37253999999999
 30
0.0
 11
-421.38317999999992
 21
179.6819499999998
 31
0.0
  0
LINE
  5
557
  8
0
  6
CONTINUOUS
 62
     7
 10
-425.38312000000002
 20
241.72336999999999
 30
0.0
 11
-421.38312000000002
 21
239.41397000000001
 31
0.0
  0
LINE
  5
558
  8
0
  6
CONTINUOUS
 62
     7
 10
-226.9949299999999
 20
252.8699
 30
0.0
 11
-240.0917799999998
 21
211.73327999999981
 31
0.0
  0
LINE
  5
559
  8
0
  6
DASHED
 62
     7
 10
-57.780944999999988
 20
87.547934999999981
 30
0.0
 11
-57.780944999999988
 21
69.547943000000004
 31
0.0
  0
LINE
  5
55A
  8
0
  6
DASHED
 62
     7
 10
-42.780945000000003
 20
87.547934999999981
 30
0.0
 11
-42.780945000000003
 21
69.547943000000004
 31
0.0
  0
LINE
  5
55B
  8
0
  6
DASHED
 62
     7
 10
-430.38315
 20
87.547934999999981
 30
0.0
 11
-430.38315
 21
69.547943000000004
 31
0.0
  0
LINE
  5
55C
  8
0
  6
DASHED
 62
     7
 10
-445.38314999999989
 20
87.547934999999981
 30
0.0
 11
-445.38314999999989
 21
69.547943000000004
 31
0.0
  0
LINE
  5
55D
  8
0
  6
CONTINUOUS
 62
     7
 10
-452.88314999999989
 20
87.547934999999981
 30
0.0
 11
-421.88312000000002
 21
87.547934999999981
 31
0.0
  0
LINE
  5
55E
  8
0
  6
CONTINUOUS
 62
     7
 10
-542.88311999999985
 20
71.547943000000004
 30
0.0
 11
-457.88312000000002
 21
71.547943000000004
 31
0.0
  0
LINE
  5
55F
  8
0
  6
DASHED
 62
     7
 10
-232.7809299999999
 20
87.547934999999981
 30
0.0
 11
-232.7809299999999
 21
69.547943000000004
 31
0.0
  0
LINE
  5
560
  8
0
  6
DASHED
 62
     7
 10
-555.38311999999985
 20
87.547934999999981
 30
0.0
 11
-555.38311999999985
 21
69.547943000000004
 31
0.0
  0
LINE
  5
561
  8
0
  6
CONTINUOUS
 62
     7
 10
-426.88312000000002
 20
95.087326000000004
 30
0.0
 11
-426.88312000000002
 21
253.5479399999999
 31
0.0
  0
LINE
  5
562
  8
0
  6
CONTINUOUS
 62
     7
 10
-467.88315
 20
102.54794
 30
0.0
 11
-467.88315
 21
240.99065999999991
 31
0.0
  0
LINE
  5
563
  8
0
  6
CONTINUOUS
 62
     7
 10
-578.88311999999985
 20
87.547934999999981
 30
0.0
 11
-547.80297999999993
 21
87.547934999999981
 31
0.0
  0
LINE
  5
564
  8
0
  6
DASHED
 62
     7
 10
-570.38311999999985
 20
87.547934999999981
 30
0.0
 11
-570.38311999999985
 21
69.547943000000004
 31
0.0
  0
LINE
  5
565
  8
0
  6
CONTINUOUS
 62
     7
 10
-580.88311999999985
 20
69.547943000000004
 30
0.0
 11
-544.88311999999985
 21
69.547943000000004
 31
0.0
  0
LINE
  5
566
  8
0
  6
CONTINUOUS
 62
     7
 10
-419.88314999999989
 20
69.547943000000004
 30
0.0
 11
-419.88314999999989
 21
85.547943000000004
 31
0.0
  0
LINE
  5
567
  8
0
  6
CONTINUOUS
 62
     7
 10
-580.88311999999985
 20
69.547943000000004
 30
0.0
 11
-580.88311999999985
 21
85.547943000000004
 31
0.0
  0
LINE
  5
568
  8
0
  6
CONTINUOUS
 62
     7
 10
-543.99322999999993
 20
90.328818999999996
 30
0.0
 11
-529.07343000000003
 21
136.95322999999991
 31
0.0
  0
LINE
  5
569
  8
0
  6
DASHED
 62
     7
 10
-247.78093000000001
 20
87.547934999999981
 30
0.0
 11
-247.78093000000001
 21
69.547943000000004
 31
0.0
  0
LINE
  5
56A
  8
0
  6
CONTINUOUS
 62
     7
 10
-447.88312000000002
 20
110.00566000000001
 30
0.0
 11
-447.88312000000002
 21
271.02886999999998
 31
0.0
  0
LINE
  5
56B
  8
0
  6
CONTINUOUS
 62
     7
 10
-439.88312000000002
 20
257.54793999999998
 30
0.0
 11
-430.88312000000002
 21
257.54793999999998
 31
0.0
  0
LINE
  5
56C
  8
0
  6
CONTINUOUS
 62
     7
 10
-210.2809299999999
 20
192.54794000000001
 30
0.0
 11
-210.2809299999999
 21
102.54794
 31
0.0
  0
LINE
  5
56D
  8
0
  6
CONTINUOUS
 62
     7
 10
-216.60289
 20
263.26190000000003
 30
0.0
 11
-175.46626000000001
 21
276.35872999999992
 31
0.0
  0
LINE
  5
56E
  8
0
  6
CONTINUOUS
 62
     7
 10
-528.88311999999985
 20
138.17234999999991
 30
0.0
 11
-528.88311999999985
 21
196.1956899999999
 31
0.0
  0
LINE
  5
56F
  8
0
  6
CONTINUOUS
 62
     7
 10
-63.164985999999999
 20
253.0687299999999
 30
0.0
 11
-50.169055999999998
 21
210.77086
 31
0.0
  0
LINE
  5
570
  8
0
  6
CONTINUOUS
 62
     7
 10
-73.760200999999981
 20
263.66388000000001
 30
0.0
 11
-116.05803
 21
276.65982000000002
 31
0.0
  0
LINE
  5
571
  8
0
  6
CONTINUOUS
 62
     7
 10
-80.280944999999988
 20
192.54794000000001
 30
0.0
 11
-80.280944999999988
 21
102.54794
 31
0.0
  0
LINE
  5
572
  8
0
  6
CONTINUOUS
 62
     7
 10
-68.280944999999974
 20
241.64161999999999
 30
0.0
 11
-68.280944999999974
 21
143.2852
 31
0.0
  0
LINE
  5
573
  8
0
  6
CONTINUOUS
 62
     7
 10
-222.2809299999999
 20
241.64161999999999
 30
0.0
 11
-222.2809299999999
 21
143.2852
 31
0.0
  0
LINE
  5
574
  8
0
  6
CONTINUOUS
 62
     7
 10
-532.88311999999985
 20
281.04797000000002
 30
0.0
 11
-455.67370999999991
 21
279.0261799999999
 31
0.0
  0
LINE
  5
575
  8
0
  6
CONTINUOUS
 62
     7
 10
-30.313628999999992
 20
84.989554999999996
 30
0.0
 11
-46.865028000000002
 21
196.19570999999999
 31
0.0
  0
LINE
  5
576
  8
0
  6
CONTINUOUS
 62
     7
 10
-260.24826000000002
 20
84.989570999999998
 30
0.0
 11
-243.6968699999999
 21
196.19570999999999
 31
0.0
  0
LINE
  5
577
  8
0
  6
CONTINUOUS
 62
     7
 10
-532.88311999999985
 20
196.1956899999999
 30
0.0
 11
-528.88311999999985
 21
196.1956899999999
 31
0.0
  0
LINE
  5
578
  8
0
  6
CONTINUOUS
 62
     7
 10
-462.80813999999998
 20
102.00566999999999
 30
0.0
 11
-455.88315
 21
102.00566999999999
 31
0.0
  0
LINE
  5
579
  8
0
  6
CONTINUOUS
 62
     7
 10
-455.88315
 20
69.547943000000004
 30
0.0
 11
-419.88314999999989
 21
69.547943000000004
 31
0.0
  0
LINE
  5
57A
  8
0
  6
CONTINUOUS
 62
     7
 10
-455.88315
 20
69.547943000000004
 30
0.0
 11
-455.88315
 21
69.547943000000004
 31
0.0
  0
LINE
  5
57B
  8
0
  6
CONTINUOUS
 62
     7
 10
-208.2809399999999
 20
71.547943000000004
 30
0.0
 11
-82.280945000000003
 21
71.547943000000004
 31
0.0
  0
LINE
  5
57C
  8
0
  6
CONTINUOUS
 62
     7
 10
-459.88312000000002
 20
248.99064999999999
 30
0.0
 11
-451.48360999999989
 21
248.99064999999999
 31
0.0
  0
LINE
  5
57D
  8
0
  6
CONTINUOUS
 62
     7
 10
-532.88317999999992
 20
211.73326
 30
0.0
 11
-532.88159000000007
 21
211.73326
 31
0.0
  0
LINE
  5
57E
  8
0
  6
CONTINUOUS
 62
     7
 10
-532.88317999999992
 20
211.73326
 30
0.0
 11
-505.11449999999991
 21
237.0197399999999
 31
0.0
  0
LINE
  5
57F
  8
0
  6
CONTINUOUS
 62
     7
 10
-542.88311999999985
 20
118.48291999999999
 30
0.0
 11
-534.98395000000005
 21
118.48291999999999
 31
0.0
  0
LINE
  5
580
  8
0
  6
CONTINUOUS
 62
     7
 10
-542.88311999999985
 20
101.13015
 30
0.0
 11
-540.53679999999997
 21
101.13015
 31
0.0
  0
LINE
  5
581
  8
0
  6
CONTINUOUS
 62
     7
 10
-570.38311999999985
 20
245.04790999999989
 30
0.0
 11
-570.38311999999985
 21
118.04788000000001
 31
0.0
  0
LINE
  5
582
  8
0
  6
CONTINUOUS
 62
     7
 10
-570.3831799999997
 20
118.04792999999999
 30
0.0
 11
-562.70861999999988
 21
117.77992999999979
 31
0.0
  0
LINE
  5
583
  8
0
  6
CONTINUOUS
 62
     7
 10
-556.41863999999975
 20
257.01238999999998
 30
0.0
 11
-543.76177999999993
 21
269.66924999999992
 31
0.0
  0
LINE
  5
584
  8
0
  6
CONTINUOUS
 62
     7
 10
-540.95294000000001
 20
280.76614000000001
 30
0.0
 11
-532.88317999999992
 21
281.04793999999998
 31
0.0
  0
LINE
  5
585
  8
0
  6
CONTINUOUS
 62
     7
 10
-556.41869999999994
 20
106.0834999999999
 30
0.0
 11
-543.76177999999993
 21
93.426613000000003
 31
0.0
  0
LINE
  5
586
  8
0
  6
CONTINUOUS
 62
     7
 10
-570.3831799999997
 20
245.0479399999999
 30
0.0
 11
-562.70867999999984
 21
245.3159299999999
 31
0.0
  0
LINE
  5
587
  8
0
  6
CONTINUOUS
 62
     7
 10
-542.88311999999985
 20
93.797943000000004
 30
0.0
 11
-542.88311999999985
 21
278.76732999999979
 31
0.0
  0
LINE
  5
588
  8
0
  6
CENTER
 62
     7
 10
-740.77625
 20
181.5479399999999
 30
0.0
 11
-524.74383999999998
 21
181.5479399999999
 31
0.0
  0
LINE
  5
589
  8
0
  6
CONTINUOUS
 62
     7
 10
-557.88311999999985
 20
109.61901
 30
0.0
 11
-557.88311999999985
 21
253.47686999999991
 31
0.0
  0
LINE
  5
58A
  8
0
  6
CONTINUOUS
 62
     7
 10
-242.29082
 20
211.5479399999999
 30
0.0
 11
-240.15058999999999
 21
211.5479399999999
 31
0.0
  0
LINE
  5
58B
  8
0
  6
CONTINUOUS
 62
     7
 10
-242.29082
 20
203.66887
 30
0.0
 11
-242.29082
 21
211.5479399999999
 31
0.0
  0
LINE
  5
58C
  8
0
  6
DASHED
 62
     7
 10
-240.15058999999999
 20
211.5479399999999
 30
0.0
 11
-223.79082
 21
211.5479399999999
 31
0.0
  0
LINE
  5
58D
  8
0
  6
DASHED
 62
     7
 10
-223.79082
 20
150.04793999999981
 30
0.0
 11
-220.2907999999999
 21
150.04793999999981
 31
0.0
  0
LINE
  5
58E
  8
0
  6
CONTINUOUS
 62
     7
 10
-680.38311999999985
 20
135.1979399999999
 30
0.0
 11
-715.38311999999985
 21
137.2279399999999
 31
0.0
  0
LINE
  5
58F
  8
0
  6
CONTINUOUS
 62
     7
 10
-680.38311999999985
 20
227.89792999999989
 30
0.0
 11
-715.38311999999985
 21
225.86794
 31
0.0
  0
LINE
  5
590
  8
0
  6
CONTINUOUS
 62
     7
 10
-242.29079999999999
 20
204.54794000000001
 30
0.0
 11
-245.2907999999999
 21
199.3579399999999
 31
0.0
  0
LINE
  5
591
  8
0
  6
DASHED
 62
     7
 10
-217.29079999999999
 20
148.0479599999999
 30
0.0
 11
-237.29082
 21
148.0479599999999
 31
0.0
  0
LINE
  5
592
  8
0
  6
DASHED
 62
     3
 10
-212.1541299999999
 20
211.68216000000001
 30
0.0
 11
-217.29082
 21
211.5479399999999
 31
0.0
  0
LINE
  5
593
  8
0
  6
DASHED
 62
     7
 10
-242.29082
 20
151.54793999999981
 30
0.0
 11
-223.79082
 21
151.54793999999981
 31
0.0
  0
LINE
  5
594
  8
0
  6
DASHED
 62
     3
 10
-215.29082
 20
211.5479399999999
 30
0.0
 11
-215.29082
 21
151.49794
 31
0.0
  0
LINE
  5
595
  8
0
  6
DASHED
 62
     7
 10
-223.79082
 20
213.04794000000001
 30
0.0
 11
-220.2907999999999
 21
213.04794000000001
 31
0.0
  0
LINE
  5
596
  8
0
  6
DASHED
 62
     7
 10
-237.29082
 20
211.5479399999999
 30
0.0
 11
-237.29082
 21
215.04792999999981
 31
0.0
  0
LINE
  5
597
  8
0
  6
DASHED
 62
     7
 10
-223.79082
 20
150.04793999999981
 30
0.0
 11
-223.79082
 21
213.04794000000001
 31
0.0
  0
LINE
  5
598
  8
0
  6
DASHED
 62
     3
 10
-212.15410999999989
 20
151.41370000000001
 30
0.0
 11
-217.29079999999999
 21
151.54793000000001
 31
0.0
  0
LINE
  5
599
  8
0
  6
DASHED
 62
     7
 10
-242.29082
 20
151.54793999999981
 30
0.0
 11
-242.29082
 21
203.66887
 31
0.0
  0
LINE
  5
59A
  8
0
  6
DASHED
 62
     7
 10
-237.29082
 20
151.54793999999981
 30
0.0
 11
-237.29082
 21
148.0479599999999
 31
0.0
  0
LINE
  5
59B
  8
0
  6
DASHED
 62
     7
 10
-220.2907999999999
 20
148.0479599999999
 30
0.0
 11
-220.2907999999999
 21
215.04792999999981
 31
0.0
  0
LINE
  5
59C
  8
0
  6
CONTINUOUS
 62
     3
 10
-728.10308999999984
 20
133.90796
 30
0.0
 11
-725.38311999999985
 21
133.90796
 31
0.0
  0
LINE
  5
59D
  8
0
  6
CONTINUOUS
 62
     3
 10
-728.61310000000003
 20
131.93795999999969
 30
0.0
 11
-729.88311999999985
 21
132.66794999999999
 31
0.0
  0
LINE
  5
59E
  8
0
  6
CONTINUOUS
 62
     3
 10
-725.38311999999985
 20
124.1179399999999
 30
0.0
 11
-722.56304999999998
 21
124.0479399999999
 31
0.0
  0
LINE
  5
59F
  8
0
  6
CONTINUOUS
 62
     3
 10
-728.63306
 20
138.58795000000001
 30
0.0
 11
-729.93310999999983
 21
139.43798999999979
 31
0.0
  0
LINE
  5
5A0
  8
0
  6
CONTINUOUS
 62
     3
 10
-728.62311
 20
134.04796999999991
 30
0.0
 11
-729.9030799999997
 21
134.81795
 31
0.0
  0
LINE
  5
5A1
  8
0
  6
CONTINUOUS
 62
     3
 10
-728.11310000000003
 20
131.79793999999981
 30
0.0
 11
-725.88311999999985
 21
131.79793999999981
 31
0.0
  0
LINE
  5
5A2
  8
0
  6
CONTINUOUS
 62
     3
 10
-728.14312999999981
 20
132.94794999999991
 30
0.0
 11
-725.88311999999985
 21
132.94794999999991
 31
0.0
  0
LINE
  5
5A3
  8
0
  6
CONTINUOUS
 62
     3
 10
-728.59313999999983
 20
133.05795000000001
 30
0.0
 11
-729.83312999999998
 21
133.68796
 31
0.0
  0
LINE
  5
5A4
  8
0
  6
CONTINUOUS
 62
     3
 10
-728.11310000000003
 20
139.56794999999991
 30
0.0
 11
-726.38311999999985
 21
139.56794999999991
 31
0.0
  0
LINE
  5
5A5
  8
0
  6
CONTINUOUS
 62
     3
 10
-728.08312999999998
 20
138.42792999999969
 30
0.0
 11
-725.38311999999985
 21
138.42792999999969
 31
0.0
  0
LINE
  5
5A6
  8
0
  6
CONTINUOUS
 62
     3
 10
-728.13311999999985
 20
135.0479399999999
 30
0.0
 11
-726.38311999999985
 21
135.0479399999999
 31
0.0
  0
LINE
  5
5A7
  8
0
  6
CONTINUOUS
 62
     3
 10
-728.61310000000003
 20
139.69796999999991
 30
0.0
 11
-729.89312999999981
 21
140.44794999999991
 31
0.0
  0
LINE
  5
5A8
  8
0
  6
CONTINUOUS
 62
     3
 10
-577.38311999999996
 20
118.04795
 30
0.0
 11
-570.38311999999985
 21
118.04795
 31
0.0
  0
LINE
  5
5A9
  8
0
  6
CONTINUOUS
 62
     3
 10
-577.38311999999996
 20
129.50794999999991
 30
0.0
 11
-570.38311999999985
 21
129.50794999999991
 31
0.0
  0
LINE
  5
5AA
  8
0
  6
CONTINUOUS
 62
     3
 10
-680.38311999999985
 20
135.19794999999991
 30
0.0
 11
-578.38311999999985
 21
135.19794999999991
 31
0.0
  0
LINE
  5
5AB
  8
0
  6
CONTINUOUS
 62
     3
 10
-578.67309999999975
 20
130.51793999999981
 30
0.0
 11
-581.08312999999998
 21
130.51793999999981
 31
0.0
  0
LINE
  5
5AC
  8
0
  6
CONTINUOUS
 62
     3
 10
-581.58312999999998
 20
122.6279399999999
 30
0.0
 11
-580.14312999999981
 21
129.32793999999981
 31
0.0
  0
LINE
  5
5AD
  8
0
  6
CONTINUOUS
 62
     3
 10
-583.67316000000017
 20
121.0479499999999
 30
0.0
 11
-578.38311999999985
 21
121.0479499999999
 31
0.0
  0
LINE
  5
5AE
  8
0
  6
CONTINUOUS
 62
     3
 10
-676.38311999999985
 20
151.54793999999981
 30
0.0
 11
-588.61315999999965
 21
151.54793999999981
 31
0.0
  0
LINE
  5
5AF
  8
0
  6
CONTINUOUS
 62
     3
 10
-720.70312999999965
 20
148.17793
 30
0.0
 11
-672.38311999999985
 21
148.17793
 31
0.0
  0
LINE
  5
5B0
  8
0
  6
CONTINUOUS
 62
     3
 10
-629.38311999999985
 20
145.5479399999999
 30
0.0
 11
-719.83312999999964
 21
145.5479399999999
 31
0.0
  0
LINE
  5
5B1
  8
0
  6
CONTINUOUS
 62
     3
 10
-629.38311999999985
 20
144.82795999999999
 30
0.0
 11
-581.56311000000005
 21
144.82795999999999
 31
0.0
  0
LINE
  5
5B2
  8
0
  6
CONTINUOUS
 62
     3
 10
-720.70312999999965
 20
144.82795999999999
 30
0.0
 11
-629.38311999999985
 21
144.82795999999999
 31
0.0
  0
LINE
  5
5B3
  8
0
  6
CONTINUOUS
 62
     3
 10
-725.38311999999985
 20
147.24794
 30
0.0
 11
-722.21307000000002
 21
147.24794
 31
0.0
  0
LINE
  5
5B4
  8
0
  6
CONTINUOUS
 62
     3
 10
-719.21306999999968
 20
123.2879499999999
 30
0.0
 11
-705.88311999999996
 21
123.2879499999999
 31
0.0
  0
LINE
  5
5B5
  8
0
  6
CONTINUOUS
 62
     3
 10
-702.38311999999996
 20
119.6879299999998
 30
0.0
 11
-585.57312000000002
 21
119.6879299999998
 31
0.0
  0
LINE
  5
5B6
  8
0
  6
CONTINUOUS
 62
     3
 10
-719.27313000000004
 20
118.24795
 30
0.0
 11
-705.77313000000004
 21
118.24795
 31
0.0
  0
LINE
  5
5B7
  8
0
  6
CONTINUOUS
 62
     3
 10
-719.15314000000001
 20
128.5679299999999
 30
0.0
 11
-705.88311999999996
 21
128.5679299999999
 31
0.0
  0
LINE
  5
5B8
  8
0
  6
CONTINUOUS
 62
     3
 10
-721.66314999999975
 20
133.19791000000001
 30
0.0
 11
-721.12316999999985
 21
130.20792
 31
0.0
  0
LINE
  5
5B9
  8
0
  6
CONTINUOUS
 62
     3
 10
-728.38311999999985
 20
138.71796000000001
 30
0.0
 11
-728.38311999999985
 21
139.18794
 31
0.0
  0
LINE
  5
5BA
  8
0
  6
CONTINUOUS
 62
     3
 10
-725.38311999999985
 20
133.1979399999999
 30
0.0
 11
-715.38311999999985
 21
133.1979399999999
 31
0.0
  0
LINE
  5
5BB
  8
0
  6
CONTINUOUS
 62
     3
 10
-728.38311999999985
 20
134.14793
 30
0.0
 11
-728.38311999999985
 21
134.6979399999999
 31
0.0
  0
LINE
  5
5BC
  8
0
  6
CONTINUOUS
 62
     3
 10
-728.6031499999998
 20
135.16792000000001
 30
0.0
 11
-729.85308999999984
 21
135.82791
 31
0.0
  0
LINE
  5
5BD
  8
0
  6
CONTINUOUS
 62
     3
 10
-715.38311999999985
 20
133.1979399999999
 30
0.0
 11
-715.38311999999985
 21
144.82795999999999
 31
0.0
  0
LINE
  5
5BE
  8
0
  6
CONTINUOUS
 62
     3
 10
-728.38311999999985
 20
132.0479399999999
 30
0.0
 11
-728.38311999999985
 21
132.57793999999981
 31
0.0
  0
LINE
  5
5BF
  8
0
  6
CONTINUOUS
 62
     3
 10
-583.64306999999997
 20
121.16792
 30
0.0
 11
-580.18304000000001
 21
134.08792
 31
0.0
  0
LINE
  5
5C0
  8
0
  6
CONTINUOUS
 62
     3
 10
-721.21307000000002
 20
119.75797
 30
0.0
 11
-722.10308999999984
 21
123.29795
 31
0.0
  0
LINE
  5
5C1
  8
0
  6
CONTINUOUS
 62
     3
 10
-721.19312000000002
 20
121.41793
 30
0.0
 11
-722.11310000000003
 21
125.29792999999999
 31
0.0
  0
LINE
  5
5C2
  8
0
  6
CONTINUOUS
 62
     3
 10
-647.38311999999985
 20
117.63793
 30
0.0
 11
-647.38311999999985
 21
119.6879299999998
 31
0.0
  0
LINE
  5
5C3
  8
0
  6
CONTINUOUS
 62
     3
 10
-704.38311999999985
 20
119.65795
 30
0.0
 11
-704.38311999999985
 21
127.06793
 31
0.0
  0
LINE
  5
5C4
  8
0
  6
CONTINUOUS
 62
     3
 10
-723.55309999999986
 20
124.42793999999979
 30
0.0
 11
-721.90307999999982
 21
124.42793999999979
 31
0.0
  0
LINE
  5
5C5
  8
0
  6
CENTER
 62
     7
 10
-629.38311999999985
 20
220.14795000000001
 30
0.0
 11
-629.38311999999985
 21
138.89795000000001
 31
0.0
  0
LINE
  5
5C6
  8
0
  6
CONTINUOUS
 62
     7
 10
-597.88311999999996
 20
150.04793999999981
 30
0.0
 11
-597.88311999999996
 21
213.04794000000001
 31
0.0
  0
LINE
  5
5C7
  8
0
  6
CONTINUOUS
 62
     3
 10
-680.38311999999985
 20
227.89792999999989
 30
0.0
 11
-578.38311999999985
 21
227.89792999999989
 31
0.0
  0
LINE
  5
5C8
  8
0
  6
CONTINUOUS
 62
     3
 10
-578.38311999999985
 20
244.04794000000001
 30
0.0
 11
-578.38311999999985
 21
119.04794
 31
0.0
  0
LINE
  5
5C9
  8
0
  6
CONTINUOUS
 62
     3
 10
-598.11315999999999
 20
151.27795
 30
0.0
 11
-588.61310000000003
 21
151.54793999999981
 31
0.0
  0
LINE
  5
5CA
  8
0
  6
CONTINUOUS
 62
     3
 10
-577.38311999999996
 20
245.04793000000001
 30
0.0
 11
-570.38311999999985
 21
245.04793000000001
 31
0.0
  0
LINE
  5
5CB
  8
0
  6
CONTINUOUS
 62
     7
 10
-646.40314000000001
 20
204.54794000000001
 30
0.0
 11
-606.38311999999996
 21
204.54794000000001
 31
0.0
  0
LINE
  5
5CC
  8
0
  6
CONTINUOUS
 62
     3
 10
-578.38311999999985
 20
218.6979399999999
 30
0.0
 11
-570.38311999999985
 21
218.6979399999999
 31
0.0
  0
LINE
  5
5CD
  8
0
  6
CONTINUOUS
 62
     3
 10
-577.38311999999996
 20
233.58794
 30
0.0
 11
-570.38311999999985
 21
233.58794
 31
0.0
  0
LINE
  5
5CE
  8
0
  6
CONTINUOUS
 62
     3
 10
-578.38311999999985
 20
144.39795000000001
 30
0.0
 11
-570.38311999999985
 21
144.39795000000001
 31
0.0
  0
LINE
  5
5CF
  8
0
  6
CONTINUOUS
 62
     3
 10
-588.61315999999965
 20
211.5479399999999
 30
0.0
 11
-588.61315999999965
 21
151.54793999999981
 31
0.0
  0
LINE
  5
5D0
  8
0
  6
CONTINUOUS
 62
     3
 10
-725.38311999999985
 20
238.97794999999991
 30
0.0
 11
-722.56310999999982
 21
239.0479599999999
 31
0.0
  0
LINE
  5
5D1
  8
0
  6
CONTINUOUS
 62
     3
 10
-725.38311999999985
 20
238.97793999999999
 30
0.0
 11
-725.38311999999985
 21
181.5479399999999
 31
0.0
  0
LINE
  5
5D2
  8
0
  6
CONTINUOUS
 62
     3
 10
-730.38311999999985
 20
229.5679499999998
 30
0.0
 11
-730.38311999999985
 21
186.5479399999999
 31
0.0
  0
LINE
  5
5D3
  8
0
  6
CONTINUOUS
 62
     3
 10
-728.11310000000003
 20
231.2979399999999
 30
0.0
 11
-725.88311999999985
 21
231.2979399999999
 31
0.0
  0
LINE
  5
5D4
  8
0
  6
CONTINUOUS
 62
     3
 10
-585.04314999999997
 20
145.5479399999999
 30
0.0
 11
-629.38311999999985
 21
145.5479399999999
 31
0.0
  0
LINE
  5
5D5
  8
0
  6
CONTINUOUS
 62
     3
 10
-728.18310999999983
 20
217.23795000000001
 30
0.0
 11
-726.08312999999964
 21
217.23795000000001
 31
0.0
  0
LINE
  5
5D6
  8
0
  6
CONTINUOUS
 62
     3
 10
-728.61310000000003
 20
231.16793999999999
 30
0.0
 11
-729.88311999999985
 21
230.42789999999999
 31
0.0
  0
LINE
  5
5D7
  8
0
  6
CONTINUOUS
 62
     3
 10
-728.62316999999985
 20
229.0479399999999
 30
0.0
 11
-729.90314000000001
 21
228.27797000000001
 31
0.0
  0
LINE
  5
5D8
  8
0
  6
CONTINUOUS
 62
     3
 10
-728.63317999999981
 20
224.5079799999998
 30
0.0
 11
-729.93317000000002
 21
223.6579899999999
 31
0.0
  0
LINE
  5
5D9
  8
0
  6
CONTINUOUS
 62
     3
 10
-728.57312000000002
 20
217.15796
 30
0.0
 11
-729.77313000000004
 21
216.64795000000001
 31
0.0
  0
LINE
  5
5DA
  8
0
  6
CONTINUOUS
 62
     3
 10
-728.10308999999984
 20
229.18792999999999
 30
0.0
 11
-725.38311999999985
 21
229.18792999999999
 31
0.0
  0
LINE
  5
5DB
  8
0
  6
CONTINUOUS
 62
     3
 10
-728.08312999999998
 20
224.67795000000001
 30
0.0
 11
-725.38311999999985
 21
224.67795000000001
 31
0.0
  0
LINE
  5
5DC
  8
0
  6
CONTINUOUS
 62
     3
 10
-728.23308999999983
 20
215.2879299999999
 30
0.0
 11
-726.38311999999985
 21
215.2879299999999
 31
0.0
  0
LINE
  5
5DD
  8
0
  6
CONTINUOUS
 62
     3
 10
-728.11310000000003
 20
223.5379299999999
 30
0.0
 11
-726.38311999999985
 21
223.5379299999999
 31
0.0
  0
LINE
  5
5DE
  8
0
  6
CONTINUOUS
 62
     3
 10
-728.13311999999985
 20
228.0479399999999
 30
0.0
 11
-726.38311999999985
 21
228.0479399999999
 31
0.0
  0
LINE
  5
5DF
  8
0
  6
CONTINUOUS
 62
     3
 10
-728.14312999999981
 20
230.14793
 30
0.0
 11
-725.88311999999985
 21
230.14793
 31
0.0
  0
LINE
  5
5E0
  8
0
  6
CONTINUOUS
 62
     3
 10
-728.61310000000003
 20
223.3979299999998
 30
0.0
 11
-729.89312999999981
 21
222.64789999999991
 31
0.0
  0
LINE
  5
5E1
  8
0
  6
CONTINUOUS
 62
     3
 10
-728.52313000000004
 20
215.24794
 30
0.0
 11
-729.67315999999983
 21
214.89795000000001
 31
0.0
  0
LINE
  5
5E2
  8
0
  6
CONTINUOUS
 62
     3
 10
-728.59313999999983
 20
230.04792999999981
 30
0.0
 11
-729.83307000000002
 21
229.41794999999991
 31
0.0
  0
LINE
  5
5E3
  8
0
  6
CONTINUOUS
 62
     3
 10
-728.6031499999998
 20
227.93795999999989
 30
0.0
 11
-729.85308999999984
 21
227.26796999999991
 31
0.0
  0
LINE
  5
5E4
  8
0
  6
CONTINUOUS
 62
     3
 10
-726.38311999999985
 20
207.5479399999999
 30
0.0
 11
-729.38311999999985
 21
207.5479399999999
 31
0.0
  0
LINE
  5
5E5
  8
0
  6
CONTINUOUS
 62
     3
 10
-726.38311999999985
 20
205.5479399999999
 30
0.0
 11
-729.38311999999985
 21
205.5479399999999
 31
0.0
  0
LINE
  5
5E6
  8
0
  6
CONTINUOUS
 62
     3
 10
-726.38311999999985
 20
197.5479599999999
 30
0.0
 11
-729.38311999999985
 21
197.5479599999999
 31
0.0
  0
LINE
  5
5E7
  8
0
  6
CONTINUOUS
 62
     3
 10
-726.38311999999985
 20
195.5479399999999
 30
0.0
 11
-729.38311999999985
 21
195.5479399999999
 31
0.0
  0
LINE
  5
5E8
  8
0
  6
CONTINUOUS
 62
     3
 10
-726.38311999999985
 20
187.5479399999999
 30
0.0
 11
-729.38311999999985
 21
187.5479399999999
 31
0.0
  0
LINE
  5
5E9
  8
0
  6
CONTINUOUS
 62
     3
 10
-726.38311999999985
 20
185.5479599999999
 30
0.0
 11
-729.38311999999985
 21
185.5479599999999
 31
0.0
  0
LINE
  5
5EA
  8
0
  6
CONTINUOUS
 62
     3
 10
-728.38311999999985
 20
197.15793999999991
 30
0.0
 11
-728.38311999999985
 21
195.94794999999999
 31
0.0
  0
LINE
  5
5EB
  8
0
  6
CONTINUOUS
 62
     3
 10
-728.38311999999985
 20
187.15796
 30
0.0
 11
-728.38311999999985
 21
185.99794
 31
0.0
  0
LINE
  5
5EC
  8
0
  6
CONTINUOUS
 62
     3
 10
-728.38311999999985
 20
207.17795000000001
 30
0.0
 11
-728.38311999999985
 21
205.80795000000001
 31
0.0
  0
LINE
  5
5ED
  8
0
  6
CONTINUOUS
 62
     3
 10
-728.38311999999985
 20
216.93793999999991
 30
0.0
 11
-728.38311999999985
 21
215.87793999999991
 31
0.0
  0
LINE
  5
5EE
  8
0
  6
CONTINUOUS
 62
     3
 10
-728.38311999999985
 20
224.37792999999991
 30
0.0
 11
-728.38311999999985
 21
223.90794
 31
0.0
  0
LINE
  5
5EF
  8
0
  6
CONTINUOUS
 62
     3
 10
-728.38311999999985
 20
228.94794999999999
 30
0.0
 11
-728.38311999999985
 21
228.39795000000001
 31
0.0
  0
LINE
  5
5F0
  8
0
  6
CONTINUOUS
 62
     3
 10
-728.38311999999985
 20
231.0479399999999
 30
0.0
 11
-728.38311999999985
 21
230.5179399999999
 31
0.0
  0
LINE
  5
5F1
  8
0
  6
CONTINUOUS
 62
     3
 10
-731.88311999999985
 20
201.5479399999999
 30
0.0
 11
-731.88311999999985
 21
181.5479399999999
 31
0.0
  0
LINE
  5
5F2
  8
0
  6
CONTINUOUS
 62
     3
 10
-731.88311999999985
 20
201.5479399999999
 30
0.0
 11
-730.38317999999981
 21
201.67795000000001
 31
0.0
  0
LINE
  5
5F3
  8
0
  6
CONTINUOUS
 62
     3
 10
-731.88311999999985
 20
198.82795999999999
 30
0.0
 11
-730.38311999999985
 21
198.82795999999999
 31
0.0
  0
LINE
  5
5F4
  8
0
  6
CONTINUOUS
 62
     7
 10
-652.38311999999996
 20
158.54795999999999
 30
0.0
 11
-612.36310000000003
 21
158.54795999999999
 31
0.0
  0
LINE
  5
5F5
  8
0
  6
CONTINUOUS
 62
     7
 10
-677.88311999999985
 20
213.04794000000001
 30
0.0
 11
-672.38311999999985
 21
213.04794000000001
 31
0.0
  0
LINE
  5
5F6
  8
0
  6
CONTINUOUS
 62
     7
 10
-677.88311999999985
 20
150.04793999999981
 30
0.0
 11
-677.88311999999985
 21
174.0479399999999
 31
0.0
  0
LINE
  5
5F7
  8
0
  6
CONTINUOUS
 62
     7
 10
-651.88311999999996
 20
201.98795000000001
 30
0.0
 11
-651.88311999999996
 21
206.00794999999999
 31
0.0
  0
LINE
  5
5F8
  8
0
  6
CONTINUOUS
 62
     7
 10
-677.88311999999985
 20
150.04793999999981
 30
0.0
 11
-672.38311999999985
 21
150.04793999999981
 31
0.0
  0
LINE
  5
5F9
  8
0
  6
CONTINUOUS
 62
     7
 10
-606.88311999999985
 20
156.98795000000001
 30
0.0
 11
-606.88311999999985
 21
161.0179599999999
 31
0.0
  0
LINE
  5
5FA
  8
0
  6
CONTINUOUS
 62
     3
 10
-715.38311999999985
 20
229.89795000000001
 30
0.0
 11
-715.38311999999985
 21
215.8579399999999
 31
0.0
  0
LINE
  5
5FB
  8
0
  6
CONTINUOUS
 62
     3
 10
-725.38311999999985
 20
215.8579399999999
 30
0.0
 11
-715.38311999999985
 21
215.8579399999999
 31
0.0
  0
LINE
  5
5FC
  8
0
  6
CONTINUOUS
 62
     3
 10
-725.38311999999985
 20
224.23795000000001
 30
0.0
 11
-715.38311999999985
 21
224.23795000000001
 31
0.0
  0
LINE
  5
5FD
  8
0
  6
CONTINUOUS
 62
     3
 10
-725.38311999999985
 20
229.89795000000001
 30
0.0
 11
-715.38311999999985
 21
229.89795000000001
 31
0.0
  0
LINE
  5
5FE
  8
0
  6
CONTINUOUS
 62
     7
 10
-606.38311999999996
 20
164.52795
 30
0.0
 11
-606.38311999999996
 21
204.54794000000001
 31
0.0
  0
LINE
  5
5FF
  8
0
  6
CONTINUOUS
 62
     7
 10
-657.38311999999985
 20
148.0479599999999
 30
0.0
 11
-657.38311999999985
 21
151.54793999999981
 31
0.0
  0
LINE
  5
600
  8
0
  6
CONTINUOUS
 62
     7
 10
-609.01311999999996
 20
159.0479399999999
 30
0.0
 11
-604.80315999999982
 21
159.0479399999999
 31
0.0
  0
LINE
  5
601
  8
0
  6
CONTINUOUS
 62
     7
 10
-647.18311000000006
 20
199.34795
 30
0.0
 11
-611.58312999999987
 21
199.34795
 31
0.0
  0
LINE
  5
602
  8
0
  6
CONTINUOUS
 62
     7
 10
-647.18311000000006
 20
163.74794
 30
0.0
 11
-611.58312999999987
 21
163.74794
 31
0.0
  0
LINE
  5
603
  8
0
  6
CONTINUOUS
 62
     7
 10
-611.58312999999987
 20
163.74794
 30
0.0
 11
-611.58312999999987
 21
199.34795
 31
0.0
  0
LINE
  5
604
  8
0
  6
CONTINUOUS
 62
     7
 10
-647.18311000000006
 20
163.74794
 30
0.0
 11
-647.18311000000006
 21
199.34795
 31
0.0
  0
LINE
  5
605
  8
0
  6
CONTINUOUS
 62
     7
 10
-676.38311999999985
 20
211.5479399999999
 30
0.0
 11
-588.61315999999965
 21
211.5479399999999
 31
0.0
  0
LINE
  5
606
  8
0
  6
CONTINUOUS
 62
     7
 10
-657.38311999999985
 20
213.04794000000001
 30
0.0
 11
-597.88311999999996
 21
213.04794000000001
 31
0.0
  0
LINE
  5
607
  8
0
  6
CONTINUOUS
 62
     7
 10
-657.38311999999985
 20
150.04793999999981
 30
0.0
 11
-597.88311999999996
 21
150.04793999999981
 31
0.0
  0
LINE
  5
608
  8
0
  6
CONTINUOUS
 62
     7
 10
-599.38311999999985
 20
151.54793999999981
 30
0.0
 11
-599.38311999999985
 21
211.5479399999999
 31
0.0
  0
LINE
  5
609
  8
0
  6
CONTINUOUS
 62
     7
 10
-676.38311999999985
 20
151.54793999999981
 30
0.0
 11
-676.38311999999985
 21
211.5479399999999
 31
0.0
  0
LINE
  5
60A
  8
0
  6
CONTINUOUS
 62
     3
 10
-677.88311999999985
 20
167.5479599999999
 30
0.0
 11
-719.83312999999964
 21
167.5479599999999
 31
0.0
  0
LINE
  5
60B
  8
0
  6
CONTINUOUS
 62
     7
 10
-672.38311999999985
 20
215.04792999999981
 30
0.0
 11
-672.38311999999985
 21
211.5479399999999
 31
0.0
  0
LINE
  5
60C
  8
0
  6
CONTINUOUS
 62
     7
 10
-679.88311999999985
 20
189.0479399999999
 30
0.0
 11
-676.38311999999985
 21
189.0479399999999
 31
0.0
  0
LINE
  5
60D
  8
0
  6
CONTINUOUS
 62
     7
 10
-679.88311999999985
 20
174.0479399999999
 30
0.0
 11
-679.88311999999985
 21
189.0479399999999
 31
0.0
  0
LINE
  5
60E
  8
0
  6
CONTINUOUS
 62
     7
 10
-679.88311999999985
 20
174.0479399999999
 30
0.0
 11
-676.38311999999985
 21
174.0479399999999
 31
0.0
  0
LINE
  5
60F
  8
0
  6
CONTINUOUS
 62
     7
 10
-672.38311999999985
 20
148.0479599999999
 30
0.0
 11
-672.38311999999985
 21
151.54793999999981
 31
0.0
  0
LINE
  5
610
  8
0
  6
CONTINUOUS
 62
     3
 10
-702.38311999999996
 20
243.40793999999991
 30
0.0
 11
-585.57312000000002
 21
243.40793999999991
 31
0.0
  0
LINE
  5
611
  8
0
  6
CONTINUOUS
 62
     3
 10
-719.15314000000001
 20
234.52795
 30
0.0
 11
-705.88311999999996
 21
234.52795
 31
0.0
  0
LINE
  5
612
  8
0
  6
CONTINUOUS
 62
     3
 10
-721.66301999999985
 20
229.89795000000001
 30
0.0
 11
-721.12305000000003
 21
232.8879399999999
 31
0.0
  0
LINE
  5
613
  8
0
  6
CONTINUOUS
 62
     3
 10
-719.21306999999968
 20
239.8179299999999
 30
0.0
 11
-705.88311999999996
 21
239.8179299999999
 31
0.0
  0
LINE
  5
614
  8
0
  6
CONTINUOUS
 62
     7
 10
-657.38311999999985
 20
148.0479599999999
 30
0.0
 11
-672.38311999999985
 21
148.0479599999999
 31
0.0
  0
LINE
  5
615
  8
0
  6
CONTINUOUS
 62
     3
 10
-719.24310000000003
 20
243.21793
 30
0.0
 11
-705.88311999999996
 21
243.21793
 31
0.0
  0
LINE
  5
616
  8
0
  6
CONTINUOUS
 62
     3
 10
-719.27313000000004
 20
244.84792999999991
 30
0.0
 11
-705.77313000000004
 21
244.84792999999991
 31
0.0
  0
LINE
  5
617
  8
0
  6
CONTINUOUS
 62
     3
 10
-702.38311999999996
 20
247.4679399999998
 30
0.0
 11
-649.38311999999985
 21
247.4679399999998
 31
0.0
  0
LINE
  5
618
  8
0
  6
CONTINUOUS
 62
     3
 10
-702.38311999999996
 20
246.7879299999999
 30
0.0
 11
-649.38311999999985
 21
246.7879299999999
 31
0.0
  0
LINE
  5
619
  8
0
  6
CONTINUOUS
 62
     3
 10
-702.38311999999996
 20
245.43794
 30
0.0
 11
-649.38311999999985
 21
245.43794
 31
0.0
  0
LINE
  5
61A
  8
0
  6
CONTINUOUS
 62
     3
 10
-723.59313999999983
 20
232.58795000000001
 30
0.0
 11
-721.18310999999983
 21
232.58795000000001
 31
0.0
  0
LINE
  5
61B
  8
0
  6
CONTINUOUS
 62
     3
 10
-721.17309999999998
 20
238.23792999999981
 30
0.0
 11
-722.13311999999985
 21
233.7679399999999
 31
0.0
  0
LINE
  5
61C
  8
0
  6
CONTINUOUS
 62
     3
 10
-723.57312000000002
 20
236.64795000000001
 30
0.0
 11
-721.51311999999984
 21
236.64795000000001
 31
0.0
  0
LINE
  5
61D
  8
0
  6
CONTINUOUS
 62
     3
 10
-585.04314999999997
 20
217.5479399999999
 30
0.0
 11
-710.83312999999964
 21
217.5479399999999
 31
0.0
  0
LINE
  5
61E
  8
0
  6
CONTINUOUS
 62
     3
 10
-585.04314999999997
 20
215.5479399999999
 30
0.0
 11
-710.83312999999964
 21
215.5479399999999
 31
0.0
  0
LINE
  5
61F
  8
0
  6
CONTINUOUS
 62
     3
 10
-677.88311999999985
 20
207.5479399999999
 30
0.0
 11
-710.83312999999964
 21
207.5479399999999
 31
0.0
  0
LINE
  5
620
  8
0
  6
CONTINUOUS
 62
     3
 10
-721.19317999999998
 20
241.67796000000001
 30
0.0
 11
-722.11315999999988
 21
237.7979599999999
 31
0.0
  0
LINE
  5
621
  8
0
  6
CONTINUOUS
 62
     3
 10
-677.88311999999985
 20
205.5479399999999
 30
0.0
 11
-710.83312999999964
 21
205.5479399999999
 31
0.0
  0
LINE
  5
622
  8
0
  6
CONTINUOUS
 62
     3
 10
-723.55309999999986
 20
238.6679399999999
 30
0.0
 11
-721.90307999999982
 21
238.6679399999999
 31
0.0
  0
LINE
  5
623
  8
0
  6
CONTINUOUS
 62
     3
 10
-721.21312999999998
 20
243.33795000000001
 30
0.0
 11
-722.10315000000003
 21
239.80795000000001
 31
0.0
  0
LINE
  5
624
  8
0
  6
CONTINUOUS
 62
     3
 10
-677.88311999999985
 20
197.5479599999999
 30
0.0
 11
-719.83312999999964
 21
197.5479599999999
 31
0.0
  0
LINE
  5
625
  8
0
  6
CONTINUOUS
 62
     3
 10
-704.38311999999985
 20
243.43792999999991
 30
0.0
 11
-704.38311999999985
 21
236.02795
 31
0.0
  0
LINE
  5
626
  8
0
  6
CONTINUOUS
 62
     3
 10
-677.88311999999985
 20
195.5479399999999
 30
0.0
 11
-719.83312999999964
 21
195.5479399999999
 31
0.0
  0
LINE
  5
627
  8
0
  6
CONTINUOUS
 62
     3
 10
-679.88311999999985
 20
187.5479399999999
 30
0.0
 11
-719.83312999999964
 21
187.5479399999999
 31
0.0
  0
LINE
  5
628
  8
0
  6
CONTINUOUS
 62
     3
 10
-647.38311999999985
 20
245.46793
 30
0.0
 11
-647.38311999999985
 21
243.40793999999991
 31
0.0
  0
LINE
  5
629
  8
0
  6
CONTINUOUS
 62
     3
 10
-679.88311999999985
 20
185.5479599999999
 30
0.0
 11
-719.83312999999964
 21
185.5479599999999
 31
0.0
  0
LINE
  5
62A
  8
0
  6
CONTINUOUS
 62
     3
 10
-583.64319
 20
241.92797999999991
 30
0.0
 11
-580.18317000000002
 21
229.00794999999999
 31
0.0
  0
LINE
  5
62B
  8
0
  6
CONTINUOUS
 62
     3
 10
-583.67316000000017
 20
242.04792999999981
 30
0.0
 11
-578.38311999999985
 21
242.04792999999981
 31
0.0
  0
LINE
  5
62C
  8
0
  6
CONTINUOUS
 62
     3
 10
-578.67309999999975
 20
232.58795000000001
 30
0.0
 11
-581.08312999999998
 21
232.58795000000001
 31
0.0
  0
LINE
  5
62D
  8
0
  6
CONTINUOUS
 62
     3
 10
-581.58312999999998
 20
240.46794
 30
0.0
 11
-580.14312999999981
 21
233.7679399999999
 31
0.0
  0
LINE
  5
62E
  8
0
  6
CONTINUOUS
 62
     3
 10
-725.38311999999985
 20
124.1179399999999
 30
0.0
 11
-725.38311999999985
 21
181.5479399999999
 31
0.0
  0
LINE
  5
62F
  8
0
  6
CONTINUOUS
 62
     3
 10
-730.38311999999985
 20
132.95793
 30
0.0
 11
-730.38311999999985
 21
176.5479599999999
 31
0.0
  0
LINE
  5
630
  8
0
  6
CONTINUOUS
 62
     3
 10
-728.18310999999983
 20
145.85793999999979
 30
0.0
 11
-726.08312999999964
 21
145.85793999999979
 31
0.0
  0
LINE
  5
631
  8
0
  6
CONTINUOUS
 62
     3
 10
-728.57312000000002
 20
145.93796
 30
0.0
 11
-729.77313000000004
 21
146.45796000000001
 31
0.0
  0
LINE
  5
632
  8
0
  6
CONTINUOUS
 62
     3
 10
-728.23308999999983
 20
147.80794999999981
 30
0.0
 11
-726.38311999999985
 21
147.80794999999981
 31
0.0
  0
LINE
  5
633
  8
0
  6
CONTINUOUS
 62
     3
 10
-728.52306999999985
 20
147.84794999999991
 30
0.0
 11
-729.67309999999998
 21
148.20795000000001
 31
0.0
  0
LINE
  5
634
  8
0
  6
CONTINUOUS
 62
     3
 10
-726.38311999999985
 20
155.5479599999999
 30
0.0
 11
-729.38311999999985
 21
155.5479599999999
 31
0.0
  0
LINE
  5
635
  8
0
  6
CONTINUOUS
 62
     3
 10
-726.38311999999985
 20
157.54793999999981
 30
0.0
 11
-729.38311999999985
 21
157.54793999999981
 31
0.0
  0
LINE
  5
636
  8
0
  6
CONTINUOUS
 62
     3
 10
-726.38311999999985
 20
165.5479399999999
 30
0.0
 11
-729.38311999999985
 21
165.5479399999999
 31
0.0
  0
LINE
  5
637
  8
0
  6
CONTINUOUS
 62
     3
 10
-726.38311999999985
 20
167.5479599999999
 30
0.0
 11
-729.38311999999985
 21
167.5479599999999
 31
0.0
  0
LINE
  5
638
  8
0
  6
CONTINUOUS
 62
     3
 10
-726.38311999999985
 20
175.5479399999999
 30
0.0
 11
-729.38311999999985
 21
175.5479399999999
 31
0.0
  0
LINE
  5
639
  8
0
  6
CONTINUOUS
 62
     3
 10
-726.38311999999985
 20
177.5479399999999
 30
0.0
 11
-729.38311999999985
 21
177.5479399999999
 31
0.0
  0
LINE
  5
63A
  8
0
  6
CONTINUOUS
 62
     3
 10
-728.38311999999985
 20
165.93796
 30
0.0
 11
-728.38311999999985
 21
167.15793999999991
 31
0.0
  0
LINE
  5
63B
  8
0
  6
CONTINUOUS
 62
     3
 10
-728.38311999999985
 20
175.93794
 30
0.0
 11
-728.38311999999985
 21
177.0979599999998
 31
0.0
  0
LINE
  5
63C
  8
0
  6
CONTINUOUS
 62
     3
 10
-728.38311999999985
 20
155.91793999999979
 30
0.0
 11
-728.38311999999985
 21
157.2879299999999
 31
0.0
  0
LINE
  5
63D
  8
0
  6
CONTINUOUS
 62
     3
 10
-728.38311999999985
 20
146.15793999999991
 30
0.0
 11
-728.38311999999985
 21
147.21793999999991
 31
0.0
  0
LINE
  5
63E
  8
0
  6
CONTINUOUS
 62
     3
 10
-731.88311999999985
 20
161.54795999999999
 30
0.0
 11
-731.88311999999985
 21
181.5479399999999
 31
0.0
  0
LINE
  5
63F
  8
0
  6
CONTINUOUS
 62
     3
 10
-731.88311999999985
 20
161.5479399999999
 30
0.0
 11
-730.38311999999985
 21
161.4179399999999
 31
0.0
  0
LINE
  5
640
  8
0
  6
CONTINUOUS
 62
     3
 10
-731.88311999999985
 20
164.26793999999981
 30
0.0
 11
-730.38311999999985
 21
164.26793999999981
 31
0.0
  0
LINE
  5
641
  8
0
  6
CONTINUOUS
 62
     3
 10
-702.38311999999996
 20
115.62794
 30
0.0
 11
-649.38311999999985
 21
115.62794
 31
0.0
  0
LINE
  5
642
  8
0
  6
CONTINUOUS
 62
     3
 10
-719.24310000000003
 20
119.87795
 30
0.0
 11
-705.88311999999996
 21
119.87795
 31
0.0
  0
LINE
  5
643
  8
0
  6
CONTINUOUS
 62
     3
 10
-725.38311999999985
 20
138.8579399999999
 30
0.0
 11
-715.38311999999985
 21
138.8579399999999
 31
0.0
  0
LINE
  5
644
  8
0
  6
CONTINUOUS
 62
     3
 10
-702.38311999999996
 20
116.30795000000001
 30
0.0
 11
-649.38311999999985
 21
116.30795000000001
 31
0.0
  0
LINE
  5
645
  8
0
  6
CONTINUOUS
 62
     3
 10
-723.57312000000002
 20
126.4479399999999
 30
0.0
 11
-721.51311999999984
 21
126.4479399999999
 31
0.0
  0
LINE
  5
646
  8
0
  6
CONTINUOUS
 62
     3
 10
-723.59313999999983
 20
130.51793999999981
 30
0.0
 11
-721.18310999999983
 21
130.51793999999981
 31
0.0
  0
LINE
  5
647
  8
0
  6
CONTINUOUS
 62
     3
 10
-721.17315999999983
 20
124.86797
 30
0.0
 11
-722.13311999999985
 21
129.32793000000001
 31
0.0
  0
LINE
  5
648
  8
0
  6
CONTINUOUS
 62
     3
 10
-702.38311999999996
 20
117.65794
 30
0.0
 11
-649.38311999999985
 21
117.65794
 31
0.0
  0
LINE
  5
649
  8
0
  6
CONTINUOUS
 62
     3
 10
-720.92309999999986
 20
155.05794
 30
0.0
 11
-677.88311999999985
 21
155.05794
 31
0.0
  0
LINE
  5
64A
  8
0
  6
CONTINUOUS
 62
     3
 10
-629.38311999999985
 20
147.5479399999999
 30
0.0
 11
-719.84520999999995
 21
147.5479399999999
 31
0.0
  0
LINE
  5
64B
  8
0
  6
CONTINUOUS
 62
     3
 10
-711.70312999999965
 20
218.26792999999981
 30
0.0
 11
-581.56311000000005
 21
218.26792999999981
 31
0.0
  0
LINE
  5
64C
  8
0
  6
CONTINUOUS
 62
     3
 10
-711.70312999999965
 20
214.91794999999991
 30
0.0
 11
-672.38311999999985
 21
214.91794999999991
 31
0.0
  0
LINE
  5
64D
  8
0
  6
CONTINUOUS
 62
     3
 10
-711.92309999999998
 20
208.0379499999998
 30
0.0
 11
-677.88311999999985
 21
208.0379499999998
 31
0.0
  0
LINE
  5
64E
  8
0
  6
CONTINUOUS
 62
     3
 10
-711.92309999999998
 20
205.1079399999999
 30
0.0
 11
-677.88311999999985
 21
205.1079399999999
 31
0.0
  0
LINE
  5
64F
  8
0
  6
CONTINUOUS
 62
     3
 10
-721.05309999999974
 20
197.8879499999999
 30
0.0
 11
-677.88311999999985
 21
197.8879499999999
 31
0.0
  0
LINE
  5
650
  8
0
  6
CONTINUOUS
 62
     3
 10
-721.05309999999974
 20
195.2279399999999
 30
0.0
 11
-677.88311999999985
 21
195.2279399999999
 31
0.0
  0
LINE
  5
651
  8
0
  6
CONTINUOUS
 62
     3
 10
-721.11315999999988
 20
187.81792999999999
 30
0.0
 11
-679.88311999999985
 21
187.81792999999999
 31
0.0
  0
LINE
  5
652
  8
0
  6
CONTINUOUS
 62
     3
 10
-721.11315999999988
 20
185.28795
 30
0.0
 11
-679.88311999999985
 21
185.28795
 31
0.0
  0
LINE
  5
653
  8
0
  6
CONTINUOUS
 62
     3
 10
-581.56311000000005
 20
214.91794999999991
 30
0.0
 11
-598.08312999999998
 21
214.91794999999991
 31
0.0
  0
LINE
  5
654
  8
0
  6
CONTINUOUS
 62
     3
 10
-599.08312999999987
 20
213.9179399999999
 30
0.0
 11
-599.08312999999987
 21
212.8179299999999
 31
0.0
  0
LINE
  5
655
  8
0
  6
CONTINUOUS
 62
     3
 10
-598.11310000000003
 20
211.8179299999999
 30
0.0
 11
-588.61310000000003
 21
211.54792999999989
 31
0.0
  0
LINE
  5
656
  8
0
  6
CONTINUOUS
 62
     3
 10
-721.11315999999988
 20
177.81795
 30
0.0
 11
-679.88311999999985
 21
177.81795
 31
0.0
  0
LINE
  5
657
  8
0
  6
CONTINUOUS
 62
     3
 10
-679.88311999999985
 20
175.5479399999999
 30
0.0
 11
-719.83312999999964
 21
175.5479399999999
 31
0.0
  0
LINE
  5
658
  8
0
  6
CONTINUOUS
 62
     3
 10
-679.88311999999985
 20
177.5479399999999
 30
0.0
 11
-719.83312999999964
 21
177.5479399999999
 31
0.0
  0
LINE
  5
659
  8
0
  6
CONTINUOUS
 62
     7
 10
-672.38311999999985
 20
215.04792999999981
 30
0.0
 11
-657.38311999999985
 21
215.04792999999981
 31
0.0
  0
LINE
  5
65A
  8
0
  6
CONTINUOUS
 62
     3
 10
-581.56311000000005
 20
148.17793
 30
0.0
 11
-598.08312999999998
 21
148.17793
 31
0.0
  0
LINE
  5
65B
  8
0
  6
CONTINUOUS
 62
     7
 10
-657.38311999999985
 20
215.04792999999981
 30
0.0
 11
-657.38311999999985
 21
211.5479399999999
 31
0.0
  0
LINE
  5
65C
  8
0
  6
CONTINUOUS
 62
     3
 10
-721.05309999999974
 20
167.86795000000001
 30
0.0
 11
-677.88311999999985
 21
167.86795000000001
 31
0.0
  0
LINE
  5
65D
  8
0
  6
CONTINUOUS
 62
     3
 10
-731.88311999999985
 20
196.69794999999991
 30
0.0
 11
-727.60315000000003
 21
196.69794999999991
 31
0.0
  0
LINE
  5
65E
  8
0
  6
CONTINUOUS
 62
     3
 10
-599.08312999999987
 20
149.17794999999981
 30
0.0
 11
-599.08312999999987
 21
150.27795
 31
0.0
  0
LINE
  5
65F
  8
0
  6
CONTINUOUS
 62
     3
 10
-677.88311999999985
 20
165.5479399999999
 30
0.0
 11
-719.83312999999964
 21
165.5479399999999
 31
0.0
  0
LINE
  5
660
  8
0
  6
CONTINUOUS
 62
     3
 10
-721.05309999999974
 20
165.20793
 30
0.0
 11
-677.88311999999985
 21
165.20793
 31
0.0
  0
LINE
  5
661
  8
0
  6
CONTINUOUS
 62
     3
 10
-677.88311999999985
 20
157.54793999999981
 30
0.0
 11
-719.83312999999964
 21
157.54793999999981
 31
0.0
  0
LINE
  5
662
  8
0
  6
CONTINUOUS
 62
     3
 10
-720.92309999999986
 20
157.98795000000001
 30
0.0
 11
-677.88311999999985
 21
157.98795000000001
 31
0.0
  0
LINE
  5
663
  8
0
  6
CONTINUOUS
 62
     3
 10
-677.88311999999985
 20
155.5479599999999
 30
0.0
 11
-719.83312999999964
 21
155.5479599999999
 31
0.0
  0
LINE
  5
664
  8
0
  6
CONTINUOUS
 62
     3
 10
-585.04314999999997
 20
147.5479399999999
 30
0.0
 11
-629.38311999999985
 21
147.5479399999999
 31
0.0
  0
LINE
  5
665
  8
0
  6
CONTINUOUS
 62
     3
 10
-721.11315999999988
 20
175.27795
 30
0.0
 11
-679.88311999999985
 21
175.27795
 31
0.0
  0
LINE
  5
666
  8
0
  6
CONTINUOUS
 62
     3
 10
-731.88311999999985
 20
166.39793
 30
0.0
 11
-727.30309999999974
 21
166.39793
 31
0.0
  0
LINE
  5
667
  8
0
  6
CONTINUOUS
 62
     7
 10
-654.01312000000019
 20
204.0479399999999
 30
0.0
 11
-649.80315999999982
 21
204.0479399999999
 31
0.0
  0
LINE
  5
668
  8
0
  6
CONTINUOUS
 62
     7
 10
-677.88311999999985
 20
189.0479399999999
 30
0.0
 11
-677.88311999999985
 21
213.04794000000001
 31
0.0
  0
LINE
  5
669
  8
0
  6
CONTINUOUS
 62
     7
 10
-652.38311999999996
 20
158.54795999999999
 30
0.0
 11
-652.38311999999996
 21
198.56794999999991
 31
0.0
  0
LINE
  5
66A
  8
0
  6
DASHED
 62
     7
 10
-217.29079999999999
 20
148.0479599999999
 30
0.0
 11
-217.29079999999999
 21
215.04792999999981
 31
0.0
  0
LINE
  5
66B
  8
0
  6
DASHED
 62
     7
 10
-242.29079999999999
 20
158.54793999999981
 30
0.0
 11
-245.2907999999999
 21
163.74794
 31
0.0
  0
LINE
  5
66C
  8
0
  6
DASHED
 62
     7
 10
-245.29082
 20
163.74794
 30
0.0
 11
-245.29082
 21
185.48616000000001
 31
0.0
  0
LINE
  5
66D
  8
0
  6
CONTINUOUS
 62
     7
 10
-245.29082
 20
185.48616000000001
 30
0.0
 11
-245.29082
 21
199.35795999999991
 31
0.0
  0
LINE
  5
66E
  8
0
  6
CONTINUOUS
 62
     7
 10
-570.38311999999985
 20
129.50794999999991
 30
0.0
 11
-557.88311999999985
 21
129.50794999999991
 31
0.0
  0
LINE
  5
66F
  8
0
  6
CONTINUOUS
 62
     7
 10
-570.38311999999985
 20
144.39795000000001
 30
0.0
 11
-557.88311999999985
 21
144.39795000000001
 31
0.0
  0
LINE
  5
670
  8
0
  6
CONTINUOUS
 62
     7
 10
-570.38311999999985
 20
218.6979399999999
 30
0.0
 11
-557.88311999999985
 21
218.6979399999999
 31
0.0
  0
LINE
  5
671
  8
0
  6
CONTINUOUS
 62
     7
 10
-570.38311999999985
 20
233.58794
 30
0.0
 11
-557.88311999999985
 21
233.58794
 31
0.0
  0
LINE
  5
672
  8
0
  6
CONTINUOUS
 62
     7
 10
-599.40307999999982
 20
479.00662
 30
0.0
 11
-581.56311000000005
 21
479.00662
 31
0.0
  0
LINE
  5
673
  8
0
  6
CONTINUOUS
 62
     7
 10
-599.3831799999997
 20
485.8866299999998
 30
0.0
 11
-581.34888000000001
 21
485.8866299999998
 31
0.0
  0
LINE
  5
674
  8
0
  6
CONTINUOUS
 62
     7
 10
-600.40307999999982
 20
484.86660999999992
 30
0.0
 11
-600.40307999999982
 21
480.00661999999988
 31
0.0
  0
LINE
  5
675
  8
0
  6
CONTINUOUS
 62
     7
 10
-616.36315999999999
 20
484.86660999999992
 30
0.0
 11
-616.36315999999999
 21
480.00661999999988
 31
0.0
  0
LINE
  5
676
  8
0
  6
CONTINUOUS
 62
     7
 10
-617.38317999999981
 20
486.36660999999992
 30
0.0
 11
-710.84740999999985
 21
486.36660999999992
 31
0.0
  0
LINE
  5
677
  8
0
  6
CONTINUOUS
 62
     7
 10
-600.88317999999981
 20
484.86660999999992
 30
0.0
 11
-600.88317999999981
 21
479.86660999999998
 31
0.0
  0
LINE
  5
678
  8
0
  6
CONTINUOUS
 62
     7
 10
-615.8831799999997
 20
484.86660999999992
 30
0.0
 11
-615.8831799999997
 21
479.86660999999998
 31
0.0
  0
LINE
  5
679
  8
0
  6
CONTINUOUS
 62
     3
 10
-579.38311999999985
 20
451.86660999999992
 30
0.0
 11
-585.10888999999975
 21
443.04964999999999
 31
0.0
  0
LINE
  5
67A
  8
0
  6
CONTINUOUS
 62
     7
 10
-597.86950999999999
 20
442.36660999999998
 30
0.0
 11
-586.36694
 21
442.36660999999998
 31
0.0
  0
LINE
  5
67B
  8
0
  6
CONTINUOUS
 62
     3
 10
-599.38311999999985
 20
440.36657999999989
 30
0.0
 11
-599.11761000000001
 21
450.50653
 31
0.0
  0
LINE
  5
67C
  8
0
  6
CONTINUOUS
 62
     3
 10
-659.38311999999985
 20
440.36657999999989
 30
0.0
 11
-659.64862000000005
 21
450.50653
 31
0.0
  0
LINE
  5
67D
  8
0
  6
CONTINUOUS
 62
     7
 10
-713.43884000000003
 20
455.67657000000003
 30
0.0
 11
-714.39880000000016
 21
460.14654999999988
 31
0.0
  0
LINE
  5
67E
  8
0
  6
CONTINUOUS
 62
     7
 10
-715.86890000000005
 20
461.32657
 30
0.0
 11
-713.44884999999965
 21
461.32657
 31
0.0
  0
LINE
  5
67F
  8
0
  6
CONTINUOUS
 62
     7
 10
-714.17389000000003
 20
465.37322999999992
 30
0.0
 11
-713.38885000000016
 21
461.02654999999987
 31
0.0
  0
LINE
  5
680
  8
0
  6
CONTINUOUS
 62
     7
 10
-721.11315999999988
 20
506.09658999999999
 30
0.0
 11
-648.64795000000004
 21
506.09658999999999
 31
0.0
  0
LINE
  5
681
  8
0
  6
CONTINUOUS
 62
     7
 10
-585.04309000000001
 20
478.36660999999992
 30
0.0
 11
-599.3831799999997
 21
478.36660999999992
 31
0.0
  0
LINE
  5
682
  8
0
  6
CONTINUOUS
 62
     7
 10
-585.05029000000002
 20
486.36660999999992
 30
0.0
 11
-599.3831799999997
 21
486.36660999999992
 31
0.0
  0
LINE
  5
683
  8
0
  6
CONTINUOUS
 62
     7
 10
-711.92309999999998
 20
488.80655000000002
 30
0.0
 11
-581.34888000000001
 21
488.80655000000002
 31
0.0
  0
LINE
  5
684
  8
0
  6
CONTINUOUS
 62
     7
 10
-585.05029000000002
 20
488.36660999999998
 30
0.0
 11
-710.84740999999985
 21
488.36660999999998
 31
0.0
  0
LINE
  5
685
  8
0
  6
CONTINUOUS
 62
     7
 10
-721.05309999999974
 20
496.02663999999999
 30
0.0
 11
-648.71190999999999
 21
496.02663999999999
 31
0.0
  0
LINE
  5
686
  8
0
  6
CONTINUOUS
 62
     7
 10
-649.94104000000004
 20
496.36660999999998
 30
0.0
 11
-719.83312999999964
 21
496.36660999999998
 31
0.0
  0
LINE
  5
687
  8
0
  6
CONTINUOUS
 62
     7
 10
-721.05309999999974
 20
498.68655000000001
 30
0.0
 11
-648.71190999999999
 21
498.68655000000001
 31
0.0
  0
LINE
  5
688
  8
0
  6
CONTINUOUS
 62
     7
 10
-649.94104000000004
 20
508.36660999999998
 30
0.0
 11
-719.83312999999964
 21
508.36660999999998
 31
0.0
  0
LINE
  5
689
  8
0
  6
CONTINUOUS
 62
     7
 10
-649.94104000000004
 20
506.36660999999981
 30
0.0
 11
-719.83312999999964
 21
506.36660999999981
 31
0.0
  0
LINE
  5
68A
  8
0
  6
CONTINUOUS
 62
     7
 10
-721.11315999999988
 20
508.63662999999991
 30
0.0
 11
-648.64795000000004
 21
508.63662999999991
 31
0.0
  0
LINE
  5
68B
  8
0
  6
CONTINUOUS
 62
     7
 10
-721.11315999999988
 20
516.10657000000003
 30
0.0
 11
-648.64795000000004
 21
516.10657000000003
 31
0.0
  0
LINE
  5
68C
  8
0
  6
CONTINUOUS
 62
     7
 10
-721.11315999999988
 20
518.64661000000001
 30
0.0
 11
-648.64795000000004
 21
518.64661000000001
 31
0.0
  0
LINE
  5
68D
  8
0
  6
CONTINUOUS
 62
     7
 10
-721.05309999999974
 20
526.04663000000005
 30
0.0
 11
-648.72437000000002
 21
526.04663000000005
 31
0.0
  0
LINE
  5
68E
  8
0
  6
CONTINUOUS
 62
     7
 10
-721.05309999999974
 20
528.71654999999976
 30
0.0
 11
-648.71190999999999
 21
528.71654999999976
 31
0.0
  0
LINE
  5
68F
  8
0
  6
CONTINUOUS
 62
     7
 10
-711.92309999999998
 20
535.93651999999997
 30
0.0
 11
-581.34888000000001
 21
535.93651999999997
 31
0.0
  0
LINE
  5
690
  8
0
  6
CONTINUOUS
 62
     7
 10
-711.92309999999998
 20
538.85657000000003
 30
0.0
 11
-617.38317999999981
 21
538.85657000000003
 31
0.0
  0
LINE
  5
691
  8
0
  6
CONTINUOUS
 62
     7
 10
-711.71312999999975
 20
545.73657000000003
 30
0.0
 11
-617.36315999999999
 21
545.73657000000003
 31
0.0
  0
LINE
  5
692
  8
0
  6
CONTINUOUS
 62
     7
 10
-711.71312999999975
 20
549.09655999999995
 30
0.0
 11
-581.56311000000005
 21
549.09655999999995
 31
0.0
  0
LINE
  5
693
  8
0
  6
CONTINUOUS
 62
     7
 10
-617.38317999999981
 20
478.36660999999992
 30
0.0
 11
-710.84740999999985
 21
478.36660999999992
 31
0.0
  0
LINE
  5
694
  8
0
  6
CONTINUOUS
 62
     7
 10
-711.92309999999998
 20
485.8866299999998
 30
0.0
 11
-617.38317999999981
 21
485.8866299999998
 31
0.0
  0
LINE
  5
695
  8
0
  6
CONTINUOUS
 62
     7
 10
-702.38317999999981
 20
448.47658999999999
 30
0.0
 11
-661.05676000000017
 21
448.47658999999999
 31
0.0
  0
LINE
  5
696
  8
0
  6
CONTINUOUS
 62
     7
 10
-723.57312000000002
 20
457.26662999999979
 30
0.0
 11
-713.78039999999999
 21
457.26662999999979
 31
0.0
  0
LINE
  5
697
  8
0
  6
CONTINUOUS
 62
     7
 10
-725.38317999999981
 20
469.67667
 30
0.0
 11
-715.38317999999981
 21
469.67667
 31
0.0
  0
LINE
  5
698
  8
0
  6
CONTINUOUS
 62
     7
 10
-719.6825
 20
450.69655999999998
 30
0.0
 11
-705.64038000000005
 21
450.69655999999998
 31
0.0
  0
LINE
  5
699
  8
0
  6
CONTINUOUS
 62
     7
 10
-725.38317999999981
 20
478.06655999999981
 30
0.0
 11
-715.38317999999981
 21
478.06655999999981
 31
0.0
  0
LINE
  5
69A
  8
0
  6
CONTINUOUS
 62
     7
 10
-725.38317999999981
 20
569.79663000000005
 30
0.0
 11
-725.38317999999981
 21
512.36658
 31
0.0
  0
LINE
  5
69B
  8
0
  6
CONTINUOUS
 62
     7
 10
-582.83294999999976
 20
577.10181
 30
0.0
 11
-580.14312999999981
 21
564.58654999999999
 31
0.0
  0
LINE
  5
69C
  8
0
  6
CONTINUOUS
 62
     7
 10
-578.67309999999975
 20
563.40661999999975
 30
0.0
 11
-581.09313999999995
 21
563.40661999999975
 31
0.0
  0
LINE
  5
69D
  8
0
  6
CONTINUOUS
 62
     7
 10
-581.92273
 20
572.86657999999989
 30
0.0
 11
-578.3831799999997
 21
572.86657999999989
 31
0.0
  0
LINE
  5
69E
  8
0
  6
CONTINUOUS
 62
     7
 10
-583.64312999999981
 20
572.74670000000003
 30
0.0
 11
-580.18311000000017
 21
559.82659999999964
 31
0.0
  0
LINE
  5
69F
  8
0
  6
CONTINUOUS
 62
     7
 10
-649.94104000000004
 20
516.36658
 30
0.0
 11
-719.83312999999964
 21
516.36658
 31
0.0
  0
LINE
  5
6A0
  8
0
  6
CONTINUOUS
 62
     7
 10
-649.94104000000004
 20
518.36657999999989
 30
0.0
 11
-719.83312999999964
 21
518.36657999999989
 31
0.0
  0
LINE
  5
6A1
  8
0
  6
CONTINUOUS
 62
     7
 10
-649.94446000000016
 20
526.36658
 30
0.0
 11
-719.83312999999964
 21
526.36658
 31
0.0
  0
LINE
  5
6A2
  8
0
  6
CONTINUOUS
 62
     7
 10
-704.38317999999981
 20
574.25658999999985
 30
0.0
 11
-704.38317999999981
 21
566.85657000000003
 31
0.0
  0
LINE
  5
6A3
  8
0
  6
CONTINUOUS
 62
     7
 10
-649.94446000000016
 20
528.36658
 30
0.0
 11
-719.83312999999964
 21
528.36658
 31
0.0
  0
LINE
  5
6A4
  8
0
  6
CONTINUOUS
 62
     7
 10
-721.21312999999998
 20
574.15656000000001
 30
0.0
 11
-722.10315000000003
 21
570.62665000000004
 31
0.0
  0
LINE
  5
6A5
  8
0
  6
CONTINUOUS
 62
     7
 10
-723.55309999999986
 20
569.48657000000003
 30
0.0
 11
-721.90307999999982
 21
569.48657000000003
 31
0.0
  0
LINE
  5
6A6
  8
0
  6
CONTINUOUS
 62
     7
 10
-585.05029000000002
 20
536.36657999999966
 30
0.0
 11
-710.83312999999964
 21
536.36657999999966
 31
0.0
  0
LINE
  5
6A7
  8
0
  6
CONTINUOUS
 62
     7
 10
-721.19312000000002
 20
572.49663999999996
 30
0.0
 11
-722.11315999999988
 21
568.62659000000019
 31
0.0
  0
LINE
  5
6A8
  8
0
  6
CONTINUOUS
 62
     7
 10
-585.03600999999958
 20
538.36658
 30
0.0
 11
-599.3831799999997
 21
538.36658
 31
0.0
  0
LINE
  5
6A9
  8
0
  6
CONTINUOUS
 62
     7
 10
-585.04309000000001
 20
546.36658
 30
0.0
 11
-599.3831799999997
 21
546.36658
 31
0.0
  0
LINE
  5
6AA
  8
0
  6
CONTINUOUS
 62
     7
 10
-585.04309000000001
 20
548.36657999999977
 30
0.0
 11
-710.83312999999964
 21
548.36657999999977
 31
0.0
  0
LINE
  5
6AB
  8
0
  6
CONTINUOUS
 62
     7
 10
-723.57312000000002
 20
567.46654999999976
 30
0.0
 11
-713.78039999999999
 21
567.46654999999976
 31
0.0
  0
LINE
  5
6AC
  8
0
  6
CONTINUOUS
 62
     7
 10
-713.43884000000003
 20
569.05664000000002
 30
0.0
 11
-714.39886000000001
 21
564.58654999999999
 31
0.0
  0
LINE
  5
6AD
  8
0
  6
CONTINUOUS
 62
     7
 10
-715.86890000000005
 20
563.40661999999975
 30
0.0
 11
-713.44884999999965
 21
563.40661999999975
 31
0.0
  0
LINE
  5
6AE
  8
0
  6
CONTINUOUS
 62
     7
 10
-702.38317999999981
 20
576.25659000000019
 30
0.0
 11
-583.86315999999999
 21
576.25659000000019
 31
0.0
  0
LINE
  5
6AF
  8
0
  6
CONTINUOUS
 62
     7
 10
-702.38317999999981
 20
577.61658
 30
0.0
 11
-584.15552000000002
 21
577.61658
 31
0.0
  0
LINE
  5
6B0
  8
0
  6
CONTINUOUS
 62
     7
 10
-702.38317999999981
 20
578.28661999999986
 30
0.0
 11
-584.29944
 21
578.28661999999986
 31
0.0
  0
LINE
  5
6B1
  8
0
  6
CONTINUOUS
 62
     7
 10
-719.27307000000019
 20
575.66663000000005
 30
0.0
 11
-705.77306999999985
 21
575.66663000000005
 31
0.0
  0
LINE
  5
6B2
  8
0
  6
CONTINUOUS
 62
     7
 10
-719.25316999999995
 20
574.03661999999952
 30
0.0
 11
-705.88317999999981
 21
574.03661999999952
 31
0.0
  0
LINE
  5
6B3
  8
0
  6
CONTINUOUS
 62
     7
 10
-711.49267999999995
 20
570.63660000000004
 30
0.0
 11
-705.88317999999981
 21
570.63660000000004
 31
0.0
  0
LINE
  5
6B4
  8
0
  6
CONTINUOUS
 62
     7
 10
-714.17382999999995
 20
559.35999000000004
 30
0.0
 11
-713.38879000000031
 21
563.70659999999987
 31
0.0
  0
LINE
  5
6B5
  8
0
  6
CONTINUOUS
 62
     7
 10
-711.42882999999995
 20
565.35657000000003
 30
0.0
 11
-705.88317999999981
 21
565.35657000000003
 31
0.0
  0
LINE
  5
6B6
  8
0
  6
CONTINUOUS
 62
     7
 10
-702.38317999999981
 20
574.22655999999995
 30
0.0
 11
-585.57312000000002
 21
574.22655999999995
 31
0.0
  0
LINE
  5
6B7
  8
0
  6
CONTINUOUS
 62
     7
 10
-649.94104000000004
 20
498.36660999999992
 30
0.0
 11
-719.83312999999964
 21
498.36660999999992
 31
0.0
  0
LINE
  5
6B8
  8
0
  6
CONTINUOUS
 62
     7
 10
-725.38317999999981
 20
560.71654999999976
 30
0.0
 11
-715.38317999999981
 21
560.71654999999976
 31
0.0
  0
LINE
  5
6B9
  8
0
  6
CONTINUOUS
 62
     7
 10
-725.38317999999981
 20
555.05651999999998
 30
0.0
 11
-715.38317999999981
 21
555.05651999999998
 31
0.0
  0
LINE
  5
6BA
  8
0
  6
CONTINUOUS
 62
     7
 10
-725.38317999999981
 20
546.67664000000002
 30
0.0
 11
-715.38317999999981
 21
546.67664000000002
 31
0.0
  0
LINE
  5
6BB
  8
0
  6
CONTINUOUS
 62
     7
 10
-715.38317999999981
 20
560.71654999999976
 30
0.0
 11
-715.38317999999981
 21
546.67664000000002
 31
0.0
  0
LINE
  5
6BC
  8
0
  6
CONTINUOUS
 62
     7
 10
-585.04309000000001
 20
476.36660999999998
 30
0.0
 11
-629.38317999999981
 21
476.36660999999998
 31
0.0
  0
LINE
  5
6BD
  8
0
  6
CONTINUOUS
 62
     7
 10
-725.38317999999981
 20
454.93655000000001
 30
0.0
 11
-725.38317999999981
 21
512.36658
 31
0.0
  0
LINE
  5
6BE
  8
0
  6
CONTINUOUS
 62
     7
 10
-725.38311999999985
 20
569.79663000000005
 30
0.0
 11
-722.56310999999982
 21
569.86663999999985
 31
0.0
  0
LINE
  5
6BF
  8
0
  6
CONTINUOUS
 62
     7
 10
-578.3831799999997
 20
449.86660999999998
 30
0.0
 11
-578.3831799999997
 21
574.86658
 31
0.0
  0
LINE
  5
6C0
  8
0
  6
CONTINUOUS
 62
     7
 10
-684.38317999999981
 20
558.71654999999998
 30
0.0
 11
-578.3831799999997
 21
558.71654999999998
 31
0.0
  0
LINE
  5
6C1
  8
0
  6
CONTINUOUS
 62
     7
 10
-723.55309999999986
 20
455.24660999999998
 30
0.0
 11
-721.90307999999982
 21
455.24660999999998
 31
0.0
  0
LINE
  5
6C2
  8
0
  6
CONTINUOUS
 62
     7
 10
-704.38317999999981
 20
450.47757000000001
 30
0.0
 11
-704.38317999999981
 21
457.88662999999991
 31
0.0
  0
LINE
  5
6C3
  8
0
  6
CONTINUOUS
 62
     7
 10
-721.19317999999998
 20
452.23656999999992
 30
0.0
 11
-722.11315999999988
 21
456.11667
 31
0.0
  0
LINE
  5
6C4
  8
0
  6
CONTINUOUS
 62
     7
 10
-721.62182999999982
 20
452.20760999999987
 30
0.0
 11
-722.10315000000003
 21
454.11664000000002
 31
0.0
  0
LINE
  5
6C5
  8
0
  6
CONTINUOUS
 62
     7
 10
-583.64312999999981
 20
451.99655000000001
 30
0.0
 11
-580.18311000000017
 21
464.90664999999979
 31
0.0
  0
LINE
  5
6C6
  8
0
  6
CONTINUOUS
 62
     7
 10
-725.38317999999981
 20
464.01662999999968
 30
0.0
 11
-715.38317999999981
 21
464.01662999999968
 31
0.0
  0
LINE
  5
6C7
  8
0
  6
CONTINUOUS
 62
     7
 10
-715.38317999999981
 20
464.01662999999968
 30
0.0
 11
-715.38317999999981
 21
478.06655999999981
 31
0.0
  0
LINE
  5
6C8
  8
0
  6
CONTINUOUS
 62
     7
 10
-711.62328999999988
 20
459.38663000000003
 30
0.0
 11
-705.88317999999981
 21
459.38663000000003
 31
0.0
  0
LINE
  5
6C9
  8
0
  6
CONTINUOUS
 62
     7
 10
-702.38317999999981
 20
450.50661999999988
 30
0.0
 11
-585.57312000000002
 21
450.50661999999988
 31
0.0
  0
LINE
  5
6CA
  8
0
  6
CONTINUOUS
 62
     7
 10
-711.68555000000003
 20
454.10659999999979
 30
0.0
 11
-705.88317999999981
 21
454.10659999999979
 31
0.0
  0
LINE
  5
6CB
  8
0
  6
CONTINUOUS
 62
     7
 10
-711.71312999999975
 20
475.64663999999988
 30
0.0
 11
-629.38317999999981
 21
475.64663999999988
 31
0.0
  0
LINE
  5
6CC
  8
0
  6
CONTINUOUS
 62
     7
 10
-629.38317999999981
 20
475.64663999999988
 30
0.0
 11
-581.56311000000005
 21
475.64663999999988
 31
0.0
  0
LINE
  5
6CD
  8
0
  6
CONTINUOUS
 62
     7
 10
-629.38317999999981
 20
476.36660999999998
 30
0.0
 11
-710.84740999999985
 21
476.36660999999998
 31
0.0
  0
LINE
  5
6CE
  8
0
  6
CONTINUOUS
 62
     7
 10
-711.71312999999975
 20
479.00662
 30
0.0
 11
-617.36315999999999
 21
479.00662
 31
0.0
  0
LINE
  5
6CF
  8
0
  6
CONTINUOUS
 62
     7
 10
-583.67309999999975
 20
451.86660999999992
 30
0.0
 11
-578.3831799999997
 21
451.86660999999992
 31
0.0
  0
LINE
  5
6D0
  8
0
  6
CONTINUOUS
 62
     7
 10
-684.38317999999981
 20
466.01662999999991
 30
0.0
 11
-578.3831799999997
 21
466.01662999999991
 31
0.0
  0
LINE
  5
6D1
  8
0
  6
CONTINUOUS
 62
     7
 10
-725.38311999999985
 20
454.93657999999999
 30
0.0
 11
-722.56310999999982
 21
454.87655999999998
 31
0.0
  0
LINE
  5
6D2
  8
0
  6
CONTINUOUS
 62
     7
 10
-577.38317999999981
 20
575.86658
 30
0.0
 11
-570.3831799999997
 21
575.86658
 31
0.0
  0
LINE
  5
6D3
  8
0
  6
CONTINUOUS
 62
     7
 10
-577.38317999999981
 20
564.40661999999998
 30
0.0
 11
-570.3831799999997
 21
564.40661999999998
 31
0.0
  0
LINE
  5
6D4
  8
0
  6
CONTINUOUS
 62
     7
 10
-577.38317999999981
 20
448.86660999999992
 30
0.0
 11
-570.3831799999997
 21
448.86660999999992
 31
0.0
  0
LINE
  5
6D5
  8
0
  6
CONTINUOUS
 62
     7
 10
-578.3831799999997
 20
475.21657999999991
 30
0.0
 11
-570.3831799999997
 21
475.21657999999991
 31
0.0
  0
LINE
  5
6D6
  8
0
  6
CONTINUOUS
 62
     7
 10
-577.38317999999981
 20
460.32657
 30
0.0
 11
-570.3831799999997
 21
460.32657
 31
0.0
  0
LINE
  5
6D7
  8
0
  6
CONTINUOUS
 62
     7
 10
-578.3831799999997
 20
549.51660000000004
 30
0.0
 11
-570.3831799999997
 21
549.51660000000004
 31
0.0
  0
LINE
  5
6D8
  8
0
  6
CONTINUOUS
 62
     7
 10
-730.38317999999981
 20
560.38660000000004
 30
0.0
 11
-730.38317999999981
 21
517.36658
 31
0.0
  0
LINE
  5
6D9
  8
0
  6
CONTINUOUS
 62
     7
 10
-728.11315999999999
 20
562.11657999999989
 30
0.0
 11
-725.88317999999981
 21
562.11657999999989
 31
0.0
  0
LINE
  5
6DA
  8
0
  6
CONTINUOUS
 62
     7
 10
-728.18310999999983
 20
548.05651999999998
 30
0.0
 11
-726.08312999999964
 21
548.05651999999998
 31
0.0
  0
LINE
  5
6DB
  8
0
  6
CONTINUOUS
 62
     7
 10
-728.61310000000003
 20
561.98662999999988
 30
0.0
 11
-729.88311999999985
 21
561.24663999999996
 31
0.0
  0
LINE
  5
6DC
  8
0
  6
CONTINUOUS
 62
     7
 10
-728.62311
 20
559.86658
 30
0.0
 11
-729.9030799999997
 21
559.09662000000003
 31
0.0
  0
LINE
  5
6DD
  8
0
  6
CONTINUOUS
 62
     7
 10
-728.63311999999985
 20
555.32659999999976
 30
0.0
 11
-729.93310999999983
 21
554.47662000000003
 31
0.0
  0
LINE
  5
6DE
  8
0
  6
CONTINUOUS
 62
     7
 10
-728.57305999999983
 20
547.97655999999995
 30
0.0
 11
-729.77313000000004
 21
547.46654999999976
 31
0.0
  0
LINE
  5
6DF
  8
0
  6
CONTINUOUS
 62
     7
 10
-728.10315000000003
 20
560.00658999999985
 30
0.0
 11
-725.38317999999981
 21
560.00658999999985
 31
0.0
  0
LINE
  5
6E0
  8
0
  6
CONTINUOUS
 62
     7
 10
-728.08312999999998
 20
555.49657999999965
 30
0.0
 11
-725.38317999999981
 21
555.49657999999965
 31
0.0
  0
LINE
  5
6E1
  8
0
  6
CONTINUOUS
 62
     7
 10
-728.23315000000002
 20
546.10657000000003
 30
0.0
 11
-726.38317999999981
 21
546.10657000000003
 31
0.0
  0
LINE
  5
6E2
  8
0
  6
CONTINUOUS
 62
     7
 10
-728.11315999999999
 20
554.35657000000003
 30
0.0
 11
-726.38317999999981
 21
554.35657000000003
 31
0.0
  0
LINE
  5
6E3
  8
0
  6
CONTINUOUS
 62
     7
 10
-728.13317999999981
 20
558.86658
 30
0.0
 11
-726.38317999999981
 21
558.86658
 31
0.0
  0
LINE
  5
6E4
  8
0
  6
CONTINUOUS
 62
     7
 10
-728.14306999999985
 20
560.96654999999998
 30
0.0
 11
-725.88317999999981
 21
560.96654999999998
 31
0.0
  0
LINE
  5
6E5
  8
0
  6
CONTINUOUS
 62
     7
 10
-728.61315999999999
 20
554.21654999999998
 30
0.0
 11
-729.89312999999981
 21
553.46654999999998
 31
0.0
  0
LINE
  5
6E6
  8
0
  6
CONTINUOUS
 62
     7
 10
-728.52319
 20
546.06664999999998
 30
0.0
 11
-729.67322000000001
 21
545.71660999999995
 31
0.0
  0
LINE
  5
6E7
  8
0
  6
CONTINUOUS
 62
     7
 10
-728.59313999999983
 20
560.86657999999977
 30
0.0
 11
-729.83312999999998
 21
560.23657000000003
 31
0.0
  0
LINE
  5
6E8
  8
0
  6
CONTINUOUS
 62
     7
 10
-728.6031499999998
 20
558.75665000000004
 30
0.0
 11
-729.85315000000003
 21
558.08667000000003
 31
0.0
  0
LINE
  5
6E9
  8
0
  6
CONTINUOUS
 62
     7
 10
-726.38317999999981
 20
538.36658
 30
0.0
 11
-729.38317999999981
 21
538.36658
 31
0.0
  0
LINE
  5
6EA
  8
0
  6
CONTINUOUS
 62
     7
 10
-726.38317999999981
 20
536.36657999999966
 30
0.0
 11
-729.38317999999981
 21
536.36657999999966
 31
0.0
  0
LINE
  5
6EB
  8
0
  6
CONTINUOUS
 62
     7
 10
-726.38317999999981
 20
528.36658
 30
0.0
 11
-729.38317999999981
 21
528.36658
 31
0.0
  0
LINE
  5
6EC
  8
0
  6
CONTINUOUS
 62
     7
 10
-726.38317999999981
 20
526.36658
 30
0.0
 11
-729.38317999999981
 21
526.36658
 31
0.0
  0
LINE
  5
6ED
  8
0
  6
CONTINUOUS
 62
     7
 10
-726.38317999999981
 20
518.36657999999989
 30
0.0
 11
-729.38317999999981
 21
518.36657999999989
 31
0.0
  0
LINE
  5
6EE
  8
0
  6
CONTINUOUS
 62
     7
 10
-726.38317999999981
 20
516.36658
 30
0.0
 11
-729.38317999999981
 21
516.36658
 31
0.0
  0
LINE
  5
6EF
  8
0
  6
CONTINUOUS
 62
     7
 10
-728.3831799999997
 20
527.97655999999995
 30
0.0
 11
-728.3831799999997
 21
526.76660000000004
 31
0.0
  0
LINE
  5
6F0
  8
0
  6
CONTINUOUS
 62
     7
 10
-728.3831799999997
 20
517.97655999999995
 30
0.0
 11
-728.3831799999997
 21
516.81652999999994
 31
0.0
  0
LINE
  5
6F1
  8
0
  6
CONTINUOUS
 62
     7
 10
-728.3831799999997
 20
537.99657999999988
 30
0.0
 11
-728.3831799999997
 21
536.62659000000008
 31
0.0
  0
LINE
  5
6F2
  8
0
  6
CONTINUOUS
 62
     7
 10
-728.3831799999997
 20
547.75658999999996
 30
0.0
 11
-728.3831799999997
 21
546.69653000000005
 31
0.0
  0
LINE
  5
6F3
  8
0
  6
CONTINUOUS
 62
     7
 10
-728.3831799999997
 20
555.19653000000005
 30
0.0
 11
-728.3831799999997
 21
554.72655999999995
 31
0.0
  0
LINE
  5
6F4
  8
0
  6
CONTINUOUS
 62
     7
 10
-728.3831799999997
 20
559.76660000000004
 30
0.0
 11
-728.3831799999997
 21
559.21654999999998
 31
0.0
  0
LINE
  5
6F5
  8
0
  6
CONTINUOUS
 62
     7
 10
-728.3831799999997
 20
561.86658
 30
0.0
 11
-728.3831799999997
 21
561.33654999999965
 31
0.0
  0
LINE
  5
6F6
  8
0
  6
CONTINUOUS
 62
     7
 10
-731.88317999999981
 20
532.36657999999966
 30
0.0
 11
-731.88317999999981
 21
512.36658
 31
0.0
  0
LINE
  5
6F7
  8
0
  6
CONTINUOUS
 62
     7
 10
-731.88311999999985
 20
532.36663999999985
 30
0.0
 11
-730.38311999999985
 21
532.49663999999996
 31
0.0
  0
LINE
  5
6F8
  8
0
  6
CONTINUOUS
 62
     7
 10
-731.88317999999981
 20
527.51660000000004
 30
0.0
 11
-730.38317999999981
 21
527.51660000000004
 31
0.0
  0
LINE
  5
6F9
  8
0
  6
CONTINUOUS
 62
     7
 10
-731.88317999999981
 20
529.6466099999999
 30
0.0
 11
-730.38317999999981
 21
529.6466099999999
 31
0.0
  0
LINE
  5
6FA
  8
0
  6
CONTINUOUS
 62
     7
 10
-728.18310999999983
 20
476.67666999999989
 30
0.0
 11
-726.08312999999964
 21
476.67666999999989
 31
0.0
  0
LINE
  5
6FB
  8
0
  6
CONTINUOUS
 62
     7
 10
-728.57312000000002
 20
476.75659000000002
 30
0.0
 11
-729.77313000000004
 21
477.27658000000002
 31
0.0
  0
LINE
  5
6FC
  8
0
  6
CONTINUOUS
 62
     7
 10
-728.23315000000002
 20
478.62662
 30
0.0
 11
-726.38317999999981
 21
478.62662
 31
0.0
  0
LINE
  5
6FD
  8
0
  6
CONTINUOUS
 62
     7
 10
-728.52313000000004
 20
478.66663
 30
0.0
 11
-729.67309999999998
 21
479.02663999999999
 31
0.0
  0
LINE
  5
6FE
  8
0
  6
CONTINUOUS
 62
     7
 10
-726.38317999999981
 20
486.36660999999992
 30
0.0
 11
-729.38317999999981
 21
486.36660999999992
 31
0.0
  0
LINE
  5
6FF
  8
0
  6
CONTINUOUS
 62
     7
 10
-726.38317999999981
 20
488.36660999999998
 30
0.0
 11
-729.38317999999981
 21
488.36660999999998
 31
0.0
  0
LINE
  5
700
  8
0
  6
CONTINUOUS
 62
     7
 10
-726.38317999999981
 20
496.36660999999998
 30
0.0
 11
-729.38317999999981
 21
496.36660999999998
 31
0.0
  0
LINE
  5
701
  8
0
  6
CONTINUOUS
 62
     7
 10
-726.38317999999981
 20
498.36660999999992
 30
0.0
 11
-729.38317999999981
 21
498.36660999999992
 31
0.0
  0
LINE
  5
702
  8
0
  6
CONTINUOUS
 62
     7
 10
-726.38317999999981
 20
506.36660999999981
 30
0.0
 11
-729.38317999999981
 21
506.36660999999981
 31
0.0
  0
LINE
  5
703
  8
0
  6
CONTINUOUS
 62
     7
 10
-726.38317999999981
 20
508.36660999999998
 30
0.0
 11
-729.38317999999981
 21
508.36660999999998
 31
0.0
  0
LINE
  5
704
  8
0
  6
CONTINUOUS
 62
     7
 10
-728.3831799999997
 20
496.75662
 30
0.0
 11
-728.3831799999997
 21
497.97658999999999
 31
0.0
  0
LINE
  5
705
  8
0
  6
CONTINUOUS
 62
     7
 10
-728.3831799999997
 20
506.75661999999988
 30
0.0
 11
-728.3831799999997
 21
507.91665999999992
 31
0.0
  0
LINE
  5
706
  8
0
  6
CONTINUOUS
 62
     7
 10
-728.3831799999997
 20
486.73660000000001
 30
0.0
 11
-728.3831799999997
 21
488.10660000000001
 31
0.0
  0
LINE
  5
707
  8
0
  6
CONTINUOUS
 62
     7
 10
-728.3831799999997
 20
476.97658999999999
 30
0.0
 11
-728.3831799999997
 21
478.03665000000001
 31
0.0
  0
LINE
  5
708
  8
0
  6
CONTINUOUS
 62
     7
 10
-731.88317999999981
 20
492.36660999999998
 30
0.0
 11
-731.88317999999981
 21
512.36658
 31
0.0
  0
LINE
  5
709
  8
0
  6
CONTINUOUS
 62
     7
 10
-731.88311999999985
 20
492.36660999999998
 30
0.0
 11
-730.38311999999985
 21
492.23660000000001
 31
0.0
  0
LINE
  5
70A
  8
0
  6
CONTINUOUS
 62
     7
 10
-731.88317999999981
 20
497.21657999999991
 30
0.0
 11
-730.38317999999981
 21
497.21657999999991
 31
0.0
  0
LINE
  5
70B
  8
0
  6
CONTINUOUS
 62
     7
 10
-731.88317999999981
 20
495.0865799999998
 30
0.0
 11
-730.38317999999981
 21
495.0865799999998
 31
0.0
  0
LINE
  5
70C
  8
0
  6
CONTINUOUS
 62
     7
 10
-729.89312999999981
 20
471.26657
 30
0.0
 11
-729.91309000000001
 21
471.2765799999998
 31
0.0
  0
LINE
  5
70D
  8
0
  6
CONTINUOUS
 62
     7
 10
-730.38317999999981
 20
464.34658999999988
 30
0.0
 11
-730.38317999999981
 21
507.36660999999992
 31
0.0
  0
LINE
  5
70E
  8
0
  6
CONTINUOUS
 62
     7
 10
-728.11315999999999
 20
462.61660999999981
 30
0.0
 11
-725.88317999999981
 21
462.61660999999981
 31
0.0
  0
LINE
  5
70F
  8
0
  6
CONTINUOUS
 62
     7
 10
-728.61310000000003
 20
462.75659000000002
 30
0.0
 11
-729.88306
 21
463.4865699999998
 31
0.0
  0
LINE
  5
710
  8
0
  6
CONTINUOUS
 62
     7
 10
-728.62311
 20
464.86657999999989
 30
0.0
 11
-729.90314000000001
 21
465.63659999999999
 31
0.0
  0
LINE
  5
711
  8
0
  6
CONTINUOUS
 62
     7
 10
-728.63306
 20
469.40658999999999
 30
0.0
 11
-729.93304000000001
 21
470.25659000000002
 31
0.0
  0
LINE
  5
712
  8
0
  6
CONTINUOUS
 62
     7
 10
-728.10315000000003
 20
464.72658999999987
 30
0.0
 11
-725.38317999999981
 21
464.72658999999987
 31
0.0
  0
LINE
  5
713
  8
0
  6
CONTINUOUS
 62
     7
 10
-728.08312999999998
 20
469.24660999999981
 30
0.0
 11
-725.38317999999981
 21
469.24660999999981
 31
0.0
  0
LINE
  5
714
  8
0
  6
CONTINUOUS
 62
     7
 10
-728.11315999999999
 20
470.38662999999991
 30
0.0
 11
-726.38317999999981
 21
470.38662999999991
 31
0.0
  0
LINE
  5
715
  8
0
  6
CONTINUOUS
 62
     7
 10
-728.13317999999981
 20
465.86660999999992
 30
0.0
 11
-726.38317999999981
 21
465.86660999999992
 31
0.0
  0
LINE
  5
716
  8
0
  6
CONTINUOUS
 62
     7
 10
-728.14306999999985
 20
463.76662999999991
 30
0.0
 11
-725.88317999999981
 21
463.76662999999991
 31
0.0
  0
LINE
  5
717
  8
0
  6
CONTINUOUS
 62
     7
 10
-728.61310000000003
 20
470.51659999999998
 30
0.0
 11
-729.89306999999985
 21
471.26659999999993
 31
0.0
  0
LINE
  5
718
  8
0
  6
CONTINUOUS
 62
     7
 10
-728.59320000000002
 20
463.87662
 30
0.0
 11
-729.83318999999983
 21
464.50659000000002
 31
0.0
  0
LINE
  5
719
  8
0
  6
CONTINUOUS
 62
     7
 10
-728.6031499999998
 20
465.98662999999999
 30
0.0
 11
-729.85308999999984
 21
466.64661000000001
 31
0.0
  0
LINE
  5
71A
  8
0
  6
CONTINUOUS
 62
     7
 10
-728.3831799999997
 20
469.53665000000001
 30
0.0
 11
-728.3831799999997
 21
470.00662
 31
0.0
  0
LINE
  5
71B
  8
0
  6
CONTINUOUS
 62
     7
 10
-728.3831799999997
 20
464.96658000000002
 30
0.0
 11
-728.3831799999997
 21
465.51662999999991
 31
0.0
  0
LINE
  5
71C
  8
0
  6
CONTINUOUS
 62
     7
 10
-728.3831799999997
 20
462.86660999999998
 30
0.0
 11
-728.3831799999997
 21
463.39663999999999
 31
0.0
  0
LINE
  5
71D
  8
0
  6
CONTINUOUS
 62
     7
 10
-658.88317999999981
 20
440.36660999999992
 30
0.0
 11
-658.88317999999981
 21
439.36660999999992
 31
0.0
  0
LINE
  5
71E
  8
0
  6
CONTINUOUS
 62
     7
 10
-599.8831799999997
 20
440.36660999999992
 30
0.0
 11
-599.8831799999997
 21
439.36660999999992
 31
0.0
  0
LINE
  5
71F
  8
0
  6
CONTINUOUS
 62
     3
 10
-678.65600999999981
 20
439.36660999999992
 30
0.0
 11
-598.65612999999985
 21
439.36660999999992
 31
0.0
  0
LINE
  5
720
  8
0
  6
CONTINUOUS
 62
     3
 10
-598.65612999999985
 20
439.36660999999992
 30
0.0
 11
-598.65612999999985
 21
432.36660999999992
 31
0.0
  0
LINE
  5
721
  8
0
  6
CONTINUOUS
 62
     3
 10
-600.15612999999985
 20
415.86660999999992
 30
0.0
 11
-600.15612999999985
 21
432.36660999999992
 31
0.0
  0
LINE
  5
722
  8
0
  6
CONTINUOUS
 62
     3
 10
-658.15612999999985
 20
428.36660999999992
 30
0.0
 11
-658.15612999999985
 21
435.86660999999992
 31
0.0
  0
LINE
  5
723
  8
0
  6
CONTINUOUS
 62
     3
 10
-673.15600999999981
 20
435.86660999999992
 30
0.0
 11
-673.15600999999981
 21
428.36660999999992
 31
0.0
  0
LINE
  5
724
  8
0
  6
CONTINUOUS
 62
     3
 10
-677.15600999999981
 20
435.86660999999992
 30
0.0
 11
-677.15600999999981
 21
415.86660999999992
 31
0.0
  0
LINE
  5
725
  8
0
  6
CONTINUOUS
 62
     3
 10
-647.9561799999999
 20
412.86660999999998
 30
0.0
 11
-612.35607999999979
 21
412.86660999999998
 31
0.0
  0
LINE
  5
726
  8
0
  6
CONTINUOUS
 62
     3
 10
-677.15600999999981
 20
415.86660999999992
 30
0.0
 11
-600.15612999999985
 21
415.86660999999992
 31
0.0
  0
LINE
  5
727
  8
0
  6
CONTINUOUS
 62
     3
 10
-677.15600999999981
 20
432.36660999999992
 30
0.0
 11
-673.15600999999981
 21
432.36660999999992
 31
0.0
  0
LINE
  5
728
  8
0
  6
CONTINUOUS
 62
     3
 10
-607.15607
 20
415.86660999999992
 30
0.0
 11
-612.35613999999975
 21
412.86660999999998
 31
0.0
  0
LINE
  5
729
  8
0
  6
CONTINUOUS
 62
     3
 10
-647.9561799999999
 20
412.86658
 30
0.0
 11
-653.15612999999985
 21
415.86655000000002
 31
0.0
  0
LINE
  5
72A
  8
0
  6
CONTINUOUS
 62
     3
 10
-680.65600999999981
 20
435.86660999999992
 30
0.0
 11
-680.65600999999981
 21
420.86757999999992
 31
0.0
  0
LINE
  5
72B
  8
0
  6
CONTINUOUS
 62
     3
 10
-677.15600999999981
 20
420.86757999999992
 30
0.0
 11
-680.65600999999981
 21
420.86757999999992
 31
0.0
  0
LINE
  5
72C
  8
0
  6
CONTINUOUS
 62
     3
 10
-658.15612999999985
 20
432.36660999999992
 30
0.0
 11
-598.65612999999985
 21
432.36660999999992
 31
0.0
  0
LINE
  5
72D
  8
0
  6
CONTINUOUS
 62
     3
 10
-661.65612999999985
 20
435.86660999999992
 30
0.0
 11
-661.65612999999985
 21
428.36660999999992
 31
0.0
  0
LINE
  5
72E
  8
0
  6
CONTINUOUS
 62
     3
 10
-680.65600999999981
 20
435.86660999999992
 30
0.0
 11
-598.65612999999985
 21
435.86660999999992
 31
0.0
  0
LINE
  5
72F
  8
0
  6
CONTINUOUS
 62
     3
 10
-678.65600999999981
 20
439.36660999999992
 30
0.0
 11
-678.65600999999981
 21
435.86660999999992
 31
0.0
  0
LINE
  5
730
  8
0
  6
CONTINUOUS
 62
     3
 10
-669.65600999999981
 20
435.86660999999992
 30
0.0
 11
-669.65600999999981
 21
428.36660999999992
 31
0.0
  0
LINE
  5
731
  8
0
  6
CONTINUOUS
 62
     7
 10
-599.3831799999997
 20
440.36660999999992
 30
0.0
 11
-659.38317999999981
 21
440.36660999999992
 31
0.0
  0
LINE
  5
732
  8
0
  6
CONTINUOUS
 62
     7
 10
-616.36315999999999
 20
539.86657999999977
 30
0.0
 11
-616.36315999999999
 21
544.72655999999995
 31
0.0
  0
LINE
  5
733
  8
0
  6
CONTINUOUS
 62
     7
 10
-600.40307999999982
 20
539.86657999999977
 30
0.0
 11
-600.40307999999982
 21
544.72655999999995
 31
0.0
  0
LINE
  5
734
  8
0
  6
CONTINUOUS
 62
     7
 10
-617.38317999999981
 20
546.36658
 30
0.0
 11
-710.83312999999964
 21
546.36658
 31
0.0
  0
LINE
  5
735
  8
0
  6
CONTINUOUS
 62
     7
 10
-615.8831799999997
 20
539.86657999999977
 30
0.0
 11
-615.8831799999997
 21
544.86657999999966
 31
0.0
  0
LINE
  5
736
  8
0
  6
CONTINUOUS
 62
     7
 10
-600.88317999999981
 20
539.86657999999977
 30
0.0
 11
-600.88317999999981
 21
544.86657999999966
 31
0.0
  0
LINE
  5
737
  8
0
  6
CONTINUOUS
 62
     7
 10
-599.40307999999982
 20
545.73657000000003
 30
0.0
 11
-581.56311000000005
 21
545.73657000000003
 31
0.0
  0
LINE
  5
738
  8
0
  6
CONTINUOUS
 62
     7
 10
-617.38317999999981
 20
538.36658
 30
0.0
 11
-710.83312999999964
 21
538.36658
 31
0.0
  0
LINE
  5
739
  8
0
  6
CONTINUOUS
 62
     3
 10
-644.38317999999981
 20
532.86658
 30
0.0
 11
-644.38317999999981
 21
491.86660999999998
 31
0.0
  0
LINE
  5
73A
  8
0
  6
CONTINUOUS
 62
     3
 10
-581.38317999999981
 20
532.86658
 30
0.0
 11
-581.38317999999981
 21
491.86660999999998
 31
0.0
  0
LINE
  5
73B
  8
0
  6
CONTINUOUS
 62
     7
 10
-644.38317999999981
 20
532.86658
 30
0.0
 11
-581.38317999999981
 21
532.86658
 31
0.0
  0
LINE
  5
73C
  8
0
  6
CONTINUOUS
 62
     7
 10
-599.3831799999997
 20
538.85657000000003
 30
0.0
 11
-581.3374
 21
538.85657000000003
 31
0.0
  0
LINE
  5
73D
  8
0
  6
CONTINUOUS
 62
     7
 10
-644.38317999999981
 20
491.86660999999998
 30
0.0
 11
-581.38317999999981
 21
491.86660999999998
 31
0.0
  0
LINE
  5
73E
  8
0
  6
CONTINUOUS
 62
     3
 10
-684.38311999999985
 20
558.71654999999998
 30
0.0
 11
-715.38311999999985
 21
556.68651999999986
 31
0.0
  0
LINE
  5
73F
  8
0
  6
CONTINUOUS
 62
     3
 10
-684.38311999999985
 20
466.01657
 30
0.0
 11
-715.38317999999981
 21
468.04656999999997
 31
0.0
  0
LINE
  5
740
  8
0
  6
CONTINUOUS
 62
     7
 10
-644.38317999999981
 20
525.36658
 30
0.0
 11
-581.38317999999981
 21
525.36658
 31
0.0
  0
LINE
  5
741
  8
0
  6
CONTINUOUS
 62
     7
 10
-580.88317999999981
 20
594.90515000000016
 30
0.0
 11
-580.88317999999981
 21
618.97686999999996
 31
0.0
  0
LINE
  5
742
  8
0
  6
CONTINUOUS
 62
     7
 10
-419.88311999999979
 20
581.36657999999977
 30
0.0
 11
-419.88311999999979
 21
619.7673299999999
 31
0.0
  0
LINE
  5
743
  8
0
  6
CONTINUOUS
 62
     7
 10
-532.88317999999992
 20
412.86660999999998
 30
0.0
 11
-532.88317999999992
 21
611.86658
 31
0.0
  0
LINE
  5
744
  8
0
  6
CONTINUOUS
 62
     7
 10
-577.23175000000003
 20
622.96172999999999
 30
0.0
 11
-526.88311999999996
 21
627.36663999999985
 31
0.0
  0
LINE
  5
745
  8
0
  6
CENTER
 62
     7
 10
-562.88317999999992
 20
593.86657999999977
 30
0.0
 11
-562.88317999999992
 21
620.86658
 31
0.0
  0
LINE
  5
746
  8
0
  6
CONTINUOUS
 62
     7
 10
-426.88312000000002
 20
451.26324
 30
0.0
 11
-426.88312000000002
 21
573.46996999999999
 31
0.0
  0
LINE
  5
747
  8
0
  6
CENTER
 62
     7
 10
-437.88312000000002
 20
593.86657999999977
 30
0.0
 11
-437.88312000000002
 21
620.86658
 31
0.0
  0
LINE
  5
748
  8
0
  6
CENTER
 62
     7
 10
-576.38317999999981
 20
607.36658
 30
0.0
 11
-549.38317999999992
 21
607.36658
 31
0.0
  0
LINE
  5
749
  8
0
  6
CENTER
 62
     7
 10
-451.38312000000002
 20
607.36658
 30
0.0
 11
-424.38312000000002
 21
607.36658
 31
0.0
  0
LINE
  5
74A
  8
0
  6
CONTINUOUS
 62
     7
 10
-526.88311999999996
 20
627.36663999999985
 30
0.0
 11
-423.74352999999991
 21
623.76489000000004
 31
0.0
  0
LINE
  5
74B
  8
0
  6
CONTINUOUS
 62
     7
 10
-577.91839999999979
 20
591.04143999999985
 30
0.0
 11
-557.70325000000003
 21
585.62482
 31
0.0
  0
LINE
  5
74C
  8
0
  6
CONTINUOUS
 62
     7
 10
-541.62163999999996
 20
620.05426
 30
0.0
 11
-533.23175000000003
 21
620.78826999999978
 31
0.0
  0
LINE
  5
74D
  8
0
  6
CONTINUOUS
 62
     7
 10
-577.91839999999979
 20
433.69176999999979
 30
0.0
 11
-557.70325000000003
 21
439.10840000000002
 31
0.0
  0
LINE
  5
74E
  8
0
  6
CONTINUOUS
 62
     7
 10
-526.88311999999996
 20
397.36658
 30
0.0
 11
-423.74355999999989
 21
400.96828999999991
 31
0.0
  0
LINE
  5
74F
  8
0
  6
CENTER
 62
     7
 10
-451.38312000000002
 20
417.36660999999998
 30
0.0
 11
-424.38312000000002
 21
417.36660999999998
 31
0.0
  0
LINE
  5
750
  8
0
  6
CENTER
 62
     7
 10
-576.38317999999981
 20
417.36660999999998
 30
0.0
 11
-549.38317999999992
 21
417.36660999999998
 31
0.0
  0
LINE
  5
751
  8
0
  6
CENTER
 62
     7
 10
-437.88312000000002
 20
430.86660999999992
 30
0.0
 11
-437.88312000000002
 21
403.86660999999992
 31
0.0
  0
LINE
  5
752
  8
0
  6
CENTER
 62
     7
 10
-562.88317999999992
 20
430.86660999999992
 30
0.0
 11
-562.88317999999992
 21
403.86660999999992
 31
0.0
  0
LINE
  5
753
  8
0
  6
CONTINUOUS
 62
     7
 10
-577.23180999999965
 20
401.77154999999988
 30
0.0
 11
-526.88317999999992
 21
397.36660999999992
 31
0.0
  0
LINE
  5
754
  8
0
  6
CONTINUOUS
 62
     7
 10
-419.88311999999979
 20
443.36660999999992
 30
0.0
 11
-419.88311999999979
 21
404.96587999999991
 31
0.0
  0
LINE
  5
755
  8
0
  6
CONTINUOUS
 62
     7
 10
-580.88317999999981
 20
429.82805999999988
 30
0.0
 11
-580.88317999999981
 21
405.75632000000002
 31
0.0
  0
LINE
  5
756
  8
0
  6
CONTINUOUS
 62
     7
 10
-357.88315
 20
528.36658
 30
0.0
 11
-415.88311999999979
 21
528.36658
 31
0.0
  0
LINE
  5
757
  8
0
  6
CONTINUOUS
 62
     7
 10
-570.3831799999997
 20
564.40661999999998
 30
0.0
 11
-557.88317999999992
 21
564.40661999999998
 31
0.0
  0
LINE
  5
758
  8
0
  6
CONTINUOUS
 62
     7
 10
-570.3831799999997
 20
549.51660000000004
 30
0.0
 11
-557.88317999999992
 21
549.51660000000004
 31
0.0
  0
LINE
  5
759
  8
0
  6
CONTINUOUS
 62
     7
 10
-557.88317999999992
 20
440.43768
 30
0.0
 11
-557.88317999999992
 21
584.29552999999976
 31
0.0
  0
LINE
  5
75A
  8
0
  6
CONTINUOUS
 62
     7
 10
-542.88317999999992
 20
415.14721999999989
 30
0.0
 11
-542.88317999999992
 21
609.58600000000001
 31
0.0
  0
LINE
  5
75B
  8
0
  6
CONTINUOUS
 62
     7
 10
-570.3831799999997
 20
475.21660999999989
 30
0.0
 11
-557.88317999999992
 21
475.21660999999989
 31
0.0
  0
LINE
  5
75C
  8
0
  6
CONTINUOUS
 62
     7
 10
-570.3831799999997
 20
460.32659999999993
 30
0.0
 11
-557.88317999999992
 21
460.32659999999993
 31
0.0
  0
LINE
  5
75D
  8
0
  6
CONTINUOUS
 62
     7
 10
-570.38311999999985
 20
575.86658
 30
0.0
 11
-562.70867999999984
 21
576.1345799999998
 31
0.0
  0
LINE
  5
75E
  8
0
  6
CONTINUOUS
 62
     7
 10
-556.41869999999994
 20
436.90215999999992
 30
0.0
 11
-543.76183999999978
 21
424.24532999999991
 31
0.0
  0
LINE
  5
75F
  8
0
  6
CONTINUOUS
 62
     7
 10
-540.95294000000001
 20
611.58483999999987
 30
0.0
 11
-532.88317999999992
 21
611.86664000000019
 31
0.0
  0
LINE
  5
760
  8
0
  6
CONTINUOUS
 62
     7
 10
-556.41869999999994
 20
587.83105
 30
0.0
 11
-543.76183999999978
 21
600.48792000000003
 31
0.0
  0
LINE
  5
761
  8
0
  6
CONTINUOUS
 62
     7
 10
-570.3831799999997
 20
575.86658
 30
0.0
 11
-570.3831799999997
 21
448.86655000000002
 31
0.0
  0
LINE
  5
762
  8
0
  6
CONTINUOUS
 62
     7
 10
-425.38315
 20
544.5420499999999
 30
0.0
 11
-421.38317999999992
 21
542.23266999999998
 31
0.0
  0
LINE
  5
763
  8
0
  6
CONTINUOUS
 62
     7
 10
-425.38317999999992
 20
480.19121999999999
 30
0.0
 11
-421.38317999999992
 21
482.50060999999988
 31
0.0
  0
LINE
  5
764
  8
0
  6
CONTINUOUS
 62
     7
 10
-419.88314999999989
 20
485.09868999999992
 30
0.0
 11
-419.88314999999989
 21
512.36658
 31
0.0
  0
LINE
  5
765
  8
0
  6
CONTINUOUS
 62
     7
 10
-419.88314999999989
 20
512.36658
 30
0.0
 11
-419.88314999999989
 21
539.63458000000003
 31
0.0
  0
LINE
  5
766
  8
0
  6
CONTINUOUS
 62
     7
 10
-415.88311999999979
 20
529.86663999999996
 30
0.0
 11
-419.88314999999989
 21
529.86663999999996
 31
0.0
  0
LINE
  5
767
  8
0
  6
CONTINUOUS
 62
     7
 10
-357.88315
 20
496.36664000000002
 30
0.0
 11
-357.88315
 21
528.36658
 31
0.0
  0
LINE
  5
768
  8
0
  6
CONTINUOUS
 62
     7
 10
-415.88311999999979
 20
494.86664000000002
 30
0.0
 11
-415.88311999999979
 21
529.86663999999996
 31
0.0
  0
LINE
  5
769
  8
0
  6
CONTINUOUS
 62
     7
 10
-402.88311999999991
 20
507.36664000000002
 30
0.0
 11
-402.88311999999991
 21
517.36658
 31
0.0
  0
LINE
  5
76A
  8
0
  6
CONTINUOUS
 62
     7
 10
-357.88315
 20
496.36664000000002
 30
0.0
 11
-415.88311999999979
 21
496.36664000000002
 31
0.0
  0
LINE
  5
76B
  8
0
  6
CONTINUOUS
 62
     7
 10
-415.88311999999979
 20
494.86664000000002
 30
0.0
 11
-419.88314999999989
 21
494.86664000000002
 31
0.0
  0
LINE
  5
76C
  8
0
  6
CONTINUOUS
 62
     7
 10
-402.88314999999989
 20
507.36664000000002
 30
0.0
 11
-357.88315
 21
507.36664000000002
 31
0.0
  0
LINE
  5
76D
  8
0
  6
CONTINUOUS
 62
     7
 10
-402.88314999999989
 20
517.36658
 30
0.0
 11
-357.88315
 21
517.36658
 31
0.0
  0
LINE
  5
76E
  8
0
  6
CONTINUOUS
 62
     7
 10
-430.77843999999999
 20
577.46862999999985
 30
0.0
 11
-440.6403199999998
 21
577.72686999999985
 31
0.0
  0
LINE
  5
76F
  8
0
  6
CONTINUOUS
 62
     7
 10
-430.77843999999999
 20
447.26461999999981
 30
0.0
 11
-440.6403199999998
 21
447.00637999999998
 31
0.0
  0
LINE
  5
770
  8
0
  6
CONTINUOUS
 62
     7
 10
-447.88312000000002
 20
443.15984999999989
 30
0.0
 11
-447.88312000000002
 21
581.57335999999975
 31
0.0
  0
LINE
  5
771
  8
0
  6
CONTINUOUS
 62
     7
 10
-467.88315
 20
407.71117999999979
 30
0.0
 11
-467.88315
 21
423.15301999999991
 31
0.0
  0
LINE
  5
772
  8
0
  6
CONTINUOUS
 62
     7
 10
-455.67374000000001
 20
589.57061999999985
 30
0.0
 11
-456.19727
 21
589.58428999999978
 31
0.0
  0
LINE
  5
773
  8
0
  6
CONTINUOUS
 62
     7
 10
-455.67370999999991
 20
435.16262999999992
 30
0.0
 11
-456.19729999999998
 21
435.14892999999989
 31
0.0
  0
LINE
  5
774
  8
0
  6
CONTINUOUS
 62
     7
 10
-467.88315
 20
601.58019999999976
 30
0.0
 11
-467.88315
 21
617.02202999999975
 31
0.0
  0
LINE
  5
775
  8
0
  6
CONTINUOUS
 62
     7
 10
-532.88317999999992
 20
412.86660999999998
 30
0.0
 11
-528.88317999999992
 21
412.86660999999998
 31
0.0
  0
LINE
  5
776
  8
0
  6
CONTINUOUS
 62
     7
 10
-532.88317999999992
 20
611.86658
 30
0.0
 11
-528.88317999999992
 21
611.86658
 31
0.0
  0
LINE
  5
777
  8
0
  6
CONTINUOUS
 62
     7
 10
-528.88317999999992
 20
611.86658
 30
0.0
 11
-528.88317999999992
 21
621.73510999999996
 31
0.0
  0
LINE
  5
778
  8
0
  6
CONTINUOUS
 62
     7
 10
-541.62170000000003
 20
404.67899
 30
0.0
 11
-533.23175000000003
 21
403.94497999999982
 31
0.0
  0
LINE
  5
779
  8
0
  6
CONTINUOUS
 62
     7
 10
-528.88317999999992
 20
412.86660999999998
 30
0.0
 11
-528.88317999999992
 21
402.99810999999988
 31
0.0
  0
LINE
  5
77A
  8
0
  6
CONTINUOUS
 62
     7
 10
-570.38311999999985
 20
448.86655000000002
 30
0.0
 11
-562.70861999999988
 21
448.59859999999992
 31
0.0
  0
LINE
  5
77B
  8
0
  6
CONTINUOUS
 62
     7
 10
-540.95299999999997
 20
413.14843999999988
 30
0.0
 11
-532.88317999999992
 21
412.86660999999998
 31
0.0
  0
LINE
  5
77C
  8
0
  6
CONTINUOUS
 62
     7
 10
-532.88317999999992
 20
417.57641999999993
 30
0.0
 11
-542.88317999999992
 21
417.57641999999993
 31
0.0
  0
LINE
  5
77D
  8
0
  6
CONTINUOUS
 62
     7
 10
-532.88317999999992
 20
434.94982999999991
 30
0.0
 11
-542.88317999999992
 21
434.94982999999991
 31
0.0
  0
LINE
  5
77E
  8
0
  6
CONTINUOUS
 62
     7
 10
-532.88317999999992
 20
482.09017999999992
 30
0.0
 11
-542.88317999999992
 21
482.09017999999992
 31
0.0
  0
LINE
  5
77F
  8
0
  6
CONTINUOUS
 62
     7
 10
-532.88317999999992
 20
542.64306999999997
 30
0.0
 11
-542.88317999999992
 21
542.64306999999997
 31
0.0
  0
LINE
  5
780
  8
0
  6
CONTINUOUS
 62
     7
 10
-532.88317999999992
 20
589.78339000000005
 30
0.0
 11
-542.88317999999992
 21
589.78339000000005
 31
0.0
  0
LINE
  5
781
  8
0
  6
CONTINUOUS
 62
     7
 10
-532.88317999999992
 20
607.15679999999998
 30
0.0
 11
-542.88317999999992
 21
607.15679999999998
 31
0.0
  0
LINE
  5
782
  8
0
  6
CENTER
 62
     7
 10
-232.14350999999991
 20
181.5479399999999
 30
0.0
 11
-58.237056999999993
 21
181.5479399999999
 31
0.0
  0
LINE
  5
783
  8
0
  6
CONTINUOUS
 62
     7
 10
-532.88311999999985
 20
211.73329000000001
 30
0.0
 11
-542.88311999999985
 21
211.73329000000001
 31
0.0
  0
LINE
  5
784
  8
0
  6
CONTINUOUS
 62
     7
 10
-532.88311999999985
 20
276.35876000000002
 30
0.0
 11
-542.88311999999985
 21
276.35876000000002
 31
0.0
  0
ARC
  5
785
  8
0
  6
CONTINUOUS
 62
     7
 10
-145.2809399999999
 20
209.54793000000001
 30
0.0
 40
16.0
 50
108.20996
 51
71.790052000000003
  0
CIRCLE
  5
786
  8
0
  6
CONTINUOUS
 62
     7
 10
-145.2809399999999
 20
209.54793000000001
 30
0.0
 40
4.0
  0
CIRCLE
  5
787
  8
0
  6
CONTINUOUS
 62
     7
 10
-145.2809399999999
 20
209.54793000000001
 30
0.0
 40
2.75
  0
ARC
  5
788
  8
0
  6
CONTINUOUS
 62
     7
 10
-542.88311999999985
 20
69.547943000000004
 30
0.0
 40
2.0
 50
90.000003000000007
 51
180.00001
  0
ARC
  5
789
  8
0
  6
CONTINUOUS
 62
     7
 10
-214.2809399999999
 20
83.547927999999999
 30
0.0
 40
4.0
 50
0.0
 51
90.000003000000007
  0
ARC
  5
78A
  8
0
  6
CONTINUOUS
 62
     7
 10
-547.80297999999993
 20
91.547943000000004
 30
0.0
 40
4.0
 50
270.0
 51
342.2553299999999
  0
ARC
  5
78B
  8
0
  6
CONTINUOUS
 62
     7
 10
-532.88311999999985
 20
138.17234999999991
 30
0.0
 40
4.0
 50
342.2553299999999
 51
0.0
  0
ARC
  5
78C
  8
0
  6
CONTINUOUS
 62
     7
 10
-452.88314999999989
 20
102.54794
 30
0.0
 40
15.0
 50
179.99998999999991
 51
270.0
  0
ARC
  5
78D
  8
0
  6
CONTINUOUS
 62
     7
 10
-459.88312000000002
 20
240.99065999999991
 30
0.0
 40
8.0
 50
90.000003000000007
 51
180.00001
  0
ARC
  5
78E
  8
0
  6
CONTINUOUS
 62
     7
 10
-257.28091000000001
 20
84.547934999999995
 30
0.0
 40
3.0
 50
90.000003000000007
 51
180.00001
  0
ARC
  5
78F
  8
0
  6
CONTINUOUS
 62
     7
 10
-33.280940999999991
 20
84.547934999999995
 30
0.0
 40
3.0
 50
0.0
 51
90.000003000000007
  0
ARC
  5
790
  8
0
  6
CONTINUOUS
 62
     7
 10
-76.280945000000003
 20
83.547927999999999
 30
0.0
 40
4.0
 50
90.000003000000007
 51
180.00001
  0
ARC
  5
791
  8
0
  6
CONTINUOUS
 62
     7
 10
-145.2809399999999
 20
143.2852
 30
0.0
 40
77.0
 50
179.99998999999991
 51
212.4183899999997
  0
ARC
  5
792
  8
0
  6
CONTINUOUS
 62
     7
 10
-423.88311999999991
 20
174.77444
 30
0.0
 40
3.0
 50
119.9999999999999
 51
180.00001
  0
ARC
  5
793
  8
0
  6
CONTINUOUS
 62
     7
 10
-423.88311999999991
 20
244.32144
 30
0.0
 40
3.0
 50
179.99998999999991
 51
240.00001
  0
ARC
  5
794
  8
0
  6
CONTINUOUS
 62
     7
 10
-422.88315
 20
236.8158699999999
 30
0.0
 40
3.0
 50
0.0
 51
60.000002000000002
  0
ARC
  5
795
  8
0
  6
CONTINUOUS
 62
     7
 10
-422.88315
 20
182.2799999999998
 30
0.0
 40
3.0
 50
300.0
 51
0.0
  0
ARC
  5
796
  8
0
  6
CONTINUOUS
 62
     7
 10
-455.88315
 20
271.02886999999998
 30
0.0
 40
8.0
 50
0.0
 51
88.499996999999965
  0
ARC
  5
797
  8
0
  6
CONTINUOUS
 62
     7
 10
-225.28093000000001
 20
102.54794
 30
0.0
 40
15.0
 50
270.0
 51
0.0
  0
ARC
  5
798
  8
0
  6
CONTINUOUS
 62
     7
 10
-578.88311999999985
 20
85.547943000000004
 30
0.0
 40
2.0
 50
90.000003000000007
 51
180.00001
  0
ARC
  5
799
  8
0
  6
CONTINUOUS
 62
     7
 10
-421.88312000000002
 20
85.547943000000004
 30
0.0
 40
2.0
 50
0.0
 51
90.000003000000007
  0
ARC
  5
79A
  8
0
  6
CONTINUOUS
 62
     7
 10
-455.88315
 20
110.00566000000001
 30
0.0
 40
8.0
 50
270.0
 51
0.0
  0
ARC
  5
79B
  8
0
  6
CONTINUOUS
 62
     7
 10
-82.280945000000003
 20
69.547943000000004
 30
0.0
 40
2.0
 50
0.0
 51
90.000003000000007
  0
ARC
  5
79C
  8
0
  6
CONTINUOUS
 62
     7
 10
-208.2809399999999
 20
69.547943000000004
 30
0.0
 40
2.0
 50
90.000003000000007
 51
180.00001
  0
ARC
  5
79D
  8
0
  6
CONTINUOUS
 62
     7
 10
-439.88312000000002
 20
265.54793999999998
 30
0.0
 40
8.0
 50
179.99998999999991
 51
270.0
  0
ARC
  5
79E
  8
0
  6
CONTINUOUS
 62
     7
 10
-145.2809399999999
 20
192.54794000000001
 30
0.0
 40
65.0
 50
0.0
 51
180.00001
  0
ARC
  5
79F
  8
0
  6
CONTINUOUS
 62
     7
 10
-145.2809399999999
 20
181.5479399999999
 30
0.0
 40
99.500000000000014
 50
8.4654901000000002
 51
171.53450000000001
  0
ARC
  5
7A0
  8
0
  6
CONTINUOUS
 62
     7
 10
-418.88312000000002
 20
95.087326000000004
 30
0.0
 40
8.0
 50
179.99998999999991
 51
252.54239000000001
  0
ARC
  5
7A1
  8
0
  6
CONTINUOUS
 62
     7
 10
-78.459350999999998
 20
248.36954
 30
0.0
 40
16.0
 50
17.079463000000001
 51
72.920534000000004
  0
ARC
  5
7A2
  8
0
  6
CONTINUOUS
 62
     7
 10
-65.280944999999988
 20
102.54794
 30
0.0
 40
15.0
 50
179.99998999999991
 51
270.0
  0
ARC
  5
7A3
  8
0
  6
CONTINUOUS
 62
     7
 10
-145.2809399999999
 20
143.2852
 30
0.0
 40
77.0
 50
327.58159999999992
 51
0.0
  0
ARC
  5
7A4
  8
0
  6
CONTINUOUS
 62
     7
 10
-211.7489799999999
 20
248.01598000000001
 30
0.0
 40
16.0
 50
107.07946
 51
162.92053000000001
  0
ARC
  5
7A5
  8
0
  6
CONTINUOUS
 62
     7
 10
-457.88312000000002
 20
69.547943000000004
 30
0.0
 40
2.0
 50
0.0
 51
90.000003000000007
  0
ARC
  5
7A6
  8
0
  6
CONTINUOUS
 62
     7
 10
-76.280945000000003
 20
241.64161999999999
 30
0.0
 40
8.0
 50
0.0
 51
41.053350999999999
  0
ARC
  5
7A7
  8
0
  6
CONTINUOUS
 62
     7
 10
-214.2809399999999
 20
241.64161999999999
 30
0.0
 40
8.0
 50
138.94665000000001
 51
180.00001
  0
ARC
  5
7A8
  8
0
  6
CONTINUOUS
 62
     7
 10
-430.88312000000002
 20
253.5479399999999
 30
0.0
 40
4.0
 50
0.0
 51
90.000003000000007
  0
CIRCLE
  5
7A9
  8
0
  6
CONTINUOUS
 62
     7
 10
-145.2809399999999
 20
209.54793000000001
 30
0.0
 40
29.0
  0
ARC
  5
7AA
  8
0
  6
CONTINUOUS
 62
     7
 10
-552.88311999999985
 20
109.61901
 30
0.0
 40
5.0
 50
179.99998999999991
 51
225.0
  0
ARC
  5
7AB
  8
0
  6
CONTINUOUS
 62
     7
 10
-562.88311999999985
 20
250.31290000000001
 30
0.0
 40
5.0
 50
272.0
 51
0.0
  0
ARC
  5
7AC
  8
0
  6
CONTINUOUS
 62
     7
 10
-552.88311999999985
 20
253.47686999999991
 30
0.0
 40
5.0
 50
135.0
 51
180.00001
  0
ARC
  5
7AD
  8
0
  6
CONTINUOUS
 62
     7
 10
-540.88311999999985
 20
278.76732999999979
 30
0.0
 40
2.0
 50
91.999998000000005
 51
180.00001
  0
ARC
  5
7AE
  8
0
  6
CONTINUOUS
 62
     7
 10
-545.88311999999985
 20
91.305305000000004
 30
0.0
 40
3.0
 50
27.893113
 51
45.00000099999999
  0
ARC
  5
7AF
  8
0
  6
CONTINUOUS
 62
     7
 10
-562.88311999999985
 20
112.7829799999999
 30
0.0
 40
5.0
 50
0.0
 51
88.0
  0
ARC
  5
7B0
  8
0
  6
CONTINUOUS
 62
     7
 10
-545.88311999999985
 20
271.79059000000001
 30
0.0
 40
3.0
 50
315.0
 51
0.0
  0
ARC
  5
7B1
  8
0
  6
CONTINUOUS
 62
     3
 10
-729.38989000000004
 20
229.5658599999999
 30
0.0
 40
0.99319202
 50
119.7734
 51
179.87956
  0
ARC
  5
7B2
  8
0
  6
CONTINUOUS
 62
     3
 10
-729.38750999999979
 20
228.52762999999999
 30
0.0
 40
0.99558806
 50
116.58749
 51
179.98224999999991
  0
ARC
  5
7B3
  8
0
  6
CONTINUOUS
 62
     3
 10
-728.12108999999964
 20
230.3020599999999
 30
0.0
 40
0.9959119600000002
 50
89.541443999999998
 51
119.6069899999999
  0
ARC
  5
7B4
  8
0
  6
CONTINUOUS
 62
     3
 10
-728.15832999999998
 20
229.15392
 30
0.0
 40
0.9941280500000002
 50
89.122808000000006
 51
115.93481
  0
ARC
  5
7B5
  8
0
  6
CONTINUOUS
 62
     3
 10
-728.11432000000002
 20
228.19373999999991
 30
0.0
 40
0.9942600099999999
 50
89.355881999999966
 51
120.78109000000001
  0
ARC
  5
7B6
  8
0
  6
CONTINUOUS
 62
     3
 10
-728.14806999999985
 20
227.05257999999981
 30
0.0
 40
0.99546796
 50
89.141447999999983
 51
117.2036599999999
  0
ARC
  5
7B7
  8
0
  6
CONTINUOUS
 62
     3
 10
-728.07647999999983
 20
223.68174999999991
 30
0.0
 40
0.9962120099999999
 50
90.381906000000001
 51
123.9699
  0
ARC
  5
7B8
  8
0
  6
CONTINUOUS
 62
     3
 10
-728.1037
 20
222.54146
 30
0.0
 40
0.9965200400000001
 50
90.541213000000027
 51
120.7432799999999
  0
ARC
  5
7B9
  8
0
  6
CONTINUOUS
 62
     3
 10
-729.38904000000002
 20
221.7911399999999
 30
0.0
 40
0.99407601
 50
120.4692
 51
180.18464
  0
ARC
  5
7BA
  8
0
  6
CONTINUOUS
 62
     3
 10
-729.38830999999982
 20
222.82554999999991
 30
0.0
 40
0.9948279899999999
 50
123.2046899999999
 51
180.43813
  0
ARC
  5
7BB
  8
0
  6
CONTINUOUS
 62
     3
 10
-729.38989000000004
 20
226.38937000000001
 30
0.0
 40
0.9932120399999999
 50
117.7993399999999
 51
180.08183
  0
ARC
  5
7BC
  8
0
  6
CONTINUOUS
 62
     7
 10
-606.88818000000003
 20
159.05301
 30
0.0
 40
5.4981922999999986
 50
84.729479999999981
 51
185.27052
  0
ARC
  5
7BD
  8
0
  6
CONTINUOUS
 62
     3
 10
-729.38867000000005
 20
227.42690999999999
 30
0.0
 40
0.9944360299999999
 50
121.15217
 51
179.9404899999999
  0
ARC
  5
7BE
  8
0
  6
CONTINUOUS
 62
     3
 10
-728.18213000000003
 20
216.24245999999999
 30
0.0
 40
0.99548006
 50
90.057320999999988
 51
113.12703
  0
ARC
  5
7BF
  8
0
  6
CONTINUOUS
 62
     3
 10
-712.24243000000001
 20
140.32882999999981
 30
0.0
 40
1.004235999999999
 50
314.93782999999991
 51
5.6649238999999989
  0
ARC
  5
7C0
  8
0
  6
CONTINUOUS
 62
     3
 10
-600.88300000000004
 20
210.04810000000001
 30
0.0
 40
1.4998400000000001
 50
359.99394000000001
 51
90.006061000000003
  0
ARC
  5
7C1
  8
0
  6
CONTINUOUS
 62
     3
 10
-600.88800000000003
 20
153.05284
 30
0.0
 40
1.5049160999999991
 50
270.18678
 51
359.81322
  0
ARC
  5
7C2
  8
0
  6
CONTINUOUS
 62
     7
 10
-651.88794000000019
 20
204.05272999999991
 30
0.0
 40
5.5071000999999971
 50
264.84087999999991
 51
5.1591262000000002
  0
ARC
  5
7C3
  8
0
  6
CONTINUOUS
 62
     3
 10
-728.24396000000002
 20
214.2952299999998
 30
0.0
 40
0.99277198
 50
89.374808000000016
 51
106.33181999999979
  0
ARC
  5
7C4
  8
0
  6
CONTINUOUS
 62
     3
 10
-729.38689999999986
 20
213.94370000000001
 30
0.0
 40
0.9962600499999998
 50
106.6974899999999
 51
180.33049
  0
ARC
  5
7C5
  8
0
  6
CONTINUOUS
 62
     3
 10
-729.38671999999985
 20
215.72952000000001
 30
0.0
 40
0.99640006
 50
112.8173899999998
 51
180.0903999999999
  0
ARC
  5
7C6
  8
0
  6
CONTINUOUS
 62
     3
 10
-729.38806
 20
206.5528699999999
 30
0.0
 40
0.9950800499999999
 50
89.71592099999998
 51
180.2840699999999
  0
ARC
  5
7C7
  8
0
  6
CONTINUOUS
 62
     3
 10
-729.38292999999965
 20
206.54816
 30
0.0
 40
1.0002040000000001
 50
180.0116699999999
 51
269.9883200000001
  0
ARC
  5
7C8
  8
0
  6
CONTINUOUS
 62
     3
 10
-729.38806
 20
196.5528699999999
 30
0.0
 40
0.99508399
 50
89.716132999999985
 51
180.28387000000001
  0
ARC
  5
7C9
  8
0
  6
CONTINUOUS
 62
     3
 10
-729.38292999999965
 20
196.54816
 30
0.0
 40
1.0001999999999991
 50
180.0114699999998
 51
269.98852999999991
  0
ARC
  5
7CA
  8
0
  6
CONTINUOUS
 62
     3
 10
-729.38806
 20
186.55288999999991
 30
0.0
 40
0.9950879799999999
 50
89.716344999999961
 51
180.28364999999991
  0
ARC
  5
7CB
  8
0
  6
CONTINUOUS
 62
     3
 10
-729.38292999999965
 20
186.54813999999999
 30
0.0
 40
1.0001959999999981
 50
180.01124999999999
 51
269.98874000000001
  0
ARC
  5
7CC
  8
0
  6
CONTINUOUS
 62
     3
 10
-726.38292999999999
 20
184.54811000000001
 30
0.0
 40
0.99984801
 50
359.99121999999988
 51
90.008778999999976
  0
ARC
  5
7CD
  8
0
  6
CONTINUOUS
 62
     3
 10
-726.38806
 20
188.55286000000001
 30
0.0
 40
1.0049238999999981
 50
270.28001
 51
359.71999
  0
ARC
  5
7CE
  8
0
  6
CONTINUOUS
 62
     3
 10
-726.38292999999999
 20
194.54810000000001
 30
0.0
 40
0.9998440099999999
 50
359.99101000000002
 51
90.008991000000023
  0
ARC
  5
7CF
  8
0
  6
CONTINUOUS
 62
     3
 10
-726.38806
 20
198.55286000000001
 30
0.0
 40
1.004928
 50
270.28021999999987
 51
359.71977999999979
  0
ARC
  5
7D0
  8
0
  6
CONTINUOUS
 62
     3
 10
-726.38292999999999
 20
204.54810000000001
 30
0.0
 40
0.99985206
 50
359.99144999999999
 51
90.008546999999993
  0
ARC
  5
7D1
  8
0
  6
CONTINUOUS
 62
     3
 10
-726.38806
 20
208.5528699999999
 30
0.0
 40
1.0049318999999981
 50
270.28041999999999
 51
359.71958000000001
  0
ARC
  5
7D2
  8
0
  6
CONTINUOUS
 62
     3
 10
-726.38140999999985
 20
214.28963999999999
 30
0.0
 40
0.99829602
 50
359.90204
 51
90.097960999999998
  0
ARC
  5
7D3
  8
0
  6
CONTINUOUS
 62
     3
 10
-726.38549999999964
 20
222.53557000000001
 30
0.0
 40
1.002375999999999
 50
0.13559199
 51
89.864409999999964
  0
ARC
  5
7D4
  8
0
  6
CONTINUOUS
 62
     3
 10
-726.08765000000005
 20
217.94248999999991
 30
0.0
 40
0.7045519900000004
 50
270.36910999999992
 51
359.63088999999991
  0
ARC
  5
7D5
  8
0
  6
CONTINUOUS
 62
     3
 10
-726.38214000000005
 20
227.0489299999999
 30
0.0
 40
0.9990080599999998
 50
359.94315
 51
90.056843000000015
  0
ARC
  5
7D6
  8
0
  6
CONTINUOUS
 62
     3
 10
-725.88147000000004
 20
229.6495799999999
 30
0.0
 40
0.4983640000000002
 50
359.81141000000002
 51
90.188598000000013
  0
ARC
  5
7D7
  8
0
  6
CONTINUOUS
 62
     3
 10
-725.88775999999984
 20
231.80257
 30
0.0
 40
0.5046359900000002
 50
270.52375999999992
 51
359.47624000000002
  0
ARC
  5
7D8
  8
0
  6
CONTINUOUS
 62
     3
 10
-577.38292999999999
 20
119.04812
 30
0.0
 40
1.0001799999999981
 50
180.01031
 51
269.98967999999968
  0
ARC
  5
7D9
  8
0
  6
CONTINUOUS
 62
     3
 10
-585.57848999999965
 20
121.6933299999999
 30
0.0
 40
2.0053917999999991
 50
270.15275000000003
 51
344.81207000000001
  0
ARC
  5
7DA
  8
0
  6
CONTINUOUS
 62
     3
 10
-577.38367000000017
 20
130.50741999999991
 30
0.0
 40
0.9994760199999999
 50
179.97008999999991
 51
270.02991999999989
  0
ARC
  5
7DB
  8
0
  6
CONTINUOUS
 62
     3
 10
-703.38788
 20
186.5479399999999
 30
0.0
 40
1.0000119000000001
 50
89.726507999999981
 51
270.27347999999989
  0
ARC
  5
7DC
  8
0
  6
CONTINUOUS
 62
     3
 10
-719.16210999999964
 20
232.5355099999999
 30
0.0
 40
1.9924479999999991
 50
89.742107999999988
 51
169.8117899999998
  0
ARC
  5
7DD
  8
0
  6
CONTINUOUS
 62
     3
 10
-719.21825999999965
 20
237.81864999999991
 30
0.0
 40
1.999288
 50
89.851815000000016
 51
167.89433
  0
ARC
  5
7DE
  8
0
  6
CONTINUOUS
 62
     3
 10
-723.59882000000005
 20
234.08817999999999
 30
0.0
 40
1.500248
 50
270.21661999999992
 51
347.67500000000001
  0
ARC
  5
7DF
  8
0
  6
CONTINUOUS
 62
     3
 10
-719.25109999999995
 20
241.22342999999981
 30
0.0
 40
1.9945159999999991
 50
89.771334999999979
 51
166.8280399999999
  0
ARC
  5
7E0
  8
0
  6
CONTINUOUS
 62
     3
 10
-723.57465000000002
 20
238.15172000000001
 30
0.0
 40
1.503776
 50
270.05984000000001
 51
346.39312999999999
  0
ARC
  5
7E1
  8
0
  6
CONTINUOUS
 62
     3
 10
-723.56182999999965
 20
240.17113999999989
 30
0.0
 40
1.5032319999999959
 50
270.33132000000001
 51
346.01802999999978
  0
ARC
  5
7E2
  8
0
  6
CONTINUOUS
 62
     3
 10
-719.27655000000004
 20
242.8511199999999
 30
0.0
 40
1.996815999999999
 50
89.901436000000004
 51
165.88940999999991
  0
ARC
  5
7E3
  8
0
  6
CONTINUOUS
 62
     3
 10
-702.38775999999984
 20
241.41257999999991
 30
0.0
 40
1.9953640999999991
 50
89.866758999999988
 51
180.13323
  0
ARC
  5
7E4
  8
0
  6
CONTINUOUS
 62
     3
 10
-702.38695999999982
 20
243.4417599999999
 30
0.0
 40
1.9961880000000001
 50
89.890486999999965
 51
180.10950999999989
  0
ARC
  5
7E5
  8
0
  6
CONTINUOUS
 62
     3
 10
-702.38959
 20
244.7944
 30
0.0
 40
1.9935560999999991
 50
89.814515
 51
180.18548999999999
  0
ARC
  5
7E6
  8
0
  6
CONTINUOUS
 62
     3
 10
-702.38762999999994
 20
245.46920999999989
 30
0.0
 40
1.9987239999999991
 50
89.871137000000004
 51
165.55096
  0
ARC
  5
7E7
  8
0
  6
CONTINUOUS
 62
     3
 10
-705.88982999999996
 20
236.03464
 30
0.0
 40
1.506699899999999
 50
270.2541599999999
 51
359.74583999999987
  0
ARC
  5
7E8
  8
0
  6
CONTINUOUS
 62
     3
 10
-705.88598999999965
 20
241.32077000000001
 30
0.0
 40
1.5028360000000001
 50
270.10793999999999
 51
359.89206000000001
  0
ARC
  5
7E9
  8
0
  6
CONTINUOUS
 62
     3
 10
-705.88800000000003
 20
244.72281000000001
 30
0.0
 40
1.5048719999999991
 50
270.18518
 51
359.81482
  0
ARC
  5
7EA
  8
0
  6
CONTINUOUS
 62
     3
 10
-705.77649000000019
 20
246.35095000000001
 30
0.0
 40
1.5030159999999959
 50
270.12945000000002
 51
345.23653999999999
  0
ARC
  5
7EB
  8
0
  6
CONTINUOUS
 62
     3
 10
-649.38403000000017
 20
243.4370099999999
 30
0.0
 40
2.0009238999999992
 50
0.026462999
 51
89.973535999999982
  0
ARC
  5
7EC
  8
0
  6
CONTINUOUS
 62
     3
 10
-649.38140999999985
 20
244.78963999999991
 30
0.0
 40
1.9982919999999991
 50
359.95102999999978
 51
90.048975000000013
  0
ARC
  5
7ED
  8
0
  6
CONTINUOUS
 62
     3
 10
-649.38495
 20
245.46612999999999
 30
0.0
 40
2.0018279999999962
 50
0.052301
 51
89.947696999999977
  0
ARC
  5
7EE
  8
0
  6
CONTINUOUS
 62
     3
 10
-578.73284999999998
 20
229.40032999999991
 30
0.0
 40
1.502391899999999
 50
195.1400099999999
 51
269.99063999999998
  0
ARC
  5
7EF
  8
0
  6
CONTINUOUS
 62
     3
 10
-585.57360999999958
 20
241.40897000000001
 30
0.0
 40
1.998987899999999
 50
15.047801
 51
89.987373000000005
  0
ARC
  5
7F0
  8
0
  6
CONTINUOUS
 62
     3
 10
-577.38806
 20
244.05288999999991
 30
0.0
 40
0.9950640200000001
 50
89.714938000000004
 51
180.28505999999999
  0
ARC
  5
7F1
  8
0
  6
CONTINUOUS
 62
     3
 10
-577.38873000000001
 20
232.59354999999991
 30
0.0
 40
0.9944000200000001
 50
89.676490999999999
 51
180.32351
  0
ARC
  5
7F2
  8
0
  6
CONTINUOUS
 62
     3
 10
-578.67730999999958
 20
234.08841000000001
 30
0.0
 40
1.500475999999999
 50
192.33223000000001
 51
270.15827999999999
  0
ARC
  5
7F3
  8
0
  6
CONTINUOUS
 62
     3
 10
-583.53570999999999
 20
240.05146999999999
 30
0.0
 40
1.996488
 50
12.040875
 51
89.926440999999969
  0
ARC
  5
7F4
  8
0
  6
CONTINUOUS
 62
     3
 10
-726.38647000000003
 20
148.8112899999999
 30
0.0
 40
1.003363999999999
 50
270.19171
 51
359.80827999999991
  0
ARC
  5
7F5
  8
0
  6
CONTINUOUS
 62
     3
 10
-726.38806
 20
158.55286000000001
 30
0.0
 40
1.0049238999999981
 50
270.28003999999999
 51
359.71996999999988
  0
ARC
  5
7F6
  8
0
  6
CONTINUOUS
 62
     3
 10
-726.38292999999999
 20
154.54811000000001
 30
0.0
 40
0.99984801
 50
359.99119000000002
 51
90.008807000000004
  0
ARC
  5
7F7
  8
0
  6
CONTINUOUS
 62
     3
 10
-726.08258000000001
 20
145.15851000000001
 30
0.0
 40
0.69944
 50
359.95416
 51
90.045839999999984
  0
ARC
  5
7F8
  8
0
  6
CONTINUOUS
 62
     3
 10
-728.18011000000001
 20
146.86316999999991
 30
0.0
 40
1.005223999999999
 50
246.98628999999991
 51
269.82935999999989
  0
ARC
  5
7F9
  8
0
  6
CONTINUOUS
 62
     3
 10
-728.24255000000005
 20
148.81063999999981
 30
0.0
 40
1.0027280000000001
 50
253.75297
 51
270.54039999999992
  0
ARC
  5
7FA
  8
0
  6
CONTINUOUS
 62
     3
 10
-729.38677999999982
 20
149.16228999999981
 30
0.0
 40
0.9963800299999999
 50
180.24948999999981
 51
253.29706999999991
  0
ARC
  5
7FB
  8
0
  6
CONTINUOUS
 62
     3
 10
-729.38660000000004
 20
147.37641999999991
 30
0.0
 40
0.9964760499999998
 50
179.91257999999991
 51
247.17966000000001
  0
ARC
  5
7FC
  8
0
  6
CONTINUOUS
 62
     3
 10
-729.38292999999965
 20
156.5481399999999
 30
0.0
 40
1.0001959999999981
 50
180.01127999999991
 51
269.98872
  0
ARC
  5
7FD
  8
0
  6
CONTINUOUS
 62
     3
 10
-729.38806
 20
156.55288999999991
 30
0.0
 40
0.99508399
 50
89.716324
 51
180.28368
  0
ARC
  5
7FE
  8
0
  6
CONTINUOUS
 62
     3
 10
-729.38292999999965
 20
166.54815999999991
 30
0.0
 40
1.0001999999999991
 50
180.01150000000001
 51
269.98851000000002
  0
ARC
  5
7FF
  8
0
  6
CONTINUOUS
 62
     3
 10
-729.38806
 20
166.55286999999981
 30
0.0
 40
0.99508399
 50
89.716106000000025
 51
180.2838899999999
  0
ARC
  5
800
  8
0
  6
CONTINUOUS
 62
     3
 10
-729.38292999999965
 20
176.54816
 30
0.0
 40
1.0002040000000001
 50
180.01169999999999
 51
269.98829999999992
  0
ARC
  5
801
  8
0
  6
CONTINUOUS
 62
     3
 10
-729.38806
 20
176.5528699999999
 30
0.0
 40
0.9950800499999999
 50
89.715893999999963
 51
180.2841
  0
ARC
  5
802
  8
0
  6
CONTINUOUS
 62
     3
 10
-726.38806
 20
178.5528699999999
 30
0.0
 40
1.0049318999999981
 50
270.28044999999992
 51
359.71955000000008
  0
ARC
  5
803
  8
0
  6
CONTINUOUS
 62
     3
 10
-726.38292999999999
 20
174.54810000000001
 30
0.0
 40
0.99985206
 50
359.99142999999998
 51
90.008574000000024
  0
ARC
  5
804
  8
0
  6
CONTINUOUS
 62
     3
 10
-726.38806
 20
168.55286000000001
 30
0.0
 40
1.004928
 50
270.28023999999988
 51
359.71976000000001
  0
ARC
  5
805
  8
0
  6
CONTINUOUS
 62
     3
 10
-726.38292999999999
 20
164.54810000000001
 30
0.0
 40
0.9998440099999999
 50
359.99097999999992
 51
90.00901800000004
  0
ARC
  5
806
  8
0
  6
CONTINUOUS
 62
     3
 10
-716.22484999999995
 20
223.14076
 30
0.0
 40
5.004112199999998
 50
279.68356999999992
 51
354.57833999999991
  0
ARC
  5
807
  8
0
  6
CONTINUOUS
 62
     3
 10
-715.76233000000002
 20
219.2150299999999
 30
0.0
 40
6.0049156999999971
 50
45.22730700000001
 51
86.379093999999981
  0
ARC
  5
808
  8
0
  6
CONTINUOUS
 62
     3
 10
-712.23919999999964
 20
222.76822999999999
 30
0.0
 40
1.0011080999999991
 50
354.25024999999982
 51
45.146993999999992
  0
ARC
  5
809
  8
0
  6
CONTINUOUS
 62
     3
 10
-583.54065000000003
 20
123.05055
 30
0.0
 40
2.0026237999999981
 50
270.21533999999991
 51
347.81734
  0
ARC
  5
80A
  8
0
  6
CONTINUOUS
 62
     3
 10
-578.67602999999997
 20
129.01863
 30
0.0
 40
1.499328
 50
89.888150999999979
 51
168.09384
  0
ARC
  5
80B
  8
0
  6
CONTINUOUS
 62
     3
 10
-715.75316999999995
 20
143.89512999999999
 30
0.0
 40
6.0085920999999987
 50
273.53095000000002
 51
314.61478
  0
ARC
  5
80C
  8
0
  6
CONTINUOUS
 62
     3
 10
-716.21973000000003
 20
139.95987
 30
0.0
 40
4.9985837999999987
 50
5.3731198999999981
 51
76.879133999999979
  0
ARC
  5
80D
  8
0
  6
CONTINUOUS
 62
     3
 10
-729.38549999999964
 20
133.53261000000001
 30
0.0
 40
0.9976240400000001
 50
180.2675099999999
 51
240.07953999999981
  0
ARC
  5
80E
  8
0
  6
CONTINUOUS
 62
     3
 10
-729.38744999999983
 20
134.57830999999999
 30
0.0
 40
0.99566799
 50
180.02043
 51
243.40982999999991
  0
ARC
  5
80F
  8
0
  6
CONTINUOUS
 62
     3
 10
-728.10242000000005
 20
132.7990299999999
 30
0.0
 40
1.0011358999999991
 50
239.328
 51
269.38751000000002
  0
ARC
  5
810
  8
0
  6
CONTINUOUS
 62
     3
 10
-728.13726999999983
 20
133.94720000000001
 30
0.0
 40
0.99928796
 50
242.86126999999991
 51
269.66618999999992
  0
ARC
  5
811
  8
0
  6
CONTINUOUS
 62
     3
 10
-728.11175999999989
 20
134.91161
 30
0.0
 40
1.003687999999999
 50
239.37027
 51
270.49275
  0
ARC
  5
812
  8
0
  6
CONTINUOUS
 62
     3
 10
-728.12792999999999
 20
136.0485699999999
 30
0.0
 40
1.0006280000000001
 50
241.64985999999999
 51
269.70470999999992
  0
ARC
  5
813
  8
0
  6
CONTINUOUS
 62
     3
 10
-728.09032999999999
 20
139.42844999999991
 30
0.0
 40
1.0005360000000001
 50
237.1464
 51
270.41322000000002
  0
ARC
  5
814
  8
0
  6
CONTINUOUS
 62
     3
 10
-728.11974999999984
 20
140.56893999999991
 30
0.0
 40
1.001012
 50
240.47136
 51
270.3802
  0
ARC
  5
815
  8
0
  6
CONTINUOUS
 62
     3
 10
-729.38402999999983
 20
140.27262999999991
 30
0.0
 40
0.9991000299999999
 50
179.69542000000001
 51
236.66176999999999
  0
ARC
  5
816
  8
0
  6
CONTINUOUS
 62
     3
 10
-729.38544000000002
 20
136.70923999999991
 30
0.0
 40
0.99770796
 50
180.0740499999998
 51
242.04476
  0
ARC
  5
817
  8
0
  6
CONTINUOUS
 62
     3
 10
-729.3843999999998
 20
135.67144999999999
 30
0.0
 40
0.9987800700000001
 50
179.6266699999999
 51
238.70855
  0
ARC
  5
818
  8
0
  6
CONTINUOUS
 62
     3
 10
-726.38555999999983
 20
140.57040000000001
 30
0.0
 40
1.002459999999999
 50
270.14037999999999
 51
359.85962000000001
  0
ARC
  5
819
  8
0
  6
CONTINUOUS
 62
     3
 10
-729.38463999999988
 20
141.30725000000001
 30
0.0
 40
0.9984599899999999
 50
179.95962
 51
239.38655
  0
ARC
  5
81A
  8
0
  6
CONTINUOUS
 62
     3
 10
-726.38715000000002
 20
136.05203
 30
0.0
 40
1.0040839999999991
 50
270.23262999999992
 51
359.76737000000008
  0
ARC
  5
81B
  8
0
  6
CONTINUOUS
 62
     3
 10
-725.88653999999985
 20
133.45133999999979
 30
0.0
 40
0.50340396
 50
270.38612999999992
 51
359.61387000000002
  0
ARC
  5
81C
  8
0
  6
CONTINUOUS
 62
     3
 10
-725.88269000000003
 20
131.29838999999981
 30
0.0
 40
0.49955601
 50
359.94911000000002
 51
90.050894000000014
  0
ARC
  5
81D
  8
0
  6
CONTINUOUS
 62
     3
 10
-719.15704000000005
 20
130.56638000000001
 30
0.0
 40
1.998443999999999
 50
190.33239999999989
 51
270.11368999999979
  0
ARC
  5
81E
  8
0
  6
CONTINUOUS
 62
     3
 10
-719.21820000000002
 20
125.28731999999999
 30
0.0
 40
1.9993919999999981
 50
192.1080399999999
 51
270.14582000000001
  0
ARC
  5
81F
  8
0
  6
CONTINUOUS
 62
     3
 10
-723.59997999999985
 20
129.01885999999999
 30
0.0
 40
1.4991000000000001
 50
11.89856
 51
89.736657999999963
  0
ARC
  5
820
  8
0
  6
CONTINUOUS
 62
     3
 10
-719.24614999999994
 20
121.87869999999999
 30
0.0
 40
2.0007559999999991
 50
193.3141599999999
 51
270.08645000000001
  0
ARC
  5
821
  8
0
  6
CONTINUOUS
 62
     3
 10
-723.56970000000001
 20
124.95043
 30
0.0
 40
1.497512
 50
13.418233000000001
 51
90.128792999999988
  0
ARC
  5
822
  8
0
  6
CONTINUOUS
 62
     3
 10
-723.55529999999999
 20
122.92981999999991
 30
0.0
 40
1.4981281
 50
14.224575
 51
89.916113999999979
  0
ARC
  5
823
  8
0
  6
CONTINUOUS
 62
     3
 10
-719.27166999999997
 20
120.2510799999999
 30
0.0
 40
2.0031319000000001
 50
194.25158999999999
 51
269.95755000000003
  0
ARC
  5
824
  8
0
  6
CONTINUOUS
 62
     3
 10
-702.38269000000003
 20
121.6883899999998
 30
0.0
 40
2.0004520000000001
 50
180.0129
 51
269.98709999999988
  0
ARC
  5
825
  8
0
  6
CONTINUOUS
 62
     3
 10
-702.38184000000001
 20
119.6592599999999
 30
0.0
 40
2.0013119999999991
 50
180.03756000000001
 51
269.96244000000002
  0
ARC
  5
826
  8
0
  6
CONTINUOUS
 62
     3
 10
-702.38452000000018
 20
118.30656
 30
0.0
 40
1.998619899999996
 50
179.9604699999999
 51
270.03952999999967
  0
ARC
  5
827
  8
0
  6
CONTINUOUS
 62
     3
 10
-702.38922000000002
 20
117.63799999999991
 30
0.0
 40
2.000076099999998
 50
194.77497999999991
 51
270.17352999999991
  0
ARC
  5
828
  8
0
  6
CONTINUOUS
 62
     3
 10
-705.88469999999995
 20
127.06638
 30
0.0
 40
1.501567999999998
 50
0.059805003
 51
89.940196999999998
  0
ARC
  5
829
  8
0
  6
CONTINUOUS
 62
     3
 10
-705.88580000000002
 20
121.78522
 30
0.0
 40
1.502715899999999
 50
0.103436
 51
89.896566000000007
  0
ARC
  5
82A
  8
0
  6
CONTINUOUS
 62
     3
 10
-705.88287000000003
 20
118.37818
 30
0.0
 40
1.499755999999999
 50
359.99058999999983
 51
90.009407999999965
  0
ARC
  5
82B
  8
0
  6
CONTINUOUS
 62
     3
 10
-705.77161000000001
 20
116.7512899999999
 30
0.0
 40
1.4966440000000001
 50
14.57574
 51
90.058278000000001
  0
ARC
  5
82C
  8
0
  6
CONTINUOUS
 62
     3
 10
-649.38915999999995
 20
119.66396999999991
 30
0.0
 40
2.0060479999999981
 50
270.17248999999998
 51
359.82751000000002
  0
ARC
  5
82D
  8
0
  6
CONTINUOUS
 62
     3
 10
-649.38647000000003
 20
118.3113
 30
0.0
 40
2.0033560000000001
 50
270.09593999999998
 51
359.90406000000002
  0
ARC
  5
82E
  8
0
  6
CONTINUOUS
 62
     3
 10
-649.38500999999985
 20
117.63983
 30
0.0
 40
2.0019
 50
270.05437999999992
 51
359.94562000000002
  0
ARC
  5
82F
  8
0
  6
CONTINUOUS
 62
     3
 10
-578.73779000000002
 20
133.7019699999999
 30
0.0
 40
1.495995999999999
 50
89.821707000000004
 51
165.04766000000001
  0
ARC
  5
830
  8
0
  6
CONTINUOUS
 62
     3
 10
-703.38788
 20
196.5479399999999
 30
0.0
 40
1.0000119000000001
 50
89.726507999999981
 51
270.27347999999989
  0
ARC
  5
831
  8
0
  6
CONTINUOUS
 62
     3
 10
-703.38788
 20
206.5479599999999
 30
0.0
 40
1.0000119000000001
 50
89.726507999999981
 51
270.27347999999989
  0
ARC
  5
832
  8
0
  6
CONTINUOUS
 62
     3
 10
-703.38788
 20
216.54792999999981
 30
0.0
 40
1.0000119000000001
 50
89.726507999999981
 51
270.27347999999989
  0
ARC
  5
833
  8
0
  6
CONTINUOUS
 62
     3
 10
-721.11890000000005
 20
186.55295000000001
 30
0.0
 40
1.265012
 50
89.737716000000006
 51
270.26227999999992
  0
ARC
  5
834
  8
0
  6
CONTINUOUS
 62
     3
 10
-721.05309999999974
 20
196.55795000000001
 30
0.0
 40
1.3300080000000001
 50
90.000003000000007
 51
270.0
  0
ARC
  5
835
  8
0
  6
CONTINUOUS
 62
     3
 10
-711.92309999999998
 20
206.57294999999991
 30
0.0
 40
1.465004
 50
90.000003000000007
 51
270.0
  0
ARC
  5
836
  8
0
  6
CONTINUOUS
 62
     3
 10
-711.70995999999957
 20
216.59293
 30
0.0
 40
1.6750160000000001
 50
89.766540000000006
 51
270.23345999999992
  0
ARC
  5
837
  8
0
  6
CONTINUOUS
 62
     3
 10
-719.83312999999964
 20
186.5479399999999
 30
0.0
 40
1.0
 50
90.000003000000007
 51
270.0
  0
ARC
  5
838
  8
0
  6
CONTINUOUS
 62
     3
 10
-719.83312999999964
 20
196.5479399999999
 30
0.0
 40
1.0
 50
90.000003000000007
 51
270.0
  0
ARC
  5
839
  8
0
  6
CONTINUOUS
 62
     3
 10
-710.83783000000005
 20
216.54792999999981
 30
0.0
 40
1.0000119000000001
 50
89.728448
 51
270.27154000000002
  0
ARC
  5
83A
  8
0
  6
CONTINUOUS
 62
     3
 10
-710.83783000000005
 20
206.5479599999999
 30
0.0
 40
1.0000119000000001
 50
89.728448
 51
270.27154000000002
  0
ARC
  5
83B
  8
0
  6
CONTINUOUS
 62
     3
 10
-598.08660999999995
 20
213.92144999999999
 30
0.0
 40
0.996512
 50
89.798963000000015
 51
180.20103
  0
ARC
  5
83C
  8
0
  6
CONTINUOUS
 62
     3
 10
-598.08190999999965
 20
212.81870000000001
 30
0.0
 40
1.001239999999999
 50
180.04312999999991
 51
268.21195999999992
  0
ARC
  5
83D
  8
0
  6
CONTINUOUS
 62
     3
 10
-598.08697999999981
 20
150.28211999999991
 30
0.0
 40
0.99615997
 50
91.504365000000007
 51
180.24055000000001
  0
ARC
  5
83E
  8
0
  6
CONTINUOUS
 62
     3
 10
-598.08154000000002
 20
149.17955000000001
 30
0.0
 40
1.001595999999999
 50
180.09126000000001
 51
269.90875
  0
ARC
  5
83F
  8
0
  6
CONTINUOUS
 62
     3
 10
-581.56311000000005
 20
216.59293
 30
0.0
 40
1.6750041
 50
270.0
 51
90.000003000000007
  0
ARC
  5
840
  8
0
  6
CONTINUOUS
 62
     3
 10
-585.04314999999997
 20
216.54792999999981
 30
0.0
 40
1.0
 50
270.0
 51
90.000003000000007
  0
ARC
  5
841
  8
0
  6
CONTINUOUS
 62
     3
 10
-585.04314999999997
 20
146.5479599999999
 30
0.0
 40
1.0
 50
270.0
 51
90.000003000000007
  0
ARC
  5
842
  8
0
  6
CONTINUOUS
 62
     3
 10
-581.56311000000005
 20
146.50296
 30
0.0
 40
1.6750041
 50
270.0
 51
90.000003000000007
  0
ARC
  5
843
  8
0
  6
CONTINUOUS
 62
     3
 10
-719.83312999999964
 20
176.5479599999999
 30
0.0
 40
1.0
 50
90.000003000000007
 51
270.0
  0
ARC
  5
844
  8
0
  6
CONTINUOUS
 62
     3
 10
-703.38788
 20
166.5479399999999
 30
0.0
 40
1.0000119000000001
 50
89.726507999999981
 51
270.27347999999989
  0
ARC
  5
845
  8
0
  6
CONTINUOUS
 62
     3
 10
-703.38788
 20
156.5479399999999
 30
0.0
 40
1.0000119000000001
 50
89.726507999999981
 51
270.27347999999989
  0
ARC
  5
846
  8
0
  6
CONTINUOUS
 62
     3
 10
-721.05309999999974
 20
166.53795
 30
0.0
 40
1.3300080000000001
 50
90.000003000000007
 51
270.0
  0
ARC
  5
847
  8
0
  6
CONTINUOUS
 62
     3
 10
-720.92309999999986
 20
156.52295000000001
 30
0.0
 40
1.465004
 50
90.000003000000007
 51
270.0
  0
ARC
  5
848
  8
0
  6
CONTINUOUS
 62
     3
 10
-719.83783000000005
 20
146.5479599999999
 30
0.0
 40
1.0000119000000001
 50
89.728461999999965
 51
270.27154000000002
  0
ARC
  5
849
  8
0
  6
CONTINUOUS
 62
     3
 10
-703.38788
 20
176.5479599999999
 30
0.0
 40
1.0000119000000001
 50
89.726507999999981
 51
270.27347999999989
  0
ARC
  5
84A
  8
0
  6
CONTINUOUS
 62
     3
 10
-703.38788
 20
146.5479599999999
 30
0.0
 40
1.0000119000000001
 50
89.726507999999981
 51
270.27347999999989
  0
ARC
  5
84B
  8
0
  6
CONTINUOUS
 62
     3
 10
-721.11890000000005
 20
176.5479599999999
 30
0.0
 40
1.270011999999999
 50
89.738748000000001
 51
270.26123999999999
  0
ARC
  5
84C
  8
0
  6
CONTINUOUS
 62
     3
 10
-720.70995999999946
 20
146.50296
 30
0.0
 40
1.6750160000000001
 50
89.764983000000015
 51
270.23500999999987
  0
ARC
  5
84D
  8
0
  6
CONTINUOUS
 62
     3
 10
-719.83312999999964
 20
166.5479399999999
 30
0.0
 40
1.0
 50
90.000003000000007
 51
270.0
  0
ARC
  5
84E
  8
0
  6
CONTINUOUS
 62
     3
 10
-719.83783000000005
 20
156.5479399999999
 30
0.0
 40
1.0000119000000001
 50
89.728461999999965
 51
270.27154000000002
  0
CIRCLE
  5
84F
  8
0
  6
CONTINUOUS
 62
     3
 10
-610.88317999999981
 20
540.86658
 30
0.0
 40
1.1000000000000001
  0
CIRCLE
  5
850
  8
0
  6
CONTINUOUS
 62
     3
 10
-610.88317999999981
 20
540.86658
 30
0.0
 40
1.149999999999999
  0
CIRCLE
  5
851
  8
0
  6
CONTINUOUS
 62
     3
 10
-605.88317999999981
 20
540.86658
 30
0.0
 40
1.0
  0
ARC
  5
852
  8
0
  6
CONTINUOUS
 62
     7
 10
-599.40307999999982
 20
544.72655999999995
 30
0.0
 40
1.0
 50
90.000003000000007
 51
180.00001
  0
ARC
  5
853
  8
0
  6
CONTINUOUS
 62
     7
 10
-617.36315999999999
 20
544.72655999999995
 30
0.0
 40
1.0
 50
0.0
 51
90.000003000000007
  0
ARC
  5
854
  8
0
  6
CONTINUOUS
 62
     7
 10
-617.38317999999981
 20
539.86657999999977
 30
0.0
 40
1.02
 50
269.99998999999991
 51
0.00000068324403
  0
ARC
  5
855
  8
0
  6
CONTINUOUS
 62
     7
 10
-599.3831799999997
 20
539.86657999999977
 30
0.0
 40
1.02
 50
179.99998999999991
 51
270.0
  0
ARC
  5
856
  8
0
  6
CONTINUOUS
 62
     7
 10
-617.38317999999981
 20
544.86657999999966
 30
0.0
 40
1.5
 50
0.0
 51
90.000003000000007
  0
ARC
  5
857
  8
0
  6
CONTINUOUS
 62
     7
 10
-617.38317999999981
 20
539.86657999999977
 30
0.0
 40
1.5
 50
269.99998999999991
 51
0.00000068324733
  0
ARC
  5
858
  8
0
  6
CONTINUOUS
 62
     7
 10
-599.3831799999997
 20
544.86657999999966
 30
0.0
 40
1.5
 50
90.000003000000007
 51
180.00001
  0
ARC
  5
859
  8
0
  6
CONTINUOUS
 62
     7
 10
-599.3831799999997
 20
539.86657999999977
 30
0.0
 40
1.5
 50
179.99998999999991
 51
270.0
  0
CIRCLE
  5
85A
  8
0
  6
CONTINUOUS
 62
     3
 10
-605.88317999999981
 20
483.86660999999998
 30
0.0
 40
1.0
  0
CIRCLE
  5
85B
  8
0
  6
CONTINUOUS
 62
     3
 10
-610.88317999999981
 20
483.86660999999998
 30
0.0
 40
1.149999999999999
  0
CIRCLE
  5
85C
  8
0
  6
CONTINUOUS
 62
     3
 10
-610.88317999999981
 20
483.86660999999998
 30
0.0
 40
1.1000000000000001
  0
ARC
  5
85D
  8
0
  6
CONTINUOUS
 62
     7
 10
-599.40307999999982
 20
480.00661999999988
 30
0.0
 40
1.0
 50
179.99998999999991
 51
270.0
  0
ARC
  5
85E
  8
0
  6
CONTINUOUS
 62
     7
 10
-617.36315999999999
 20
480.00661999999988
 30
0.0
 40
1.0
 50
269.99998999999991
 51
0.00000068324625
  0
ARC
  5
85F
  8
0
  6
CONTINUOUS
 62
     7
 10
-617.38317999999981
 20
484.86660999999992
 30
0.0
 40
1.02
 50
0.0
 51
90.000003000000007
  0
ARC
  5
860
  8
0
  6
CONTINUOUS
 62
     7
 10
-599.3831799999997
 20
484.86660999999992
 30
0.0
 40
1.02
 50
90.000003000000007
 51
180.00001
  0
ARC
  5
861
  8
0
  6
CONTINUOUS
 62
     7
 10
-617.38317999999981
 20
479.86660999999998
 30
0.0
 40
1.5
 50
269.99998999999991
 51
0.00000068324516
  0
ARC
  5
862
  8
0
  6
CONTINUOUS
 62
     7
 10
-617.38317999999981
 20
484.86660999999992
 30
0.0
 40
1.5
 50
0.0
 51
90.000003000000007
  0
ARC
  5
863
  8
0
  6
CONTINUOUS
 62
     7
 10
-599.3831799999997
 20
479.86660999999998
 30
0.0
 40
1.5
 50
179.99998999999991
 51
270.0
  0
ARC
  5
864
  8
0
  6
CONTINUOUS
 62
     7
 10
-599.3831799999997
 20
484.86660999999992
 30
0.0
 40
1.5
 50
90.000003000000007
 51
180.00001
  0
ARC
  5
865
  8
0
  6
CONTINUOUS
 62
     7
 10
-648.71813999999995
 20
497.35659999999979
 30
0.0
 40
1.3300148000000001
 50
269.72941999999989
 51
90.270567000000014
  0
ARC
  5
866
  8
0
  6
CONTINUOUS
 62
     7
 10
-649.94446000000016
 20
497.36660999999992
 30
0.0
 40
1.0000056999999991
 50
269.99998999999991
 51
90.000003000000007
  0
ARC
  5
867
  8
0
  6
CONTINUOUS
 62
     7
 10
-648.65624999999977
 20
507.36660999999992
 30
0.0
 40
1.2700266
 50
269.62931999999989
 51
90.370669999999961
  0
ARC
  5
868
  8
0
  6
CONTINUOUS
 62
     7
 10
-649.94446000000016
 20
507.36660999999992
 30
0.0
 40
1.0000056999999991
 50
269.99998999999991
 51
90.000003000000007
  0
ARC
  5
869
  8
0
  6
CONTINUOUS
 62
     7
 10
-648.65624999999977
 20
517.37659000000008
 30
0.0
 40
1.2700266
 50
269.62931999999989
 51
90.370669999999961
  0
ARC
  5
86A
  8
0
  6
CONTINUOUS
 62
     7
 10
-649.94446000000016
 20
517.36658
 30
0.0
 40
1.0000056999999991
 50
269.99998999999991
 51
90.000003000000007
  0
ARC
  5
86B
  8
0
  6
CONTINUOUS
 62
     7
 10
-649.94446000000016
 20
527.36657999999977
 30
0.0
 40
1.0000056999999991
 50
269.99998999999991
 51
90.000003000000007
  0
ARC
  5
86C
  8
0
  6
CONTINUOUS
 62
     7
 10
-648.71813999999995
 20
527.38158999999985
 30
0.0
 40
1.3350147999999991
 50
269.73043000000001
 51
90.269555999999994
  0
ARC
  5
86D
  8
0
  6
CONTINUOUS
 62
     7
 10
-585.04320999999982
 20
537.36658
 30
0.0
 40
1.0000255999999981
 50
269.58947000000001
 51
90.410531000000006
  0
ARC
  5
86E
  8
0
  6
CONTINUOUS
 62
     7
 10
-581.34313999999995
 20
537.39661000000001
 30
0.0
 40
1.460011199999999
 50
269.77525000000003
 51
90.224749999999986
  0
ARC
  5
86F
  8
0
  6
CONTINUOUS
 62
     7
 10
-585.04320999999982
 20
487.36660999999998
 30
0.0
 40
1.0000255999999981
 50
269.58947000000001
 51
90.410531000000006
  0
ARC
  5
870
  8
0
  6
CONTINUOUS
 62
     7
 10
-581.34313999999995
 20
487.33658000000003
 30
0.0
 40
1.460011199999999
 50
269.77525000000003
 51
90.224749999999986
  0
ARC
  5
871
  8
0
  6
CONTINUOUS
 62
     7
 10
-584.29944
 20
576.78661999999963
 30
0.0
 40
1.5
 50
12.129792
 51
90.000003000000007
  0
ARC
  5
872
  8
0
  6
CONTINUOUS
 62
     7
 10
-584.15552000000002
 20
576.11657999999966
 30
0.0
 40
1.5
 50
12.129792
 51
90.000003000000007
  0
ARC
  5
873
  8
0
  6
CONTINUOUS
 62
     7
 10
-583.86315999999999
 20
574.75658999999985
 30
0.0
 40
1.5
 50
12.129792
 51
90.000003000000007
  0
ARC
  5
874
  8
0
  6
CONTINUOUS
 62
     7
 10
-597.86950999999999
 20
440.86660999999992
 30
0.0
 40
1.5
 50
90.000003000000007
 51
178.5
  0
ARC
  5
875
  8
0
  6
CONTINUOUS
 62
     3
 10
-586.36694
 20
443.86660999999981
 30
0.0
 40
1.5
 50
269.99998999999991
 51
327.0
  0
ARC
  5
876
  8
0
  6
CONTINUOUS
 62
     7
 10
-661.05676000000017
 20
446.97658999999987
 30
0.0
 40
1.5
 50
1.500002699999998
 51
90.000003000000007
  0
ARC
  5
877
  8
0
  6
CONTINUOUS
 62
     7
 10
-711.92882999999995
 20
487.33658000000003
 30
0.0
 40
1.460011199999999
 50
89.775248000000005
 51
270.22474
  0
ARC
  5
878
  8
0
  6
CONTINUOUS
 62
     7
 10
-710.84032999999988
 20
487.36660999999998
 30
0.0
 40
1.0000255999999981
 50
89.589473999999967
 51
270.41052000000002
  0
ARC
  5
879
  8
0
  6
CONTINUOUS
 62
     7
 10
-710.84032999999988
 20
477.36660999999981
 30
0.0
 40
1.0000255999999981
 50
89.589473999999967
 51
270.41052000000002
  0
ARC
  5
87A
  8
0
  6
CONTINUOUS
 62
     7
 10
-711.71312999999975
 20
477.31655999999992
 30
0.0
 40
1.6800002000000001
 50
90.000003000000007
 51
270.0
  0
ARC
  5
87B
  8
0
  6
CONTINUOUS
 62
     7
 10
-711.48584000000005
 20
456.09365999999989
 30
0.0
 40
1.997119399999999
 50
192.05524
 51
270.19862999999992
  0
ARC
  5
87C
  8
0
  6
CONTINUOUS
 62
     7
 10
-715.86632999999995
 20
459.82425000000001
 30
0.0
 40
1.502416299999999
 50
12.39188699999999
 51
90.098617000000004
  0
ARC
  5
87D
  8
0
  6
CONTINUOUS
 62
     7
 10
-711.42370999999957
 20
461.37185999999991
 30
0.0
 40
1.9952742999999991
 50
189.96477999999971
 51
269.85142000000002
  0
ARC
  5
87E
  8
0
  6
CONTINUOUS
 62
     7
 10
-715.65002000000004
 20
465.10660000000001
 30
0.0
 40
1.5
 50
10.23737899999999
 51
79.752110000000002
  0
ARC
  5
87F
  8
0
  6
CONTINUOUS
 62
     7
 10
-715.65002000000004
 20
559.62658999999985
 30
0.0
 40
1.5
 50
280.24788999999998
 51
349.76262000000008
  0
ARC
  5
880
  8
0
  6
CONTINUOUS
 62
     7
 10
-719.83312999999964
 20
497.36660999999992
 30
0.0
 40
1.0000056999999991
 50
90.000003000000007
 51
270.0
  0
ARC
  5
881
  8
0
  6
CONTINUOUS
 62
     7
 10
-721.12134000000003
 20
507.36660999999992
 30
0.0
 40
1.2700266
 50
89.629320999999962
 51
270.37068999999991
  0
ARC
  5
882
  8
0
  6
CONTINUOUS
 62
     7
 10
-703.39038000000005
 20
477.36660999999981
 30
0.0
 40
1.0000259
 50
89.587533999999977
 51
270.41246000000001
  0
ARC
  5
883
  8
0
  6
CONTINUOUS
 62
     7
 10
-703.39038000000005
 20
507.36660999999992
 30
0.0
 40
1.0000259
 50
89.587533999999977
 51
270.41246000000001
  0
ARC
  5
884
  8
0
  6
CONTINUOUS
 62
     7
 10
-721.05944999999986
 20
497.35659999999979
 30
0.0
 40
1.3300148000000001
 50
89.729417999999995
 51
270.27058999999991
  0
ARC
  5
885
  8
0
  6
CONTINUOUS
 62
     7
 10
-703.39038000000005
 20
487.36660999999998
 30
0.0
 40
1.0000259
 50
89.587533999999977
 51
270.41246000000001
  0
ARC
  5
886
  8
0
  6
CONTINUOUS
 62
     7
 10
-703.39038000000005
 20
497.36660999999992
 30
0.0
 40
1.0000259
 50
89.587533999999977
 51
270.41246000000001
  0
ARC
  5
887
  8
0
  6
CONTINUOUS
 62
     7
 10
-719.83312999999964
 20
507.36660999999992
 30
0.0
 40
1.0000056999999991
 50
90.000003000000007
 51
270.0
  0
ARC
  5
888
  8
0
  6
CONTINUOUS
 62
     7
 10
-581.56311000000005
 20
477.32657
 30
0.0
 40
1.6800077
 50
269.99998999999991
 51
90.000003000000007
  0
ARC
  5
889
  8
0
  6
CONTINUOUS
 62
     7
 10
-585.04309000000001
 20
477.36660999999981
 30
0.0
 40
1.0000040999999991
 50
269.99998999999991
 51
90.000003000000007
  0
ARC
  5
88A
  8
0
  6
CONTINUOUS
 62
     7
 10
-585.04309000000001
 20
547.36658
 30
0.0
 40
1.0000040999999991
 50
269.99998999999991
 51
90.000003000000007
  0
ARC
  5
88B
  8
0
  6
CONTINUOUS
 62
     7
 10
-581.56311000000005
 20
547.41663000000005
 30
0.0
 40
1.6800077
 50
269.99998999999991
 51
90.000003000000007
  0
ARC
  5
88C
  8
0
  6
CONTINUOUS
 62
     7
 10
-710.84032999999988
 20
537.36658
 30
0.0
 40
1.0000255999999981
 50
89.589473999999967
 51
270.41052000000002
  0
ARC
  5
88D
  8
0
  6
CONTINUOUS
 62
     7
 10
-710.84032999999988
 20
547.36658
 30
0.0
 40
1.0000255999999981
 50
89.589473999999967
 51
270.41052000000002
  0
ARC
  5
88E
  8
0
  6
CONTINUOUS
 62
     7
 10
-719.83312999999964
 20
527.36657999999977
 30
0.0
 40
1.0000056999999991
 50
90.000003000000007
 51
270.0
  0
ARC
  5
88F
  8
0
  6
CONTINUOUS
 62
     7
 10
-719.83312999999964
 20
517.36658
 30
0.0
 40
1.0000056999999991
 50
90.000003000000007
 51
270.0
  0
ARC
  5
890
  8
0
  6
CONTINUOUS
 62
     7
 10
-711.71312999999975
 20
547.41663000000005
 30
0.0
 40
1.6800002000000001
 50
90.000003000000007
 51
270.0
  0
ARC
  5
891
  8
0
  6
CONTINUOUS
 62
     7
 10
-711.92882999999995
 20
537.39661000000001
 30
0.0
 40
1.460011199999999
 50
89.775248000000005
 51
270.22474
  0
ARC
  5
892
  8
0
  6
CONTINUOUS
 62
     7
 10
-721.05944999999986
 20
527.38158999999985
 30
0.0
 40
1.3350147999999991
 50
89.730435000000014
 51
270.26956999999999
  0
ARC
  5
893
  8
0
  6
CONTINUOUS
 62
     7
 10
-721.12134000000003
 20
517.37659000000008
 30
0.0
 40
1.2700266
 50
89.629328000000001
 51
270.37065999999987
  0
ARC
  5
894
  8
0
  6
CONTINUOUS
 62
     7
 10
-703.39038000000005
 20
547.36658
 30
0.0
 40
1.0000259
 50
89.587533999999977
 51
270.41246000000001
  0
ARC
  5
895
  8
0
  6
CONTINUOUS
 62
     7
 10
-703.39038000000005
 20
537.36658
 30
0.0
 40
1.0000259
 50
89.587533999999977
 51
270.41246000000001
  0
ARC
  5
896
  8
0
  6
CONTINUOUS
 62
     7
 10
-703.39038000000005
 20
527.36657999999977
 30
0.0
 40
1.0000259
 50
89.587533999999977
 51
270.41246000000001
  0
ARC
  5
897
  8
0
  6
CONTINUOUS
 62
     7
 10
-578.73950000000002
 20
464.52285999999998
 30
0.0
 40
1.4937901
 50
89.756423999999981
 51
165.1129199999998
  0
ARC
  5
898
  8
0
  6
CONTINUOUS
 62
     7
 10
-705.88622999999995
 20
452.60342000000003
 30
0.0
 40
1.503128599999999
 50
0.11912965
 51
89.880870000000002
  0
ARC
  5
899
  8
0
  6
CONTINUOUS
 62
     7
 10
-705.88513
 20
457.88467000000003
 30
0.0
 40
1.501982699999999
 50
0.075587202
 51
89.924413000000015
  0
ARC
  5
89A
  8
0
  6
CONTINUOUS
 62
     7
 10
-702.38220000000001
 20
450.47757000000001
 30
0.0
 40
2.0009109999999981
 50
180.00001
 51
269.97390999999988
  0
ARC
  5
89B
  8
0
  6
CONTINUOUS
 62
     7
 10
-702.38306
 20
452.50662
 30
0.0
 40
2.0000371999999991
 50
180.00105999999991
 51
269.99892999999992
  0
ARC
  5
89C
  8
0
  6
CONTINUOUS
 62
     7
 10
-723.55542000000003
 20
453.74831999999992
 30
0.0
 40
1.4982997
 50
14.22974
 51
89.910949999999985
  0
ARC
  5
89D
  8
0
  6
CONTINUOUS
 62
     7
 10
-723.56994999999984
 20
455.76895000000002
 30
0.0
 40
1.497715799999999
 50
13.424379
 51
90.122644999999963
  0
ARC
  5
89E
  8
0
  6
CONTINUOUS
 62
     7
 10
-719.24634000000003
 20
452.69717000000003
 30
0.0
 40
2.0005671999999981
 50
193.3095899999999
 51
269.80430999999999
  0
ARC
  5
89F
  8
0
  6
CONTINUOUS
 62
     7
 10
-716.22020999999995
 20
470.77811000000003
 30
0.0
 40
4.9991421999999961
 50
5.3780269000000001
 51
80.360065000000006
  0
ARC
  5
8A0
  8
0
  6
CONTINUOUS
 62
     7
 10
-715.76342999999974
 20
474.71194000000003
 30
0.0
 40
6.0073843
 50
273.62973999999991
 51
314.76384999999999
  0
ARC
  5
8A1
  8
0
  6
CONTINUOUS
 62
     7
 10
-712.24120999999968
 20
553.58727999999985
 30
0.0
 40
1.002184699999999
 50
354.80385999999987
 51
45.047306999999968
  0
ARC
  5
8A2
  8
0
  6
CONTINUOUS
 62
     7
 10
-715.76220999999998
 20
550.03405999999995
 30
0.0
 40
6.0044340999999992
 50
45.225577999999999
 51
86.380821999999966
  0
ARC
  5
8A3
  8
0
  6
CONTINUOUS
 62
     7
 10
-716.22754000000032
 20
553.9608199999999
 30
0.0
 40
5.0059714
 50
279.71098000000001
 51
354.67887999999999
  0
ARC
  5
8A4
  8
0
  6
CONTINUOUS
 62
     7
 10
-578.67749000000003
 20
564.90686000000005
 30
0.0
 40
1.500286
 50
192.32630999999989
 51
270.16417000000001
  0
ARC
  5
8A5
  8
0
  6
CONTINUOUS
 62
     7
 10
-577.3907499999998
 20
461.31900000000002
 30
0.0
 40
0.99237448
 50
179.55802
 51
270.44197000000003
  0
ARC
  5
8A6
  8
0
  6
CONTINUOUS
 62
     7
 10
-577.39013999999975
 20
449.85964999999987
 30
0.0
 40
0.99304521
 50
179.59730999999991
 51
270.40267999999992
  0
ARC
  5
8A7
  8
0
  6
CONTINUOUS
 62
     7
 10
-585.57372999999995
 20
572.22742000000005
 30
0.0
 40
1.9991226
 50
15.050791
 51
89.984388999999979
  0
ARC
  5
8A8
  8
0
  6
CONTINUOUS
 62
     7
 10
-578.73302999999976
 20
560.21887000000004
 30
0.0
 40
1.5022733999999991
 50
195.1365099999999
 51
269.99412000000001
  0
ARC
  5
8A9
  8
0
  6
CONTINUOUS
 62
     7
 10
-705.77819999999986
 20
577.17174999999997
 30
0.0
 40
1.505230099999999
 50
270.19421
 51
345.17177999999979
  0
ARC
  5
8AA
  8
0
  6
CONTINUOUS
 62
     7
 10
-705.89000999999985
 20
575.54345999999998
 30
0.0
 40
1.506942899999999
 50
270.26337000000001
 51
359.73662999999999
  0
ARC
  5
8AB
  8
0
  6
CONTINUOUS
 62
     7
 10
-705.88806
 20
572.14147999999977
 30
0.0
 40
1.504891299999997
 50
270.18592999999998
 51
359.81407000000002
  0
ARC
  5
8AC
  8
0
  6
CONTINUOUS
 62
     7
 10
-705.88684000000001
 20
566.86035000000004
 30
0.0
 40
1.5037541000000001
 50
270.14287000000002
 51
359.85714000000002
  0
ARC
  5
8AD
  8
0
  6
CONTINUOUS
 62
     7
 10
-702.38940000000002
 20
576.2900400000002
 30
0.0
 40
1.9964978999999961
 50
89.821482000000003
 51
165.6006099999999
  0
ARC
  5
8AE
  8
0
  6
CONTINUOUS
 62
     7
 10
-702.38660000000004
 20
575.62012000000004
 30
0.0
 40
1.996488899999999
 50
89.899147999999997
 51
180.10085000000001
  0
ARC
  5
8AF
  8
0
  6
CONTINUOUS
 62
     7
 10
-702.38903999999968
 20
574.26244999999994
 30
0.0
 40
1.994130499999996
 50
89.831106000000005
 51
180.16889
  0
ARC
  5
8B0
  8
0
  6
CONTINUOUS
 62
     7
 10
-702.38977
 20
572.23328000000004
 30
0.0
 40
1.9933081999999991
 50
89.807322999999968
 51
180.19266999999991
  0
ARC
  5
8B1
  8
0
  6
CONTINUOUS
 62
     7
 10
-719.27832000000001
 20
573.67200000000003
 30
0.0
 40
1.994612099999999
 50
89.851992000000024
 51
165.93885999999981
  0
ARC
  5
8B2
  8
0
  6
CONTINUOUS
 62
     7
 10
-723.56359999999984
 20
570.99194
 30
0.0
 40
1.505448699999999
 50
270.39686999999992
 51
345.95247000000001
  0
ARC
  5
8B3
  8
0
  6
CONTINUOUS
 62
     7
 10
-723.57787999999982
 20
568.97144000000003
 30
0.0
 40
1.5048382
 50
270.18263999999982
 51
346.7530799999999
  0
ARC
  5
8B4
  8
0
  6
CONTINUOUS
 62
     7
 10
-719.25280999999995
 20
572.04430999999977
 30
0.0
 40
1.9922863
 50
90.007720999999947
 51
166.87839
  0
ARC
  5
8B5
  8
0
  6
CONTINUOUS
 62
     7
 10
-715.86632999999995
 20
564.90894000000003
 30
0.0
 40
1.502416299999999
 50
269.9013799999999
 51
347.60813000000002
  0
ARC
  5
8B6
  8
0
  6
CONTINUOUS
 62
     7
 10
-711.48584000000005
 20
568.63953000000004
 30
0.0
 40
1.997119399999999
 50
89.801366999999999
 51
167.94476
  0
ARC
  5
8B7
  8
0
  6
CONTINUOUS
 62
     7
 10
-711.42370999999957
 20
563.36132999999995
 30
0.0
 40
1.9952742999999991
 50
90.148580000000024
 51
170.0352199999999
  0
ARC
  5
8B8
  8
0
  6
CONTINUOUS
 62
     7
 10
-703.39038000000005
 20
517.36658
 30
0.0
 40
1.0000259
 50
89.587533999999977
 51
270.41246000000001
  0
ARC
  5
8B9
  8
0
  6
CONTINUOUS
 62
     7
 10
-577.38403000000005
 20
563.40746999999999
 30
0.0
 40
0.9990923399999999
 50
89.947921999999977
 51
180.0520799999999
  0
ARC
  5
8BA
  8
0
  6
CONTINUOUS
 62
     7
 10
-585.58190999999965
 20
452.51285000000001
 30
0.0
 40
2.0062942999999991
 50
270.24932999999987
 51
345.08843999999999
  0
ARC
  5
8BB
  8
0
  6
CONTINUOUS
 62
     7
 10
-577.38329999999985
 20
574.86681999999996
 30
0.0
 40
0.99980682
 50
89.98893099999998
 51
180.0110699999999
  0
ARC
  5
8BC
  8
0
  6
CONTINUOUS
 62
     7
 10
-712.24230999999975
 20
471.15627999999998
 30
0.0
 40
1.0032491999999991
 50
314.98118999999991
 51
5.1676434000000002
  0
ARC
  5
8BD
  8
0
  6
CONTINUOUS
 62
     7
 10
-729.38989000000004
 20
560.38452000000007
 30
0.0
 40
0.99319202
 50
119.77338
 51
179.87958999999981
  0
ARC
  5
8BE
  8
0
  6
CONTINUOUS
 62
     7
 10
-729.38756999999998
 20
559.34631000000002
 30
0.0
 40
0.995579
 50
116.5870899999999
 51
179.98264
  0
ARC
  5
8BF
  8
0
  6
CONTINUOUS
 62
     7
 10
-728.12108999999964
 20
561.12072999999998
 30
0.0
 40
0.9959030199999999
 50
89.541267000000005
 51
119.60717
  0
ARC
  5
8C0
  8
0
  6
CONTINUOUS
 62
     7
 10
-728.15832999999998
 20
559.97253000000001
 30
0.0
 40
0.99411702
 50
89.122643999999966
 51
115.93498
  0
ARC
  5
8C1
  8
0
  6
CONTINUOUS
 62
     7
 10
-728.11425999999983
 20
559.01233000000002
 30
0.0
 40
0.99427301
 50
89.356065999999984
 51
120.78091000000001
  0
ARC
  5
8C2
  8
0
  6
CONTINUOUS
 62
     7
 10
-728.14806999999985
 20
557.87121999999999
 30
0.0
 40
0.99545902
 50
89.141291000000024
 51
117.20381999999999
  0
ARC
  5
8C3
  8
0
  6
CONTINUOUS
 62
     7
 10
-728.07653999999968
 20
554.50036999999986
 30
0.0
 40
0.99617702
 50
90.381317999999979
 51
123.9704899999999
  0
ARC
  5
8C4
  8
0
  6
CONTINUOUS
 62
     7
 10
-728.10375999999985
 20
553.36010999999985
 30
0.0
 40
0.99648702
 50
90.540720999999976
 51
120.74377
  0
ARC
  5
8C5
  8
0
  6
CONTINUOUS
 62
     7
 10
-729.38904000000002
 20
552.60973999999999
 30
0.0
 40
0.99404597
 50
120.4682
 51
180.18563999999989
  0
ARC
  5
8C6
  8
0
  6
CONTINUOUS
 62
     7
 10
-729.38830999999982
 20
553.64417000000003
 30
0.0
 40
0.9948369899999999
 50
123.20496
 51
180.4378599999998
  0
ARC
  5
8C7
  8
0
  6
CONTINUOUS
 62
     7
 10
-729.38989000000004
 20
557.20800999999994
 30
0.0
 40
0.9932109699999999
 50
117.7993199999999
 51
180.08187000000001
  0
ARC
  5
8C8
  8
0
  6
CONTINUOUS
 62
     7
 10
-729.38867000000005
 20
558.24561000000006
 30
0.0
 40
0.9944329899999999
 50
121.15213
 51
179.9405099999999
  0
ARC
  5
8C9
  8
0
  6
CONTINUOUS
 62
     7
 10
-728.18213000000003
 20
547.06115999999986
 30
0.0
 40
0.9954450099999999
 50
90.056905000000043
 51
113.1274499999999
  0
ARC
  5
8CA
  8
0
  6
CONTINUOUS
 62
     7
 10
-728.24401999999986
 20
545.11389000000008
 30
0.0
 40
0.9927430199999999
 50
89.374555000000001
 51
106.33207
  0
ARC
  5
8CB
  8
0
  6
CONTINUOUS
 62
     7
 10
-729.38684000000001
 20
544.76233000000002
 30
0.0
 40
0.9962710099999999
 50
106.69792
 51
180.3300499999998
  0
ARC
  5
8CC
  8
0
  6
CONTINUOUS
 62
     7
 10
-729.38671999999985
 20
546.54809999999986
 30
0.0
 40
0.9963999999999998
 50
112.81735999999979
 51
180.09041999999991
  0
ARC
  5
8CD
  8
0
  6
CONTINUOUS
 62
     7
 10
-729.38806
 20
537.37145999999996
 30
0.0
 40
0.99507803
 50
89.715886999999981
 51
180.28411
  0
ARC
  5
8CE
  8
0
  6
CONTINUOUS
 62
     7
 10
-729.38292999999965
 20
537.36681999999996
 30
0.0
 40
1.000203
 50
180.01165
 51
269.98835000000003
  0
ARC
  5
8CF
  8
0
  6
CONTINUOUS
 62
     7
 10
-729.38806
 20
527.37145999999996
 30
0.0
 40
0.99508202
 50
89.716099
 51
180.28390999999991
  0
ARC
  5
8D0
  8
0
  6
CONTINUOUS
 62
     7
 10
-729.38292999999965
 20
527.36682000000008
 30
0.0
 40
1.0001999999999991
 50
180.0114299999999
 51
269.98856999999992
  0
ARC
  5
8D1
  8
0
  6
CONTINUOUS
 62
     7
 10
-729.38806
 20
517.37145999999996
 30
0.0
 40
0.9950849999999999
 50
89.716311000000005
 51
180.28368999999981
  0
ARC
  5
8D2
  8
0
  6
CONTINUOUS
 62
     7
 10
-729.38292999999965
 20
517.36681999999985
 30
0.0
 40
1.0001959999999981
 50
180.01122000000001
 51
269.98877999999991
  0
ARC
  5
8D3
  8
0
  6
CONTINUOUS
 62
     7
 10
-726.38292999999999
 20
515.36670000000004
 30
0.0
 40
0.9998249999999999
 50
359.98995000000002
 51
90.010050000000007
  0
ARC
  5
8D4
  8
0
  6
CONTINUOUS
 62
     7
 10
-726.38806
 20
519.37145999999996
 30
0.0
 40
1.0049469
 50
270.28134999999992
 51
359.71866
  0
ARC
  5
8D5
  8
0
  6
CONTINUOUS
 62
     7
 10
-726.38292999999999
 20
525.36670000000004
 30
0.0
 40
0.9998210099999999
 50
359.98975000000002
 51
90.010255000000001
  0
ARC
  5
8D6
  8
0
  6
CONTINUOUS
 62
     7
 10
-726.38806
 20
529.37145999999996
 30
0.0
 40
1.004939
 50
270.28091000000001
 51
359.71910000000008
  0
ARC
  5
8D7
  8
0
  6
CONTINUOUS
 62
     7
 10
-726.38292999999999
 20
535.36670000000004
 30
0.0
 40
0.9998289899999999
 50
359.99018999999993
 51
90.009810999999985
  0
ARC
  5
8D8
  8
0
  6
CONTINUOUS
 62
     7
 10
-726.38806
 20
539.37145999999996
 30
0.0
 40
1.004942999999999
 50
270.28111000000001
 51
359.71888999999987
  0
ARC
  5
8D9
  8
0
  6
CONTINUOUS
 62
     7
 10
-726.38135
 20
545.10828000000004
 30
0.0
 40
0.9982839799999999
 50
359.90141999999992
 51
90.098575999999994
  0
ARC
  5
8DA
  8
0
  6
CONTINUOUS
 62
     7
 10
-726.38549999999964
 20
553.35424999999998
 30
0.0
 40
1.002353
 50
0.13432682
 51
89.865673000000001
  0
ARC
  5
8DB
  8
0
  6
CONTINUOUS
 62
     7
 10
-726.08765000000005
 20
548.76110999999992
 30
0.0
 40
0.704566
 50
270.37009999999992
 51
359.62990999999982
  0
ARC
  5
8DC
  8
0
  6
CONTINUOUS
 62
     7
 10
-726.38207999999975
 20
557.86755000000005
 30
0.0
 40
0.9990100299999999
 50
359.94319000000002
 51
90.056808999999959
  0
ARC
  5
8DD
  8
0
  6
CONTINUOUS
 62
     7
 10
-725.88147000000004
 20
560.46825999999999
 30
0.0
 40
0.4983060100000002
 50
359.80489
 51
90.195107000000007
  0
ARC
  5
8DE
  8
0
  6
CONTINUOUS
 62
     7
 10
-725.8877
 20
562.62121999999999
 30
0.0
 40
0.50463498
 50
270.52382999999992
 51
359.47617000000002
  0
ARC
  5
8DF
  8
0
  6
CONTINUOUS
 62
     7
 10
-726.38647000000003
 20
479.62990999999988
 30
0.0
 40
1.003352
 50
270.19110999999992
 51
359.80889999999982
  0
ARC
  5
8E0
  8
0
  6
CONTINUOUS
 62
     7
 10
-726.38806
 20
489.37148999999988
 30
0.0
 40
1.0049469
 50
270.28136999999992
 51
359.71863000000002
  0
ARC
  5
8E1
  8
0
  6
CONTINUOUS
 62
     7
 10
-726.38292999999999
 20
485.36672999999968
 30
0.0
 40
0.9998239899999999
 50
359.98991999999993
 51
90.010076999999981
  0
ARC
  5
8E2
  8
0
  6
CONTINUOUS
 62
     7
 10
-726.08252000000005
 20
475.97719999999993
 30
0.0
 40
0.6994530000000001
 50
359.95517000000001
 51
90.044829000000021
  0
ARC
  5
8E3
  8
0
  6
CONTINUOUS
 62
     7
 10
-728.18017999999984
 20
477.68178999999998
 30
0.0
 40
1.005233
 50
246.98638999999989
 51
269.82924999999989
  0
ARC
  5
8E4
  8
0
  6
CONTINUOUS
 62
     7
 10
-728.24255000000005
 20
479.6293
 30
0.0
 40
1.002699
 50
253.7527199999999
 51
270.54064
  0
ARC
  5
8E5
  8
0
  6
CONTINUOUS
 62
     7
 10
-729.38671999999985
 20
479.98099000000002
 30
0.0
 40
0.99638802
 50
180.24991
 51
253.29664
  0
ARC
  5
8E6
  8
0
  6
CONTINUOUS
 62
     7
 10
-729.38660000000004
 20
478.19510000000002
 30
0.0
 40
0.9965090199999998
 50
179.91374999999999
 51
247.17845
  0
ARC
  5
8E7
  8
0
  6
CONTINUOUS
 62
     7
 10
-729.38292999999965
 20
487.36684999999989
 30
0.0
 40
1.0001959999999981
 50
180.01124999999999
 51
269.98874999999992
  0
ARC
  5
8E8
  8
0
  6
CONTINUOUS
 62
     7
 10
-729.38806
 20
487.37148999999999
 30
0.0
 40
0.9950849999999999
 50
89.716282999999976
 51
180.2837199999999
  0
ARC
  5
8E9
  8
0
  6
CONTINUOUS
 62
     7
 10
-729.38292999999965
 20
497.36685
 30
0.0
 40
1.0001999999999991
 50
180.01146
 51
269.98853999999972
  0
ARC
  5
8EA
  8
0
  6
CONTINUOUS
 62
     7
 10
-729.38806
 20
497.37148999999999
 30
0.0
 40
0.9950810099999999
 50
89.716071999999997
 51
180.28391999999999
  0
ARC
  5
8EB
  8
0
  6
CONTINUOUS
 62
     7
 10
-729.38292999999965
 20
507.36685
 30
0.0
 40
1.0002040000000001
 50
180.01166000000001
 51
269.9883200000001
  0
ARC
  5
8EC
  8
0
  6
CONTINUOUS
 62
     7
 10
-729.38806
 20
507.37148999999988
 30
0.0
 40
0.9950770099999999
 50
89.715860000000006
 51
180.28413999999989
  0
ARC
  5
8ED
  8
0
  6
CONTINUOUS
 62
     7
 10
-726.38806
 20
509.37149000000011
 30
0.0
 40
1.004942999999999
 50
270.28113999999988
 51
359.71886999999992
  0
ARC
  5
8EE
  8
0
  6
CONTINUOUS
 62
     7
 10
-726.38292999999999
 20
505.36672999999979
 30
0.0
 40
0.9998279799999998
 50
359.99015999999978
 51
90.009838000000002
  0
ARC
  5
8EF
  8
0
  6
CONTINUOUS
 62
     7
 10
-726.38806
 20
499.37148999999988
 30
0.0
 40
1.004939
 50
270.28093999999999
 51
359.71906999999999
  0
ARC
  5
8F0
  8
0
  6
CONTINUOUS
 62
     7
 10
-726.38292999999999
 20
495.36672999999979
 30
0.0
 40
0.9998210099999999
 50
359.98971999999998
 51
90.010281999999961
  0
ARC
  5
8F1
  8
0
  6
CONTINUOUS
 62
     7
 10
-726.38634999999999
 20
471.39334000000002
 30
0.0
 40
1.0032760000000001
 50
334.19810000000001
 51
359.61810999999977
  0
ARC
  5
8F2
  8
0
  6
CONTINUOUS
 62
     7
 10
-729.38463999999988
 20
472.12589000000003
 30
0.0
 40
0.9984580299999999
 50
179.9595799999999
 51
239.38657000000001
  0
ARC
  5
8F3
  8
0
  6
CONTINUOUS
 62
     7
 10
-729.38549999999964
 20
464.35122999999999
 30
0.0
 40
0.9976310099999999
 50
180.26780999999991
 51
240.07924
  0
ARC
  5
8F4
  8
0
  6
CONTINUOUS
 62
     7
 10
-729.38744999999983
 20
465.39699999999999
 30
0.0
 40
0.9956849800000001
 50
180.02112999999991
 51
243.40913999999981
  0
ARC
  5
8F5
  8
0
  6
CONTINUOUS
 62
     7
 10
-728.10242000000005
 20
463.61770999999999
 30
0.0
 40
1.001123999999999
 50
239.32782000000009
 51
269.38767999999988
  0
ARC
  5
8F6
  8
0
  6
CONTINUOUS
 62
     7
 10
-728.13733000000002
 20
464.76589999999987
 30
0.0
 40
0.9993420200000001
 50
242.86199999999999
 51
269.66546
  0
ARC
  5
8F7
  8
0
  6
CONTINUOUS
 62
     7
 10
-728.11168999999984
 20
465.73025999999999
 30
0.0
 40
1.0037439999999991
 50
239.37112999999999
 51
270.49189999999987
  0
ARC
  5
8F8
  8
0
  6
CONTINUOUS
 62
     7
 10
-728.12792999999999
 20
466.86721999999992
 30
0.0
 40
1.0006820000000001
 50
241.65062
 51
269.7039299999999
  0
ARC
  5
8F9
  8
0
  6
CONTINUOUS
 62
     7
 10
-728.09032999999999
 20
470.24709999999999
 30
0.0
 40
1.000521999999999
 50
237.14617999999999
 51
270.41343999999998
  0
ARC
  5
8FA
  8
0
  6
CONTINUOUS
 62
     7
 10
-728.11974999999984
 20
471.38759999999991
 30
0.0
 40
1.0010449999999991
 50
240.47187
 51
270.37970999999999
  0
ARC
  5
8FB
  8
0
  6
CONTINUOUS
 62
     7
 10
-729.38463999999988
 20
472.12589000000003
 30
0.0
 40
0.9984580299999999
 50
179.9595799999999
 51
239.38657000000001
  0
ARC
  5
8FC
  8
0
  6
CONTINUOUS
 62
     7
 10
-729.38402999999983
 20
471.09134
 30
0.0
 40
0.9990889999999998
 50
179.69508999999991
 51
236.66209000000001
  0
ARC
  5
8FD
  8
0
  6
CONTINUOUS
 62
     7
 10
-729.38537999999983
 20
467.52785999999992
 30
0.0
 40
0.9977070099999998
 50
180.0740199999999
 51
242.04481000000001
  0
ARC
  5
8FE
  8
0
  6
CONTINUOUS
 62
     7
 10
-729.3843999999998
 20
466.49014
 30
0.0
 40
0.9987969999999998
 50
179.62728000000001
 51
238.70795000000001
  0
ARC
  5
8FF
  8
0
  6
CONTINUOUS
 62
     7
 10
-726.38562000000002
 20
471.38907
 30
0.0
 40
1.002470999999999
 50
270.14107000000001
 51
359.85892999999987
  0
ARC
  5
900
  8
0
  6
CONTINUOUS
 62
     7
 10
-726.38720999999998
 20
466.87075999999962
 30
0.0
 40
1.004119999999999
 50
270.23460999999992
 51
359.76538999999991
  0
ARC
  5
901
  8
0
  6
CONTINUOUS
 62
     7
 10
-725.88647000000003
 20
464.27005000000003
 30
0.0
 40
0.5033929900000002
 50
270.38490999999982
 51
359.61509999999993
  0
ARC
  5
902
  8
0
  6
CONTINUOUS
 62
     7
 10
-725.88269000000003
 20
462.11709999999999
 30
0.0
 40
0.49952301
 50
359.94522999999992
 51
90.054773999999981
  0
ARC
  5
903
  8
0
  6
CONTINUOUS
 62
     3
 10
-665.65600999999981
 20
428.36660999999992
 30
0.0
 40
4.0
 50
179.99997999999991
 51
0.000010017912
  0
ARC
  5
904
  8
0
  6
CONTINUOUS
 62
     3
 10
-665.65600999999981
 20
428.36660999999992
 30
0.0
 40
7.5
 50
179.99997999999991
 51
0.000010017913
  0
ARC
  5
905
  8
0
  6
CONTINUOUS
 62
     7
 10
-719.6825
 20
452.69655999999992
 30
0.0
 40
2.0
 50
194.1507499999999
 51
269.99998999999991
  0
ARC
  5
906
  8
0
  6
CONTINUOUS
 62
     7
 10
-705.64038000000005
 20
449.19655999999992
 30
0.0
 40
1.5
 50
21.461708999999988
 51
90.000003000000007
  0
ARC
  5
907
  8
0
  6
CONTINUOUS
 62
     7
 10
-423.88311999999991
 20
619.7673299999999
 30
0.0
 40
4.0
 50
0.0
 51
88.0
  0
CIRCLE
  5
908
  8
0
  6
CONTINUOUS
 62
     7
 10
-562.88317999999992
 20
607.36658
 30
0.0
 40
7.5
  0
CIRCLE
  5
909
  8
0
  6
CONTINUOUS
 62
     7
 10
-437.88312000000002
 20
607.36658
 30
0.0
 40
7.5
  0
ARC
  5
90A
  8
0
  6
CONTINUOUS
 62
     7
 10
-576.88317999999981
 20
618.97686999999996
 30
0.0
 40
4.0
 50
95.000001999999995
 51
180.00001
  0
ARC
  5
90B
  8
0
  6
CONTINUOUS
 62
     7
 10
-422.88312000000002
 20
573.42931999999985
 30
0.0
 40
4.0
 50
97.180758000000012
 51
180.00001
  0
ARC
  5
90C
  8
0
  6
CONTINUOUS
 62
     7
 10
-423.88311999999991
 20
581.36657999999977
 30
0.0
 40
4.0
 50
277.18074999999988
 51
0.0
  0
ARC
  5
90D
  8
0
  6
CONTINUOUS
 62
     7
 10
-576.88317999999981
 20
594.90515000000016
 30
0.0
 40
4.0
 50
180.00001
 51
254.99998999999991
  0
ARC
  5
90E
  8
0
  6
CONTINUOUS
 62
     7
 10
-541.88317999999992
 20
623.04285000000004
 30
0.0
 40
3.0
 50
95.000001999999995
 51
275.0
  0
ARC
  5
90F
  8
0
  6
CONTINUOUS
 62
     7
 10
-532.88317999999992
 20
616.80346999999995
 30
0.0
 40
4.0
 50
0.0
 51
95.000001999999995
  0
ARC
  5
910
  8
0
  6
CONTINUOUS
 62
     7
 10
-576.88317999999981
 20
429.82805999999988
 30
0.0
 40
4.0
 50
105.0
 51
180.00001
  0
ARC
  5
911
  8
0
  6
CONTINUOUS
 62
     7
 10
-423.88311999999991
 20
443.36660999999992
 30
0.0
 40
4.0
 50
0.0
 51
82.819247000000004
  0
ARC
  5
912
  8
0
  6
CONTINUOUS
 62
     7
 10
-422.88312000000002
 20
451.30385999999987
 30
0.0
 40
4.0
 50
180.00001
 51
262.81925000000001
  0
ARC
  5
913
  8
0
  6
CONTINUOUS
 62
     7
 10
-576.88317999999981
 20
405.75632000000002
 30
0.0
 40
4.0
 50
180.00001
 51
265.00000999999992
  0
CIRCLE
  5
914
  8
0
  6
CONTINUOUS
 62
     7
 10
-437.88312000000002
 20
417.36660999999998
 30
0.0
 40
7.5
  0
CIRCLE
  5
915
  8
0
  6
CONTINUOUS
 62
     7
 10
-562.88317999999992
 20
417.36660999999998
 30
0.0
 40
7.5
  0
ARC
  5
916
  8
0
  6
CONTINUOUS
 62
     7
 10
-423.88311999999991
 20
404.96587999999991
 30
0.0
 40
4.0
 50
272.0
 51
0.0
  0
ARC
  5
917
  8
0
  6
CONTINUOUS
 62
     7
 10
-545.88317999999992
 20
602.60924999999975
 30
0.0
 40
3.0
 50
315.0
 51
0.0
  0
ARC
  5
918
  8
0
  6
CONTINUOUS
 62
     7
 10
-562.88317999999992
 20
443.60165000000001
 30
0.0
 40
5.0
 50
0.0
 51
88.0
  0
ARC
  5
919
  8
0
  6
CONTINUOUS
 62
     7
 10
-540.88317999999992
 20
609.58600000000001
 30
0.0
 40
2.0
 50
91.999998000000005
 51
180.00001
  0
ARC
  5
91A
  8
0
  6
CONTINUOUS
 62
     7
 10
-552.88317999999981
 20
584.29552999999976
 30
0.0
 40
5.0
 50
135.0
 51
180.00001
  0
ARC
  5
91B
  8
0
  6
CONTINUOUS
 62
     7
 10
-562.88317999999992
 20
581.13159000000019
 30
0.0
 40
5.0
 50
272.0
 51
0.0
  0
ARC
  5
91C
  8
0
  6
CONTINUOUS
 62
     7
 10
-552.88317999999981
 20
440.43768
 30
0.0
 40
5.0
 50
179.99998999999991
 51
225.0
  0
ARC
  5
91D
  8
0
  6
CONTINUOUS
 62
     7
 10
-422.88315
 20
485.09868999999992
 30
0.0
 40
3.0
 50
300.00000999999997
 51
0.0
  0
ARC
  5
91E
  8
0
  6
CONTINUOUS
 62
     7
 10
-422.88315
 20
539.63458000000003
 30
0.0
 40
3.0
 50
0.0
 51
60.000002000000002
  0
ARC
  5
91F
  8
0
  6
CONTINUOUS
 62
     7
 10
-423.88311999999991
 20
547.14014000000009
 30
0.0
 40
3.0
 50
179.99998999999991
 51
240.00001
  0
ARC
  5
920
  8
0
  6
CONTINUOUS
 62
     7
 10
-423.88311999999991
 20
477.59314000000012
 30
0.0
 40
3.0
 50
119.9999999999999
 51
180.00001
  0
ARC
  5
921
  8
0
  6
CONTINUOUS
 62
     7
 10
-402.88314999999989
 20
512.36658
 30
0.0
 40
4.9999924
 50
90.000003000000007
 51
270.0
  0
ARC
  5
922
  8
0
  6
CONTINUOUS
 62
     7
 10
-430.88312000000002
 20
451.26324
 30
0.0
 40
4.0
 50
271.49999999999972
 51
0.0
  0
ARC
  5
923
  8
0
  6
CONTINUOUS
 62
     7
 10
-430.88312000000002
 20
573.46996999999999
 30
0.0
 40
4.0
 50
0.0
 51
88.499996999999965
  0
ARC
  5
924
  8
0
  6
CONTINUOUS
 62
     7
 10
-455.88312000000002
 20
581.57335999999975
 30
0.0
 40
8.0
 50
0.0
 51
88.499996999999965
  0
ARC
  5
925
  8
0
  6
CONTINUOUS
 62
     7
 10
-455.88312000000002
 20
443.15984999999989
 30
0.0
 40
8.0
 50
271.49999999999972
 51
0.0
  0
ARC
  5
926
  8
0
  6
CONTINUOUS
 62
     7
 10
-440.43090999999981
 20
439.00909000000001
 30
0.0
 40
8.0
 50
91.500000999999969
 51
164.96420000000001
  0
ARC
  5
927
  8
0
  6
CONTINUOUS
 62
     7
 10
-440.43090999999981
 20
585.72411999999963
 30
0.0
 40
8.0
 50
195.03579999999991
 51
268.5
  0
ARC
  5
928
  8
0
  6
CONTINUOUS
 62
     7
 10
-455.88315
 20
601.58019999999976
 30
0.0
 40
12.0
 50
180.00001
 51
268.5
  0
ARC
  5
929
  8
0
  6
CONTINUOUS
 62
     7
 10
-455.88315
 20
423.15301999999991
 30
0.0
 40
12.0
 50
91.500000999999969
 51
180.00001
  0
ARC
  5
92A
  8
0
  6
CONTINUOUS
 62
     7
 10
-459.88315
 20
617.02202999999975
 30
0.0
 40
8.0
 50
88.0
 51
180.00001
  0
ARC
  5
92B
  8
0
  6
CONTINUOUS
 62
     7
 10
-459.88315
 20
407.71117999999979
 30
0.0
 40
8.0
 50
180.00001
 51
271.99998999999991
  0
ARC
  5
92C
  8
0
  6
CONTINUOUS
 62
     7
 10
-532.88317999999992
 20
407.92975000000001
 30
0.0
 40
4.0
 50
265.00000999999992
 51
0.00000068324543
  0
ARC
  5
92D
  8
0
  6
CONTINUOUS
 62
     7
 10
-541.88317999999992
 20
401.69040000000001
 30
0.0
 40
3.0
 50
85.000004000000004
 51
265.0
  0
ARC
  5
92E
  8
0
  6
CONTINUOUS
 62
     7
 10
-540.88317999999992
 20
415.14721999999989
 30
0.0
 40
2.0
 50
179.99998999999991
 51
268.00000999999992
  0
ARC
  5
92F
  8
0
  6
CONTINUOUS
 62
     7
 10
-545.88317999999992
 20
422.12395999999961
 30
0.0
 40
3.0
 50
0.0
 51
44.999997999999998
  0
ARC
  5
930
  8
0
  6
CONTINUOUS
 62
     7
 10
-533.88317999999992
 20
621.73510999999996
 30
0.0
 40
5.0
 50
0.0
 51
95.000001999999995
  0
ARC
  5
931
  8
0
  6
CONTINUOUS
 62
     7
 10
-533.88317999999992
 20
402.99810999999988
 30
0.0
 40
5.0
 50
265.00000999999992
 51
0.0000006832456
  0
POLYLINE
  5
932
  8
0
  6
CONTINUOUS
 62
     7
 66
     1
 10
0.0
 20
0.0
 30
0.0
  0
VERTEX
  5
933
  8
0
  6
CONTINUOUS
 62
     7
 10
-505.11516999999998
 20
237.01912999999999
 30
0.0
 42
0.038756923
  0
VERTEX
  5
934
  8
0
  6
CONTINUOUS
 62
     7
 10
-502.36716999999999
 20
239.92982000000001
 30
0.0
 42
0.045303537
  0
VERTEX
  5
935
  8
0
  6
CONTINUOUS
 62
     7
 10
-500.14472999999992
 20
243.25736000000001
 30
0.0
 42
0.052102721
  0
VERTEX
  5
936
  8
0
  6
CONTINUOUS
 62
     7
 10
-498.60908000000001
 20
246.95045999999999
 30
0.0
 42
0.057245123
  0
VERTEX
  5
937
  8
0
  6
CONTINUOUS
 62
     7
 10
-497.91343999999992
 20
250.8878999999998
 30
0.0
 42
0.058435545
  0
VERTEX
  5
938
  8
0
  6
CONTINUOUS
 62
     7
 10
-498.1428199999998
 20
254.87832
 30
0.0
 42
0.055063666
  0
VERTEX
  5
939
  8
0
  6
CONTINUOUS
 62
     7
 10
-499.26754
 20
258.71462000000002
 30
0.0
 42
0.048817071
  0
VERTEX
  5
93A
  8
0
  6
CONTINUOUS
 62
     7
 10
-501.16117000000003
 20
262.23786000000001
 30
0.0
 42
0.041970357
  0
VERTEX
  5
93B
  8
0
  6
CONTINUOUS
 62
     7
 10
-503.66007000000002
 20
265.36277000000001
 30
0.0
 42
0.035917002
  0
VERTEX
  5
93C
  8
0
  6
CONTINUOUS
 62
     7
 10
-506.61364999999989
 20
268.06423000000001
 30
0.0
 42
0.031073452
  0
VERTEX
  5
93D
  8
0
  6
CONTINUOUS
 62
     7
 10
-509.90188000000001
 20
270.34885000000003
 30
0.0
 42
0.027379113
  0
VERTEX
  5
93E
  8
0
  6
CONTINUOUS
 62
     7
 10
-513.43398000000002
 20
272.23561999999998
 30
0.0
 42
0.024645384
  0
VERTEX
  5
93F
  8
0
  6
CONTINUOUS
 62
     7
 10
-517.14310999999987
 20
273.74642999999992
 30
0.0
 42
0.022676135
  0
VERTEX
  5
940
  8
0
  6
CONTINUOUS
 62
     7
 10
-520.97857999999985
 20
274.90079999999989
 30
0.0
 42
0.021320556
  0
VERTEX
  5
941
  8
0
  6
CONTINUOUS
 62
     7
 10
-524.90105999999992
 20
275.71435000000002
 30
0.0
 42
0.020470534
  0
VERTEX
  5
942
  8
0
  6
CONTINUOUS
 62
     7
 10
-528.87797999999987
 20
276.19812999999982
 30
0.0
 42
0.02005884
  0
VERTEX
  5
943
  8
0
  6
CONTINUOUS
 62
     7
 10
-532.88070000000005
 20
276.35876000000002
 30
0.0
  0
SEQEND
  5
944
  8
0
 62
     7
  0
POLYLINE
  5
945
  8
0
  6
CONTINUOUS
 62
     7
 66
     1
 10
0.0
 20
0.0
 30
0.0
  0
VERTEX
  5
946
  8
0
  6
CONTINUOUS
 62
     7
 10
-499.42714999999993
 20
254.1898299999998
 30
0.0
 42
0.046361966
  0
VERTEX
  5
947
  8
0
  6
CONTINUOUS
 62
     7
 10
-501.28159999999991
 20
255.24851000000001
 30
0.0
 42
0.024111994
  0
VERTEX
  5
948
  8
0
  6
CONTINUOUS
 62
     7
 10
-503.26353999999998
 20
256.04887000000002
 30
0.0
 42
0.015472906
  0
VERTEX
  5
949
  8
0
  6
CONTINUOUS
 62
     7
 10
-505.30187999999998
 20
256.69353999999998
 30
0.0
 42
0.011171192
  0
VERTEX
  5
94A
  8
0
  6
CONTINUOUS
 62
     7
 10
-507.37220999999988
 20
257.2303
 30
0.0
 42
0.0086838962
  0
VERTEX
  5
94B
  8
0
  6
CONTINUOUS
 62
     7
 10
-509.46188999999993
 20
257.68504000000001
 30
0.0
 42
0.0071076667
  0
VERTEX
  5
94C
  8
0
  6
CONTINUOUS
 62
     7
 10
-511.56485999999978
 20
258.07391999999999
 30
0.0
 42
0.0060432581
  0
VERTEX
  5
94D
  8
0
  6
CONTINUOUS
 62
     7
 10
-513.67763000000002
 20
258.40762000000001
 30
0.0
 42
0.0052890212
  0
VERTEX
  5
94E
  8
0
  6
CONTINUOUS
 62
     7
 10
-515.79692
 20
258.69341999999989
 30
0.0
 42
0.0047417436
  0
VERTEX
  5
94F
  8
0
  6
CONTINUOUS
 62
     7
 10
-517.92206999999996
 20
258.93679999999989
 30
0.0
 42
0.00433496
  0
VERTEX
  5
950
  8
0
  6
CONTINUOUS
 62
     7
 10
-520.05178000000001
 20
259.14166999999992
 30
0.0
 42
0.0040290458
  0
VERTEX
  5
951
  8
0
  6
CONTINUOUS
 62
     7
 10
-522.18458999999984
 20
259.31094000000002
 30
0.0
 42
0.0038003144
  0
VERTEX
  5
952
  8
0
  6
CONTINUOUS
 62
     7
 10
-524.31983000000002
 20
259.44682999999992
 30
0.0
 42
0.003632296
  0
VERTEX
  5
953
  8
0
  6
CONTINUOUS
 62
     7
 10
-526.45691999999985
 20
259.55099999999987
 30
0.0
 42
0.0035140999
  0
VERTEX
  5
954
  8
0
  6
CONTINUOUS
 62
     7
 10
-528.59532999999999
 20
259.62464
 30
0.0
 42
0.0034386687
  0
VERTEX
  5
955
  8
0
  6
CONTINUOUS
 62
     7
 10
-530.73455000000001
 20
259.66856000000001
 30
0.0
 42
0.0034018291
  0
VERTEX
  5
956
  8
0
  6
CONTINUOUS
 62
     7
 10
-532.87414999999964
 20
259.68322999999992
 30
0.0
  0
SEQEND
  5
957
  8
0
 62
     7
  0
POLYLINE
  5
958
  8
0
  6
CONTINUOUS
 62
     7
 66
     1
 10
0.0
 20
0.0
 30
0.0
  0
VERTEX
  5
959
  8
0
  6
CONTINUOUS
 62
     7
 10
-532.88317999999992
 20
482.09017999999992
 30
0.0
 42
-0.070055462
  0
VERTEX
  5
95A
  8
0
  6
CONTINUOUS
 62
     7
 10
-506.52250999999978
 20
461.89283999999992
 30
0.0
 42
-0.27110597
  0
VERTEX
  5
95B
  8
0
  6
CONTINUOUS
 62
     7
 10
-497.88315
 20
442.00949000000003
 30
0.0
 42
-0.2130317
  0
VERTEX
  5
95C
  8
0
  6
CONTINUOUS
 62
     7
 10
-517.47361000000001
 20
423.87467999999961
 30
0.0
  0
VERTEX
  5
95D
  8
0
  6
CONTINUOUS
 62
     7
 10
-532.88317999999992
 20
417.57641999999993
 30
0.0
 42
-1.0
  0
SEQEND
  5
95E
  8
0
 62
     7
  0
POLYLINE
  5
95F
  8
0
  6
CONTINUOUS
 62
     7
 66
     1
 10
0.0
 20
0.0
 30
0.0
  0
VERTEX
  5
960
  8
0
  6
CONTINUOUS
 62
     7
 10
-532.88317999999992
 20
434.94982999999991
 30
0.0
 42
0.040442845
  0
VERTEX
  5
961
  8
0
  6
CONTINUOUS
 62
     7
 10
-521.35499000000004
 20
435.17317000000003
 30
0.0
 42
0.04246989
  0
VERTEX
  5
962
  8
0
  6
CONTINUOUS
 62
     7
 10
-510.02127999999999
 20
437.28664999999972
 30
0.0
 42
0.022672802
  0
VERTEX
  5
963
  8
0
  6
CONTINUOUS
 62
     7
 10
-504.53678000000002
 20
439.07760000000002
 30
0.0
  0
VERTEX
  5
964
  8
0
  6
CONTINUOUS
 62
     7
 10
-499.23117000000002
 20
441.34645999999998
 30
0.0
 42
-1.0
  0
SEQEND
  5
965
  8
0
 62
     7
  0
POLYLINE
  5
966
  8
0
  6
CONTINUOUS
 62
     7
 66
     1
 10
0.0
 20
0.0
 30
0.0
  0
VERTEX
  5
967
  8
0
  6
CONTINUOUS
 62
     7
 10
-532.88317999999992
 20
589.78339000000005
 30
0.0
 42
-0.040442832
  0
VERTEX
  5
968
  8
0
  6
CONTINUOUS
 62
     7
 10
-521.35500000000002
 20
589.56004000000007
 30
0.0
 42
-0.042469875
  0
VERTEX
  5
969
  8
0
  6
CONTINUOUS
 62
     7
 10
-510.02127999999999
 20
587.44655999999975
 30
0.0
 42
-0.022671837
  0
VERTEX
  5
96A
  8
0
  6
CONTINUOUS
 62
     7
 10
-504.53679
 20
585.65561999999989
 30
0.0
  0
VERTEX
  5
96B
  8
0
  6
CONTINUOUS
 62
     7
 10
-499.23117000000002
 20
583.38679000000002
 30
0.0
 42
-1.0
  0
SEQEND
  5
96C
  8
0
 62
     7
  0
POLYLINE
  5
96D
  8
0
  6
CONTINUOUS
 62
     7
 66
     1
 10
0.0
 20
0.0
 30
0.0
  0
VERTEX
  5
96E
  8
0
  6
CONTINUOUS
 62
     7
 10
-532.88317999999992
 20
542.64306999999997
 30
0.0
 42
0.070055443
  0
VERTEX
  5
96F
  8
0
  6
CONTINUOUS
 62
     7
 10
-506.52250999999978
 20
562.84040999999991
 30
0.0
 42
0.27110593
  0
VERTEX
  5
970
  8
0
  6
CONTINUOUS
 62
     7
 10
-497.88315
 20
582.72374999999977
 30
0.0
 42
0.21303199
  0
VERTEX
  5
971
  8
0
  6
CONTINUOUS
 62
     7
 10
-517.47361000000001
 20
600.85854000000018
 30
0.0
  0
VERTEX
  5
972
  8
0
  6
CONTINUOUS
 62
     7
 10
-532.88317999999992
 20
607.15679999999998
 30
0.0
 42
-1.0
  0
SEQEND
  5
973
  8
0
 62
     7
  0
TEXT
  5
C61
  8
0
  6
CONTINUOUS
 62
     0
 10
-278.44768175463008
 20
492.20073880489389
 30
0.0
 40
15.0
  1
VX04-120M~VX04-200M
  0
ENDSEC
  0
EOF
