  0
SECTION
  2
HEADER
  9
$ACADVER
  1
AC1009
  9
$INSBASE
 10
0.0
 20
0.0
 30
0.0
  9
$EXTMIN
 10
-1025.033158331456
 20
107.5361547176558
 30
-0.0000000000000058
  9
$EXTMAX
 10
-75.234332198251195
 20
826.90418748263698
 30
0.0000000000000104
  9
$LIMMIN
 10
0.0
 20
0.0
  9
$LIMMAX
 10
12.0
 20
9.0
  9
$ORTHOMODE
 70
     0
  9
$REGENMODE
 70
     1
  9
$FILLMODE
 70
     1
  9
$QTEXTMODE
 70
     0
  9
$MIRRTEXT
 70
     1
  9
$DRAGMODE
 70
     2
  9
$LTSCALE
 40
1.0
  9
$OSMODE
 70
   551
  9
$ATTMODE
 70
     1
  9
$TEXTSIZE
 40
0.2
  9
$TRACEWID
 40
0.05
  9
$TEXTSTYLE
  7
STANDARD
  9
$CLAYER
  8
0
  9
$CELTYPE
  6
CONTINUOUS
  9
$CECOLOR
 62
   256
  9
$DIMSCALE
 40
1.0
  9
$DIMASZ
 40
0.18
  9
$DIMEXO
 40
0.0625
  9
$DIMDLI
 40
0.38
  9
$DIMRND
 40
0.0
  9
$DIMDLE
 40
0.0
  9
$DIMEXE
 40
0.18
  9
$DIMTP
 40
0.0
  9
$DIMTM
 40
0.0
  9
$DIMTXT
 40
0.18
  9
$DIMCEN
 40
0.09
  9
$DIMTSZ
 40
0.0
  9
$DIMTOL
 70
     0
  9
$DIMLIM
 70
     0
  9
$DIMTIH
 70
     1
  9
$DIMTOH
 70
     1
  9
$DIMSE1
 70
     0
  9
$DIMSE2
 70
     0
  9
$DIMTAD
 70
     0
  9
$DIMZIN
 70
     0
  9
$DIMBLK
  1

  9
$DIMASO
 70
     1
  9
$DIMSHO
 70
     1
  9
$DIMPOST
  1

  9
$DIMAPOST
  1

  9
$DIMALT
 70
     0
  9
$DIMALTD
 70
     2
  9
$DIMALTF
 40
25.399999999999999
  9
$DIMLFAC
 40
1.0
  9
$DIMTOFL
 70
     0
  9
$DIMTVP
 40
0.0
  9
$DIMTIX
 70
     0
  9
$DIMSOXD
 70
     0
  9
$DIMSAH
 70
     0
  9
$DIMBLK1
  1

  9
$DIMBLK2
  1

  9
$DIMSTYLE
  2
STANDARD
  9
$DIMCLRD
 70
     0
  9
$DIMCLRE
 70
     0
  9
$DIMCLRT
 70
     0
  9
$DIMTFAC
 40
1.0
  9
$DIMGAP
 40
0.09
  9
$LUNITS
 70
     2
  9
$LUPREC
 70
     4
  9
$SKETCHINC
 40
0.1
  9
$FILLETRAD
 40
0.0
  9
$AUNITS
 70
     0
  9
$AUPREC
 70
     0
  9
$MENU
  1
.
  9
$ELEVATION
 40
0.0
  9
$PELEVATION
 40
0.0
  9
$THICKNESS
 40
0.0
  9
$LIMCHECK
 70
     0
  9
$BLIPMODE
 70
     0
  9
$CHAMFERA
 40
0.0
  9
$CHAMFERB
 40
0.0
  9
$SKPOLY
 70
     0
  9
$TDCREATE
 40
2452300.4330235422
  9
$TDUPDATE
 40
2458540.68064566
  9
$TDINDWG
 40
0.0317576505
  9
$TDUSRTIMER
 40
0.0317576042
  9
$USRTIMER
 70
     1
  9
$ANGBASE
 50
0.0
  9
$ANGDIR
 70
     0
  9
$PDMODE
 70
     0
  9
$PDSIZE
 40
0.0
  9
$PLINEWID
 40
0.0
  9
$COORDS
 70
     1
  9
$SPLFRAME
 70
     0
  9
$SPLINETYPE
 70
     6
  9
$SPLINESEGS
 70
     8
  9
$ATTDIA
 70
     1
  9
$ATTREQ
 70
     1
  9
$HANDLING
 70
     1
  9
$HANDSEED
  5
D92
  9
$SURFTAB1
 70
     6
  9
$SURFTAB2
 70
     6
  9
$SURFTYPE
 70
     6
  9
$SURFU
 70
     6
  9
$SURFV
 70
     6
  9
$UCSNAME
  2

  9
$UCSORG
 10
0.0
 20
0.0
 30
0.0
  9
$UCSXDIR
 10
1.0
 20
0.0
 30
0.0
  9
$UCSYDIR
 10
0.0
 20
1.0
 30
0.0
  9
$PUCSNAME
  2

  9
$PUCSORG
 10
0.0
 20
0.0
 30
0.0
  9
$PUCSXDIR
 10
1.0
 20
0.0
 30
0.0
  9
$PUCSYDIR
 10
0.0
 20
1.0
 30
0.0
  9
$USERI1
 70
     0
  9
$USERI2
 70
     0
  9
$USERI3
 70
     0
  9
$USERI4
 70
     0
  9
$USERI5
 70
     0
  9
$USERR1
 40
0.0
  9
$USERR2
 40
0.0
  9
$USERR3
 40
0.0
  9
$USERR4
 40
0.0
  9
$USERR5
 40
0.0
  9
$WORLDVIEW
 70
     1
  9
$SHADEDGE
 70
     3
  9
$SHADEDIF
 70
    70
  9
$TILEMODE
 70
     1
  9
$MAXACTVP
 70
    64
  9
$PLIMCHECK
 70
     0
  9
$PEXTMIN
 10
1.0000000000000000E+020
 20
1.0000000000000000E+020
 30
1.0000000000000000E+020
  9
$PEXTMAX
 10
-1.0000000000000000E+020
 20
-1.0000000000000000E+020
 30
-1.0000000000000000E+020
  9
$PLIMMIN
 10
0.0
 20
0.0
  9
$PLIMMAX
 10
12.0
 20
9.0
  9
$UNITMODE
 70
     0
  9
$VISRETAIN
 70
     1
  9
$PLINEGEN
 70
     0
  9
$PSLTSCALE
 70
     1
  0
ENDSEC
  0
SECTION
  2
TABLES
  0
TABLE
  2
VPORT
 70
     1
  0
VPORT
  2
*ACTIVE
 70
     0
 10
0.0
 20
0.0
 11
1.0
 21
1.0
 12
-550.13374526485347
 22
467.22017110014639
 13
0.0
 23
0.0
 14
1.0
 24
1.0
 15
0.0
 25
0.0
 16
0.0
 26
0.0
 36
1.0
 17
0.0
 27
0.0
 37
0.0
 40
724.30648607915725
 41
1.757159221076747
 42
50.0
 43
0.0
 44
0.0
 50
0.0
 51
0.0
 71
     0
 72
   100
 73
     1
 74
     1
 75
     0
 76
     0
 77
     0
 78
     0
  0
ENDTAB
  0
TABLE
  2
LTYPE
 70
    20
  0
LTYPE
  2
CONTINUOUS
 70
     0
  3
Solid line
 72
    65
 73
     0
 40
0.0
  0
LTYPE
  2
DASHED
 70
     0
  3
__ __ __ __ __ __ __ __ __ __ __ __ __ __ __
 72
    65
 73
     2
 40
3.5
 49
2.0
 49
-1.5
  0
LTYPE
  2
CENTER
 70
     0
  3
____ _ ____ _ ____ _ ____ _ ____ _ ____ _ ____
 72
    65
 73
     4
 40
17.5
 49
13.0
 49
-1.5
 49
1.5
 49
-1.5
  0
LTYPE
  2
PHANTOM
 70
     0
  3
_____ _ _ _____ _ _ _____ _ _ _____ _ _ ____  
 72
    65
 73
     6
 40
15.5
 49
8.0
 49
-1.5
 49
1.5
 49
-1.5
 49
1.5
 49
-1.5
  0
LTYPE
  2
DOT
 70
     0
  3
. . . . . . . . . . . . . . . . . . . . . . . .
 72
    65
 73
     2
 40
0.25
 49
0.0
 49
-0.25
  0
LTYPE
  2
AM_ISO02W050
 70
     0
  3
__ __ __ __ __ __ __ __ __ __ __ __ __ __ __
 72
    65
 73
     2
 40
7.5
 49
6.0
 49
-1.5
  0
LTYPE
  2
AM_ISO08W050
 70
     0
  3
____ . ____ . ____ . ____ . ____ . ____ . ____
 72
    65
 73
     4
 40
18.0
 49
12.0
 49
-1.5
 49
3.0
 49
-1.5
  0
LTYPE
  2
AM_ISO09W050
 70
     0
  3
_____ . . _____ . . _____ . . ____ .. ____
 72
    65
 73
     6
 40
22.5
 49
12.0
 49
-1.5
 49
3.0
 49
-1.5
 49
3.0
 49
-1.5
  0
LTYPE
  2
AMCONSTR
 70
     0
  3
_______________________
 72
    65
 73
     2
 40
9999.0
 49
9999.0
 49
0.0
  0
LTYPE
  2
AM_ISO08W050X2
 70
     0
  3
__ . __ . __ . __ . __ . __
 72
    65
 73
     4
 40
9.0
 49
6.0
 49
-0.75
 49
1.5
 49
-0.75
  0
LTYPE
  2
AM_ISO02W050X2
 70
     0
  3
 _ _ _ _ _ _ _ _ _ _ _ _
 72
    65
 73
     2
 40
3.75
 49
3.0
 49
-0.75
  0
LTYPE
  2
AMZIGZAG
 70
     0
  3
/\/-/\/-/\/-/\/-/\/-/\/
 72
    65
 73
     2
 40
11.000099999999991
 49
0.0001
 49
-11.0
  0
LTYPE
  2
HIDDEN
 70
     0
  3
Hidden __ __ __ __ __ __ __ __ __ __ __ __ __ _
 72
    65
 73
     2
 40
0.375
 49
0.25
 49
-0.125
  0
LTYPE
  2
PHANTOM2
 70
     0
  3
Phantom (.5x) ___ _ _ ___ _ _ ___ _ _ ___ _ _
 72
    65
 73
     6
 40
1.25
 49
0.625
 49
-0.125
 49
0.125
 49
-0.125
 49
0.125
 49
-0.125
  0
LTYPE
  2
CENTER2
 70
     0
  3
Center (.5x) ___ _ ___ _ ___ _ ___ _ ___ _ ___
 72
    65
 73
     4
 40
1.125
 49
0.75
 49
-0.125
 49
0.125
 49
-0.125
  0
LTYPE
  2
HIDDEN2
 70
     0
  3
Hidden (.5x) _ _ _ _ _ _ _ _ _ _ _ _ _ _ _ _ _
 72
    65
 73
     2
 40
0.1875
 49
0.125
 49
-0.0625
  0
LTYPE
  2
AMZIGZAG2
 70
     0
  3
/\/-/\/-/\/-/\/-/\/-/\/
 72
    65
 73
     2
 40
0.4401
 49
0.0001
 49
-0.4400000000000003
  0
LTYPE
  2
ACANSTGB
 70
     0
  3
__ . . __ . .
 72
    65
 73
     6
 40
0.35433070866
 49
0.15748031496
 49
-0.03937007874
 49
0.03937007874
 49
-0.03937007874
 49
0.03937007874
 49
-0.03937007874
  0
LTYPE
  2
ACANSTGL
 70
     0
  3
_ _ _ _ _
 72
    65
 73
     2
 40
0.11811023622
 49
0.07874015748
 49
-0.03937007874
  0
ENDTAB
  0
TABLE
  2
LAYER
 70
     1
  0
LAYER
  2
0
 70
     0
 62
     7
  6
CONTINUOUS
  0
ENDTAB
  0
TABLE
  2
STYLE
 70
     5
  0
STYLE
  2
STANDARD
 70
     0
 40
0.0
 41
1.0
 50
0.0
 71
     0
 42
0.2
  3
txt
  4

  0
STYLE
  2
ANNOTATIVE
 70
     0
 40
0.0
 41
1.0
 50
0.0
 71
     0
 42
0.2
  3
txt
  4

  0
STYLE
  2

 70
     1
 40
0.0
 41
1.0
 50
0.0
 71
     0
 42
0.2
  3
ltypeshp.shx
  4

  0
STYLE
  2
ACANSTS
 70
     0
 40
1.0
 41
1.0
 50
0.0
 71
     0
 42
0.2
  3
romans.shx
  4
extfont.shx
  0
STYLE
  2
ACANSGDT
 70
     0
 40
0.0
 41
1.0
 50
0.0
 71
     0
 42
0.2
  3
amgdt.shx
  4

  0
ENDTAB
  0
TABLE
  2
VIEW
 70
     0
  0
ENDTAB
  0
TABLE
  2
UCS
 70
     0
  0
ENDTAB
  0
TABLE
  2
APPID
 70
    11
  0
APPID
  2
ACAD
 70
     0
  0
APPID
  2
ACADANNOTATIVE
 70
     0
  0
APPID
  2
MCAD_NO_VIS
 70
     0
  0
APPID
  2
ACAD_TEMP_GRAPHIC
 70
     0
  0
APPID
  2
ACATTRIBSERVICES
 70
     0
  0
APPID
  2
DESIGNERASSEMBLIES
 70
     0
  0
APPID
  2
ACAD_DSTYLE_DIMBREAK
 70
     0
  0
APPID
  2
ACAD_DSTYLE_DIMJAG
 70
     0
  0
APPID
  2
ACAD_NAV_VCDISPLAY
 70
     0
  0
APPID
  2
ACAD_EXEMPT_FROM_CAD_STANDARDS
 70
     0
  0
APPID
  2
ACAD_MLEADERVER
 70
     0
  0
ENDTAB
  0
TABLE
  2
DIMSTYLE
 70
     8
  0
DIMSTYLE
  2
STANDARD
 70
     0
  3

  4

  5

  6

  7

 40
1.0
 41
0.18
 42
0.0625
 43
0.38
 44
0.18
 45
0.0
 46
0.0
 47
0.0
 48
0.0
140
0.18
141
0.09
142
0.0
143
25.399999999999999
144
1.0
145
0.0
146
1.0
147
0.09
 71
     0
 72
     0
 73
     1
 74
     1
 75
     0
 76
     0
 77
     0
 78
     0
170
     0
171
     2
172
     0
173
     0
174
     0
175
     0
176
     0
177
     0
178
     0
  0
DIMSTYLE
  2
ANNOTATIVE
 70
     0
  3

  4

  5

  6

  7

 40
1.0
 41
0.18
 42
0.0625
 43
0.38
 44
0.18
 45
0.0
 46
0.0
 47
0.0
 48
0.0
140
0.18
141
0.09
142
0.0
143
25.399999999999999
144
1.0
145
0.0
146
1.0
147
0.09
 71
     0
 72
     0
 73
     1
 74
     1
 75
     0
 76
     0
 77
     0
 78
     0
170
     0
171
     2
172
     0
173
     0
174
     0
175
     0
176
     0
177
     0
178
     0
  0
DIMSTYLE
  2
AM_ANSI
 70
     0
  3

  4
mm
  5

  6

  7

 40
1.0
 41
0.1
 42
0.05
 43
0.5
 44
0.1
 45
0.0
 46
0.0
 47
0.1
 48
0.1
140
0.12
141
0.0
142
0.0
143
25.399999999999999
144
1.0
145
0.0
146
0.71
147
0.06
 71
     0
 72
     0
 73
     1
 74
     1
 75
     0
 76
     0
 77
     0
 78
     7
170
     0
171
     2
172
     0
173
     0
174
     0
175
     0
176
   256
177
   256
178
     2
  0
DIMSTYLE
  2
AM_ANSI$3
 70
     0
  3

  4
mm
  5

  6

  7

 40
1.0
 41
0.1
 42
0.05
 43
0.5
 44
0.1
 45
0.0
 46
0.0
 47
0.1
 48
0.1
140
0.12
141
0.0
142
0.0
143
25.399999999999999
144
1.0
145
0.0
146
0.71
147
0.06
 71
     0
 72
     0
 73
     1
 74
     1
 75
     0
 76
     0
 77
     0
 78
     7
170
     0
171
     2
172
     0
173
     0
174
     0
175
     0
176
   256
177
   256
178
     2
  0
DIMSTYLE
  2
AM_ANSI$4
 70
     0
  3

  4
mm
  5

  6

  7

 40
1.0
 41
0.1
 42
0.05
 43
0.5
 44
0.1
 45
0.0
 46
0.0
 47
0.1
 48
0.1
140
0.12
141
0.0
142
0.0
143
25.399999999999999
144
1.0
145
0.0
146
0.71
147
0.06
 71
     0
 72
     0
 73
     1
 74
     1
 75
     0
 76
     0
 77
     0
 78
     7
170
     0
171
     2
172
     0
173
     0
174
     0
175
     0
176
   256
177
   256
178
     2
  0
DIMSTYLE
  2
AM_ANSI$7
 70
     0
  3

  4
mm
  5

  6

  7

 40
1.0
 41
0.1
 42
0.05
 43
0.5
 44
0.1
 45
0.0
 46
0.0
 47
0.1
 48
0.1
140
0.24
141
0.0
142
0.0
143
25.399999999999999
144
1.0
145
0.0
146
0.71
147
0.06
 71
     0
 72
     0
 73
     1
 74
     1
 75
     0
 76
     0
 77
     0
 78
     7
170
     0
171
     2
172
     0
173
     0
174
     0
175
     0
176
   256
177
   256
178
     2
  0
DIMSTYLE
  2
AM_ANSI$SF
 70
     0
  3

  4
mm
  5

  6

  7

 40
1.0
 41
0.1
 42
0.05
 43
0.5
 44
0.1
 45
0.0
 46
0.0
 47
0.1
 48
0.1
140
0.12
141
0.0
142
0.0
143
25.399999999999999
144
1.0
145
0.0
146
0.71
147
0.06
 71
     0
 72
     0
 73
     1
 74
     1
 75
     1
 76
     1
 77
     0
 78
     7
170
     0
171
     2
172
     0
173
     0
174
     0
175
     0
176
   256
177
   256
178
     2
  0
DIMSTYLE
  2
AM_ANSI$SH
 70
     0
  3

  4
mm
  5

  6

  7

 40
1.0
 41
0.1
 42
0.05
 43
0.5
 44
0.1
 45
0.0
 46
0.0
 47
0.1
 48
0.1
140
0.12
141
0.0
142
0.0
143
25.399999999999999
144
1.0
145
0.0
146
0.71
147
0.06
 71
     0
 72
     0
 73
     1
 74
     1
 75
     1
 76
     1
 77
     0
 78
     7
170
     0
171
     2
172
     0
173
     1
174
     0
175
     0
176
   256
177
   256
178
     2
  0
ENDTAB
  0
ENDSEC
  0
SECTION
  2
BLOCKS
  0
BLOCK
  8
0
  2
$MODEL_SPACE
 70
     0
 10
0.0
 20
0.0
 30
0.0
  3
$MODEL_SPACE
  1

  0
ENDBLK
  5
C9E
  8
0
  0
BLOCK
 67
     1
  8
0
  2
$PAPER_SPACE
 70
     0
 10
0.0
 20
0.0
 30
0.0
  3
$PAPER_SPACE
  1

  0
ENDBLK
  5
C9A
 67
     1
  8
0
  0
BLOCK
  8
0
  2
GENAXEH
 70
     0
 10
0.0
 20
0.0
 30
0.0
  3
GENAXEH
  1

  0
LINE
  5
5A4
  8
0
 10
-1.0
 20
0.0
 30
0.0
 11
1.0
 21
0.0
 31
0.0
  0
ENDBLK
  5
5A5
  8
0
  0
BLOCK
  8
0
  2
_ACMFILLEDHALF
 70
     0
 10
0.0
 20
0.0
 30
0.0
  3
_ACMFILLEDHALF
  1

  0
TRACE
  5
B8C
  8
0
  6
CONTINUOUS
 62
     0
 10
-0.8
 20
0.0
 30
0.0
 11
-1.0
 21
0.166666666
 31
0.0
 12
0.0
 22
0.0
 32
0.0
 13
0.0
 23
0.0
 33
0.0
  0
LINE
  5
B8D
  8
0
  6
CONTINUOUS
 62
     0
 10
-1.0
 20
0.0
 30
0.0
 11
-0.8
 21
0.0
 31
0.0
  0
ENDBLK
  5
B8B
  8
0
  0
BLOCK
  8
0
  2
*U4
 70
     1
 10
0.0
 20
0.0
 30
0.0
  3
*U4
  1

  0
TEXT
  5
C27
  8
0
  6
CONTINUOUS
 62
     0
 10
4.1999993754229852
 20
4.4356759791489822
 30
0.0
 40
10.0
  1
ＶＸ０１－２４０Ｍ～ＶＸ０１－６００Ｍ
  0
ENDBLK
  5
C29
  8
0
  0
BLOCK
  8
0
  2
*U5
 70
     1
 10
0.0
 20
0.0
 30
0.0
  3
*U5
  1

  0
TEXT
  5
C2B
  8
0
  6
CONTINUOUS
 62
     0
 10
-408.51427840207668
 20
530.52133462054712
 30
0.0
 40
15.0
  1
ＶＸ０４－２４０Ｍ～ＶＸ０４－６００Ｍ
  0
ENDBLK
  5
C2D
  8
0
  0
ENDSEC
  0
SECTION
  2
ENTITIES
  0
LINE
  5
5A6
  8
0
  6
CENTER
 62
     1
 10
-215.2809399999999
 20
109.06672999999979
 30
0.0
 11
-215.2809399999999
 21
429.45864999999998
 31
0.0
  0
LINE
  5
5A7
  8
0
  6
CENTER
 62
     7
 10
-351.36525999999992
 20
251.5479399999999
 30
0.0
 11
-77.763351
 21
251.5479399999999
 31
0.0
  0
LINE
  5
5A8
  8
0
  6
CENTER
 62
     7
 10
-271.31018
 20
289.54793999999993
 30
0.0
 11
-157.81843999999981
 21
289.54793999999993
 31
0.0
  0
LINE
  5
5A9
  8
0
  6
CENTER
 62
     7
 10
-1024.9680000000001
 20
686.86632999999995
 30
0.0
 11
-492.22982999999999
 21
686.86632999999995
 31
0.0
  0
LINE
  5
5AA
  8
0
  6
CONTINUOUS
 62
     3
 10
-757.24377000000004
 20
748.44494999999984
 30
0.0
 11
-722.74377000000004
 21
748.44494999999984
 31
0.0
  0
LINE
  5
5AB
  8
0
  6
CONTINUOUS
 62
     7
 10
-757.24377000000004
 20
726.34094000000005
 30
0.0
 11
-722.74377000000004
 21
726.34094000000005
 31
0.0
  0
LINE
  5
5AC
  8
0
  6
CONTINUOUS
 62
     7
 10
-706.81353999999999
 20
815.61010999999985
 30
0.0
 11
-695.74377000000004
 21
815.99669999999981
 31
0.0
  0
LINE
  5
5AD
  8
0
  6
CONTINUOUS
 62
     7
 10
-722.74377000000004
 20
572.75829999999996
 30
0.0
 11
-722.74377000000004
 21
682.86626999999964
 31
0.0
  0
LINE
  5
5AE
  8
0
  6
CONTINUOUS
 62
     7
 10
-708.74390000000005
 20
550.65648999999985
 30
0.0
 11
-708.74390000000005
 21
677.3268999999998
 31
0.0
  0
LINE
  5
5AF
  8
0
  6
CONTINUOUS
 62
     7
 10
-720.26470999999981
 20
803.94530999999995
 30
0.0
 11
-711.22284000000002
 21
805.53966999999989
 31
0.0
  0
LINE
  5
5B0
  8
0
  6
CONTINUOUS
 62
     7
 10
-757.24377000000004
 20
760.36632999999983
 30
0.0
 11
-727.56934000000001
 21
761.40259000000003
 31
0.0
  0
LINE
  5
5B1
  8
0
  6
CONTINUOUS
 62
     7
 10
-582.86499000000003
 20
646.745
 30
0.0
 11
-578.62238000000002
 21
650.98761000000002
 31
0.0
  0
LINE
  5
5B2
  8
0
  6
CONTINUOUS
 62
     7
 10
-582.86505
 20
732.9876099999999
 30
0.0
 11
-578.62238000000002
 21
728.74492999999984
 31
0.0
  0
LINE
  5
5B3
  8
0
  6
CONTINUOUS
 62
     7
 10
-573.74377000000004
 20
707.86632999999995
 30
0.0
 11
-503.74380000000002
 21
707.86632999999995
 31
0.0
  0
LINE
  5
5B4
  8
0
  6
CONTINUOUS
 62
     7
 10
-573.74377000000004
 20
665.86632999999995
 30
0.0
 11
-503.74380000000002
 21
665.86632999999995
 31
0.0
  0
LINE
  5
5B5
  8
0
  6
CONTINUOUS
 62
     7
 10
-577.74377000000004
 20
709.36632999999995
 30
0.0
 11
-573.74377000000004
 21
709.36632999999995
 31
0.0
  0
LINE
  5
5B6
  8
0
  6
CONTINUOUS
 62
     7
 10
-577.74377000000004
 20
664.36632999999995
 30
0.0
 11
-573.74377000000004
 21
664.36632999999995
 31
0.0
  0
LINE
  5
5B7
  8
0
  6
CONTINUOUS
 62
     7
 10
-573.74377000000004
 20
664.36632999999995
 30
0.0
 11
-573.74377000000004
 21
709.36632999999995
 31
0.0
  0
LINE
  5
5B8
  8
0
  6
CONTINUOUS
 62
     7
 10
-503.74380000000002
 20
665.86632999999995
 30
0.0
 11
-503.74380000000002
 21
707.86632999999995
 31
0.0
  0
LINE
  5
5B9
  8
0
  6
CONTINUOUS
 62
     7
 10
-559.74377000000004
 20
692.86626999999999
 30
0.0
 11
-559.74377000000004
 21
680.86626999999999
 31
0.0
  0
LINE
  5
5BA
  8
0
  6
CONTINUOUS
 62
     7
 10
-769.74377000000004
 20
818.93024000000003
 30
0.0
 11
-769.74377000000004
 21
782.44323999999983
 31
0.0
  0
LINE
  5
5BB
  8
0
  6
CONTINUOUS
 62
     7
 10
-577.74377000000004
 20
819.0575
 30
0.0
 11
-577.74377000000004
 21
779.67511000000002
 31
0.0
  0
LINE
  5
5BC
  8
0
  6
CONTINUOUS
 62
     7
 10
-690.74377000000004
 20
826.86626999999999
 30
0.0
 11
-581.60419000000002
 21
823.05505000000005
 31
0.0
  0
LINE
  5
5BD
  8
0
  6
CONTINUOUS
 62
     7
 10
-765.95318999999984
 20
822.92474000000004
 30
0.0
 11
-690.74384000000009
 21
826.86632999999983
 31
0.0
  0
LINE
  5
5BE
  8
0
  6
CENTER
 62
     7
 10
-765.74377000000004
 20
801.86632999999983
 30
0.0
 11
-732.24377000000004
 21
801.86632999999983
 31
0.0
  0
LINE
  5
5BF
  8
0
  6
CENTER
 62
     7
 10
-748.74377000000004
 20
818.36632999999995
 30
0.0
 11
-748.74377000000004
 21
785.36632999999983
 31
0.0
  0
LINE
  5
5C0
  8
0
  6
CENTER
 62
     7
 10
-598.74377000000004
 20
818.36632999999995
 30
0.0
 11
-598.74377000000004
 21
785.36632999999983
 31
0.0
  0
LINE
  5
5C1
  8
0
  6
CONTINUOUS
 62
     7
 10
-583.74377000000004
 20
772.74688999999989
 30
0.0
 11
-583.74377000000004
 21
600.9857199999999
 31
0.0
  0
LINE
  5
5C2
  8
0
  6
CONTINUOUS
 62
     7
 10
-766.09247000000005
 20
778.45843999999988
 30
0.0
 11
-722.74384000000032
 21
774.66588999999988
 31
0.0
  0
LINE
  5
5C3
  8
0
  6
CONTINUOUS
 62
     7
 10
-766.09240999999986
 20
595.27417000000003
 30
0.0
 11
-722.74377000000004
 21
599.06664999999975
 31
0.0
  0
LINE
  5
5C4
  8
0
  6
CONTINUOUS
 62
     7
 10
-765.95318999999984
 20
550.80786000000001
 30
0.0
 11
-690.74384000000009
 21
546.86632999999995
 31
0.0
  0
LINE
  5
5C5
  8
0
  6
CONTINUOUS
 62
     7
 10
-690.74384000000009
 20
546.86626999999999
 30
0.0
 11
-581.60424999999998
 21
550.67754999999977
 31
0.0
  0
LINE
  5
5C6
  8
0
  6
CONTINUOUS
 62
     7
 10
-577.74377000000004
 20
554.67511000000002
 30
0.0
 11
-577.74377000000004
 21
594.05749999999989
 31
0.0
  0
LINE
  5
5C7
  8
0
  6
CONTINUOUS
 62
     7
 10
-769.74377000000004
 20
554.80236999999988
 30
0.0
 11
-769.74377000000004
 21
591.28936999999985
 31
0.0
  0
LINE
  5
5C8
  8
0
  6
CONTINUOUS
 62
     7
 10
-695.74377000000004
 20
547.12829999999985
 30
0.0
 11
-695.74377000000004
 21
682.86626999999964
 31
0.0
  0
LINE
  5
5C9
  8
0
  6
CONTINUOUS
 62
     7
 10
-577.74377000000004
 20
726.62365999999986
 30
0.0
 11
-577.74377000000004
 21
653.10895000000005
 31
0.0
  0
LINE
  5
5CA
  8
0
  6
CONTINUOUS
 62
     7
 10
-651.65344000000016
 20
810.04040999999984
 30
0.0
 11
-633.46460000000002
 21
809.40521000000001
 31
0.0
  0
LINE
  5
5CB
  8
0
  6
CONTINUOUS
 62
     7
 10
-625.74377000000004
 20
795.86632999999983
 30
0.0
 11
-625.74377000000004
 21
801.41016000000002
 31
0.0
  0
LINE
  5
5CC
  8
0
  6
CONTINUOUS
 62
     7
 10
-598.41875999999979
 20
773.40801999999985
 30
0.0
 11
-588.56926999999985
 21
773.06408999999985
 31
0.0
  0
LINE
  5
5CD
  8
0
  6
CONTINUOUS
 62
     7
 10
-667.92730999999958
 20
823.02965999999992
 30
0.0
 11
-658.56023999999979
 21
813.15295000000003
 31
0.0
  0
LINE
  5
5CE
  8
0
  6
CONTINUOUS
 62
     7
 10
-708.74383999999986
 20
816.61327999999969
 30
0.0
 11
-716.12238000000002
 21
817.53754000000004
 31
0.0
  0
LINE
  5
5CF
  8
0
  6
CONTINUOUS
 62
     7
 10
-625.74377000000004
 20
819.41881999999987
 30
0.0
 11
-625.74377000000004
 21
801.41016000000002
 31
0.0
  0
LINE
  5
5D0
  8
0
  6
CONTINUOUS
 62
     7
 10
-721.74377000000004
 20
824.26153999999985
 30
0.0
 11
-721.74377000000004
 21
816.41277999999988
 31
0.0
  0
LINE
  5
5D1
  8
0
  6
CONTINUOUS
 62
     7
 10
-615.74377000000004
 20
785.86632999999983
 30
0.0
 11
-613.74377000000004
 21
785.86632999999983
 31
0.0
  0
LINE
  5
5D2
  8
0
  6
CENTER
 62
     7
 10
-615.24377000000004
 20
801.86632999999983
 30
0.0
 11
-581.74377000000004
 21
801.86632999999983
 31
0.0
  0
LINE
  5
5D3
  8
0
  6
CENTER
 62
     7
 10
-765.74377000000004
 20
571.86632999999995
 30
0.0
 11
-732.24377000000004
 21
571.86632999999995
 31
0.0
  0
LINE
  5
5D4
  8
0
  6
CENTER
 62
     7
 10
-748.74377000000004
 20
555.36632999999995
 30
0.0
 11
-748.74377000000004
 21
588.36632999999995
 31
0.0
  0
LINE
  5
5D5
  8
0
  6
CENTER
 62
     7
 10
-598.74377000000004
 20
555.36632999999995
 30
0.0
 11
-598.74377000000004
 21
588.36632999999995
 31
0.0
  0
LINE
  5
5D6
  8
0
  6
CENTER
 62
     7
 10
-615.24377000000004
 20
571.86632999999995
 30
0.0
 11
-581.74377000000004
 21
571.86632999999995
 31
0.0
  0
LINE
  5
5D7
  8
0
  6
CONTINUOUS
 62
     7
 10
-651.65344000000016
 20
563.69219999999984
 30
0.0
 11
-633.46460000000002
 21
564.32739000000004
 31
0.0
  0
LINE
  5
5D8
  8
0
  6
CONTINUOUS
 62
     7
 10
-625.74377000000004
 20
577.86632999999995
 30
0.0
 11
-625.74377000000004
 21
572.32250999999985
 31
0.0
  0
LINE
  5
5D9
  8
0
  6
CONTINUOUS
 62
     7
 10
-598.41875999999979
 20
600.32465000000002
 30
0.0
 11
-588.56934000000001
 21
600.66858000000002
 31
0.0
  0
LINE
  5
5DA
  8
0
  6
CONTINUOUS
 62
     7
 10
-667.92737
 20
550.70288000000005
 30
0.0
 11
-658.56017999999995
 21
560.57965000000002
 31
0.0
  0
LINE
  5
5DB
  8
0
  6
CONTINUOUS
 62
     7
 10
-625.74377000000004
 20
554.31384000000003
 30
0.0
 11
-625.74377000000004
 21
572.32250999999985
 31
0.0
  0
LINE
  5
5DC
  8
0
  6
CONTINUOUS
 62
     7
 10
-615.74377000000004
 20
587.86632999999995
 30
0.0
 11
-613.74377000000004
 21
587.86632999999995
 31
0.0
  0
LINE
  5
5DD
  8
0
  6
CONTINUOUS
 62
     7
 10
-605.74377000000004
 20
595.86632999999995
 30
0.0
 11
-605.74377000000004
 21
777.86632999999983
 31
0.0
  0
LINE
  5
5DE
  8
0
  6
CONTINUOUS
 62
     7
 10
-680.74377000000004
 20
560.19115999999997
 30
0.0
 11
-680.74377000000004
 21
607.30053999999996
 31
0.0
  0
LINE
  5
5DF
  8
0
  6
CONTINUOUS
 62
     7
 10
-678.81353999999976
 20
564.30682000000002
 30
0.0
 11
-654.21056999999985
 21
565.16602
 31
0.0
  0
LINE
  5
5E0
  8
0
  6
CONTINUOUS
 62
     7
 10
-695.74383999999998
 20
557.73595999999998
 30
0.0
 11
-682.67394999999999
 21
558.19237999999984
 31
0.0
  0
LINE
  5
5E1
  8
0
  6
CONTINUOUS
 62
     7
 10
-680.74377000000004
 20
637.30175999999994
 30
0.0
 11
-680.74377000000004
 21
736.43084999999985
 31
0.0
  0
LINE
  5
5E2
  8
0
  6
CONTINUOUS
 62
     7
 10
-676.24377000000004
 20
609.30053999999996
 30
0.0
 11
-676.24377000000004
 21
635.30175999999994
 31
0.0
  0
LINE
  5
5E3
  8
0
  6
CONTINUOUS
 62
     7
 10
-708.74390000000005
 20
609.30053999999996
 30
0.0
 11
-682.74377000000004
 21
609.30053999999996
 31
0.0
  0
LINE
  5
5E4
  8
0
  6
CONTINUOUS
 62
     7
 10
-708.74390000000005
 20
635.30175999999994
 30
0.0
 11
-682.74377000000004
 21
635.30175999999994
 31
0.0
  0
LINE
  5
5E5
  8
0
  6
CONTINUOUS
 62
     7
 10
-676.24377000000004
 20
764.43206999999984
 30
0.0
 11
-676.24377000000004
 21
738.43084999999985
 31
0.0
  0
LINE
  5
5E6
  8
0
  6
CONTINUOUS
 62
     7
 10
-678.81359999999995
 20
809.42578000000015
 30
0.0
 11
-654.21051
 21
808.56659000000002
 31
0.0
  0
LINE
  5
5E7
  8
0
  6
CONTINUOUS
 62
     7
 10
-695.74383999999998
 20
815.99663999999984
 30
0.0
 11
-682.67394999999999
 21
815.54021999999986
 31
0.0
  0
LINE
  5
5E8
  8
0
  6
CONTINUOUS
 62
     7
 10
-708.74390000000005
 20
738.43084999999985
 30
0.0
 11
-682.74377000000004
 21
738.43084999999985
 31
0.0
  0
LINE
  5
5E9
  8
0
  6
CONTINUOUS
 62
     7
 10
-680.74377000000004
 20
813.54143999999985
 30
0.0
 11
-680.74377000000004
 21
766.43206999999984
 31
0.0
  0
LINE
  5
5EA
  8
0
  6
CONTINUOUS
 62
     7
 10
-708.74390000000005
 20
764.43206999999984
 30
0.0
 11
-682.74377000000004
 21
764.43206999999984
 31
0.0
  0
LINE
  5
5EB
  8
0
  6
CONTINUOUS
 62
     7
 10
-559.74377000000004
 20
680.86626999999999
 30
0.0
 11
-503.74380000000002
 21
680.86626999999999
 31
0.0
  0
LINE
  5
5EC
  8
0
  6
CONTINUOUS
 62
     7
 10
-559.74377000000004
 20
692.86626999999999
 30
0.0
 11
-503.74380000000002
 21
692.86626999999999
 31
0.0
  0
LINE
  5
5ED
  8
0
  6
CONTINUOUS
 62
     3
 10
-757.24377000000004
 20
625.28765999999985
 30
0.0
 11
-722.74377000000004
 21
625.28765999999985
 31
0.0
  0
LINE
  5
5EE
  8
0
  6
CONTINUOUS
 62
     7
 10
-757.24377000000004
 20
647.39160000000004
 30
0.0
 11
-722.74377000000004
 21
647.39160000000004
 31
0.0
  0
LINE
  5
5EF
  8
0
  6
CONTINUOUS
 62
     7
 10
-706.81359999999995
 20
558.12255999999979
 30
0.0
 11
-695.74377000000004
 21
557.73595999999998
 31
0.0
  0
LINE
  5
5F0
  8
0
  6
CONTINUOUS
 62
     7
 10
-720.26476999999988
 20
569.78728999999998
 30
0.0
 11
-711.22284000000002
 21
568.19292999999982
 31
0.0
  0
LINE
  5
5F1
  8
0
  6
CONTINUOUS
 62
     7
 10
-757.2438400000002
 20
613.36626999999999
 30
0.0
 11
-727.56926999999985
 21
612.33001999999999
 31
0.0
  0
LINE
  5
5F2
  8
0
  6
CONTINUOUS
 62
     7
 10
-708.74383999999986
 20
557.11932000000002
 30
0.0
 11
-716.12238000000002
 21
556.19506999999965
 31
0.0
  0
LINE
  5
5F3
  8
0
  6
CONTINUOUS
 62
     7
 10
-721.74377000000004
 20
549.47107000000005
 30
0.0
 11
-721.74377000000004
 21
557.31982000000005
 31
0.0
  0
LINE
  5
5F4
  8
0
  6
CONTINUOUS
 62
     7
 10
-757.24390000000005
 20
613.36626999999999
 30
0.0
 11
-757.24390000000005
 21
760.36632999999983
 31
0.0
  0
LINE
  5
5F5
  8
0
  6
CENTER
 62
     7
 10
-711.74377000000004
 20
670.15796
 30
0.0
 11
-711.74377000000004
 21
701.47118999999986
 31
0.0
  0
LINE
  5
5F6
  8
0
  6
CONTINUOUS
 62
     7
 10
-728.24377000000004
 20
682.86626999999964
 30
0.0
 11
-695.24377000000004
 21
682.86626999999964
 31
0.0
  0
LINE
  5
5F7
  8
0
  6
CONTINUOUS
 62
     7
 10
-728.24377000000004
 20
690.86626999999964
 30
0.0
 11
-695.24377000000004
 21
690.86626999999964
 31
0.0
  0
LINE
  5
5F8
  8
0
  6
CONTINUOUS
 62
     7
 10
-695.74377000000004
 20
690.86626999999964
 30
0.0
 11
-695.74377000000004
 21
826.60424999999987
 31
0.0
  0
LINE
  5
5F9
  8
0
  6
CONTINUOUS
 62
     7
 10
-708.74390000000005
 20
696.40570000000002
 30
0.0
 11
-708.74390000000005
 21
823.07605000000001
 31
0.0
  0
LINE
  5
5FA
  8
0
  6
CONTINUOUS
 62
     7
 10
-722.74377000000004
 20
690.86626999999964
 30
0.0
 11
-722.74377000000004
 21
801.00744999999984
 31
0.0
  0
LINE
  5
5FB
  8
0
  6
CONTINUOUS
 62
     7
 10
-676.24377000000004
 20
550.62914999999975
 30
0.0
 11
-676.24377000000004
 21
562.66150000000005
 31
0.0
  0
LINE
  5
5FC
  8
0
  6
CONTINUOUS
 62
     7
 10
-676.24377000000004
 20
811.14617999999984
 30
0.0
 11
-676.24377000000004
 21
823.09960999999998
 31
0.0
  0
LINE
  5
5FD
  8
0
  6
CONTINUOUS
 62
     7
 10
-559.74377000000004
 20
313.54793999999993
 30
0.0
 11
-503.74380000000002
 21
313.54793999999993
 31
0.0
  0
LINE
  5
5FE
  8
0
  6
CONTINUOUS
 62
     7
 10
-559.74377000000004
 20
313.54793999999993
 30
0.0
 11
-559.74377000000004
 21
310.54793999999998
 31
0.0
  0
LINE
  5
5FF
  8
0
  6
CONTINUOUS
 62
     7
 10
-221.28095999999991
 20
305.54793999999993
 30
0.0
 11
-209.28095999999991
 21
305.54793999999993
 31
0.0
  0
LINE
  5
600
  8
0
  6
CONTINUOUS
 62
     7
 10
-209.28095999999991
 20
313.54793999999993
 30
0.0
 11
-209.28095999999991
 21
305.54793999999993
 31
0.0
  0
LINE
  5
601
  8
0
  6
CONTINUOUS
 62
     7
 10
-221.28095999999991
 20
313.54793999999993
 30
0.0
 11
-221.28095999999991
 21
305.54793999999993
 31
0.0
  0
LINE
  5
602
  8
0
  6
CONTINUOUS
 62
     7
 10
-221.28095999999991
 20
313.54793999999993
 30
0.0
 11
-209.28095999999991
 21
313.54793999999993
 31
0.0
  0
LINE
  5
603
  8
0
  6
CONTINUOUS
 62
     7
 10
-503.74380000000002
 20
268.54793999999998
 30
0.0
 11
-503.74380000000002
 21
313.54793999999993
 31
0.0
  0
LINE
  5
604
  8
0
  6
CONTINUOUS
 62
     7
 10
-573.7438400000002
 20
267.04793999999998
 30
0.0
 11
-573.7438400000002
 21
312.04793999999993
 31
0.0
  0
LINE
  5
605
  8
0
  6
CONTINUOUS
 62
     7
 10
-577.74377000000004
 20
267.04793999999998
 30
0.0
 11
-573.7438400000002
 21
267.04793999999998
 31
0.0
  0
LINE
  5
606
  8
0
  6
CONTINUOUS
 62
     7
 10
-577.74377000000004
 20
312.04793999999993
 30
0.0
 11
-573.7438400000002
 21
312.04793999999993
 31
0.0
  0
LINE
  5
607
  8
0
  6
CONTINUOUS
 62
     7
 10
-573.7438400000002
 20
268.54793999999998
 30
0.0
 11
-503.74380000000002
 21
268.54793999999998
 31
0.0
  0
LINE
  5
608
  8
0
  6
CONTINUOUS
 62
     7
 10
-573.7438400000002
 20
310.54793999999998
 30
0.0
 11
-503.74380000000002
 21
310.54793999999998
 31
0.0
  0
LINE
  5
609
  8
0
  6
CENTER
 62
     7
 10
-742.95849999999984
 20
289.54793999999993
 30
0.0
 11
-495.79940999999991
 21
289.54793999999993
 31
0.0
  0
LINE
  5
60A
  8
0
  6
CONTINUOUS
 62
     7
 10
-695.74377000000004
 20
173.09632999999991
 30
0.0
 11
-695.74377000000004
 21
381.54793999999998
 31
0.0
  0
LINE
  5
60B
  8
0
  6
CENTER
 62
     7
 10
-100.28094
 20
143.39812000000001
 30
0.0
 11
-100.28094
 21
107.57241999999999
 31
0.0
  0
LINE
  5
60C
  8
0
  6
CENTER
 62
     7
 10
-330.28093999999999
 20
144.05584999999991
 30
0.0
 11
-330.28093999999999
 21
109.65631
 31
0.0
  0
LINE
  5
60D
  8
0
  6
CONTINUOUS
 62
     7
 10
-677.98608000000002
 20
233.63302999999991
 30
0.0
 11
-664.75023999999985
 21
243.5429799999998
 31
0.0
  0
LINE
  5
60E
  8
0
  6
CONTINUOUS
 62
     7
 10
-675.34710999999982
 20
272.03552000000002
 30
0.0
 11
-663.20849999999996
 21
258.12209999999988
 31
0.0
  0
LINE
  5
60F
  8
0
  6
CONTINUOUS
 62
     7
 10
-679.37732000000017
 20
345.94173999999992
 30
0.0
 11
-667.57599000000005
 21
349.88315
 31
0.0
  0
LINE
  5
610
  8
0
  6
CONTINUOUS
 62
     7
 10
-675.54480000000001
 20
373.72497999999979
 30
0.0
 11
-665.71869000000004
 21
368.01382000000001
 31
0.0
  0
LINE
  5
611
  8
0
  6
CONTINUOUS
 62
     7
 10
-695.74377000000004
 20
355.87218999999999
 30
0.0
 11
-683.74383999999986
 21
355.87218999999999
 31
0.0
  0
LINE
  5
612
  8
0
  6
CONTINUOUS
 62
     7
 10
-695.74377000000004
 20
374.13126
 30
0.0
 11
-677.05230999999981
 21
374.13126
 31
0.0
  0
LINE
  5
613
  8
0
  6
CONTINUOUS
 62
     7
 10
-289.94018999999992
 20
366.71944999999988
 30
0.0
 11
-294.82294000000002
 21
348.49680000000001
 31
0.0
  0
LINE
  5
614
  8
0
  6
CONTINUOUS
 62
     7
 10
-152.8691399999999
 20
373.79043999999999
 30
0.0
 11
-171.09176999999991
 21
368.90770999999989
 31
0.0
  0
LINE
  5
615
  8
0
  6
CONTINUOUS
 62
     7
 10
-78.209907999999999
 20
258.61905000000002
 30
0.0
 11
-91.549781999999993
 21
271.95891999999992
 31
0.0
  0
LINE
  5
616
  8
0
  6
CONTINUOUS
 62
     7
 10
-78.209907999999999
 20
244.47689999999989
 30
0.0
 11
-86.020882
 21
236.66592
 31
0.0
  0
LINE
  5
617
  8
0
  6
CONTINUOUS
 62
     7
 10
-352.35199
 20
258.61898999999988
 30
0.0
 11
-339.01211999999992
 21
271.95889
 31
0.0
  0
LINE
  5
618
  8
0
  6
CONTINUOUS
 62
     7
 10
-610.68548999999996
 20
333.72078999999991
 30
0.0
 11
-615.74377000000004
 21
333.72078999999991
 31
0.0
  0
LINE
  5
619
  8
0
  6
CONTINUOUS
 62
     7
 10
-126.58096
 20
135.54795999999999
 30
0.0
 11
-126.58096
 21
114.5479399999999
 31
0.0
  0
LINE
  5
61A
  8
0
  6
CONTINUOUS
 62
     7
 10
-613.74383999999975
 20
185.14581000000001
 30
0.0
 11
-622.26049999999975
 21
185.14581000000001
 31
0.0
  0
LINE
  5
61B
  8
0
  6
CONTINUOUS
 62
     7
 10
-140.6216899999998
 20
366.71938999999998
 30
0.0
 11
-135.7389499999999
 21
348.49680000000001
 31
0.0
  0
LINE
  5
61C
  8
0
  6
CONTINUOUS
 62
     7
 10
-691.79169000000002
 20
178.1957899999999
 30
0.0
 11
-719.34174000000019
 21
142.64737
 31
0.0
  0
LINE
  5
61D
  8
0
  6
CONTINUOUS
 62
     7
 10
-695.74377000000004
 20
266.55972000000003
 30
0.0
 11
-683.74383999999986
 21
266.55972000000003
 31
0.0
  0
LINE
  5
61E
  8
0
  6
CONTINUOUS
 62
     7
 10
-130.2809399999999
 20
114.5479399999999
 30
0.0
 11
-75.280945000000003
 21
114.5479399999999
 31
0.0
  0
LINE
  5
61F
  8
0
  6
CONTINUOUS
 62
     7
 10
-277.69274999999982
 20
373.79050000000001
 30
0.0
 11
-259.47014999999982
 21
368.90778
 31
0.0
  0
LINE
  5
620
  8
0
  6
CONTINUOUS
 62
     7
 10
-690.74377000000004
 20
225.35986
 30
0.0
 11
-680.74377000000004
 21
225.35986
 31
0.0
  0
LINE
  5
621
  8
0
  6
CONTINUOUS
 62
     7
 10
-676.24383999999975
 20
351.02361999999999
 30
0.0
 11
-676.24383999999975
 21
372.19681000000003
 31
0.0
  0
LINE
  5
622
  8
0
  6
CONTINUOUS
 62
     7
 10
-300.28093999999982
 20
115.54796
 30
0.0
 11
-300.28093999999982
 21
114.5479399999999
 31
0.0
  0
LINE
  5
623
  8
0
  6
CONTINUOUS
 62
     7
 10
-680.74377000000004
 20
269.55972000000003
 30
0.0
 11
-680.74377000000004
 21
352.87222000000008
 31
0.0
  0
LINE
  5
624
  8
0
  6
CONTINUOUS
 62
     7
 10
-676.24383999999975
 20
264.03577000000001
 30
0.0
 11
-676.24383999999975
 21
236.92361
 31
0.0
  0
LINE
  5
625
  8
0
  6
CONTINUOUS
 62
     7
 10
-680.74377000000004
 20
231.93762000000001
 30
0.0
 11
-680.74377000000004
 21
225.35986
 31
0.0
  0
LINE
  5
626
  8
0
  6
CONTINUOUS
 62
     7
 10
-355.28093999999999
 20
134.54793999999981
 30
0.0
 11
-355.28093999999999
 21
114.5479399999999
 31
0.0
  0
LINE
  5
627
  8
0
  6
CONTINUOUS
 62
     7
 10
-296.28098
 20
119.5479399999999
 30
0.0
 11
-133.91517999999999
 21
119.5479399999999
 31
0.0
  0
LINE
  5
628
  8
0
  6
CONTINUOUS
 62
     7
 10
-119.28095999999979
 20
139.5479399999999
 30
0.0
 11
-80.280944999999988
 21
139.5479399999999
 31
0.0
  0
LINE
  5
629
  8
0
  6
DASHED
 62
     7
 10
-90.780959999999993
 20
139.5479399999999
 30
0.0
 11
-90.780959999999993
 21
114.5479399999999
 31
0.0
  0
LINE
  5
62A
  8
0
  6
DASHED
 62
     7
 10
-339.78093999999982
 20
139.5479399999999
 30
0.0
 11
-339.78093999999982
 21
114.5479399999999
 31
0.0
  0
LINE
  5
62B
  8
0
  6
CONTINUOUS
 62
     7
 10
-303.98092999999989
 20
135.54795999999999
 30
0.0
 11
-303.98092999999989
 21
114.5479399999999
 31
0.0
  0
LINE
  5
62C
  8
0
  6
DASHED
 62
     7
 10
-109.78095
 20
139.5479399999999
 30
0.0
 11
-109.78095
 21
114.5479399999999
 31
0.0
  0
LINE
  5
62D
  8
0
  6
DASHED
 62
     7
 10
-320.78093999999982
 20
139.5479399999999
 30
0.0
 11
-320.78093999999982
 21
114.5479399999999
 31
0.0
  0
LINE
  5
62E
  8
0
  6
CONTINUOUS
 62
     7
 10
-130.2809399999999
 20
115.54796
 30
0.0
 11
-130.2809399999999
 21
114.5479399999999
 31
0.0
  0
LINE
  5
62F
  8
0
  6
CONTINUOUS
 62
     7
 10
-75.280945000000003
 20
134.54793999999981
 30
0.0
 11
-75.280945000000003
 21
114.5479399999999
 31
0.0
  0
LINE
  5
630
  8
0
  6
CONTINUOUS
 62
     7
 10
-355.28093999999999
 20
114.5479399999999
 30
0.0
 11
-300.28093999999982
 21
114.5479399999999
 31
0.0
  0
LINE
  5
631
  8
0
  6
CONTINUOUS
 62
     7
 10
-352.35199
 20
244.47685000000001
 30
0.0
 11
-344.54101999999978
 21
236.6658799999999
 31
0.0
  0
LINE
  5
632
  8
0
  6
CONTINUOUS
 62
     7
 10
-350.28093999999987
 20
139.5479399999999
 30
0.0
 11
-307.98095999999993
 21
139.5479399999999
 31
0.0
  0
LINE
  5
633
  8
0
  6
CONTINUOUS
 62
     7
 10
-597.74377000000004
 20
349.54793999999993
 30
0.0
 11
-586.74377000000004
 21
349.54793999999993
 31
0.0
  0
LINE
  5
634
  8
0
  6
CONTINUOUS
 62
     7
 10
-695.74377000000004
 20
234.93764999999991
 30
0.0
 11
-683.74383999999986
 21
234.93764999999991
 31
0.0
  0
LINE
  5
635
  8
0
  6
CONTINUOUS
 62
     7
 10
-690.74377000000004
 20
225.35986
 30
0.0
 11
-690.74377000000004
 21
181.2586399999999
 31
0.0
  0
LINE
  5
636
  8
0
  6
CONTINUOUS
 62
     7
 10
-338.82589999999999
 20
266.93953999999991
 30
0.0
 11
-355.24261000000001
 21
135.16607999999991
 31
0.0
  0
LINE
  5
637
  8
0
  6
CONTINUOUS
 62
     7
 10
-582.86510999999996
 20
335.66927999999979
 30
0.0
 11
-578.62243999999998
 21
331.42657000000008
 31
0.0
  0
LINE
  5
638
  8
0
  6
CONTINUOUS
 62
     7
 10
-625.74377000000004
 20
323.72078999999991
 30
0.0
 11
-625.74377000000004
 21
147.54796999999991
 31
0.0
  0
LINE
  5
639
  8
0
  6
CONTINUOUS
 62
     7
 10
-680.74377000000004
 20
374.13126
 30
0.0
 11
-680.74377000000004
 21
379.09276999999992
 31
0.0
  0
LINE
  5
63A
  8
0
  6
CONTINUOUS
 62
     7
 10
-583.74383999999986
 20
289.54793999999993
 30
0.0
 11
-583.74383999999986
 21
143.2939299999999
 31
0.0
  0
LINE
  5
63B
  8
0
  6
CONTINUOUS
 62
     7
 10
-678.81359999999995
 20
375.67052999999999
 30
0.0
 11
-613.46465999999987
 21
373.38848999999999
 31
0.0
  0
LINE
  5
63C
  8
0
  6
CONTINUOUS
 62
     7
 10
-582.86505
 20
249.42657
 30
0.0
 11
-578.62238000000002
 21
253.66922
 31
0.0
  0
LINE
  5
63D
  8
0
  6
DASHED
 62
     7
 10
-608.24377000000004
 20
139.5479399999999
 30
0.0
 11
-608.24377000000004
 21
114.5479399999999
 31
0.0
  0
LINE
  5
63E
  8
0
  6
CONTINUOUS
 62
     7
 10
-577.74377000000004
 20
135.54795999999999
 30
0.0
 11
-577.74377000000004
 21
114.5479399999999
 31
0.0
  0
LINE
  5
63F
  8
0
  6
DASHED
 62
     7
 10
-589.24377000000004
 20
139.5479399999999
 30
0.0
 11
-589.24377000000004
 21
114.5479399999999
 31
0.0
  0
LINE
  5
640
  8
0
  6
CONTINUOUS
 62
     7
 10
-617.74377000000004
 20
139.5479399999999
 30
0.0
 11
-581.74377000000004
 21
139.5479399999999
 31
0.0
  0
LINE
  5
641
  8
0
  6
CONTINUOUS
 62
     7
 10
-695.74377000000004
 20
381.54797000000002
 30
0.0
 11
-682.67400999999995
 21
381.09154999999998
 31
0.0
  0
LINE
  5
642
  8
0
  6
CONTINUOUS
 62
     7
 10
-605.74377000000004
 20
193.14581000000001
 30
0.0
 11
-605.74377000000004
 21
365.39333999999991
 31
0.0
  0
LINE
  5
643
  8
0
  6
CONTINUOUS
 62
     7
 10
-583.74383999999986
 20
289.54793999999993
 30
0.0
 11
-583.74383999999986
 21
346.54793999999993
 31
0.0
  0
LINE
  5
644
  8
0
  6
CONTINUOUS
 62
     7
 10
-309.28093999999999
 20
333.18279999999982
 30
0.0
 11
-309.28093999999999
 21
217.5380899999999
 31
0.0
  0
LINE
  5
645
  8
0
  6
CONTINUOUS
 62
     7
 10
-577.74377000000004
 20
289.54793999999993
 30
0.0
 11
-577.74377000000004
 21
329.30532999999991
 31
0.0
  0
LINE
  5
646
  8
0
  6
CONTINUOUS
 62
     7
 10
-577.74377000000004
 20
289.54793999999993
 30
0.0
 11
-577.74377000000004
 21
255.79057
 31
0.0
  0
LINE
  5
647
  8
0
  6
CONTINUOUS
 62
     7
 10
-769.74377000000004
 20
114.5479399999999
 30
0.0
 11
-577.74377000000004
 21
114.5479399999999
 31
0.0
  0
LINE
  5
648
  8
0
  6
CONTINUOUS
 62
     7
 10
-765.74377000000004
 20
139.5479399999999
 30
0.0
 11
-725.66503999999975
 21
139.5479399999999
 31
0.0
  0
LINE
  5
649
  8
0
  6
CONTINUOUS
 62
     7
 10
-769.74377000000004
 20
135.54795999999999
 30
0.0
 11
-769.74377000000004
 21
114.5479399999999
 31
0.0
  0
LINE
  5
64A
  8
0
  6
CONTINUOUS
 62
     7
 10
-91.736030999999997
 20
266.93953999999991
 30
0.0
 11
-75.31931299999998
 21
135.16611
 31
0.0
  0
LINE
  5
64B
  8
0
  6
CONTINUOUS
 62
     7
 10
-303.28093999999999
 20
251.5479399999999
 30
0.0
 11
-303.28093999999999
 21
147.54796999999991
 31
0.0
  0
LINE
  5
64C
  8
0
  6
CONTINUOUS
 62
     7
 10
-127.28095
 20
261.54793999999998
 30
0.0
 11
-127.28095
 21
147.54796999999991
 31
0.0
  0
LINE
  5
64D
  8
0
  6
CONTINUOUS
 62
     7
 10
-121.28095
 20
333.18279999999982
 30
0.0
 11
-121.28095
 21
213.93332000000001
 31
0.0
  0
LINE
  5
64E
  8
0
  6
DASHED
 62
     7
 10
-739.24377000000004
 20
139.5479399999999
 30
0.0
 11
-739.24377000000004
 21
114.5479399999999
 31
0.0
  0
LINE
  5
64F
  8
0
  6
DASHED
 62
     7
 10
-758.24377000000004
 20
139.5479399999999
 30
0.0
 11
-758.24377000000004
 21
114.5479399999999
 31
0.0
  0
LINE
  5
650
  8
0
  6
CENTER
 62
     7
 10
-662.46857
 20
289.54793999999993
 30
0.0
 11
-572.91132000000005
 21
289.54793999999993
 31
0.0
  0
LINE
  5
651
  8
0
  6
CENTER
 62
     7
 10
-598.7438400000002
 20
141.50835000000001
 30
0.0
 11
-598.7438400000002
 21
111.79021
 31
0.0
  0
LINE
  5
652
  8
0
  6
CENTER
 62
     7
 10
-748.74377000000004
 20
141.50835000000001
 30
0.0
 11
-748.74377000000004
 21
111.79021
 31
0.0
  0
LINE
  5
653
  8
0
  6
CONTINUOUS
 62
     7
 10
-282.28093999999999
 20
134.54793999999981
 30
0.0
 11
-148.28095999999991
 21
134.54793999999981
 31
0.0
  0
LINE
  5
654
  8
0
  6
CONTINUOUS
 62
     7
 10
-285.63540999999992
 20
129.27862999999991
 30
0.0
 11
-144.9265
 21
129.27862999999991
 31
0.0
  0
LINE
  5
655
  8
0
  6
CONTINUOUS
 62
     7
 10
-219.28095999999991
 20
418.54793999999998
 30
0.0
 11
-219.28095999999991
 21
385.04797000000002
 31
0.0
  0
LINE
  5
656
  8
0
  6
CONTINUOUS
 62
     7
 10
-211.28097999999989
 20
418.54793999999998
 30
0.0
 11
-211.28097999999989
 21
385.04797000000002
 31
0.0
  0
LINE
  5
657
  8
0
  6
CONTINUOUS
 62
     7
 10
-225.24953999999991
 20
381.16512999999992
 30
0.0
 11
-223.5687299999999
 21
387.43799000000001
 31
0.0
  0
LINE
  5
658
  8
0
  6
CONTINUOUS
 62
     7
 10
-205.31236000000001
 20
381.16519
 30
0.0
 11
-206.9931599999999
 21
387.43804999999998
 31
0.0
  0
LINE
  5
659
  8
0
  6
CONTINUOUS
 62
     7
 10
-219.2809399999999
 20
388.80941999999988
 30
0.0
 11
-222.78437999999991
 21
388.1626
 31
0.0
  0
LINE
  5
65A
  8
0
  6
CONTINUOUS
 62
     7
 10
-211.2809299999999
 20
388.80945000000003
 30
0.0
 11
-207.77753000000001
 21
388.1626
 31
0.0
  0
LINE
  5
65B
  8
0
  6
CONTINUOUS
 62
     7
 10
-708.74383999999986
 20
236.53615999999991
 30
0.0
 11
-695.74377000000004
 21
236.53615999999991
 31
0.0
  0
LINE
  5
65C
  8
0
  6
CONTINUOUS
 62
     7
 10
-708.74383999999986
 20
266.55972000000003
 30
0.0
 11
-695.74377000000004
 21
266.55972000000003
 31
0.0
  0
LINE
  5
65D
  8
0
  6
CONTINUOUS
 62
     7
 10
-708.74383999999986
 20
355.87218999999999
 30
0.0
 11
-695.74377000000004
 21
355.87218999999999
 31
0.0
  0
LINE
  5
65E
  8
0
  6
CONTINUOUS
 62
     7
 10
-708.74383999999986
 20
374.13126
 30
0.0
 11
-695.74377000000004
 21
374.13126
 31
0.0
  0
LINE
  5
65F
  8
0
  6
CONTINUOUS
 62
     7
 10
-701.82092
 20
381.33575000000002
 30
0.0
 11
-703.45605
 21
387.43801999999999
 31
0.0
  0
LINE
  5
660
  8
0
  6
CONTINUOUS
 62
     7
 10
-719.56090999999981
 20
388.048
 30
0.0
 11
-703.92669999999964
 21
388.048
 31
0.0
  0
LINE
  5
661
  8
0
  6
CONTINUOUS
 62
     7
 10
-749.50518999999986
 20
168.8083499999999
 30
0.0
 11
-725.48230000000001
 21
166.70661999999979
 31
0.0
  0
LINE
  5
662
  8
0
  6
CONTINUOUS
 62
     7
 10
-752.24377000000004
 20
171.79693999999981
 30
0.0
 11
-752.24377000000004
 21
188.54795999999999
 31
0.0
  0
LINE
  5
663
  8
0
  6
CONTINUOUS
 62
     7
 10
-757.24377000000004
 20
325.04797000000002
 30
0.0
 11
-727.56921
 21
326.08422999999999
 31
0.0
  0
LINE
  5
664
  8
0
  6
CONTINUOUS
 62
     7
 10
-757.24390000000005
 20
178.0479599999999
 30
0.0
 11
-755.13915999999983
 21
177.97445999999991
 31
0.0
  0
LINE
  5
665
  8
0
  6
CONTINUOUS
 62
     7
 10
-697.74377000000004
 20
381.47811999999999
 30
0.0
 11
-697.74377000000004
 21
381.54797000000002
 31
0.0
  0
LINE
  5
666
  8
0
  6
CONTINUOUS
 62
     7
 10
-719.24712999999997
 20
388.16266000000002
 30
0.0
 11
-711.74370999999996
 21
389.548
 31
0.0
  0
LINE
  5
667
  8
0
  6
CONTINUOUS
 62
     7
 10
-697.74377000000004
 20
381.54797000000002
 30
0.0
 11
-695.74377000000004
 21
381.54797000000002
 31
0.0
  0
LINE
  5
668
  8
0
  6
CONTINUOUS
 62
     7
 10
-720.26476999999988
 20
368.62691999999993
 30
0.0
 11
-711.22289999999998
 21
370.22122000000002
 31
0.0
  0
LINE
  5
669
  8
0
  6
CONTINUOUS
 62
     7
 10
-711.74384000000009
 20
389.548
 30
0.0
 11
-704.24036000000001
 21
388.16262999999992
 31
0.0
  0
LINE
  5
66A
  8
0
  6
CONTINUOUS
 62
     7
 10
-722.06664999999998
 20
381.04797000000002
 30
0.0
 11
-707.41112999999984
 21
381.04797000000002
 31
0.0
  0
LINE
  5
66B
  8
0
  6
CONTINUOUS
 62
     7
 10
-708.74383999999986
 20
156.32216
 30
0.0
 11
-708.74383999999986
 21
379.16259999999988
 31
0.0
  0
LINE
  5
66C
  8
0
  6
CONTINUOUS
 62
     7
 10
-722.74377000000004
 20
140.10039
 30
0.0
 11
-722.74377000000004
 21
379.54797000000002
 31
0.0
  0
LINE
  5
66D
  8
0
  6
CONTINUOUS
 62
     7
 10
-706.81353999999999
 20
381.16140999999988
 30
0.0
 11
-695.74377000000004
 21
381.54797000000002
 31
0.0
  0
LINE
  5
66E
  8
0
  6
CONTINUOUS
 62
     7
 10
-721.74377000000004
 20
381.04793999999993
 30
0.0
 11
-720.03156000000001
 21
387.43804999999998
 31
0.0
  0
LINE
  5
66F
  8
0
  6
CENTER
 62
     7
 10
-722.74377000000004
 20
215.33797000000001
 30
0.0
 11
-1024.985699999999
 21
215.33797000000001
 31
0.0
  0
LINE
  5
670
  8
0
  6
CONTINUOUS
 62
     7
 10
-835.01250999999957
 20
156.73552000000001
 30
0.0
 11
-767.89440999999988
 21
177.69396999999981
 31
0.0
  0
LINE
  5
671
  8
0
  6
CONTINUOUS
 62
     7
 10
-837.41814999999986
 20
296.71645999999993
 30
0.0
 11
-789.93688999999983
 21
298.37453999999991
 31
0.0
  0
LINE
  5
672
  8
0
  6
CONTINUOUS
 62
     7
 10
-832.24377000000004
 20
222.34106
 30
0.0
 11
-767.24377000000004
 21
222.34106
 31
0.0
  0
LINE
  5
673
  8
0
  6
CONTINUOUS
 62
     7
 10
-781.35297000000003
 20
252.48802000000001
 30
0.0
 11
-767.24377000000004
 21
225.30586
 31
0.0
  0
LINE
  5
674
  8
0
  6
CONTINUOUS
 62
     7
 10
-781.35290999999984
 20
252.48795000000001
 30
0.0
 11
-773.29138
 21
260.54950000000002
 31
0.0
  0
LINE
  5
675
  8
0
  6
CONTINUOUS
 62
     7
 10
-788.36217999999985
 20
298.42952999999989
 30
0.0
 11
-788.36217999999985
 21
267.37792999999999
 31
0.0
  0
LINE
  5
676
  8
0
  6
CONTINUOUS
 62
     7
 10
-857.24377000000004
 20
252.4879599999999
 30
0.0
 11
-781.35297000000003
 21
252.4879599999999
 31
0.0
  0
LINE
  5
677
  8
0
  6
CONTINUOUS
 62
     7
 10
-837.24377000000004
 20
217.34105999999991
 30
0.0
 11
-837.24377000000004
 21
155.89911000000001
 31
0.0
  0
LINE
  5
678
  8
0
  6
CONTINUOUS
 62
     7
 10
-787.24805000000003
 20
299.54367000000002
 30
0.0
 11
-768.41534000000001
 21
318.37637000000001
 31
0.0
  0
LINE
  5
679
  8
0
  6
CONTINUOUS
 62
     7
 10
-857.24377000000004
 20
151.33795000000001
 30
0.0
 11
-857.24377000000004
 21
279.33791999999988
 31
0.0
  0
LINE
  5
67A
  8
0
  6
CONTINUOUS
 62
     7
 10
-857.24377000000004
 20
279.33791999999988
 30
0.0
 11
-847.06921
 21
279.69324
 31
0.0
  0
LINE
  5
67B
  8
0
  6
CONTINUOUS
 62
     7
 10
-767.24377000000004
 20
314.54793999999993
 30
0.0
 11
-722.74377000000004
 21
314.54793999999993
 31
0.0
  0
LINE
  5
67C
  8
0
  6
CONTINUOUS
 62
     7
 10
-757.24377000000004
 20
177.54796999999991
 30
0.0
 11
-757.24377000000004
 21
325.54793999999998
 31
0.0
  0
LINE
  5
67D
  8
0
  6
CONTINUOUS
 62
     7
 10
-767.24377000000004
 20
180.6256699999999
 30
0.0
 11
-767.24377000000004
 21
322.29427999999967
 31
0.0
  0
LINE
  5
67E
  8
0
  6
CONTINUOUS
 62
     7
 10
-766.56262000000004
 20
177.87337999999991
 30
0.0
 11
-757.24377000000004
 21
177.5479599999999
 31
0.0
  0
LINE
  5
67F
  8
0
  6
CONTINUOUS
 62
     7
 10
-832.0693399999999
 20
184.29755
 30
0.0
 11
-770.23877000000005
 21
182.13838000000001
 31
0.0
  0
LINE
  5
680
  8
0
  6
CONTINUOUS
 62
     7
 10
-857.24370999999985
 20
151.33795000000001
 30
0.0
 11
-841.10413000000005
 21
151.9015499999999
 31
0.0
  0
LINE
  5
681
  8
0
  6
CONTINUOUS
 62
     7
 10
-842.2437699999997
 20
313.31914999999992
 30
0.0
 11
-842.2437699999997
 21
270.37792999999982
 31
0.0
  0
LINE
  5
682
  8
0
  6
CONTINUOUS
 62
     7
 10
-763.50079000000005
 20
325.32947000000001
 30
0.0
 11
-757.24377000000004
 21
325.54797000000002
 31
0.0
  0
LINE
  5
683
  8
0
  6
CONTINUOUS
 62
     7
 10
-839.34838999999988
 20
316.31732
 30
0.0
 11
-771.10419000000002
 21
318.70047
 31
0.0
  0
LINE
  5
684
  8
0
  6
CONTINUOUS
 62
     7
 10
-767.24377000000004
 20
290.36804000000001
 30
0.0
 11
-722.74377000000004
 21
290.36804000000001
 31
0.0
  0
LINE
  5
685
  8
0
  6
CONTINUOUS
 62
     7
 10
-767.24377000000004
 20
212.72787
 30
0.0
 11
-722.74377000000004
 21
212.72787
 31
0.0
  0
LINE
  5
686
  8
0
  6
CONTINUOUS
 62
     7
 10
-767.24377000000004
 20
188.54795999999999
 30
0.0
 11
-722.74377000000004
 21
188.54795999999999
 31
0.0
  0
LINE
  5
687
  8
0
  6
CONTINUOUS
 62
     7
 10
-967.24377000000015
 20
168.98799
 30
0.0
 11
-1002.2438
 21
171.01798999999991
 31
0.0
  0
LINE
  5
688
  8
0
  6
CONTINUOUS
 62
     7
 10
-967.24377000000015
 20
261.68795999999992
 30
0.0
 11
-1002.2438
 21
259.65796
 31
0.0
  0
LINE
  5
689
  8
0
  6
CONTINUOUS
 62
     3
 10
-1014.9638
 20
167.69796999999991
 30
0.0
 11
-1012.2438
 21
167.69796999999991
 31
0.0
  0
LINE
  5
68A
  8
0
  6
CONTINUOUS
 62
     3
 10
-1015.4738
 20
165.72799999999981
 30
0.0
 11
-1016.7438
 21
166.45797999999999
 31
0.0
  0
LINE
  5
68B
  8
0
  6
CONTINUOUS
 62
     3
 10
-1012.2438
 20
157.90797000000001
 30
0.0
 11
-1009.4238
 21
157.8379699999999
 31
0.0
  0
LINE
  5
68C
  8
0
  6
CONTINUOUS
 62
     3
 10
-1015.4938
 20
172.3780099999999
 30
0.0
 11
-1016.7938
 21
173.22797
 31
0.0
  0
LINE
  5
68D
  8
0
  6
CONTINUOUS
 62
     3
 10
-1015.483799999999
 20
167.83799999999991
 30
0.0
 11
-1016.7637999999999
 21
168.608
 31
0.0
  0
LINE
  5
68E
  8
0
  6
CONTINUOUS
 62
     3
 10
-1014.973799999999
 20
165.5879799999999
 30
0.0
 11
-1012.7437999999991
 21
165.5879799999999
 31
0.0
  0
LINE
  5
68F
  8
0
  6
CONTINUOUS
 62
     3
 10
-1015.0038
 20
166.7379599999999
 30
0.0
 11
-1012.7437999999991
 21
166.7379599999999
 31
0.0
  0
LINE
  5
690
  8
0
  6
CONTINUOUS
 62
     3
 10
-1015.4539
 20
166.8479599999998
 30
0.0
 11
-1016.6938
 21
167.47797
 31
0.0
  0
LINE
  5
691
  8
0
  6
CONTINUOUS
 62
     3
 10
-1014.973799999999
 20
173.3579399999999
 30
0.0
 11
-1013.2438
 21
173.3579399999999
 31
0.0
  0
LINE
  5
692
  8
0
  6
CONTINUOUS
 62
     3
 10
-1014.9437
 20
172.21796000000001
 30
0.0
 11
-1012.2438
 21
172.21796000000001
 31
0.0
  0
LINE
  5
693
  8
0
  6
CONTINUOUS
 62
     3
 10
-1014.9938
 20
168.83795000000001
 30
0.0
 11
-1013.2438
 21
168.83795000000001
 31
0.0
  0
LINE
  5
694
  8
0
  6
CONTINUOUS
 62
     3
 10
-1015.4738
 20
173.48795000000001
 30
0.0
 11
-1016.7538
 21
174.2379599999999
 31
0.0
  0
LINE
  5
695
  8
0
  6
CONTINUOUS
 62
     3
 10
-864.24377000000004
 20
151.8379799999999
 30
0.0
 11
-857.24377000000004
 21
151.8379799999999
 31
0.0
  0
LINE
  5
696
  8
0
  6
CONTINUOUS
 62
     3
 10
-864.24377000000004
 20
163.29796999999991
 30
0.0
 11
-857.24377000000004
 21
163.29796999999991
 31
0.0
  0
LINE
  5
697
  8
0
  6
CONTINUOUS
 62
     3
 10
-967.24377000000015
 20
168.98797999999991
 30
0.0
 11
-865.2438400000002
 21
168.98797999999991
 31
0.0
  0
LINE
  5
698
  8
0
  6
CONTINUOUS
 62
     3
 10
-865.5338099999999
 20
164.30794999999981
 30
0.0
 11
-867.94378999999981
 21
164.30794999999981
 31
0.0
  0
LINE
  5
699
  8
0
  6
CONTINUOUS
 62
     3
 10
-868.44379000000004
 20
156.41794999999991
 30
0.0
 11
-867.00378000000012
 21
163.11794
 31
0.0
  0
LINE
  5
69A
  8
0
  6
CONTINUOUS
 62
     3
 10
-870.53381000000002
 20
154.8379699999999
 30
0.0
 11
-865.2438400000002
 21
154.8379699999999
 31
0.0
  0
LINE
  5
69B
  8
0
  6
CONTINUOUS
 62
     3
 10
-963.24376999999981
 20
185.3379699999999
 30
0.0
 11
-875.47375
 21
185.3379699999999
 31
0.0
  0
LINE
  5
69C
  8
0
  6
CONTINUOUS
 62
     3
 10
-1007.5638
 20
181.96794
 30
0.0
 11
-959.24377000000015
 21
181.96794
 31
0.0
  0
LINE
  5
69D
  8
0
  6
CONTINUOUS
 62
     3
 10
-916.24376999999993
 20
179.3379799999999
 30
0.0
 11
-1006.6938
 21
179.3379799999999
 31
0.0
  0
LINE
  5
69E
  8
0
  6
CONTINUOUS
 62
     3
 10
-916.24376999999993
 20
178.61795000000001
 30
0.0
 11
-868.42376999999965
 21
178.61795000000001
 31
0.0
  0
LINE
  5
69F
  8
0
  6
CONTINUOUS
 62
     3
 10
-1007.5638
 20
178.61795000000001
 30
0.0
 11
-916.24376999999993
 21
178.61795000000001
 31
0.0
  0
LINE
  5
6A0
  8
0
  6
CONTINUOUS
 62
     3
 10
-1012.2438
 20
181.03796
 30
0.0
 11
-1009.0738
 21
181.03796
 31
0.0
  0
LINE
  5
6A1
  8
0
  6
CONTINUOUS
 62
     3
 10
-1006.0738
 20
157.0779599999999
 30
0.0
 11
-992.74384000000009
 21
157.0779599999999
 31
0.0
  0
LINE
  5
6A2
  8
0
  6
CONTINUOUS
 62
     3
 10
-989.24377000000004
 20
153.47794999999991
 30
0.0
 11
-872.43377999999984
 21
153.47794999999991
 31
0.0
  0
LINE
  5
6A3
  8
0
  6
CONTINUOUS
 62
     3
 10
-1006.133799999999
 20
152.03794999999991
 30
0.0
 11
-992.63379000000009
 21
152.03794999999991
 31
0.0
  0
LINE
  5
6A4
  8
0
  6
CONTINUOUS
 62
     3
 10
-1006.0137999999999
 20
162.35795999999999
 30
0.0
 11
-992.74384000000009
 21
162.35795999999999
 31
0.0
  0
LINE
  5
6A5
  8
0
  6
CONTINUOUS
 62
     3
 10
-1008.5238000000001
 20
166.98792
 30
0.0
 11
-1007.9838
 21
163.99791999999991
 31
0.0
  0
LINE
  5
6A6
  8
0
  6
CONTINUOUS
 62
     3
 10
-1015.2438
 20
172.50794999999991
 30
0.0
 11
-1015.2438
 21
172.97796999999991
 31
0.0
  0
LINE
  5
6A7
  8
0
  6
CONTINUOUS
 62
     3
 10
-1012.2438
 20
166.98797999999991
 30
0.0
 11
-1002.2438
 21
166.98797999999991
 31
0.0
  0
LINE
  5
6A8
  8
0
  6
CONTINUOUS
 62
     3
 10
-1015.2438
 20
167.93794
 30
0.0
 11
-1015.2438
 21
168.48795000000001
 31
0.0
  0
LINE
  5
6A9
  8
0
  6
CONTINUOUS
 62
     3
 10
-1015.4637
 20
168.95793
 30
0.0
 11
-1016.7138
 21
169.61794
 31
0.0
  0
LINE
  5
6AA
  8
0
  6
CONTINUOUS
 62
     3
 10
-1002.2438
 20
166.98797999999991
 30
0.0
 11
-1002.2438
 21
181.03796
 31
0.0
  0
LINE
  5
6AB
  8
0
  6
CONTINUOUS
 62
     3
 10
-1015.2438
 20
165.83795000000001
 30
0.0
 11
-1015.2438
 21
166.36796999999979
 31
0.0
  0
LINE
  5
6AC
  8
0
  6
CONTINUOUS
 62
     3
 10
-870.50378000000012
 20
154.95795000000001
 30
0.0
 11
-867.04381999999987
 21
167.87793999999991
 31
0.0
  0
LINE
  5
6AD
  8
0
  6
CONTINUOUS
 62
     3
 10
-1008.0737
 20
153.54796999999991
 30
0.0
 11
-1008.9637
 21
157.0880299999998
 31
0.0
  0
LINE
  5
6AE
  8
0
  6
CONTINUOUS
 62
     3
 10
-1008.0538
 20
155.20792
 30
0.0
 11
-1008.9738
 21
159.08792
 31
0.0
  0
LINE
  5
6AF
  8
0
  6
CONTINUOUS
 62
     3
 10
-934.24377000000015
 20
151.42797999999991
 30
0.0
 11
-934.24377000000015
 21
153.47794999999991
 31
0.0
  0
LINE
  5
6B0
  8
0
  6
CONTINUOUS
 62
     3
 10
-991.24376999999993
 20
153.44797
 30
0.0
 11
-991.24376999999993
 21
160.8579399999999
 31
0.0
  0
LINE
  5
6B1
  8
0
  6
CONTINUOUS
 62
     3
 10
-1010.4138
 20
158.21794
 30
0.0
 11
-1008.7637999999999
 21
158.21794
 31
0.0
  0
LINE
  5
6B2
  8
0
  6
CENTER
 62
     7
 10
-916.24376999999993
 20
253.93796
 30
0.0
 11
-916.24376999999993
 21
172.68797000000001
 31
0.0
  0
LINE
  5
6B3
  8
0
  6
CONTINUOUS
 62
     7
 10
-884.74376999999981
 20
183.83795000000001
 30
0.0
 11
-884.74376999999981
 21
246.83797999999999
 31
0.0
  0
LINE
  5
6B4
  8
0
  6
CONTINUOUS
 62
     3
 10
-967.24377000000015
 20
261.68792999999988
 30
0.0
 11
-865.2438400000002
 21
261.68792999999988
 31
0.0
  0
LINE
  5
6B5
  8
0
  6
CONTINUOUS
 62
     3
 10
-865.2438400000002
 20
277.83794999999992
 30
0.0
 11
-865.2438400000002
 21
152.8379699999999
 31
0.0
  0
LINE
  5
6B6
  8
0
  6
CONTINUOUS
 62
     3
 10
-884.97381999999993
 20
185.06796
 30
0.0
 11
-875.47382000000005
 21
185.33795000000001
 31
0.0
  0
LINE
  5
6B7
  8
0
  6
CONTINUOUS
 62
     3
 10
-864.24377000000004
 20
278.83794999999998
 30
0.0
 11
-857.24377000000004
 21
278.83794999999998
 31
0.0
  0
LINE
  5
6B8
  8
0
  6
CONTINUOUS
 62
     7
 10
-933.26373000000001
 20
238.33795000000001
 30
0.0
 11
-893.2437699999997
 21
238.33795000000001
 31
0.0
  0
LINE
  5
6B9
  8
0
  6
CONTINUOUS
 62
     3
 10
-865.2438400000002
 20
252.4879599999999
 30
0.0
 11
-857.24377000000004
 21
252.4879599999999
 31
0.0
  0
LINE
  5
6BA
  8
0
  6
CONTINUOUS
 62
     3
 10
-864.24377000000004
 20
267.37792999999999
 30
0.0
 11
-857.24377000000004
 21
267.37792999999999
 31
0.0
  0
LINE
  5
6BB
  8
0
  6
CONTINUOUS
 62
     3
 10
-865.2438400000002
 20
178.18796
 30
0.0
 11
-857.24377000000004
 21
178.18796
 31
0.0
  0
LINE
  5
6BC
  8
0
  6
CONTINUOUS
 62
     3
 10
-875.47375
 20
245.33797000000001
 30
0.0
 11
-875.47375
 21
185.3379699999999
 31
0.0
  0
LINE
  5
6BD
  8
0
  6
CONTINUOUS
 62
     3
 10
-1012.2438
 20
272.76796999999988
 30
0.0
 11
-1009.4238
 21
272.8379799999999
 31
0.0
  0
LINE
  5
6BE
  8
0
  6
CONTINUOUS
 62
     3
 10
-1012.2438
 20
272.7679399999999
 30
0.0
 11
-1012.2438
 21
215.33797000000001
 31
0.0
  0
LINE
  5
6BF
  8
0
  6
CONTINUOUS
 62
     3
 10
-1017.2437999999991
 20
263.35797000000002
 30
0.0
 11
-1017.2437999999991
 21
220.33797000000001
 31
0.0
  0
LINE
  5
6C0
  8
0
  6
CONTINUOUS
 62
     3
 10
-1014.973799999999
 20
265.08794999999992
 30
0.0
 11
-1012.7437999999991
 21
265.08794999999992
 31
0.0
  0
LINE
  5
6C1
  8
0
  6
CONTINUOUS
 62
     3
 10
-871.90380999999979
 20
179.3379799999999
 30
0.0
 11
-916.24376999999993
 21
179.3379799999999
 31
0.0
  0
LINE
  5
6C2
  8
0
  6
CONTINUOUS
 62
     3
 10
-1015.0438
 20
251.02797000000001
 30
0.0
 11
-1012.9438
 21
251.02797000000001
 31
0.0
  0
LINE
  5
6C3
  8
0
  6
CONTINUOUS
 62
     3
 10
-1015.4738
 20
264.95794999999998
 30
0.0
 11
-1016.7438
 21
264.21792999999991
 31
0.0
  0
LINE
  5
6C4
  8
0
  6
CONTINUOUS
 62
     3
 10
-1015.483799999999
 20
262.83794999999992
 30
0.0
 11
-1016.7637999999999
 21
262.06799000000001
 31
0.0
  0
LINE
  5
6C5
  8
0
  6
CONTINUOUS
 62
     3
 10
-1015.4938
 20
258.29797000000002
 30
0.0
 11
-1016.7938
 21
257.44796999999988
 31
0.0
  0
LINE
  5
6C6
  8
0
  6
CONTINUOUS
 62
     3
 10
-1015.4338
 20
250.94801000000001
 30
0.0
 11
-1016.6337
 21
250.43802999999991
 31
0.0
  0
LINE
  5
6C7
  8
0
  6
CONTINUOUS
 62
     3
 10
-1014.9638
 20
262.97797000000003
 30
0.0
 11
-1012.2438
 21
262.97797000000003
 31
0.0
  0
LINE
  5
6C8
  8
0
  6
CONTINUOUS
 62
     3
 10
-1014.9437
 20
258.46796000000001
 30
0.0
 11
-1012.2438
 21
258.46796000000001
 31
0.0
  0
LINE
  5
6C9
  8
0
  6
CONTINUOUS
 62
     3
 10
-1015.0938
 20
249.07796999999999
 30
0.0
 11
-1013.2438
 21
249.07796999999999
 31
0.0
  0
LINE
  5
6CA
  8
0
  6
CONTINUOUS
 62
     3
 10
-1014.973799999999
 20
257.32796999999999
 30
0.0
 11
-1013.2438
 21
257.32796999999999
 31
0.0
  0
LINE
  5
6CB
  8
0
  6
CONTINUOUS
 62
     3
 10
-1014.9938
 20
261.8379799999999
 30
0.0
 11
-1013.2438
 21
261.8379799999999
 31
0.0
  0
LINE
  5
6CC
  8
0
  6
CONTINUOUS
 62
     3
 10
-1015.0038
 20
263.93795999999992
 30
0.0
 11
-1012.7437999999991
 21
263.93795999999992
 31
0.0
  0
LINE
  5
6CD
  8
0
  6
CONTINUOUS
 62
     3
 10
-1015.4738
 20
257.18792999999982
 30
0.0
 11
-1016.7538
 21
256.43792999999999
 31
0.0
  0
LINE
  5
6CE
  8
0
  6
CONTINUOUS
 62
     3
 10
-1015.3839
 20
249.03789
 30
0.0
 11
-1016.5339
 21
248.68787999999989
 31
0.0
  0
LINE
  5
6CF
  8
0
  6
CONTINUOUS
 62
     3
 10
-1015.4537
 20
263.83801
 30
0.0
 11
-1016.6938
 21
263.20797999999991
 31
0.0
  0
LINE
  5
6D0
  8
0
  6
CONTINUOUS
 62
     3
 10
-1015.4637
 20
261.72800000000001
 30
0.0
 11
-1016.7139
 21
261.05795000000001
 31
0.0
  0
LINE
  5
6D1
  8
0
  6
CONTINUOUS
 62
     3
 10
-1013.2438
 20
241.33795000000001
 30
0.0
 11
-1016.2438
 21
241.33795000000001
 31
0.0
  0
LINE
  5
6D2
  8
0
  6
CONTINUOUS
 62
     3
 10
-1013.2438
 20
239.3379799999999
 30
0.0
 11
-1016.2438
 21
239.3379799999999
 31
0.0
  0
LINE
  5
6D3
  8
0
  6
CONTINUOUS
 62
     3
 10
-1013.2438
 20
231.33794999999989
 30
0.0
 11
-1016.2438
 21
231.33794999999989
 31
0.0
  0
LINE
  5
6D4
  8
0
  6
CONTINUOUS
 62
     3
 10
-1013.2438
 20
229.3379799999999
 30
0.0
 11
-1016.2438
 21
229.3379799999999
 31
0.0
  0
LINE
  5
6D5
  8
0
  6
CONTINUOUS
 62
     3
 10
-1013.2438
 20
221.33795000000001
 30
0.0
 11
-1016.2438
 21
221.33795000000001
 31
0.0
  0
LINE
  5
6D6
  8
0
  6
CONTINUOUS
 62
     3
 10
-1013.2438
 20
219.3379799999999
 30
0.0
 11
-1016.2438
 21
219.3379799999999
 31
0.0
  0
LINE
  5
6D7
  8
0
  6
CONTINUOUS
 62
     3
 10
-1015.2438
 20
230.94797
 30
0.0
 11
-1015.2438
 21
229.73795000000001
 31
0.0
  0
LINE
  5
6D8
  8
0
  6
CONTINUOUS
 62
     3
 10
-1015.2438
 20
220.94797
 30
0.0
 11
-1015.2438
 21
219.78795999999991
 31
0.0
  0
LINE
  5
6D9
  8
0
  6
CONTINUOUS
 62
     3
 10
-1015.2438
 20
240.96796000000001
 30
0.0
 11
-1015.2438
 21
239.59795
 31
0.0
  0
LINE
  5
6DA
  8
0
  6
CONTINUOUS
 62
     3
 10
-1015.2438
 20
250.7279799999998
 30
0.0
 11
-1015.2438
 21
249.66794999999991
 31
0.0
  0
LINE
  5
6DB
  8
0
  6
CONTINUOUS
 62
     3
 10
-1015.2438
 20
258.16797000000003
 30
0.0
 11
-1015.2438
 21
257.69796999999983
 31
0.0
  0
LINE
  5
6DC
  8
0
  6
CONTINUOUS
 62
     3
 10
-1015.2438
 20
262.73797999999988
 30
0.0
 11
-1015.2438
 21
262.18795999999992
 31
0.0
  0
LINE
  5
6DD
  8
0
  6
CONTINUOUS
 62
     3
 10
-1015.2438
 20
264.83794999999992
 30
0.0
 11
-1015.2438
 21
264.30795000000001
 31
0.0
  0
LINE
  5
6DE
  8
0
  6
CONTINUOUS
 62
     3
 10
-1018.7437999999991
 20
235.33797000000001
 30
0.0
 11
-1018.7437999999991
 21
215.33797000000001
 31
0.0
  0
LINE
  5
6DF
  8
0
  6
CONTINUOUS
 62
     3
 10
-1018.7437999999991
 20
235.33794999999989
 30
0.0
 11
-1017.2437999999991
 21
235.46794
 31
0.0
  0
LINE
  5
6E0
  8
0
  6
CONTINUOUS
 62
     3
 10
-1018.7437999999991
 20
232.61797000000001
 30
0.0
 11
-1017.2437999999991
 21
232.61797000000001
 31
0.0
  0
LINE
  5
6E1
  8
0
  6
CONTINUOUS
 62
     7
 10
-939.24377000000004
 20
192.3379699999999
 30
0.0
 11
-899.22374999999988
 21
192.3379699999999
 31
0.0
  0
LINE
  5
6E2
  8
0
  6
CONTINUOUS
 62
     7
 10
-964.74377000000015
 20
246.83797999999999
 30
0.0
 11
-959.24377000000015
 21
246.83797999999999
 31
0.0
  0
LINE
  5
6E3
  8
0
  6
CONTINUOUS
 62
     7
 10
-964.74377000000015
 20
183.83795000000001
 30
0.0
 11
-964.74377000000015
 21
207.8379699999999
 31
0.0
  0
LINE
  5
6E4
  8
0
  6
CONTINUOUS
 62
     7
 10
-938.74377000000015
 20
235.77794999999989
 30
0.0
 11
-938.74377000000015
 21
239.7979599999999
 31
0.0
  0
LINE
  5
6E5
  8
0
  6
CONTINUOUS
 62
     7
 10
-964.74377000000015
 20
183.83795000000001
 30
0.0
 11
-959.24377000000015
 21
183.83795000000001
 31
0.0
  0
LINE
  5
6E6
  8
0
  6
CONTINUOUS
 62
     7
 10
-893.74377000000004
 20
190.77795
 30
0.0
 11
-893.74377000000004
 21
194.80795000000001
 31
0.0
  0
LINE
  5
6E7
  8
0
  6
CONTINUOUS
 62
     3
 10
-1002.2438
 20
263.68795999999992
 30
0.0
 11
-1002.2438
 21
249.64796000000001
 31
0.0
  0
LINE
  5
6E8
  8
0
  6
CONTINUOUS
 62
     3
 10
-1012.2438
 20
249.64796000000001
 30
0.0
 11
-1002.2438
 21
249.64796000000001
 31
0.0
  0
LINE
  5
6E9
  8
0
  6
CONTINUOUS
 62
     3
 10
-1012.2438
 20
258.02794999999992
 30
0.0
 11
-1002.2438
 21
258.02794999999992
 31
0.0
  0
LINE
  5
6EA
  8
0
  6
CONTINUOUS
 62
     3
 10
-1012.2438
 20
263.68795999999992
 30
0.0
 11
-1002.2438
 21
263.68795999999992
 31
0.0
  0
LINE
  5
6EB
  8
0
  6
CONTINUOUS
 62
     7
 10
-893.2437699999997
 20
198.31795999999991
 30
0.0
 11
-893.2437699999997
 21
238.33795000000001
 31
0.0
  0
LINE
  5
6EC
  8
0
  6
CONTINUOUS
 62
     7
 10
-944.24377000000015
 20
181.8379799999999
 30
0.0
 11
-944.24377000000015
 21
185.3379699999999
 31
0.0
  0
LINE
  5
6ED
  8
0
  6
CONTINUOUS
 62
     7
 10
-895.87378000000012
 20
192.8379699999999
 30
0.0
 11
-891.66381999999987
 21
192.8379699999999
 31
0.0
  0
LINE
  5
6EE
  8
0
  6
CONTINUOUS
 62
     7
 10
-934.04375999999991
 20
233.13794999999999
 30
0.0
 11
-898.44379000000015
 21
233.13794999999999
 31
0.0
  0
LINE
  5
6EF
  8
0
  6
CONTINUOUS
 62
     7
 10
-934.04375999999991
 20
197.53797999999981
 30
0.0
 11
-898.44379000000015
 21
197.53797999999981
 31
0.0
  0
LINE
  5
6F0
  8
0
  6
CONTINUOUS
 62
     7
 10
-898.44379000000015
 20
197.53797999999981
 30
0.0
 11
-898.44379000000015
 21
233.13794999999999
 31
0.0
  0
LINE
  5
6F1
  8
0
  6
CONTINUOUS
 62
     7
 10
-934.04375999999991
 20
197.53797999999981
 30
0.0
 11
-934.04375999999991
 21
233.13794999999999
 31
0.0
  0
LINE
  5
6F2
  8
0
  6
CONTINUOUS
 62
     7
 10
-963.24376999999981
 20
245.33797000000001
 30
0.0
 11
-875.47375
 21
245.33797000000001
 31
0.0
  0
LINE
  5
6F3
  8
0
  6
CONTINUOUS
 62
     7
 10
-944.24377000000015
 20
246.83797999999999
 30
0.0
 11
-884.74376999999981
 21
246.83797999999999
 31
0.0
  0
LINE
  5
6F4
  8
0
  6
CONTINUOUS
 62
     7
 10
-944.24377000000015
 20
183.83795000000001
 30
0.0
 11
-884.74376999999981
 21
183.83795000000001
 31
0.0
  0
LINE
  5
6F5
  8
0
  6
CONTINUOUS
 62
     7
 10
-886.24376999999993
 20
185.3379699999999
 30
0.0
 11
-886.24376999999993
 21
245.33797000000001
 31
0.0
  0
LINE
  5
6F6
  8
0
  6
CONTINUOUS
 62
     7
 10
-963.24376999999981
 20
185.3379699999999
 30
0.0
 11
-963.24376999999981
 21
245.33797000000001
 31
0.0
  0
LINE
  5
6F7
  8
0
  6
CONTINUOUS
 62
     3
 10
-964.74377000000015
 20
201.33795000000001
 30
0.0
 11
-1006.6938
 21
201.33795000000001
 31
0.0
  0
LINE
  5
6F8
  8
0
  6
CONTINUOUS
 62
     7
 10
-959.24377000000015
 20
248.83795000000001
 30
0.0
 11
-959.24377000000015
 21
245.33797000000001
 31
0.0
  0
LINE
  5
6F9
  8
0
  6
CONTINUOUS
 62
     7
 10
-966.74376999999981
 20
222.83797000000001
 30
0.0
 11
-963.24376999999981
 21
222.83797000000001
 31
0.0
  0
LINE
  5
6FA
  8
0
  6
CONTINUOUS
 62
     7
 10
-966.74376999999981
 20
207.8379699999999
 30
0.0
 11
-966.74376999999981
 21
222.83797000000001
 31
0.0
  0
LINE
  5
6FB
  8
0
  6
CONTINUOUS
 62
     7
 10
-966.74376999999981
 20
207.8379699999999
 30
0.0
 11
-963.24376999999981
 21
207.8379699999999
 31
0.0
  0
LINE
  5
6FC
  8
0
  6
CONTINUOUS
 62
     7
 10
-959.24377000000015
 20
181.8379799999999
 30
0.0
 11
-959.24377000000015
 21
185.3379699999999
 31
0.0
  0
LINE
  5
6FD
  8
0
  6
CONTINUOUS
 62
     3
 10
-989.24377000000004
 20
277.19797
 30
0.0
 11
-872.43377999999984
 21
277.19797
 31
0.0
  0
LINE
  5
6FE
  8
0
  6
CONTINUOUS
 62
     3
 10
-1006.0137999999999
 20
268.31796000000003
 30
0.0
 11
-992.74384000000009
 21
268.31796000000003
 31
0.0
  0
LINE
  5
6FF
  8
0
  6
CONTINUOUS
 62
     3
 10
-1008.5238000000001
 20
263.68799000000001
 30
0.0
 11
-1007.9838
 21
266.67797999999999
 31
0.0
  0
LINE
  5
700
  8
0
  6
CONTINUOUS
 62
     3
 10
-1006.0738
 20
273.60793999999999
 30
0.0
 11
-992.74384000000009
 21
273.60793999999999
 31
0.0
  0
LINE
  5
701
  8
0
  6
CONTINUOUS
 62
     7
 10
-944.24377000000015
 20
181.8379799999999
 30
0.0
 11
-959.24377000000015
 21
181.8379799999999
 31
0.0
  0
LINE
  5
702
  8
0
  6
CONTINUOUS
 62
     3
 10
-1006.103799999998
 20
277.00797
 30
0.0
 11
-992.74384000000009
 21
277.00797
 31
0.0
  0
LINE
  5
703
  8
0
  6
CONTINUOUS
 62
     3
 10
-1006.133799999999
 20
278.63796999999988
 30
0.0
 11
-992.63379000000009
 21
278.63796999999988
 31
0.0
  0
LINE
  5
704
  8
0
  6
CONTINUOUS
 62
     3
 10
-989.24377000000004
 20
281.25792999999987
 30
0.0
 11
-936.24377000000004
 21
281.25792999999987
 31
0.0
  0
LINE
  5
705
  8
0
  6
CONTINUOUS
 62
     3
 10
-989.24377000000004
 20
280.57794000000001
 30
0.0
 11
-936.24377000000004
 21
280.57794000000001
 31
0.0
  0
LINE
  5
706
  8
0
  6
CONTINUOUS
 62
     3
 10
-989.24377000000004
 20
279.22797000000003
 30
0.0
 11
-936.24377000000004
 21
279.22797000000003
 31
0.0
  0
LINE
  5
707
  8
0
  6
CONTINUOUS
 62
     3
 10
-1010.4538
 20
266.37795999999992
 30
0.0
 11
-1008.0438
 21
266.37795999999992
 31
0.0
  0
LINE
  5
708
  8
0
  6
CONTINUOUS
 62
     3
 10
-1008.0337
 20
272.02791999999982
 30
0.0
 11
-1008.9937
 21
267.55794999999989
 31
0.0
  0
LINE
  5
709
  8
0
  6
CONTINUOUS
 62
     3
 10
-1010.4338
 20
270.43792999999982
 30
0.0
 11
-1008.3737999999991
 21
270.43792999999982
 31
0.0
  0
LINE
  5
70A
  8
0
  6
CONTINUOUS
 62
     3
 10
-871.90380999999979
 20
251.33795000000001
 30
0.0
 11
-997.69379000000015
 21
251.33795000000001
 31
0.0
  0
LINE
  5
70B
  8
0
  6
CONTINUOUS
 62
     3
 10
-871.90380999999979
 20
249.33797999999999
 30
0.0
 11
-997.69379000000015
 21
249.33797999999999
 31
0.0
  0
LINE
  5
70C
  8
0
  6
CONTINUOUS
 62
     3
 10
-964.74377000000015
 20
241.33795000000001
 30
0.0
 11
-997.69379000000015
 21
241.33795000000001
 31
0.0
  0
LINE
  5
70D
  8
0
  6
CONTINUOUS
 62
     3
 10
-1008.0538
 20
275.46796000000001
 30
0.0
 11
-1008.9738
 21
271.58794999999992
 31
0.0
  0
LINE
  5
70E
  8
0
  6
CONTINUOUS
 62
     3
 10
-964.74377000000015
 20
239.3379799999999
 30
0.0
 11
-997.69379000000015
 21
239.3379799999999
 31
0.0
  0
LINE
  5
70F
  8
0
  6
CONTINUOUS
 62
     3
 10
-1010.4138
 20
272.45797999999968
 30
0.0
 11
-1008.7637999999999
 21
272.45797999999968
 31
0.0
  0
LINE
  5
710
  8
0
  6
CONTINUOUS
 62
     3
 10
-1008.0738
 20
277.12795999999992
 30
0.0
 11
-1008.9638
 21
273.59795999999972
 31
0.0
  0
LINE
  5
711
  8
0
  6
CONTINUOUS
 62
     3
 10
-964.74377000000015
 20
231.33794999999989
 30
0.0
 11
-1006.6938
 21
231.33794999999989
 31
0.0
  0
LINE
  5
712
  8
0
  6
CONTINUOUS
 62
     3
 10
-991.24376999999993
 20
277.22793999999982
 30
0.0
 11
-991.24376999999993
 21
269.81796000000003
 31
0.0
  0
LINE
  5
713
  8
0
  6
CONTINUOUS
 62
     3
 10
-964.74377000000015
 20
229.3379799999999
 30
0.0
 11
-1006.6938
 21
229.3379799999999
 31
0.0
  0
LINE
  5
714
  8
0
  6
CONTINUOUS
 62
     3
 10
-966.74376999999981
 20
221.33795000000001
 30
0.0
 11
-1006.6938
 21
221.33795000000001
 31
0.0
  0
LINE
  5
715
  8
0
  6
CONTINUOUS
 62
     3
 10
-934.24377000000015
 20
279.25792999999987
 30
0.0
 11
-934.24377000000015
 21
277.19797
 31
0.0
  0
LINE
  5
716
  8
0
  6
CONTINUOUS
 62
     3
 10
-966.74376999999981
 20
219.3379799999999
 30
0.0
 11
-1006.6938
 21
219.3379799999999
 31
0.0
  0
LINE
  5
717
  8
0
  6
CONTINUOUS
 62
     3
 10
-870.50378000000012
 20
275.71798999999999
 30
0.0
 11
-867.04375999999968
 21
262.79793999999998
 31
0.0
  0
LINE
  5
718
  8
0
  6
CONTINUOUS
 62
     3
 10
-870.53381000000002
 20
275.83794999999992
 30
0.0
 11
-865.2438400000002
 21
275.83794999999992
 31
0.0
  0
LINE
  5
719
  8
0
  6
CONTINUOUS
 62
     3
 10
-865.5338099999999
 20
266.37795999999992
 30
0.0
 11
-867.94378999999981
 21
266.37795999999992
 31
0.0
  0
LINE
  5
71A
  8
0
  6
CONTINUOUS
 62
     3
 10
-868.44372999999985
 20
274.25796999999972
 30
0.0
 11
-867.0037199999997
 21
267.55797999999987
 31
0.0
  0
LINE
  5
71B
  8
0
  6
CONTINUOUS
 62
     3
 10
-1012.2438
 20
157.90796
 30
0.0
 11
-1012.2438
 21
215.33797000000001
 31
0.0
  0
LINE
  5
71C
  8
0
  6
CONTINUOUS
 62
     3
 10
-1017.2437999999991
 20
166.74796000000001
 30
0.0
 11
-1017.2437999999991
 21
210.33797000000001
 31
0.0
  0
LINE
  5
71D
  8
0
  6
CONTINUOUS
 62
     3
 10
-1015.0438
 20
179.64796000000001
 30
0.0
 11
-1012.9438
 21
179.64796000000001
 31
0.0
  0
LINE
  5
71E
  8
0
  6
CONTINUOUS
 62
     3
 10
-1015.433699999998
 20
179.72794999999991
 30
0.0
 11
-1016.633799999999
 21
180.24797000000001
 31
0.0
  0
LINE
  5
71F
  8
0
  6
CONTINUOUS
 62
     3
 10
-1015.0938
 20
181.59796
 30
0.0
 11
-1013.2438
 21
181.59796
 31
0.0
  0
LINE
  5
720
  8
0
  6
CONTINUOUS
 62
     3
 10
-1015.3838
 20
181.63799
 30
0.0
 11
-1016.5338
 21
181.99797000000001
 31
0.0
  0
LINE
  5
721
  8
0
  6
CONTINUOUS
 62
     3
 10
-1013.2438
 20
189.3379799999999
 30
0.0
 11
-1016.2438
 21
189.3379799999999
 31
0.0
  0
LINE
  5
722
  8
0
  6
CONTINUOUS
 62
     3
 10
-1013.2438
 20
191.33794999999981
 30
0.0
 11
-1016.2438
 21
191.33794999999981
 31
0.0
  0
LINE
  5
723
  8
0
  6
CONTINUOUS
 62
     3
 10
-1013.2438
 20
199.3379799999999
 30
0.0
 11
-1016.2438
 21
199.3379799999999
 31
0.0
  0
LINE
  5
724
  8
0
  6
CONTINUOUS
 62
     3
 10
-1013.2438
 20
201.33795000000001
 30
0.0
 11
-1016.2438
 21
201.33795000000001
 31
0.0
  0
LINE
  5
725
  8
0
  6
CONTINUOUS
 62
     3
 10
-1013.2438
 20
209.33797999999999
 30
0.0
 11
-1016.2438
 21
209.33797999999999
 31
0.0
  0
LINE
  5
726
  8
0
  6
CONTINUOUS
 62
     3
 10
-1013.2438
 20
211.33795000000001
 30
0.0
 11
-1016.2438
 21
211.33795000000001
 31
0.0
  0
LINE
  5
727
  8
0
  6
CONTINUOUS
 62
     3
 10
-1015.2438
 20
199.72794999999991
 30
0.0
 11
-1015.2438
 21
200.94796999999991
 31
0.0
  0
LINE
  5
728
  8
0
  6
CONTINUOUS
 62
     3
 10
-1015.2438
 20
209.72794999999991
 30
0.0
 11
-1015.2438
 21
210.88797
 31
0.0
  0
LINE
  5
729
  8
0
  6
CONTINUOUS
 62
     3
 10
-1015.2438
 20
189.7079599999999
 30
0.0
 11
-1015.2438
 21
191.07796999999991
 31
0.0
  0
LINE
  5
72A
  8
0
  6
CONTINUOUS
 62
     3
 10
-1015.2438
 20
179.94794999999991
 30
0.0
 11
-1015.2438
 21
181.00798
 31
0.0
  0
LINE
  5
72B
  8
0
  6
CONTINUOUS
 62
     3
 10
-1018.7437999999991
 20
195.3379699999999
 30
0.0
 11
-1018.7437999999991
 21
215.33797000000001
 31
0.0
  0
LINE
  5
72C
  8
0
  6
CONTINUOUS
 62
     3
 10
-1018.7437999999991
 20
195.3379699999999
 30
0.0
 11
-1017.2437999999991
 21
195.20797999999991
 31
0.0
  0
LINE
  5
72D
  8
0
  6
CONTINUOUS
 62
     3
 10
-1018.7437999999991
 20
198.05795000000001
 30
0.0
 11
-1017.2437999999991
 21
198.05795000000001
 31
0.0
  0
LINE
  5
72E
  8
0
  6
CONTINUOUS
 62
     3
 10
-989.24377000000004
 20
149.41797
 30
0.0
 11
-936.24377000000004
 21
149.41797
 31
0.0
  0
LINE
  5
72F
  8
0
  6
CONTINUOUS
 62
     3
 10
-1006.103799999998
 20
153.66797
 30
0.0
 11
-992.74384000000009
 21
153.66797
 31
0.0
  0
LINE
  5
730
  8
0
  6
CONTINUOUS
 62
     3
 10
-1012.2438
 20
172.64795000000001
 30
0.0
 11
-1002.2438
 21
172.64795000000001
 31
0.0
  0
LINE
  5
731
  8
0
  6
CONTINUOUS
 62
     3
 10
-989.24377000000004
 20
150.09798000000001
 30
0.0
 11
-936.24377000000004
 21
150.09798000000001
 31
0.0
  0
LINE
  5
732
  8
0
  6
CONTINUOUS
 62
     3
 10
-1010.4338
 20
160.23797999999999
 30
0.0
 11
-1008.3737999999991
 21
160.23797999999999
 31
0.0
  0
LINE
  5
733
  8
0
  6
CONTINUOUS
 62
     3
 10
-1010.4538
 20
164.30794999999981
 30
0.0
 11
-1008.0438
 21
164.30794999999981
 31
0.0
  0
LINE
  5
734
  8
0
  6
CONTINUOUS
 62
     3
 10
-1008.0338
 20
158.65793999999991
 30
0.0
 11
-1008.9937
 21
163.11796999999979
 31
0.0
  0
LINE
  5
735
  8
0
  6
CONTINUOUS
 62
     3
 10
-989.24377000000004
 20
151.44797
 30
0.0
 11
-936.24377000000004
 21
151.44797
 31
0.0
  0
LINE
  5
736
  8
0
  6
CONTINUOUS
 62
     3
 10
-1007.7838
 20
188.84797999999981
 30
0.0
 11
-964.74377000000015
 21
188.84797999999981
 31
0.0
  0
LINE
  5
737
  8
0
  6
CONTINUOUS
 62
     3
 10
-916.24376999999993
 20
181.33795000000001
 30
0.0
 11
-1006.2538
 21
181.33795000000001
 31
0.0
  0
LINE
  5
738
  8
0
  6
CONTINUOUS
 62
     3
 10
-998.56384000000003
 20
252.05797000000001
 30
0.0
 11
-868.42376999999965
 21
252.05797000000001
 31
0.0
  0
LINE
  5
739
  8
0
  6
CONTINUOUS
 62
     3
 10
-998.56384000000003
 20
248.70797999999999
 30
0.0
 11
-959.24377000000015
 21
248.70797999999999
 31
0.0
  0
LINE
  5
73A
  8
0
  6
CONTINUOUS
 62
     3
 10
-998.78375000000005
 20
241.8279399999999
 30
0.0
 11
-964.74377000000015
 21
241.8279399999999
 31
0.0
  0
LINE
  5
73B
  8
0
  6
CONTINUOUS
 62
     3
 10
-998.78375000000005
 20
238.89795000000001
 30
0.0
 11
-964.74377000000015
 21
238.89795000000001
 31
0.0
  0
LINE
  5
73C
  8
0
  6
CONTINUOUS
 62
     3
 10
-1007.9138
 20
231.6779499999999
 30
0.0
 11
-964.74377000000015
 21
231.6779499999999
 31
0.0
  0
LINE
  5
73D
  8
0
  6
CONTINUOUS
 62
     3
 10
-1007.9138
 20
229.01795999999999
 30
0.0
 11
-964.74377000000015
 21
229.01795999999999
 31
0.0
  0
LINE
  5
73E
  8
0
  6
CONTINUOUS
 62
     3
 10
-1007.9738
 20
221.60795999999999
 30
0.0
 11
-966.74376999999981
 21
221.60795999999999
 31
0.0
  0
LINE
  5
73F
  8
0
  6
CONTINUOUS
 62
     3
 10
-1007.9738
 20
219.07796999999991
 30
0.0
 11
-966.74376999999981
 21
219.07796999999991
 31
0.0
  0
LINE
  5
740
  8
0
  6
CONTINUOUS
 62
     3
 10
-991.24376999999993
 20
252.5779399999999
 30
0.0
 11
-991.24376999999993
 21
252.50794999999991
 31
0.0
  0
LINE
  5
741
  8
0
  6
CONTINUOUS
 62
     3
 10
-868.42376999999965
 20
248.70797999999999
 30
0.0
 11
-884.94372999999985
 21
248.70797999999999
 31
0.0
  0
LINE
  5
742
  8
0
  6
CONTINUOUS
 62
     3
 10
-885.94379000000015
 20
247.70796000000001
 30
0.0
 11
-885.94379000000015
 21
246.60795999999999
 31
0.0
  0
LINE
  5
743
  8
0
  6
CONTINUOUS
 62
     3
 10
-884.97374999999988
 20
245.6079399999999
 30
0.0
 11
-875.47382000000005
 21
245.33794
 31
0.0
  0
LINE
  5
744
  8
0
  6
CONTINUOUS
 62
     3
 10
-1007.9738
 20
211.60795999999991
 30
0.0
 11
-966.74376999999981
 21
211.60795999999991
 31
0.0
  0
LINE
  5
745
  8
0
  6
CONTINUOUS
 62
     3
 10
-966.74376999999981
 20
209.33797999999999
 30
0.0
 11
-1006.6938
 21
209.33797999999999
 31
0.0
  0
LINE
  5
746
  8
0
  6
CONTINUOUS
 62
     3
 10
-966.74376999999981
 20
211.33795000000001
 30
0.0
 11
-1006.6938
 21
211.33795000000001
 31
0.0
  0
LINE
  5
747
  8
0
  6
CONTINUOUS
 62
     7
 10
-959.24377000000015
 20
248.83795000000001
 30
0.0
 11
-944.24377000000015
 21
248.83795000000001
 31
0.0
  0
LINE
  5
748
  8
0
  6
CONTINUOUS
 62
     7
 10
-944.24377000000015
 20
248.83795000000001
 30
0.0
 11
-944.24377000000015
 21
245.33797000000001
 31
0.0
  0
LINE
  5
749
  8
0
  6
CONTINUOUS
 62
     3
 10
-1007.9138
 20
201.65796
 30
0.0
 11
-964.74377000000015
 21
201.65796
 31
0.0
  0
LINE
  5
74A
  8
0
  6
CONTINUOUS
 62
     3
 10
-1018.7437999999991
 20
230.48795999999999
 30
0.0
 11
-1014.4638
 21
230.48795999999999
 31
0.0
  0
LINE
  5
74B
  8
0
  6
CONTINUOUS
 62
     3
 10
-868.42376999999965
 20
181.96794
 30
0.0
 11
-884.94372999999985
 21
181.96794
 31
0.0
  0
LINE
  5
74C
  8
0
  6
CONTINUOUS
 62
     3
 10
-885.94379000000015
 20
182.96796999999981
 30
0.0
 11
-885.94379000000015
 21
184.06798000000001
 31
0.0
  0
LINE
  5
74D
  8
0
  6
CONTINUOUS
 62
     3
 10
-964.74377000000015
 20
199.3379799999999
 30
0.0
 11
-1006.6938
 21
199.3379799999999
 31
0.0
  0
LINE
  5
74E
  8
0
  6
CONTINUOUS
 62
     3
 10
-1007.9138
 20
198.99797000000001
 30
0.0
 11
-964.74377000000015
 21
198.99797000000001
 31
0.0
  0
LINE
  5
74F
  8
0
  6
CONTINUOUS
 62
     3
 10
-964.74377000000015
 20
191.33794999999981
 30
0.0
 11
-1006.6938
 21
191.33794999999981
 31
0.0
  0
LINE
  5
750
  8
0
  6
CONTINUOUS
 62
     3
 10
-1007.7838
 20
191.7779699999999
 30
0.0
 11
-964.74377000000015
 21
191.7779699999999
 31
0.0
  0
LINE
  5
751
  8
0
  6
CONTINUOUS
 62
     3
 10
-964.74377000000015
 20
189.3379799999999
 30
0.0
 11
-1006.6938
 21
189.3379799999999
 31
0.0
  0
LINE
  5
752
  8
0
  6
CONTINUOUS
 62
     3
 10
-871.90380999999979
 20
181.33795000000001
 30
0.0
 11
-916.24376999999993
 21
181.33795000000001
 31
0.0
  0
LINE
  5
753
  8
0
  6
CONTINUOUS
 62
     3
 10
-1007.9738
 20
209.06798000000001
 30
0.0
 11
-966.74376999999981
 21
209.06798000000001
 31
0.0
  0
LINE
  5
754
  8
0
  6
CONTINUOUS
 62
     3
 10
-1018.7437999999991
 20
200.18796999999989
 30
0.0
 11
-1014.1638
 21
200.18796999999989
 31
0.0
  0
LINE
  5
755
  8
0
  6
CONTINUOUS
 62
     7
 10
-940.87378000000001
 20
237.8379699999999
 30
0.0
 11
-936.66381999999965
 21
237.8379699999999
 31
0.0
  0
LINE
  5
756
  8
0
  6
CONTINUOUS
 62
     7
 10
-964.74377000000015
 20
222.83797000000001
 30
0.0
 11
-964.74377000000015
 21
246.83797999999999
 31
0.0
  0
LINE
  5
757
  8
0
  6
CONTINUOUS
 62
     7
 10
-939.24377000000004
 20
192.3379699999999
 30
0.0
 11
-939.24377000000004
 21
232.35795999999991
 31
0.0
  0
LINE
  5
758
  8
0
  6
CONTINUOUS
 62
     7
 10
-767.24377000000004
 20
616.61255000000006
 30
0.0
 11
-767.24377000000004
 21
757.12005999999985
 31
0.0
  0
LINE
  5
759
  8
0
  6
CONTINUOUS
 62
     7
 10
-757.2438400000002
 20
760.36632999999983
 30
0.0
 11
-764.34844999999984
 21
760.11822999999958
 31
0.0
  0
LINE
  5
75A
  8
0
  6
CONTINUOUS
 62
     7
 10
-757.2438400000002
 20
613.36626999999999
 30
0.0
 11
-764.34844999999984
 21
613.61437999999998
 31
0.0
  0
LINE
  5
75B
  8
0
  6
CONTINUOUS
 62
     7
 10
-757.24377000000004
 20
625.28765999999985
 30
0.0
 11
-767.24377000000004
 21
625.28765999999985
 31
0.0
  0
LINE
  5
75C
  8
0
  6
CONTINUOUS
 62
     7
 10
-757.24377000000004
 20
647.39160000000004
 30
0.0
 11
-767.24377000000004
 21
647.39160000000004
 31
0.0
  0
LINE
  5
75D
  8
0
  6
CONTINUOUS
 62
     7
 10
-757.24377000000004
 20
726.34094000000005
 30
0.0
 11
-767.24377000000004
 21
726.34094000000005
 31
0.0
  0
LINE
  5
75E
  8
0
  6
CONTINUOUS
 62
     7
 10
-757.24377000000004
 20
748.44494999999984
 30
0.0
 11
-767.24377000000004
 21
748.44494999999984
 31
0.0
  0
LINE
  5
75F
  8
0
  6
CONTINUOUS
 62
     7
 10
-857.24377000000004
 20
622.86632999999995
 30
0.0
 11
-857.24377000000004
 21
750.86632999999983
 31
0.0
  0
LINE
  5
760
  8
0
  6
CONTINUOUS
 62
     7
 10
-770.13909999999998
 20
619.82457999999986
 30
0.0
 11
-857.24377000000004
 21
622.86632999999995
 31
0.0
  0
LINE
  5
761
  8
0
  6
CONTINUOUS
 62
     7
 10
-770.13904000000002
 20
753.90807999999981
 30
0.0
 11
-857.24370999999985
 21
750.86632999999983
 31
0.0
  0
LINE
  5
762
  8
0
  6
CONTINUOUS
 62
     7
 10
-842.2437699999997
 20
644.54358000000002
 30
0.0
 11
-842.2437699999997
 21
729.72490999999945
 31
0.0
  0
LINE
  5
763
  8
0
  6
CONTINUOUS
 62
     7
 10
-770.13909999999998
 20
704.38427999999999
 30
0.0
 11
-839.34850999999969
 21
701.96740999999975
 31
0.0
  0
LINE
  5
764
  8
0
  6
CONTINUOUS
 62
     7
 10
-770.13909999999998
 20
669.34838999999999
 30
0.0
 11
-839.34844999999973
 21
671.76526000000001
 31
0.0
  0
LINE
  5
765
  8
0
  6
CONTINUOUS
 62
     7
 10
-857.24377000000004
 20
738.36632999999983
 30
0.0
 11
-776.16943000000003
 21
738.36632999999983
 31
0.0
  0
LINE
  5
766
  8
0
  6
CONTINUOUS
 62
     7
 10
-857.24377000000004
 20
635.36596999999995
 30
0.0
 11
-776.16918999999984
 21
635.36596999999995
 31
0.0
  0
LINE
  5
767
  8
0
  6
CONTINUOUS
 62
     7
 10
-857.24377000000004
 20
648.81140000000016
 30
0.0
 11
-842.2437699999997
 21
648.81140000000016
 31
0.0
  0
LINE
  5
768
  8
0
  6
CONTINUOUS
 62
     7
 10
-857.24377000000004
 20
725.72559000000001
 30
0.0
 11
-842.2437699999997
 21
725.72559000000001
 31
0.0
  0
LINE
  5
769
  8
0
  6
CONTINUOUS
 62
     7
 10
-842.2437699999997
 20
644.54358000000002
 30
0.0
 11
-780.05675999999983
 21
644.54358000000002
 31
0.0
  0
LINE
  5
76A
  8
0
  6
CONTINUOUS
 62
     7
 10
-842.2437699999997
 20
729.72490999999945
 30
0.0
 11
-779.85022000000004
 21
729.72490999999945
 31
0.0
  0
LINE
  5
76B
  8
0
  6
CONTINUOUS
 62
     7
 10
-886.24376999999993
 20
614.86632999999995
 30
0.0
 11
-946.24376999999981
 21
614.86632999999995
 31
0.0
  0
LINE
  5
76C
  8
0
  6
CONTINUOUS
 62
     3
 10
-965.51671999999985
 20
613.86632999999995
 30
0.0
 11
-965.51671999999985
 21
610.36632999999995
 31
0.0
  0
LINE
  5
76D
  8
0
  6
CONTINUOUS
 62
     3
 10
-967.51671999999996
 20
610.36632999999995
 30
0.0
 11
-885.51684999999986
 21
610.36632999999995
 31
0.0
  0
LINE
  5
76E
  8
0
  6
CONTINUOUS
 62
     3
 10
-945.01684999999998
 20
606.86632999999995
 30
0.0
 11
-885.51684999999986
 21
606.86632999999995
 31
0.0
  0
LINE
  5
76F
  8
0
  6
CONTINUOUS
 62
     3
 10
-956.51671999999985
 20
610.36632999999995
 30
0.0
 11
-956.51671999999985
 21
602.86632999999995
 31
0.0
  0
LINE
  5
770
  8
0
  6
CONTINUOUS
 62
     3
 10
-948.51684999999998
 20
610.36632999999995
 30
0.0
 11
-948.51684999999998
 21
602.86632999999995
 31
0.0
  0
LINE
  5
771
  8
0
  6
CONTINUOUS
 62
     3
 10
-964.01671999999996
 20
595.36730999999975
 30
0.0
 11
-967.51671999999996
 21
595.36730999999975
 31
0.0
  0
LINE
  5
772
  8
0
  6
CONTINUOUS
 62
     3
 10
-967.51671999999996
 20
610.36632999999995
 30
0.0
 11
-967.51671999999996
 21
595.36730999999975
 31
0.0
  0
LINE
  5
773
  8
0
  6
CONTINUOUS
 62
     3
 10
-934.81682999999987
 20
587.36626999999964
 30
0.0
 11
-940.01684999999986
 21
590.36626999999987
 31
0.0
  0
LINE
  5
774
  8
0
  6
CONTINUOUS
 62
     3
 10
-894.01678000000015
 20
590.36632999999995
 30
0.0
 11
-899.21680000000015
 21
587.36632999999995
 31
0.0
  0
LINE
  5
775
  8
0
  6
CONTINUOUS
 62
     3
 10
-964.01671999999996
 20
606.86632999999995
 30
0.0
 11
-960.01671999999985
 21
606.86632999999995
 31
0.0
  0
LINE
  5
776
  8
0
  6
CONTINUOUS
 62
     3
 10
-964.01671999999996
 20
590.36632999999995
 30
0.0
 11
-887.01684999999998
 21
590.36632999999995
 31
0.0
  0
LINE
  5
777
  8
0
  6
CONTINUOUS
 62
     3
 10
-934.81677000000013
 20
587.36632999999995
 30
0.0
 11
-899.21680000000015
 21
587.36632999999995
 31
0.0
  0
LINE
  5
778
  8
0
  6
CONTINUOUS
 62
     3
 10
-964.01671999999996
 20
610.36632999999995
 30
0.0
 11
-964.01671999999996
 21
590.36632999999995
 31
0.0
  0
LINE
  5
779
  8
0
  6
CONTINUOUS
 62
     3
 10
-960.01671999999985
 20
610.36632999999995
 30
0.0
 11
-960.01671999999985
 21
602.86632999999995
 31
0.0
  0
LINE
  5
77A
  8
0
  6
CONTINUOUS
 62
     3
 10
-945.01684999999998
 20
602.86632999999995
 30
0.0
 11
-945.01684999999998
 21
610.36632999999995
 31
0.0
  0
LINE
  5
77B
  8
0
  6
CONTINUOUS
 62
     3
 10
-887.01684999999998
 20
590.36632999999995
 30
0.0
 11
-887.01684999999998
 21
606.86632999999995
 31
0.0
  0
LINE
  5
77C
  8
0
  6
CONTINUOUS
 62
     3
 10
-885.51684999999986
 20
613.86632999999995
 30
0.0
 11
-885.51684999999986
 21
606.86632999999995
 31
0.0
  0
LINE
  5
77D
  8
0
  6
CONTINUOUS
 62
     3
 10
-965.51671999999985
 20
613.86632999999995
 30
0.0
 11
-885.51684999999986
 21
613.86632999999995
 31
0.0
  0
LINE
  5
77E
  8
0
  6
CONTINUOUS
 62
     7
 10
-886.74376999999981
 20
614.86632999999995
 30
0.0
 11
-886.74376999999981
 21
613.86632999999995
 31
0.0
  0
LINE
  5
77F
  8
0
  6
CONTINUOUS
 62
     7
 10
-945.74376999999993
 20
614.86632999999995
 30
0.0
 11
-945.74376999999993
 21
613.86632999999995
 31
0.0
  0
LINE
  5
780
  8
0
  6
CONTINUOUS
 62
     7
 10
-1015.2438
 20
637.36632999999995
 30
0.0
 11
-1015.2438
 21
637.89635999999985
 31
0.0
  0
LINE
  5
781
  8
0
  6
CONTINUOUS
 62
     7
 10
-1015.2438
 20
639.46630999999979
 30
0.0
 11
-1015.2438
 21
640.01635999999985
 31
0.0
  0
LINE
  5
782
  8
0
  6
CONTINUOUS
 62
     7
 10
-1015.2438
 20
644.03638000000001
 30
0.0
 11
-1015.2438
 21
644.50634999999977
 31
0.0
  0
LINE
  5
783
  8
0
  6
CONTINUOUS
 62
     7
 10
-1015.4638
 20
640.48632999999995
 30
0.0
 11
-1016.7137
 21
641.1463
 31
0.0
  0
LINE
  5
784
  8
0
  6
CONTINUOUS
 62
     7
 10
-1015.4539
 20
638.37634000000003
 30
0.0
 11
-1016.693899999999
 21
639.00629000000004
 31
0.0
  0
LINE
  5
785
  8
0
  6
CONTINUOUS
 62
     7
 10
-1015.4738
 20
645.01629999999977
 30
0.0
 11
-1016.7538
 21
645.76624000000004
 31
0.0
  0
LINE
  5
786
  8
0
  6
CONTINUOUS
 62
     7
 10
-1015.0038
 20
638.26635999999985
 30
0.0
 11
-1012.7437999999991
 21
638.26635999999985
 31
0.0
  0
LINE
  5
787
  8
0
  6
CONTINUOUS
 62
     7
 10
-1014.9938
 20
640.36632999999995
 30
0.0
 11
-1013.2438
 21
640.36632999999995
 31
0.0
  0
LINE
  5
788
  8
0
  6
CONTINUOUS
 62
     7
 10
-1014.973799999999
 20
644.88634999999977
 30
0.0
 11
-1013.2438
 21
644.88634999999977
 31
0.0
  0
LINE
  5
789
  8
0
  6
CONTINUOUS
 62
     7
 10
-1014.9437
 20
643.74634000000003
 30
0.0
 11
-1012.2438
 21
643.74634000000003
 31
0.0
  0
LINE
  5
78A
  8
0
  6
CONTINUOUS
 62
     7
 10
-1014.9637
 20
639.22631999999999
 30
0.0
 11
-1012.2438
 21
639.22631999999999
 31
0.0
  0
LINE
  5
78B
  8
0
  6
CONTINUOUS
 62
     7
 10
-1015.4937
 20
643.90630999999985
 30
0.0
 11
-1016.7936999999999
 21
644.75629000000004
 31
0.0
  0
LINE
  5
78C
  8
0
  6
CONTINUOUS
 62
     7
 10
-1015.4837
 20
639.3662099999998
 30
0.0
 11
-1016.7637
 21
640.13622999999995
 31
0.0
  0
LINE
  5
78D
  8
0
  6
CONTINUOUS
 62
     7
 10
-1015.4738
 20
637.25635
 30
0.0
 11
-1016.7438
 21
637.98632999999995
 31
0.0
  0
LINE
  5
78E
  8
0
  6
CONTINUOUS
 62
     7
 10
-1014.973799999999
 20
637.11632999999995
 30
0.0
 11
-1012.7437999999991
 21
637.11632999999995
 31
0.0
  0
LINE
  5
78F
  8
0
  6
CONTINUOUS
 62
     7
 10
-1017.2437999999991
 20
638.84631000000002
 30
0.0
 11
-1017.2437999999991
 21
681.86632999999995
 31
0.0
  0
LINE
  5
790
  8
0
  6
CONTINUOUS
 62
     7
 10
-1016.7538
 20
645.7663
 30
0.0
 11
-1016.773799999999
 21
645.77630999999997
 31
0.0
  0
LINE
  5
791
  8
0
  6
CONTINUOUS
 62
     7
 10
-1018.7437999999991
 20
669.58630000000005
 30
0.0
 11
-1017.2437999999991
 21
669.58630000000005
 31
0.0
  0
LINE
  5
792
  8
0
  6
CONTINUOUS
 62
     7
 10
-1018.7437999999991
 20
671.71630999999957
 30
0.0
 11
-1017.2437999999991
 21
671.71630999999957
 31
0.0
  0
LINE
  5
793
  8
0
  6
CONTINUOUS
 62
     7
 10
-1018.7437
 20
666.86632999999995
 30
0.0
 11
-1017.2437
 21
666.73632999999995
 31
0.0
  0
LINE
  5
794
  8
0
  6
CONTINUOUS
 62
     7
 10
-1018.7437999999991
 20
666.86632999999995
 30
0.0
 11
-1018.7437999999991
 21
686.86632999999995
 31
0.0
  0
LINE
  5
795
  8
0
  6
CONTINUOUS
 62
     7
 10
-1015.2438
 20
651.47631999999987
 30
0.0
 11
-1015.2438
 21
652.53638000000001
 31
0.0
  0
LINE
  5
796
  8
0
  6
CONTINUOUS
 62
     7
 10
-1015.2438
 20
661.23632999999995
 30
0.0
 11
-1015.2438
 21
662.60631999999987
 31
0.0
  0
LINE
  5
797
  8
0
  6
CONTINUOUS
 62
     7
 10
-1015.2438
 20
681.25635
 30
0.0
 11
-1015.2438
 21
682.41638
 31
0.0
  0
LINE
  5
798
  8
0
  6
CONTINUOUS
 62
     7
 10
-1015.2438
 20
671.25634999999988
 30
0.0
 11
-1015.2438
 21
672.47631999999987
 31
0.0
  0
LINE
  5
799
  8
0
  6
CONTINUOUS
 62
     7
 10
-1013.2438
 20
682.86632999999995
 30
0.0
 11
-1016.2438
 21
682.86632999999995
 31
0.0
  0
LINE
  5
79A
  8
0
  6
CONTINUOUS
 62
     7
 10
-1013.2438
 20
680.86632999999995
 30
0.0
 11
-1016.2438
 21
680.86632999999995
 31
0.0
  0
LINE
  5
79B
  8
0
  6
CONTINUOUS
 62
     7
 10
-1013.2438
 20
672.86632999999995
 30
0.0
 11
-1016.2438
 21
672.86632999999995
 31
0.0
  0
LINE
  5
79C
  8
0
  6
CONTINUOUS
 62
     7
 10
-1013.2438
 20
670.86632999999995
 30
0.0
 11
-1016.2438
 21
670.86632999999995
 31
0.0
  0
LINE
  5
79D
  8
0
  6
CONTINUOUS
 62
     7
 10
-1013.2438
 20
662.86632999999995
 30
0.0
 11
-1016.2438
 21
662.86632999999995
 31
0.0
  0
LINE
  5
79E
  8
0
  6
CONTINUOUS
 62
     7
 10
-1013.2438
 20
660.86632999999995
 30
0.0
 11
-1016.2438
 21
660.86632999999995
 31
0.0
  0
LINE
  5
79F
  8
0
  6
CONTINUOUS
 62
     7
 10
-1015.383699999999
 20
653.16632000000004
 30
0.0
 11
-1016.5338
 21
653.52630999999985
 31
0.0
  0
LINE
  5
7A0
  8
0
  6
CONTINUOUS
 62
     7
 10
-1015.0938
 20
653.12634000000003
 30
0.0
 11
-1013.2438
 21
653.12634000000003
 31
0.0
  0
LINE
  5
7A1
  8
0
  6
CONTINUOUS
 62
     7
 10
-1015.4338
 20
651.25629000000004
 30
0.0
 11
-1016.633799999999
 21
651.77624999999989
 31
0.0
  0
LINE
  5
7A2
  8
0
  6
CONTINUOUS
 62
     7
 10
-1015.0436999999999
 20
651.17638999999997
 30
0.0
 11
-1012.9437
 21
651.17638999999997
 31
0.0
  0
LINE
  5
7A3
  8
0
  6
CONTINUOUS
 62
     7
 10
-1018.7437999999991
 20
704.14635999999996
 30
0.0
 11
-1017.2437999999991
 21
704.14635999999996
 31
0.0
  0
LINE
  5
7A4
  8
0
  6
CONTINUOUS
 62
     7
 10
-1018.7437999999991
 20
702.01635999999996
 30
0.0
 11
-1017.2437999999991
 21
702.01635999999996
 31
0.0
  0
LINE
  5
7A5
  8
0
  6
CONTINUOUS
 62
     7
 10
-1018.7437999999991
 20
706.86632999999995
 30
0.0
 11
-1017.2437999999991
 21
706.99634000000003
 31
0.0
  0
LINE
  5
7A6
  8
0
  6
CONTINUOUS
 62
     7
 10
-1018.7437999999991
 20
706.86632999999995
 30
0.0
 11
-1018.7437999999991
 21
686.86632999999995
 31
0.0
  0
LINE
  5
7A7
  8
0
  6
CONTINUOUS
 62
     7
 10
-1015.2438
 20
736.36632999999983
 30
0.0
 11
-1015.2438
 21
735.83630000000005
 31
0.0
  0
LINE
  5
7A8
  8
0
  6
CONTINUOUS
 62
     7
 10
-1015.2438
 20
734.26635999999985
 30
0.0
 11
-1015.2438
 21
733.71630999999968
 31
0.0
  0
LINE
  5
7A9
  8
0
  6
CONTINUOUS
 62
     7
 10
-1015.2438
 20
729.69629000000032
 30
0.0
 11
-1015.2438
 21
729.22631999999965
 31
0.0
  0
LINE
  5
7AA
  8
0
  6
CONTINUOUS
 62
     7
 10
-1015.2438
 20
722.25634999999988
 30
0.0
 11
-1015.2438
 21
721.19629000000032
 31
0.0
  0
LINE
  5
7AB
  8
0
  6
CONTINUOUS
 62
     7
 10
-1015.2438
 20
712.49634000000003
 30
0.0
 11
-1015.2438
 21
711.12634000000003
 31
0.0
  0
LINE
  5
7AC
  8
0
  6
CONTINUOUS
 62
     7
 10
-1015.2438
 20
692.47631999999999
 30
0.0
 11
-1015.2438
 21
691.31628000000001
 31
0.0
  0
LINE
  5
7AD
  8
0
  6
CONTINUOUS
 62
     7
 10
-1015.2438
 20
702.47631999999965
 30
0.0
 11
-1015.2438
 21
701.26635999999985
 31
0.0
  0
LINE
  5
7AE
  8
0
  6
CONTINUOUS
 62
     7
 10
-1013.2438
 20
690.86632999999995
 30
0.0
 11
-1016.2438
 21
690.86632999999995
 31
0.0
  0
LINE
  5
7AF
  8
0
  6
CONTINUOUS
 62
     7
 10
-1013.2438
 20
692.86632999999995
 30
0.0
 11
-1016.2438
 21
692.86632999999995
 31
0.0
  0
LINE
  5
7B0
  8
0
  6
CONTINUOUS
 62
     7
 10
-1013.2438
 20
700.86632999999995
 30
0.0
 11
-1016.2438
 21
700.86632999999995
 31
0.0
  0
LINE
  5
7B1
  8
0
  6
CONTINUOUS
 62
     7
 10
-1013.2438
 20
702.86632999999995
 30
0.0
 11
-1016.2438
 21
702.86632999999995
 31
0.0
  0
LINE
  5
7B2
  8
0
  6
CONTINUOUS
 62
     7
 10
-1013.2438
 20
710.86632999999995
 30
0.0
 11
-1016.2438
 21
710.86632999999995
 31
0.0
  0
LINE
  5
7B3
  8
0
  6
CONTINUOUS
 62
     7
 10
-1013.2438
 20
712.86632999999995
 30
0.0
 11
-1016.2438
 21
712.86632999999995
 31
0.0
  0
LINE
  5
7B4
  8
0
  6
CONTINUOUS
 62
     7
 10
-1015.4638
 20
733.25635
 30
0.0
 11
-1016.7138
 21
732.5863599999999
 31
0.0
  0
LINE
  5
7B5
  8
0
  6
CONTINUOUS
 62
     7
 10
-1015.4538
 20
735.36626999999999
 30
0.0
 11
-1016.6938
 21
734.73626999999988
 31
0.0
  0
LINE
  5
7B6
  8
0
  6
CONTINUOUS
 62
     7
 10
-1015.3838
 20
720.56635000000006
 30
0.0
 11
-1016.5338
 21
720.21630999999968
 31
0.0
  0
LINE
  5
7B7
  8
0
  6
CONTINUOUS
 62
     7
 10
-1015.4738
 20
728.71630999999979
 30
0.0
 11
-1016.7538
 21
727.96636999999998
 31
0.0
  0
LINE
  5
7B8
  8
0
  6
CONTINUOUS
 62
     7
 10
-1015.0038
 20
735.46630999999979
 30
0.0
 11
-1012.7437999999991
 21
735.46630999999979
 31
0.0
  0
LINE
  5
7B9
  8
0
  6
CONTINUOUS
 62
     7
 10
-1014.9938
 20
733.36632999999983
 30
0.0
 11
-1013.2438
 21
733.36632999999983
 31
0.0
  0
LINE
  5
7BA
  8
0
  6
CONTINUOUS
 62
     7
 10
-1014.973799999999
 20
728.85631999999964
 30
0.0
 11
-1013.2438
 21
728.85631999999964
 31
0.0
  0
LINE
  5
7BB
  8
0
  6
CONTINUOUS
 62
     7
 10
-1015.0938
 20
720.60631999999998
 30
0.0
 11
-1013.2438
 21
720.60631999999998
 31
0.0
  0
LINE
  5
7BC
  8
0
  6
CONTINUOUS
 62
     7
 10
-1014.9437
 20
729.99634000000003
 30
0.0
 11
-1012.2438
 21
729.99634000000003
 31
0.0
  0
LINE
  5
7BD
  8
0
  6
CONTINUOUS
 62
     7
 10
-1014.9637
 20
734.50635
 30
0.0
 11
-1012.2438
 21
734.50635
 31
0.0
  0
LINE
  5
7BE
  8
0
  6
CONTINUOUS
 62
     7
 10
-1015.433699999998
 20
722.47625999999968
 30
0.0
 11
-1016.633799999999
 21
721.96618999999998
 31
0.0
  0
LINE
  5
7BF
  8
0
  6
CONTINUOUS
 62
     7
 10
-1015.4938
 20
729.82635000000005
 30
0.0
 11
-1016.7938
 21
728.97631999999999
 31
0.0
  0
LINE
  5
7C0
  8
0
  6
CONTINUOUS
 62
     7
 10
-1015.483799999999
 20
734.36626999999999
 30
0.0
 11
-1016.7637999999999
 21
733.59631000000002
 31
0.0
  0
LINE
  5
7C1
  8
0
  6
CONTINUOUS
 62
     7
 10
-1015.4738
 20
736.48626999999988
 30
0.0
 11
-1016.7438
 21
735.74627999999984
 31
0.0
  0
LINE
  5
7C2
  8
0
  6
CONTINUOUS
 62
     7
 10
-1015.0436999999999
 20
722.55627000000004
 30
0.0
 11
-1012.9437
 21
722.55627000000004
 31
0.0
  0
LINE
  5
7C3
  8
0
  6
CONTINUOUS
 62
     7
 10
-1014.973799999999
 20
736.61632999999983
 30
0.0
 11
-1012.7437999999991
 21
736.61632999999983
 31
0.0
  0
LINE
  5
7C4
  8
0
  6
CONTINUOUS
 62
     7
 10
-1017.2437999999991
 20
734.88634999999999
 30
0.0
 11
-1017.2437999999991
 21
691.86632999999995
 31
0.0
  0
LINE
  5
7C5
  8
0
  6
CONTINUOUS
 62
     7
 10
-865.24377000000004
 20
724.01635999999985
 30
0.0
 11
-857.24377000000004
 21
724.01635999999985
 31
0.0
  0
LINE
  5
7C6
  8
0
  6
CONTINUOUS
 62
     7
 10
-864.24377000000004
 20
634.82628999999986
 30
0.0
 11
-857.24377000000004
 21
634.82628999999986
 31
0.0
  0
LINE
  5
7C7
  8
0
  6
CONTINUOUS
 62
     7
 10
-865.24377000000004
 20
649.71630999999979
 30
0.0
 11
-857.24377000000004
 21
649.71630999999979
 31
0.0
  0
LINE
  5
7C8
  8
0
  6
CONTINUOUS
 62
     7
 10
-864.24377000000004
 20
623.36632999999995
 30
0.0
 11
-857.24377000000004
 21
623.36632999999995
 31
0.0
  0
LINE
  5
7C9
  8
0
  6
CONTINUOUS
 62
     7
 10
-864.24377000000004
 20
738.90637000000004
 30
0.0
 11
-857.24377000000004
 21
738.90637000000004
 31
0.0
  0
LINE
  5
7CA
  8
0
  6
CONTINUOUS
 62
     7
 10
-864.24377000000004
 20
750.36632999999983
 30
0.0
 11
-857.24377000000004
 21
750.36632999999983
 31
0.0
  0
LINE
  5
7CB
  8
0
  6
CONTINUOUS
 62
     7
 10
-1012.2438
 20
629.43633999999986
 30
0.0
 11
-1009.4238
 21
629.37627999999995
 31
0.0
  0
LINE
  5
7CC
  8
0
  6
CONTINUOUS
 62
     7
 10
-971.24376999999981
 20
640.51635999999985
 30
0.0
 11
-865.24377000000004
 21
640.51635999999985
 31
0.0
  0
LINE
  5
7CD
  8
0
  6
CONTINUOUS
 62
     7
 10
-870.53381000000002
 20
626.36632999999995
 30
0.0
 11
-865.24377000000004
 21
626.36632999999995
 31
0.0
  0
LINE
  5
7CE
  8
0
  6
CONTINUOUS
 62
     7
 10
-998.57372999999995
 20
653.50634999999966
 30
0.0
 11
-904.22375
 21
653.50634999999966
 31
0.0
  0
LINE
  5
7CF
  8
0
  6
CONTINUOUS
 62
     7
 10
-916.24376999999993
 20
650.86632999999995
 30
0.0
 11
-997.70812999999998
 21
650.86632999999995
 31
0.0
  0
LINE
  5
7D0
  8
0
  6
CONTINUOUS
 62
     7
 10
-916.24376999999993
 20
650.14635999999996
 30
0.0
 11
-868.42382999999984
 21
650.14635999999996
 31
0.0
  0
LINE
  5
7D1
  8
0
  6
CONTINUOUS
 62
     7
 10
-998.57372999999995
 20
650.14635999999996
 30
0.0
 11
-916.24376999999993
 21
650.14635999999996
 31
0.0
  0
LINE
  5
7D2
  8
0
  6
CONTINUOUS
 62
     7
 10
-998.54614000000004
 20
628.60631999999998
 30
0.0
 11
-992.74376999999981
 21
628.60631999999998
 31
0.0
  0
LINE
  5
7D3
  8
0
  6
CONTINUOUS
 62
     7
 10
-989.24377000000004
 20
625.00635
 30
0.0
 11
-872.43384000000003
 21
625.00635
 31
0.0
  0
LINE
  5
7D4
  8
0
  6
CONTINUOUS
 62
     7
 10
-998.48389000000009
 20
633.88634999999999
 30
0.0
 11
-992.74376999999981
 21
633.88634999999999
 31
0.0
  0
LINE
  5
7D5
  8
0
  6
CONTINUOUS
 62
     7
 10
-1002.2438
 20
638.51635999999985
 30
0.0
 11
-1002.2438
 21
652.56628000000001
 31
0.0
  0
LINE
  5
7D6
  8
0
  6
CONTINUOUS
 62
     7
 10
-1012.2438
 20
638.51635999999985
 30
0.0
 11
-1002.2438
 21
638.51635999999985
 31
0.0
  0
LINE
  5
7D7
  8
0
  6
CONTINUOUS
 62
     7
 10
-870.50378000000012
 20
626.49627999999996
 30
0.0
 11
-867.04375999999968
 21
639.40637000000004
 31
0.0
  0
LINE
  5
7D8
  8
0
  6
CONTINUOUS
 62
     7
 10
-1008.4825
 20
626.70734000000004
 30
0.0
 11
-1008.9638
 21
628.61632999999995
 31
0.0
  0
LINE
  5
7D9
  8
0
  6
CONTINUOUS
 62
     7
 10
-1008.0538
 20
626.73626999999965
 30
0.0
 11
-1008.9738
 21
630.61632999999995
 31
0.0
  0
LINE
  5
7DA
  8
0
  6
CONTINUOUS
 62
     7
 10
-991.24376999999993
 20
624.97729000000004
 30
0.0
 11
-991.24376999999993
 21
632.38634999999977
 31
0.0
  0
LINE
  5
7DB
  8
0
  6
CONTINUOUS
 62
     7
 10
-1010.413699999998
 20
629.74634000000003
 30
0.0
 11
-1008.7637999999999
 21
629.74634000000003
 31
0.0
  0
LINE
  5
7DC
  8
0
  6
CONTINUOUS
 62
     7
 10
-971.24376999999981
 20
733.21630999999979
 30
0.0
 11
-865.24377000000004
 21
733.21630999999979
 31
0.0
  0
LINE
  5
7DD
  8
0
  6
CONTINUOUS
 62
     7
 10
-865.24377000000004
 20
624.36632999999995
 30
0.0
 11
-865.24377000000004
 21
749.36632999999983
 31
0.0
  0
LINE
  5
7DE
  8
0
  6
CONTINUOUS
 62
     7
 10
-1012.2436999999979
 20
744.29633000000001
 30
0.0
 11
-1009.4238
 21
744.36632999999983
 31
0.0
  0
LINE
  5
7DF
  8
0
  6
CONTINUOUS
 62
     7
 10
-1012.2438
 20
629.43628000000001
 30
0.0
 11
-1012.2438
 21
686.86632999999995
 31
0.0
  0
LINE
  5
7E0
  8
0
  6
CONTINUOUS
 62
     7
 10
-871.90380999999979
 20
650.86632999999995
 30
0.0
 11
-916.24376999999993
 21
650.86632999999995
 31
0.0
  0
LINE
  5
7E1
  8
0
  6
CONTINUOUS
 62
     7
 10
-1002.2438
 20
735.21630999999979
 30
0.0
 11
-1002.2438
 21
721.17638999999986
 31
0.0
  0
LINE
  5
7E2
  8
0
  6
CONTINUOUS
 62
     7
 10
-1012.2438
 20
721.17638999999986
 30
0.0
 11
-1002.2438
 21
721.17638999999986
 31
0.0
  0
LINE
  5
7E3
  8
0
  6
CONTINUOUS
 62
     7
 10
-1012.2438
 20
729.55627000000004
 30
0.0
 11
-1002.2438
 21
729.55627000000004
 31
0.0
  0
LINE
  5
7E4
  8
0
  6
CONTINUOUS
 62
     7
 10
-1012.2438
 20
735.21630999999979
 30
0.0
 11
-1002.2438
 21
735.21630999999979
 31
0.0
  0
LINE
  5
7E5
  8
0
  6
CONTINUOUS
 62
     7
 10
-936.80175999999994
 20
672.86632999999995
 30
0.0
 11
-1006.6937
 21
672.86632999999995
 31
0.0
  0
LINE
  5
7E6
  8
0
  6
CONTINUOUS
 62
     7
 10
-989.24377000000004
 20
748.72631999999999
 30
0.0
 11
-872.43384000000003
 21
748.72631999999999
 31
0.0
  0
LINE
  5
7E7
  8
0
  6
CONTINUOUS
 62
     7
 10
-998.28954999999974
 20
739.85631999999987
 30
0.0
 11
-992.74376999999981
 21
739.85631999999987
 31
0.0
  0
LINE
  5
7E8
  8
0
  6
CONTINUOUS
 62
     7
 10
-1001.0345
 20
733.85961999999984
 30
0.0
 11
-1000.2495
 21
738.20630000000006
 31
0.0
  0
LINE
  5
7E9
  8
0
  6
CONTINUOUS
 62
     7
 10
-998.35338999999988
 20
745.13634999999999
 30
0.0
 11
-992.74376999999981
 21
745.13634999999999
 31
0.0
  0
LINE
  5
7EA
  8
0
  6
CONTINUOUS
 62
     7
 10
-1006.1138
 20
748.53638000000001
 30
0.0
 11
-992.74376999999981
 21
748.53638000000001
 31
0.0
  0
LINE
  5
7EB
  8
0
  6
CONTINUOUS
 62
     7
 10
-1006.133799999999
 20
750.16638
 30
0.0
 11
-992.63379000000009
 21
750.16638
 31
0.0
  0
LINE
  5
7EC
  8
0
  6
CONTINUOUS
 62
     7
 10
-989.24377000000004
 20
752.78638000000001
 30
0.0
 11
-871.16015999999979
 21
752.78638000000001
 31
0.0
  0
LINE
  5
7ED
  8
0
  6
CONTINUOUS
 62
     7
 10
-989.24377000000004
 20
752.11632999999983
 30
0.0
 11
-871.01610999999934
 21
752.11632999999983
 31
0.0
  0
LINE
  5
7EE
  8
0
  6
CONTINUOUS
 62
     7
 10
-989.24377000000004
 20
750.75634999999988
 30
0.0
 11
-870.72388000000001
 21
750.75634999999988
 31
0.0
  0
LINE
  5
7EF
  8
0
  6
CONTINUOUS
 62
     7
 10
-1002.7295
 20
737.90637000000004
 30
0.0
 11
-1000.3094
 21
737.90637000000004
 31
0.0
  0
LINE
  5
7F0
  8
0
  6
CONTINUOUS
 62
     7
 10
-1000.2996000000001
 20
743.55634000000032
 30
0.0
 11
-1001.2596
 21
739.08624000000032
 31
0.0
  0
LINE
  5
7F1
  8
0
  6
CONTINUOUS
 62
     7
 10
-1010.4337
 20
741.96630999999979
 30
0.0
 11
-1000.641
 21
741.96630999999979
 31
0.0
  0
LINE
  5
7F2
  8
0
  6
CONTINUOUS
 62
     7
 10
-871.90380999999979
 20
722.86632999999983
 30
0.0
 11
-997.69372999999985
 21
722.86632999999983
 31
0.0
  0
LINE
  5
7F3
  8
0
  6
CONTINUOUS
 62
     7
 10
-871.90380999999979
 20
720.86632999999983
 30
0.0
 11
-886.24376999999993
 21
720.86632999999983
 31
0.0
  0
LINE
  5
7F4
  8
0
  6
CONTINUOUS
 62
     7
 10
-871.89661000000012
 20
712.86632999999995
 30
0.0
 11
-886.24376999999993
 21
712.86632999999995
 31
0.0
  0
LINE
  5
7F5
  8
0
  6
CONTINUOUS
 62
     7
 10
-1008.0538
 20
746.99634000000003
 30
0.0
 11
-1008.9738
 21
743.12627999999984
 31
0.0
  0
LINE
  5
7F6
  8
0
  6
CONTINUOUS
 62
     7
 10
-871.91100999999981
 20
710.86632999999995
 30
0.0
 11
-997.69372999999985
 21
710.86632999999995
 31
0.0
  0
LINE
  5
7F7
  8
0
  6
CONTINUOUS
 62
     7
 10
-1010.413699999998
 20
743.98632999999984
 30
0.0
 11
-1008.7637999999999
 21
743.98632999999984
 31
0.0
  0
LINE
  5
7F8
  8
0
  6
CONTINUOUS
 62
     7
 10
-1008.0738
 20
748.65624999999989
 30
0.0
 11
-1008.9638
 21
745.12634000000003
 31
0.0
  0
LINE
  5
7F9
  8
0
  6
CONTINUOUS
 62
     7
 10
-936.80505000000005
 20
702.86632999999995
 30
0.0
 11
-1006.6937
 21
702.86632999999995
 31
0.0
  0
LINE
  5
7FA
  8
0
  6
CONTINUOUS
 62
     7
 10
-991.24376999999993
 20
748.75635
 30
0.0
 11
-991.24376999999993
 21
741.35631999999964
 31
0.0
  0
LINE
  5
7FB
  8
0
  6
CONTINUOUS
 62
     7
 10
-936.80505000000005
 20
700.86632999999995
 30
0.0
 11
-1006.6937
 21
700.86632999999995
 31
0.0
  0
LINE
  5
7FC
  8
0
  6
CONTINUOUS
 62
     7
 10
-936.80175999999994
 20
692.86632999999995
 30
0.0
 11
-1006.6937
 21
692.86632999999995
 31
0.0
  0
LINE
  5
7FD
  8
0
  6
CONTINUOUS
 62
     7
 10
-936.80175999999994
 20
690.86632999999995
 30
0.0
 11
-1006.6937
 21
690.86632999999995
 31
0.0
  0
LINE
  5
7FE
  8
0
  6
CONTINUOUS
 62
     7
 10
-870.50378000000012
 20
747.24634000000003
 30
0.0
 11
-867.04375999999968
 21
734.32623000000001
 31
0.0
  0
LINE
  5
7FF
  8
0
  6
CONTINUOUS
 62
     7
 10
-868.78333000000021
 20
747.36632999999983
 30
0.0
 11
-865.24377000000004
 21
747.36632999999983
 31
0.0
  0
LINE
  5
800
  8
0
  6
CONTINUOUS
 62
     7
 10
-865.5338099999999
 20
737.90637000000004
 30
0.0
 11
-867.95374000000004
 21
737.90637000000004
 31
0.0
  0
LINE
  5
801
  8
0
  6
CONTINUOUS
 62
     7
 10
-869.69359999999995
 20
751.60149999999999
 30
0.0
 11
-867.0037199999997
 21
739.08624000000032
 31
0.0
  0
LINE
  5
802
  8
0
  6
CONTINUOUS
 62
     7
 10
-1012.2438
 20
744.29639000000032
 30
0.0
 11
-1012.2438
 21
686.86632999999995
 31
0.0
  0
LINE
  5
803
  8
0
  6
CONTINUOUS
 62
     7
 10
-1012.2438
 20
652.56628000000001
 30
0.0
 11
-1002.2438
 21
652.56628000000001
 31
0.0
  0
LINE
  5
804
  8
0
  6
CONTINUOUS
 62
     7
 10
-1006.5431
 20
625.1962900000002
 30
0.0
 11
-992.50097999999991
 21
625.1962900000002
 31
0.0
  0
LINE
  5
805
  8
0
  6
CONTINUOUS
 62
     7
 10
-1012.2438
 20
644.17638999999986
 30
0.0
 11
-1002.2438
 21
644.17638999999986
 31
0.0
  0
LINE
  5
806
  8
0
  6
CONTINUOUS
 62
     7
 10
-1010.4337
 20
631.76635999999985
 30
0.0
 11
-1000.641
 21
631.76635999999985
 31
0.0
  0
LINE
  5
807
  8
0
  6
CONTINUOUS
 62
     7
 10
-989.24377000000004
 20
622.97631999999976
 30
0.0
 11
-947.91736000000014
 21
622.97631999999976
 31
0.0
  0
LINE
  5
808
  8
0
  6
CONTINUOUS
 62
     7
 10
-998.78369000000032
 20
660.38634999999999
 30
0.0
 11
-904.24376999999981
 21
660.38634999999999
 31
0.0
  0
LINE
  5
809
  8
0
  6
CONTINUOUS
 62
     7
 10
-904.24376999999981
 20
652.86632999999995
 30
0.0
 11
-997.70812999999998
 21
652.86632999999995
 31
0.0
  0
LINE
  5
80A
  8
0
  6
CONTINUOUS
 62
     7
 10
-998.57372999999995
 20
723.59631000000002
 30
0.0
 11
-868.42382999999984
 21
723.59631000000002
 31
0.0
  0
LINE
  5
80B
  8
0
  6
CONTINUOUS
 62
     7
 10
-998.57372999999995
 20
720.23632999999995
 30
0.0
 11
-904.22375
 21
720.23632999999995
 31
0.0
  0
LINE
  5
80C
  8
0
  6
CONTINUOUS
 62
     7
 10
-998.78369000000032
 20
713.35631999999998
 30
0.0
 11
-904.24376999999981
 21
713.35631999999998
 31
0.0
  0
LINE
  5
80D
  8
0
  6
CONTINUOUS
 62
     7
 10
-998.78369000000032
 20
710.43628000000001
 30
0.0
 11
-868.20959000000005
 21
710.43628000000001
 31
0.0
  0
LINE
  5
80E
  8
0
  6
CONTINUOUS
 62
     7
 10
-1007.9136999999999
 20
703.21630999999968
 30
0.0
 11
-935.57250999999985
 21
703.21630999999968
 31
0.0
  0
LINE
  5
80F
  8
0
  6
CONTINUOUS
 62
     7
 10
-1007.9136999999999
 20
700.54639000000032
 30
0.0
 11
-935.58507999999983
 21
700.54639000000032
 31
0.0
  0
LINE
  5
810
  8
0
  6
CONTINUOUS
 62
     7
 10
-1007.9738
 20
693.14635999999985
 30
0.0
 11
-935.50867000000005
 21
693.14635999999985
 31
0.0
  0
LINE
  5
811
  8
0
  6
CONTINUOUS
 62
     7
 10
-1007.9738
 20
690.60631999999998
 30
0.0
 11
-935.50867000000005
 21
690.60631999999998
 31
0.0
  0
LINE
  5
812
  8
0
  6
CONTINUOUS
 62
     7
 10
-1007.9738
 20
683.13634999999999
 30
0.0
 11
-935.50867000000005
 21
683.13634999999999
 31
0.0
  0
LINE
  5
813
  8
0
  6
CONTINUOUS
 62
     7
 10
-936.80175999999994
 20
680.86632999999995
 30
0.0
 11
-1006.6937
 21
680.86632999999995
 31
0.0
  0
LINE
  5
814
  8
0
  6
CONTINUOUS
 62
     7
 10
-936.80175999999994
 20
682.86632999999995
 30
0.0
 11
-1006.6937
 21
682.86632999999995
 31
0.0
  0
LINE
  5
815
  8
0
  6
CONTINUOUS
 62
     7
 10
-1007.9136999999999
 20
673.18628000000001
 30
0.0
 11
-935.57250999999985
 21
673.18628000000001
 31
0.0
  0
LINE
  5
816
  8
0
  6
CONTINUOUS
 62
     7
 10
-936.80175999999994
 20
670.86632999999995
 30
0.0
 11
-1006.6937
 21
670.86632999999995
 31
0.0
  0
LINE
  5
817
  8
0
  6
CONTINUOUS
 62
     7
 10
-1007.9136999999999
 20
670.52637000000004
 30
0.0
 11
-935.57250999999985
 21
670.52637000000004
 31
0.0
  0
LINE
  5
818
  8
0
  6
CONTINUOUS
 62
     7
 10
-871.91100999999981
 20
662.86632999999995
 30
0.0
 11
-997.70812999999998
 21
662.86632999999995
 31
0.0
  0
LINE
  5
819
  8
0
  6
CONTINUOUS
 62
     7
 10
-998.78369000000032
 20
663.30627000000004
 30
0.0
 11
-868.20959000000005
 21
663.30627000000004
 31
0.0
  0
LINE
  5
81A
  8
0
  6
CONTINUOUS
 62
     7
 10
-871.91100999999981
 20
660.86632999999995
 30
0.0
 11
-886.24376999999993
 21
660.86632999999995
 31
0.0
  0
LINE
  5
81B
  8
0
  6
CONTINUOUS
 62
     7
 10
-871.90380999999979
 20
652.86632999999995
 30
0.0
 11
-886.24376999999993
 21
652.86632999999995
 31
0.0
  0
LINE
  5
81C
  8
0
  6
CONTINUOUS
 62
     7
 10
-1007.9738
 20
680.59631000000002
 30
0.0
 11
-935.50867000000005
 21
680.59631000000002
 31
0.0
  0
LINE
  5
81D
  8
0
  6
CONTINUOUS
 62
     7
 10
-1001.0345
 20
639.87292000000002
 30
0.0
 11
-1000.2495
 21
635.52625
 31
0.0
  0
LINE
  5
81E
  8
0
  6
CONTINUOUS
 62
     7
 10
-1002.7295
 20
635.82628999999963
 30
0.0
 11
-1000.3094
 21
635.82628999999963
 31
0.0
  0
LINE
  5
81F
  8
0
  6
CONTINUOUS
 62
     7
 10
-1000.2996000000001
 20
630.17633000000001
 30
0.0
 11
-1001.2595
 21
634.64629999999988
 31
0.0
  0
LINE
  5
820
  8
0
  6
CONTINUOUS
 62
     3
 10
-946.24376999999981
 20
614.86626999999999
 30
0.0
 11
-946.50933999999984
 21
625.00622999999985
 31
0.0
  0
LINE
  5
821
  8
0
  6
CONTINUOUS
 62
     3
 10
-886.24376999999993
 20
614.86626999999999
 30
0.0
 11
-885.97826999999984
 21
625.00622999999985
 31
0.0
  0
LINE
  5
822
  8
0
  6
CONTINUOUS
 62
     7
 10
-884.73021999999969
 20
616.86632999999995
 30
0.0
 11
-873.22753999999998
 21
616.86632999999995
 31
0.0
  0
LINE
  5
823
  8
0
  6
CONTINUOUS
 62
     3
 10
-866.24376999999981
 20
626.36632999999995
 30
0.0
 11
-871.96954000000005
 21
617.54937999999981
 31
0.0
  0
LINE
  5
824
  8
0
  6
CONTINUOUS
 62
     7
 10
-902.74377000000004
 20
659.36632999999995
 30
0.0
 11
-902.74377000000004
 21
654.36632999999995
 31
0.0
  0
LINE
  5
825
  8
0
  6
CONTINUOUS
 62
     7
 10
-887.7437699999997
 20
659.36632999999995
 30
0.0
 11
-887.7437699999997
 21
654.36632999999995
 31
0.0
  0
LINE
  5
826
  8
0
  6
CONTINUOUS
 62
     7
 10
-904.24376999999981
 20
660.86632999999995
 30
0.0
 11
-997.70812999999998
 21
660.86632999999995
 31
0.0
  0
LINE
  5
827
  8
0
  6
CONTINUOUS
 62
     7
 10
-903.22375
 20
659.36632999999995
 30
0.0
 11
-903.22375
 21
654.50635
 31
0.0
  0
LINE
  5
828
  8
0
  6
CONTINUOUS
 62
     7
 10
-887.26378999999986
 20
659.36632999999995
 30
0.0
 11
-887.26378999999986
 21
654.50635
 31
0.0
  0
LINE
  5
829
  8
0
  6
CONTINUOUS
 62
     7
 10
-886.24376999999993
 20
660.38634999999999
 30
0.0
 11
-868.20959000000005
 21
660.38634999999999
 31
0.0
  0
LINE
  5
82A
  8
0
  6
CONTINUOUS
 62
     7
 10
-886.2637900000002
 20
653.50634999999966
 30
0.0
 11
-868.42382999999984
 21
653.50634999999966
 31
0.0
  0
LINE
  5
82B
  8
0
  6
CONTINUOUS
 62
     7
 10
-887.26378999999986
 20
714.36632999999995
 30
0.0
 11
-887.26378999999986
 21
719.22631999999999
 31
0.0
  0
LINE
  5
82C
  8
0
  6
CONTINUOUS
 62
     7
 10
-903.22375
 20
714.36632999999995
 30
0.0
 11
-903.22375
 21
719.22631999999999
 31
0.0
  0
LINE
  5
82D
  8
0
  6
CONTINUOUS
 62
     7
 10
-887.7437699999997
 20
714.36632999999995
 30
0.0
 11
-887.7437699999997
 21
719.36632999999995
 31
0.0
  0
LINE
  5
82E
  8
0
  6
CONTINUOUS
 62
     7
 10
-902.74377000000004
 20
714.36632999999995
 30
0.0
 11
-902.74377000000004
 21
719.36632999999995
 31
0.0
  0
LINE
  5
82F
  8
0
  6
CONTINUOUS
 62
     7
 10
-904.24376999999981
 20
720.86632999999983
 30
0.0
 11
-997.69372999999985
 21
720.86632999999983
 31
0.0
  0
LINE
  5
830
  8
0
  6
CONTINUOUS
 62
     7
 10
-886.2637900000002
 20
720.23632999999995
 30
0.0
 11
-868.42382999999984
 21
720.23632999999995
 31
0.0
  0
LINE
  5
831
  8
0
  6
CONTINUOUS
 62
     7
 10
-886.24376999999993
 20
713.35631999999998
 30
0.0
 11
-868.1981199999999
 21
713.35631999999998
 31
0.0
  0
LINE
  5
832
  8
0
  6
CONTINUOUS
 62
     7
 10
-904.24376999999981
 20
712.86632999999995
 30
0.0
 11
-997.69372999999985
 21
712.86632999999995
 31
0.0
  0
LINE
  5
833
  8
0
  6
CONTINUOUS
 62
     3
 10
-931.24377000000004
 20
707.36632999999995
 30
0.0
 11
-931.24377000000004
 21
666.36632999999995
 31
0.0
  0
LINE
  5
834
  8
0
  6
CONTINUOUS
 62
     3
 10
-868.2437699999997
 20
707.36632999999995
 30
0.0
 11
-868.2437699999997
 21
666.36632999999995
 31
0.0
  0
LINE
  5
835
  8
0
  6
CONTINUOUS
 62
     7
 10
-931.24377000000004
 20
707.36632999999995
 30
0.0
 11
-868.2437699999997
 21
707.36632999999995
 31
0.0
  0
LINE
  5
836
  8
0
  6
CONTINUOUS
 62
     7
 10
-931.24377000000004
 20
666.36632999999995
 30
0.0
 11
-868.2437699999997
 21
666.36632999999995
 31
0.0
  0
LINE
  5
837
  8
0
  6
CONTINUOUS
 62
     7
 10
-931.24377000000004
 20
699.86632999999995
 30
0.0
 11
-868.2437699999997
 21
699.86632999999995
 31
0.0
  0
LINE
  5
838
  8
0
  6
CONTINUOUS
 62
     3
 10
-971.24376999999981
 20
733.21624999999983
 30
0.0
 11
-1002.2438
 21
731.18622000000005
 31
0.0
  0
LINE
  5
839
  8
0
  6
CONTINUOUS
 62
     3
 10
-971.24376999999981
 20
640.51629999999989
 30
0.0
 11
-1002.2438
 21
642.54625999999985
 31
0.0
  0
LINE
  5
83A
  8
0
  6
CONTINUOUS
 62
     7
 10
-857.24377000000004
 20
163.29796999999991
 30
0.0
 11
-837.24377000000004
 21
163.29796999999991
 31
0.0
  0
LINE
  5
83B
  8
0
  6
CONTINUOUS
 62
     7
 10
-857.24377000000004
 20
178.18796
 30
0.0
 11
-837.24377000000004
 21
178.18796
 31
0.0
  0
LINE
  5
83C
  8
0
  6
CONTINUOUS
 62
     7
 10
-857.24377000000004
 20
267.37792999999999
 30
0.0
 11
-776.11974999999984
 21
267.37792999999999
 31
0.0
  0
ARC
  5
83D
  8
0
  6
CONTINUOUS
 62
     7
 10
-706.74377000000004
 20
813.61126999999988
 30
0.0
 40
2.0
 50
91.999998000000005
 51
180.00001
  0
ARC
  5
83E
  8
0
  6
CONTINUOUS
 62
     7
 10
-719.74377000000004
 20
800.99084000000005
 30
0.0
 40
3.0
 50
100.0
 51
180.00001
  0
ARC
  5
83F
  8
0
  6
CONTINUOUS
 62
     7
 10
-711.74377000000004
 20
808.49401999999998
 30
0.0
 40
3.0
 50
280.00000999999992
 51
0.0
  0
ARC
  5
840
  8
0
  6
CONTINUOUS
 62
     7
 10
-727.74377000000004
 20
766.39954
 30
0.0
 40
5.0
 50
272.0
 51
0.0
  0
ARC
  5
841
  8
0
  6
CONTINUOUS
 62
     7
 10
-580.74377000000004
 20
735.10895000000005
 30
0.0
 40
3.0
 50
179.99998999999991
 51
225.0
  0
ARC
  5
842
  8
0
  6
CONTINUOUS
 62
     7
 10
-580.74377000000004
 20
653.10895000000005
 30
0.0
 40
3.0
 50
315.0
 51
0.0
  0
ARC
  5
843
  8
0
  6
CONTINUOUS
 62
     7
 10
-580.74377000000004
 20
726.62365999999986
 30
0.0
 40
3.0
 50
0.0
 51
45.00000099999999
  0
ARC
  5
844
  8
0
  6
CONTINUOUS
 62
     7
 10
-580.74377000000004
 20
644.62365999999975
 30
0.0
 40
3.0
 50
135.0
 51
180.00001
  0
ARC
  5
845
  8
0
  6
CONTINUOUS
 62
     7
 10
-765.74377000000004
 20
818.93024000000003
 30
0.0
 40
4.0
 50
92.999999000000017
 51
180.00001
  0
ARC
  5
846
  8
0
  6
CONTINUOUS
 62
     7
 10
-581.74377000000004
 20
779.67511000000002
 30
0.0
 40
4.0
 50
278.21321999999992
 51
0.0
  0
CIRCLE
  5
847
  8
0
  6
CONTINUOUS
 62
     7
 10
-598.74377000000004
 20
801.86632999999983
 30
0.0
 40
9.5
  0
CIRCLE
  5
848
  8
0
  6
CONTINUOUS
 62
     7
 10
-748.74377000000004
 20
801.86632999999983
 30
0.0
 40
9.5
  0
ARC
  5
849
  8
0
  6
CONTINUOUS
 62
     7
 10
-765.74377000000004
 20
782.44323999999983
 30
0.0
 40
4.0
 50
180.00001
 51
265.00000999999992
  0
ARC
  5
84A
  8
0
  6
CONTINUOUS
 62
     7
 10
-581.74377000000004
 20
554.67511000000002
 30
0.0
 40
4.0
 50
272.0
 51
0.0
  0
ARC
  5
84B
  8
0
  6
CONTINUOUS
 62
     7
 10
-765.74377000000004
 20
591.28936999999985
 30
0.0
 40
4.0
 50
95.000001999999995
 51
180.00001
  0
CIRCLE
  5
84C
  8
0
  6
CONTINUOUS
 62
     7
 10
-748.74377000000004
 20
571.86632999999995
 30
0.0
 40
9.5
  0
CIRCLE
  5
84D
  8
0
  6
CONTINUOUS
 62
     7
 10
-598.74377000000004
 20
571.86632999999995
 30
0.0
 40
9.5
  0
ARC
  5
84E
  8
0
  6
CONTINUOUS
 62
     7
 10
-581.74377000000004
 20
594.05749999999989
 30
0.0
 40
4.0
 50
0.0
 51
81.786788999999985
  0
ARC
  5
84F
  8
0
  6
CONTINUOUS
 62
     7
 10
-765.74377000000004
 20
554.80236999999988
 30
0.0
 40
4.0
 50
180.00001
 51
266.99998999999991
  0
ARC
  5
850
  8
0
  6
CONTINUOUS
 62
     7
 10
-581.74377000000004
 20
819.0575
 30
0.0
 40
4.0
 50
0.0
 51
88.0
  0
ARC
  5
851
  8
0
  6
CONTINUOUS
 62
     7
 10
-580.74377000000004
 20
644.62365999999975
 30
0.0
 40
3.0
 50
135.0
 51
180.00001
  0
ARC
  5
852
  8
0
  6
CONTINUOUS
 62
     7
 10
-580.74377000000004
 20
726.62365999999986
 30
0.0
 40
3.0
 50
0.0
 51
44.999997999999998
  0
ARC
  5
853
  8
0
  6
CONTINUOUS
 62
     7
 10
-580.74377000000004
 20
653.10895000000005
 30
0.0
 40
3.0
 50
315.0
 51
0.0
  0
ARC
  5
854
  8
0
  6
CONTINUOUS
 62
     7
 10
-580.74377000000004
 20
735.10895000000005
 30
0.0
 40
3.0
 50
180.00001
 51
225.0
  0
ARC
  5
855
  8
0
  6
CONTINUOUS
 62
     7
 10
-651.30444
 20
820.03430000000003
 30
0.0
 40
10.0
 50
223.48295999999991
 51
268.0
  0
ARC
  5
856
  8
0
  6
CONTINUOUS
 62
     7
 10
-633.74377000000004
 20
801.41016000000002
 30
0.0
 40
8.0
 50
0.0
 51
88.0
  0
ARC
  5
857
  8
0
  6
CONTINUOUS
 62
     7
 10
-675.18311000000017
 20
816.14832000000013
 30
0.0
 40
10.0
 50
43.482965
 51
88.0
  0
ARC
  5
858
  8
0
  6
CONTINUOUS
 62
     7
 10
-716.74377000000004
 20
812.57629000000009
 30
0.0
 40
5.0
 50
82.860167000000004
 51
180.00001
  0
ARC
  5
859
  8
0
  6
CONTINUOUS
 62
     7
 10
-620.74377000000004
 20
819.41881999999987
 30
0.0
 40
5.0
 50
88.0
 51
180.00001
  0
ARC
  5
85A
  8
0
  6
CONTINUOUS
 62
     7
 10
-615.74377000000004
 20
795.86632999999983
 30
0.0
 40
10.0
 50
180.00001
 51
270.0
  0
ARC
  5
85B
  8
0
  6
CONTINUOUS
 62
     7
 10
-588.74377000000004
 20
768.06708000000003
 30
0.0
 40
5.0
 50
0.0
 51
88.0
  0
ARC
  5
85C
  8
0
  6
CONTINUOUS
 62
     7
 10
-580.74377000000004
 20
772.74688999999989
 30
0.0
 40
3.0
 50
98.213208999999992
 51
180.00001
  0
ARC
  5
85D
  8
0
  6
CONTINUOUS
 62
     7
 10
-651.30444
 20
553.69824000000006
 30
0.0
 40
10.0
 50
91.999998000000005
 51
136.51703999999981
  0
ARC
  5
85E
  8
0
  6
CONTINUOUS
 62
     7
 10
-633.74377000000004
 20
572.32250999999985
 30
0.0
 40
8.0
 50
272.0
 51
0.0
  0
ARC
  5
85F
  8
0
  6
CONTINUOUS
 62
     7
 10
-675.18311000000017
 20
557.58429000000001
 30
0.0
 40
10.0
 50
272.0
 51
316.51704000000001
  0
ARC
  5
860
  8
0
  6
CONTINUOUS
 62
     7
 10
-620.74377000000004
 20
554.31384000000003
 30
0.0
 40
5.0
 50
180.00001
 51
271.99998999999991
  0
ARC
  5
861
  8
0
  6
CONTINUOUS
 62
     7
 10
-615.74377000000004
 20
577.86632999999995
 30
0.0
 40
10.0
 50
90.000003000000007
 51
180.00001
  0
ARC
  5
862
  8
0
  6
CONTINUOUS
 62
     7
 10
-588.74377000000004
 20
605.66552999999999
 30
0.0
 40
5.0
 50
272.0
 51
0.0
  0
ARC
  5
863
  8
0
  6
CONTINUOUS
 62
     7
 10
-580.74377000000004
 20
600.9857199999999
 30
0.0
 40
3.0
 50
180.00001
 51
261.78677999999991
  0
ARC
  5
864
  8
0
  6
CONTINUOUS
 62
     7
 10
-613.74377000000004
 20
595.86632999999995
 30
0.0
 40
8.0
 50
270.0
 51
0.0
  0
ARC
  5
865
  8
0
  6
CONTINUOUS
 62
     7
 10
-598.13964999999985
 20
592.32947000000001
 30
0.0
 40
8.0
 50
91.999998000000005
 51
167.22925000000001
  0
ARC
  5
866
  8
0
  6
CONTINUOUS
 62
     7
 10
-613.74377000000004
 20
777.86632999999983
 30
0.0
 40
8.0
 50
0.0
 51
90.000003000000007
  0
ARC
  5
867
  8
0
  6
CONTINUOUS
 62
     7
 10
-598.13964999999985
 20
781.40314000000001
 30
0.0
 40
8.0
 50
192.77074999999991
 51
268.0
  0
ARC
  5
868
  8
0
  6
CONTINUOUS
 62
     7
 10
-682.74377000000004
 20
560.19115999999997
 30
0.0
 40
2.0
 50
272.0
 51
0.0
  0
ARC
  5
869
  8
0
  6
CONTINUOUS
 62
     7
 10
-678.74377000000004
 20
562.30811000000006
 30
0.0
 40
2.0
 50
91.999998000000005
 51
180.00001
  0
ARC
  5
86A
  8
0
  6
CONTINUOUS
 62
     7
 10
-682.74377000000004
 20
607.30053999999996
 30
0.0
 40
2.0
 50
0.0
 51
90.000003000000007
  0
ARC
  5
86B
  8
0
  6
CONTINUOUS
 62
     7
 10
-682.74377000000004
 20
637.30175999999994
 30
0.0
 40
2.0
 50
270.0
 51
0.0
  0
ARC
  5
86C
  8
0
  6
CONTINUOUS
 62
     7
 10
-676.71569999999997
 20
608.92004000000009
 30
0.0
 40
2.0
 50
270.0
 51
296.80020000000002
  0
ARC
  5
86D
  8
0
  6
CONTINUOUS
 62
     7
 10
-677.19421
 20
641.18573000000004
 30
0.0
 40
3.0
 50
54.348323999999998
 51
90.000003000000007
  0
ARC
  5
86E
  8
0
  6
CONTINUOUS
 62
     7
 10
-676.71569999999997
 20
764.8125
 30
0.0
 40
2.0
 50
63.199809000000002
 51
90.000003000000007
  0
ARC
  5
86F
  8
0
  6
CONTINUOUS
 62
     7
 10
-682.74377000000004
 20
813.54143999999985
 30
0.0
 40
2.0
 50
0.0
 51
88.0
  0
ARC
  5
870
  8
0
  6
CONTINUOUS
 62
     7
 10
-678.74377000000004
 20
811.42449999999985
 30
0.0
 40
2.0
 50
180.00001
 51
268.0
  0
ARC
  5
871
  8
0
  6
CONTINUOUS
 62
     7
 10
-677.19421
 20
732.54687999999999
 30
0.0
 40
3.0
 50
270.0
 51
305.65167000000002
  0
ARC
  5
872
  8
0
  6
CONTINUOUS
 62
     7
 10
-682.74377000000004
 20
766.43206999999984
 30
0.0
 40
2.0
 50
270.0
 51
0.0
  0
ARC
  5
873
  8
0
  6
CONTINUOUS
 62
     7
 10
-682.74377000000004
 20
736.43084999999985
 30
0.0
 40
2.0
 50
0.0
 51
90.000003000000007
  0
ARC
  5
874
  8
0
  6
CONTINUOUS
 62
     7
 10
-559.74377000000004
 20
686.86626999999976
 30
0.0
 40
6.0000037999999991
 50
90.000003000000007
 51
270.0
  0
ARC
  5
875
  8
0
  6
CONTINUOUS
 62
     7
 10
-705.74390000000017
 20
823.07605000000001
 30
0.0
 40
3.0
 50
92.999999000000017
 51
180.00001
  0
ARC
  5
876
  8
0
  6
CONTINUOUS
 62
     7
 10
-706.74377000000004
 20
560.12134000000003
 30
0.0
 40
2.0
 50
179.99998999999991
 51
268.00000999999992
  0
ARC
  5
877
  8
0
  6
CONTINUOUS
 62
     7
 10
-719.74377000000004
 20
572.74170000000004
 30
0.0
 40
3.0
 50
179.99998999999991
 51
260.0
  0
ARC
  5
878
  8
0
  6
CONTINUOUS
 62
     7
 10
-711.74377000000004
 20
565.23859000000004
 30
0.0
 40
3.0
 50
0.0
 51
79.999998000000005
  0
ARC
  5
879
  8
0
  6
CONTINUOUS
 62
     7
 10
-727.74377000000004
 20
607.33307000000002
 30
0.0
 40
5.0
 50
0.0
 51
88.0
  0
ARC
  5
87A
  8
0
  6
CONTINUOUS
 62
     7
 10
-705.74390000000017
 20
550.65648999999985
 30
0.0
 40
3.0
 50
180.00001
 51
266.99998999999991
  0
ARC
  5
87B
  8
0
  6
CONTINUOUS
 62
     7
 10
-716.74377000000004
 20
561.15637000000004
 30
0.0
 40
5.0
 50
180.00001
 51
277.1398299999999
  0
ARC
  5
87C
  8
0
  6
CONTINUOUS
 62
     7
 10
-711.74377000000004
 20
686.86632999999995
 30
0.0
 40
10.0
 50
23.578036999999991
 51
156.42196000000001
  0
ARC
  5
87D
  8
0
  6
CONTINUOUS
 62
     7
 10
-728.24377000000004
 20
686.86626999999976
 30
0.0
 40
3.9999962
 50
90.000003000000007
 51
270.0
  0
ARC
  5
87E
  8
0
  6
CONTINUOUS
 62
     7
 10
-695.24377000000004
 20
686.86626999999976
 30
0.0
 40
3.9999962
 50
270.0
 51
90.000003000000007
  0
ARC
  5
87F
  8
0
  6
CONTINUOUS
 62
     7
 10
-711.74377000000004
 20
686.86632999999995
 30
0.0
 40
10.0
 50
203.57826999999989
 51
336.42171999999999
  0
ARC
  5
880
  8
0
  6
CONTINUOUS
 62
     7
 10
-215.2809399999999
 20
289.54793999999993
 30
0.0
 40
20.999998000000001
 50
106.60155
 51
73.398452000000006
  0
CIRCLE
  5
881
  8
0
  6
CONTINUOUS
 62
     7
 10
-215.2809399999999
 20
289.54793999999993
 30
0.0
 40
3.5
  0
CIRCLE
  5
882
  8
0
  6
CONTINUOUS
 62
     7
 10
-215.2809399999999
 20
289.54793999999993
 30
0.0
 40
5.0
  0
ARC
  5
883
  8
0
  6
CONTINUOUS
 62
     7
 10
-683.74383999999986
 20
231.93762000000001
 30
0.0
 40
3.0
 50
0.0
 51
90.000003000000007
  0
ARC
  5
884
  8
0
  6
CONTINUOUS
 62
     7
 10
-677.60772999999995
 20
270.06322999999992
 30
0.0
 40
3.0
 50
41.102821999999989
 51
90.000003000000007
  0
ARC
  5
885
  8
0
  6
CONTINUOUS
 62
     7
 10
-683.74383999999986
 20
352.87222000000008
 30
0.0
 40
3.0
 50
0.0
 51
90.000003000000007
  0
ARC
  5
886
  8
0
  6
CONTINUOUS
 62
     7
 10
-683.74383999999986
 20
269.55972000000003
 30
0.0
 40
3.0
 50
270.0
 51
0.0
  0
ARC
  5
887
  8
0
  6
CONTINUOUS
 62
     7
 10
-670.74377000000004
 20
251.5479399999999
 30
0.0
 40
10.0
 50
306.82303999999999
 51
41.102821999999989
  0
ARC
  5
888
  8
0
  6
CONTINUOUS
 62
     7
 10
-670.74377000000004
 20
359.36810000000008
 30
0.0
 40
10.0
 50
288.46821
 51
59.833878000000013
  0
ARC
  5
889
  8
0
  6
CONTINUOUS
 62
     7
 10
-345.28093999999999
 20
251.5479399999999
 30
0.0
 40
10.0
 50
135.0
 51
225.0
  0
ARC
  5
88A
  8
0
  6
CONTINUOUS
 62
     7
 10
-150.28093999999979
 20
364.13126
 30
0.0
 40
10.0
 50
15.0
 51
105.0
  0
ARC
  5
88B
  8
0
  6
CONTINUOUS
 62
     7
 10
-85.280944999999988
 20
251.5479399999999
 30
0.0
 40
10.0
 50
315.0
 51
45.00000099999999
  0
ARC
  5
88C
  8
0
  6
CONTINUOUS
 62
     7
 10
-613.74383999999975
 20
193.14581000000001
 30
0.0
 40
8.0
 50
270.0
 51
0.0
  0
ARC
  5
88D
  8
0
  6
CONTINUOUS
 62
     7
 10
-307.98095999999993
 20
135.54795999999999
 30
0.0
 40
4.0
 50
0.0
 51
90.000003000000007
  0
ARC
  5
88E
  8
0
  6
CONTINUOUS
 62
     7
 10
-215.2809399999999
 20
251.5479399999999
 30
0.0
 40
130.0
 50
127.3754999999999
 51
172.62448999999989
  0
ARC
  5
88F
  8
0
  6
CONTINUOUS
 62
     7
 10
-676.73150999999984
 20
349.98824999999999
 30
0.0
 40
3.0
 50
270.0
 51
288.46821999999992
  0
ARC
  5
890
  8
0
  6
CONTINUOUS
 62
     7
 10
-677.05230999999981
 20
371.13125999999988
 30
0.0
 40
3.0
 50
59.833878000000013
 51
90.000003000000007
  0
ARC
  5
891
  8
0
  6
CONTINUOUS
 62
     7
 10
-280.28093999999999
 20
364.13126
 30
0.0
 40
10.0
 50
74.999999000000003
 51
164.99999
  0
ARC
  5
892
  8
0
  6
CONTINUOUS
 62
     7
 10
-215.2809399999999
 20
251.5479399999999
 30
0.0
 40
124.5
 50
7.1014839000000007
 51
172.89851999999991
  0
ARC
  5
893
  8
0
  6
CONTINUOUS
 62
     7
 10
-215.2809399999999
 20
251.5479399999999
 30
0.0
 40
130.0
 50
187.37550999999999
 51
189.62446
  0
ARC
  5
894
  8
0
  6
CONTINUOUS
 62
     7
 10
-215.2809399999999
 20
251.5479399999999
 30
0.0
 40
130.0
 50
67.375506000000001
 51
112.62448999999999
  0
ARC
  5
895
  8
0
  6
CONTINUOUS
 62
     7
 10
-296.28098
 20
115.54796
 30
0.0
 40
4.0
 50
99.488295999999963
 51
180.00001
  0
ARC
  5
896
  8
0
  6
CONTINUOUS
 62
     7
 10
-134.28095999999999
 20
115.54796
 30
0.0
 40
4.0
 50
0.0
 51
80.511701999999985
  0
ARC
  5
897
  8
0
  6
CONTINUOUS
 62
     7
 10
-350.28093999999987
 20
134.54793999999981
 30
0.0
 40
5.0
 50
90.000003000000007
 51
180.00001
  0
ARC
  5
898
  8
0
  6
CONTINUOUS
 62
     7
 10
-80.280944999999988
 20
134.54793999999981
 30
0.0
 40
5.0
 50
0.0
 51
90.000003000000007
  0
ARC
  5
899
  8
0
  6
CONTINUOUS
 62
     7
 10
-615.74377000000004
 20
323.72078999999991
 30
0.0
 40
10.0
 50
90.000003000000007
 51
180.00001
  0
CIRCLE
  5
89A
  8
0
  6
CONTINUOUS
 62
     7
 10
-215.2809399999999
 20
289.54793999999993
 30
0.0
 40
41.0
  0
ARC
  5
89B
  8
0
  6
CONTINUOUS
 62
     7
 10
-122.58096
 20
135.54795999999999
 30
0.0
 40
4.0
 50
90.000003000000007
 51
180.00001
  0
ARC
  5
89C
  8
0
  6
CONTINUOUS
 62
     7
 10
-119.28095999999979
 20
147.54796999999991
 30
0.0
 40
8.0
 50
180.00001
 51
270.0
  0
ARC
  5
89D
  8
0
  6
CONTINUOUS
 62
     7
 10
-215.2809399999999
 20
261.54793999999998
 30
0.0
 40
88.0
 50
0.0
 51
186.52497999999991
  0
ARC
  5
89E
  8
0
  6
CONTINUOUS
 62
     7
 10
-215.2809399999999
 20
251.5479399999999
 30
0.0
 40
130.0
 50
7.3755072000000004
 51
52.624493999999991
  0
ARC
  5
89F
  8
0
  6
CONTINUOUS
 62
     7
 10
-311.28097999999989
 20
147.54796999999991
 30
0.0
 40
8.0
 50
270.0
 51
0.0
  0
ARC
  5
8A0
  8
0
  6
CONTINUOUS
 62
     7
 10
-215.2809399999999
 20
217.5380899999999
 30
0.0
 40
93.999992000000006
 50
179.99998999999991
 51
200.58195999999981
  0
ARC
  5
8A1
  8
0
  6
CONTINUOUS
 62
     7
 10
-617.74377000000004
 20
147.54796999999991
 30
0.0
 40
8.0
 50
180.00001
 51
270.0
  0
ARC
  5
8A2
  8
0
  6
CONTINUOUS
 62
     7
 10
-586.74377000000004
 20
346.54793999999993
 30
0.0
 40
3.0
 50
0.0
 51
90.000003000000007
  0
ARC
  5
8A3
  8
0
  6
CONTINUOUS
 62
     7
 10
-682.74377000000004
 20
379.09276999999992
 30
0.0
 40
2.0
 50
0.0
 51
88.0
  0
ARC
  5
8A4
  8
0
  6
CONTINUOUS
 62
     7
 10
-678.74383999999998
 20
377.66931
 30
0.0
 40
2.0
 50
179.99998999999991
 51
268.00000999999992
  0
ARC
  5
8A5
  8
0
  6
CONTINUOUS
 62
     7
 10
-597.74377000000004
 20
357.54797000000002
 30
0.0
 40
8.0
 50
180.00001
 51
270.0
  0
ARC
  5
8A6
  8
0
  6
CONTINUOUS
 62
     7
 10
-579.74377000000004
 20
143.2939299999999
 30
0.0
 40
4.0
 50
179.99998999999991
 51
255.52249
  0
ARC
  5
8A7
  8
0
  6
CONTINUOUS
 62
     7
 10
-215.2809399999999
 20
251.5479399999999
 30
0.0
 40
130.0
 50
350.37554999999998
 51
352.62448999999998
  0
ARC
  5
8A8
  8
0
  6
CONTINUOUS
 62
     7
 10
-581.74377000000004
 20
135.54795999999999
 30
0.0
 40
4.0
 50
0.0
 51
90.000003000000007
  0
ARC
  5
8A9
  8
0
  6
CONTINUOUS
 62
     7
 10
-215.2809399999999
 20
217.5380899999999
 30
0.0
 40
93.999992000000006
 50
339.95001999999982
 51
20.049976000000001
  0
ARC
  5
8AA
  8
0
  6
CONTINUOUS
 62
     7
 10
-725.66503999999975
 20
147.54796999999991
 30
0.0
 40
8.0
 50
270.0
 51
322.22431999999992
  0
ARC
  5
8AB
  8
0
  6
CONTINUOUS
 62
     7
 10
-122.28095
 20
183.59696999999991
 30
0.0
 40
5.0
 50
159.95003
 51
180.00001
  0
ARC
  5
8AC
  8
0
  6
CONTINUOUS
 62
     7
 10
-122.28095
 20
251.47919999999991
 30
0.0
 40
5.0
 50
179.99998999999991
 51
200.04997
  0
ARC
  5
8AD
  8
0
  6
CONTINUOUS
 62
     7
 10
-695.74377000000004
 20
181.2586399999999
 30
0.0
 40
5.0
 50
322.22431999999992
 51
0.0
  0
ARC
  5
8AE
  8
0
  6
CONTINUOUS
 62
     7
 10
-765.74377000000004
 20
135.54795999999999
 30
0.0
 40
4.0
 50
90.000003000000007
 51
180.00001
  0
ARC
  5
8AF
  8
0
  6
CONTINUOUS
 62
     7
 10
-580.74377000000004
 20
247.30530999999999
 30
0.0
 40
3.0
 50
135.0
 51
180.00001
  0
ARC
  5
8B0
  8
0
  6
CONTINUOUS
 62
     7
 10
-580.74377000000004
 20
329.30532999999991
 30
0.0
 40
3.0
 50
0.0
 51
45.00000099999999
  0
ARC
  5
8B1
  8
0
  6
CONTINUOUS
 62
     7
 10
-580.74377000000004
 20
255.79057
 30
0.0
 40
3.0
 50
315.0
 51
0.0
  0
ARC
  5
8B2
  8
0
  6
CONTINUOUS
 62
     7
 10
-580.74377000000004
 20
337.79059000000001
 30
0.0
 40
3.0
 50
179.99998999999991
 51
225.0
  0
ARC
  5
8B3
  8
0
  6
CONTINUOUS
 62
     7
 10
-298.25911999999983
 20
127.38378
 30
0.0
 40
8.0
 50
279.48829999999998
 51
357.00554
  0
ARC
  5
8B4
  8
0
  6
CONTINUOUS
 62
     7
 10
-282.28093999999999
 20
126.54794
 30
0.0
 40
8.0
 50
90.000003000000007
 51
177.00553999999991
  0
ARC
  5
8B5
  8
0
  6
CONTINUOUS
 62
     7
 10
-148.28095999999991
 20
126.54794
 30
0.0
 40
8.0
 50
2.9944643999999991
 51
90.000003000000007
  0
ARC
  5
8B6
  8
0
  6
CONTINUOUS
 62
     7
 10
-613.74383999999975
 20
365.39333999999991
 30
0.0
 40
8.0
 50
0.0
 51
88.0
  0
ARC
  5
8B7
  8
0
  6
CONTINUOUS
 62
     7
 10
-348.07657
 20
233.13036
 30
0.0
 40
5.0
 50
352.89852000000002
 51
45.00000099999999
  0
ARC
  5
8B8
  8
0
  6
CONTINUOUS
 62
     7
 10
-342.54766999999993
 20
275.49444999999992
 30
0.0
 40
5.0
 50
315.0
 51
349.34381999999982
  0
ARC
  5
8B9
  8
0
  6
CONTINUOUS
 62
     7
 10
-299.65258999999992
 20
349.79088999999999
 30
0.0
 40
5.0
 50
310.65618000000001
 51
345.0
  0
ARC
  5
8BA
  8
0
  6
CONTINUOUS
 62
     7
 10
-258.17602999999991
 20
373.73739999999992
 30
0.0
 40
5.0
 50
255.0
 51
289.34381999999982
  0
ARC
  5
8BB
  8
0
  6
CONTINUOUS
 62
     7
 10
-172.38585999999981
 20
373.73739999999992
 30
0.0
 40
5.0
 50
250.65617999999989
 51
285.0
  0
ARC
  5
8BC
  8
0
  6
CONTINUOUS
 62
     7
 10
-130.90932000000001
 20
349.79088999999999
 30
0.0
 40
5.0
 50
195.00001
 51
229.34381999999991
  0
ARC
  5
8BD
  8
0
  6
CONTINUOUS
 62
     7
 10
-163.34781000000001
 20
376.15915000000001
 30
0.0
 40
5.0
 50
247.37550999999991
 51
285.0
  0
ARC
  5
8BE
  8
0
  6
CONTINUOUS
 62
     7
 10
-88.014235999999968
 20
275.49444999999992
 30
0.0
 40
5.0
 50
190.65618000000001
 51
225.0
  0
ARC
  5
8BF
  8
0
  6
CONTINUOUS
 62
     7
 10
-82.485328999999979
 20
233.13036
 30
0.0
 40
5.0
 50
135.0
 51
187.1014899999999
  0
ARC
  5
8C0
  8
0
  6
CONTINUOUS
 62
     7
 10
-267.21407999999991
 20
376.15915000000001
 30
0.0
 40
5.0
 50
255.0
 51
292.62448999999998
  0
ARC
  5
8C1
  8
0
  6
CONTINUOUS
 62
     7
 10
-133.3310699999999
 20
358.82898
 30
0.0
 40
5.0
 50
195.00001
 51
232.62450000000001
  0
ARC
  5
8C2
  8
0
  6
CONTINUOUS
 62
     7
 10
-81.397925999999984
 20
268.87810999999988
 30
0.0
 40
5.0
 50
187.37550999999999
 51
225.0
  0
ARC
  5
8C3
  8
0
  6
CONTINUOUS
 62
     7
 10
-297.23082999999991
 20
358.82898
 30
0.0
 40
5.0
 50
307.37551000000002
 51
345.0
  0
ARC
  5
8C4
  8
0
  6
CONTINUOUS
 62
     7
 10
-349.16397000000001
 20
268.87810999999988
 30
0.0
 40
5.0
 50
315.0
 51
352.62448999999998
  0
ARC
  5
8C5
  8
0
  6
CONTINUOUS
 62
     7
 10
-349.16397000000001
 20
234.21777
 30
0.0
 40
5.0
 50
7.3755080999999967
 51
45.00000099999999
  0
ARC
  5
8C6
  8
0
  6
CONTINUOUS
 62
     7
 10
-81.397925999999984
 20
234.21777
 30
0.0
 40
5.0
 50
135.0
 51
172.62448999999989
  0
ARC
  5
8C7
  8
0
  6
CONTINUOUS
 62
     7
 10
-132.30279999999991
 20
127.38378
 30
0.0
 40
8.0
 50
182.99446
 51
260.51170000000002
  0
ARC
  5
8C8
  8
0
  6
CONTINUOUS
 62
     7
 10
-285.63540999999992
 20
124.2786199999999
 30
0.0
 40
5.0
 50
90.000003000000007
 51
166.18078
  0
ARC
  5
8C9
  8
0
  6
CONTINUOUS
 62
     7
 10
-144.9265
 20
124.2786199999999
 30
0.0
 40
5.0
 50
13.819217
 51
90.000003000000007
  0
ARC
  5
8CA
  8
0
  6
CONTINUOUS
 62
     7
 10
-215.2809399999999
 20
418.54793999999998
 30
0.0
 40
4.0
 50
359.99998999999991
 51
179.99998999999991
  0
ARC
  5
8CB
  8
0
  6
CONTINUOUS
 62
     7
 10
-221.28095999999991
 20
385.04797000000002
 30
0.0
 40
2.0
 50
270.0
 51
0.0
  0
ARC
  5
8CC
  8
0
  6
CONTINUOUS
 62
     7
 10
-209.28095999999991
 20
385.04797000000002
 30
0.0
 40
2.0
 50
179.99998999999991
 51
270.0
  0
ARC
  5
8CD
  8
0
  6
CONTINUOUS
 62
     7
 10
-222.60279999999989
 20
387.17919999999992
 30
0.0
 40
1.0
 50
100.4607199999999
 51
164.99999
  0
ARC
  5
8CE
  8
0
  6
CONTINUOUS
 62
     7
 10
-207.95908999999989
 20
387.17919999999992
 30
0.0
 40
1.0
 50
15.0
 51
79.539281000000003
  0
CIRCLE
  5
8CF
  8
0
  6
CONTINUOUS
 62
     7
 10
-711.74377000000004
 20
402.04797000000002
 30
0.0
 40
12.5
  0
ARC
  5
8D0
  8
0
  6
CONTINUOUS
 62
     7
 10
-711.74377000000004
 20
402.04797000000002
 30
0.0
 40
20.5
 50
304.61363999999992
 51
235.38634999999999
  0
ARC
  5
8D1
  8
0
  6
CONTINUOUS
 62
     7
 10
-697.82684000000006
 20
381.88443000000001
 30
0.0
 40
4.0
 50
124.61365000000001
 51
187.86824999999999
  0
ARC
  5
8D2
  8
0
  6
CONTINUOUS
 62
     7
 10
-725.66076999999984
 20
381.88443000000001
 30
0.0
 40
4.0
 50
347.92932999999999
 51
55.386358999999999
  0
ARC
  5
8D3
  8
0
  6
CONTINUOUS
 62
     7
 10
-704.42194000000018
 20
387.17922999999979
 30
0.0
 40
1.0
 50
15.0
 51
79.539281000000003
  0
ARC
  5
8D4
  8
0
  6
CONTINUOUS
 62
     7
 10
-719.06560999999988
 20
387.17922999999979
 30
0.0
 40
1.0
 50
100.4607199999999
 51
164.99999
  0
ARC
  5
8D5
  8
0
  6
CONTINUOUS
 62
     7
 10
-727.74370999999985
 20
331.0811799999999
 30
0.0
 40
5.0
 50
272.0
 51
0.0
  0
ARC
  5
8D6
  8
0
  6
CONTINUOUS
 62
     7
 10
-725.74377000000004
 20
163.71805000000001
 30
0.0
 40
3.0
 50
0.0
 51
84.999996999999979
  0
ARC
  5
8D7
  8
0
  6
CONTINUOUS
 62
     7
 10
-749.24377000000004
 20
171.79693999999981
 30
0.0
 40
3.0
 50
179.99998999999991
 51
265.0
  0
ARC
  5
8D8
  8
0
  6
CONTINUOUS
 62
     7
 10
-755.24370999999985
 20
174.97628999999989
 30
0.0
 40
3.0
 50
0.0
 51
88.0
  0
ARC
  5
8D9
  8
0
  6
CONTINUOUS
 62
     7
 10
-720.74377000000004
 20
379.54797000000002
 30
0.0
 40
2.0
 50
131.4096199999999
 51
180.00001
  0
ARC
  5
8DA
  8
0
  6
CONTINUOUS
 62
     7
 10
-711.74377000000004
 20
373.17565999999999
 30
0.0
 40
3.0
 50
280.0
 51
0.0
  0
ARC
  5
8DB
  8
0
  6
CONTINUOUS
 62
     7
 10
-719.74377000000004
 20
365.67252000000002
 30
0.0
 40
3.0
 50
100.0
 51
180.00001
  0
ARC
  5
8DC
  8
0
  6
CONTINUOUS
 62
     7
 10
-706.74377000000004
 20
379.16259999999988
 30
0.0
 40
2.0
 50
91.999998000000005
 51
180.00001
  0
ARC
  5
8DD
  8
0
  6
CONTINUOUS
 62
     7
 10
-766.70214999999985
 20
173.87578999999991
 30
0.0
 40
4.0
 50
88.0
 51
107.3416099999999
  0
ARC
  5
8DE
  8
0
  6
CONTINUOUS
 62
     7
 10
-833.82024999999987
 20
152.9173899999999
 30
0.0
 40
4.0
 50
107.3416099999999
 51
158.11661000000001
  0
ARC
  5
8DF
  8
0
  6
CONTINUOUS
 62
     7
 10
-763.24377000000004
 20
181.75992999999991
 30
0.0
 40
4.0
 50
206.8969399999998
 51
268.0
  0
ARC
  5
8E0
  8
0
  6
CONTINUOUS
 62
     7
 10
-770.37829999999985
 20
178.1408099999999
 30
0.0
 40
4.0
 50
26.896937000000001
 51
88.0
  0
ARC
  5
8E1
  8
0
  6
CONTINUOUS
 62
     7
 10
-763.36126999999999
 20
321.3318799999999
 30
0.0
 40
4.0
 50
91.999998000000005
 51
170.16762
  0
ARC
  5
8E2
  8
0
  6
CONTINUOUS
 62
     7
 10
-771.24377000000004
 20
321.20479999999992
 30
0.0
 40
4.0
 50
315.0
 51
0.0
  0
ARC
  5
8E3
  8
0
  6
CONTINUOUS
 62
     7
 10
-837.24377000000004
 20
291.71947999999992
 30
0.0
 40
5.0
 50
91.999998000000005
 51
180.00001
  0
ARC
  5
8E4
  8
0
  6
CONTINUOUS
 62
     7
 10
-832.24377000000004
 20
217.34105999999991
 30
0.0
 40
5.0
 50
90.000003000000007
 51
180.00001
  0
ARC
  5
8E5
  8
0
  6
CONTINUOUS
 62
     7
 10
-847.24376999999981
 20
284.69018999999992
 30
0.0
 40
5.0
 50
272.0
 51
0.0
  0
ARC
  5
8E6
  8
0
  6
CONTINUOUS
 62
     7
 10
-839.24376999999981
 20
313.31914999999992
 30
0.0
 40
3.0
 50
91.999998000000005
 51
180.00001
  0
ARC
  5
8E7
  8
0
  6
CONTINUOUS
 62
     7
 10
-841.24376999999981
 20
155.89911000000001
 30
0.0
 40
4.0
 50
272.0
 51
0.0
  0
ARC
  5
8E8
  8
0
  6
CONTINUOUS
 62
     7
 10
-832.24377000000004
 20
179.3006
 30
0.0
 40
5.0
 50
88.0
 51
180.00001
  0
ARC
  5
8E9
  8
0
  6
CONTINUOUS
 62
     7
 10
-790.07647999999983
 20
302.37209999999999
 30
0.0
 40
4.0
 50
272.0
 51
315.0
  0
ARC
  5
8EA
  8
0
  6
CONTINUOUS
 62
     7
 10
-771.24377000000004
 20
322.69799999999992
 30
0.0
 40
4.0
 50
272.0
 51
350.16761000000002
  0
ARC
  5
8EB
  8
0
  6
CONTINUOUS
 62
     3
 10
-1016.2506
 20
263.35586999999998
 30
0.0
 40
0.99319202
 50
119.7734
 51
179.87956
  0
ARC
  5
8EC
  8
0
  6
CONTINUOUS
 62
     3
 10
-1016.2482
 20
262.31763000000001
 30
0.0
 40
0.9955879999999998
 50
116.58749
 51
179.98224999999991
  0
ARC
  5
8ED
  8
0
  6
CONTINUOUS
 62
     3
 10
-1014.981799999999
 20
264.09206999999992
 30
0.0
 40
0.99591202
 50
89.541443999999998
 51
119.6069899999999
  0
ARC
  5
8EE
  8
0
  6
CONTINUOUS
 62
     3
 10
-1015.018999999999
 20
262.94393999999983
 30
0.0
 40
0.9941279899999999
 50
89.122808000000006
 51
115.93481
  0
ARC
  5
8EF
  8
0
  6
CONTINUOUS
 62
     3
 10
-1014.975
 20
261.98376000000002
 30
0.0
 40
0.9942600099999999
 50
89.355881999999966
 51
120.78109000000001
  0
ARC
  5
8F0
  8
0
  6
CONTINUOUS
 62
     3
 10
-1015.008699999998
 20
260.84258999999992
 30
0.0
 40
0.99546802
 50
89.141447999999983
 51
117.2036599999999
  0
ARC
  5
8F1
  8
0
  6
CONTINUOUS
 62
     3
 10
-1014.9371
 20
257.47176999999982
 30
0.0
 40
0.9962120099999999
 50
90.381906000000001
 51
123.9699
  0
ARC
  5
8F2
  8
0
  6
CONTINUOUS
 62
     3
 10
-1014.964399999999
 20
256.33148
 30
0.0
 40
0.99651998
 50
90.541213000000027
 51
120.7432799999999
  0
ARC
  5
8F3
  8
0
  6
CONTINUOUS
 62
     3
 10
-1016.2498000000001
 20
255.58115000000001
 30
0.0
 40
0.99407595
 50
120.4692
 51
180.18464
  0
ARC
  5
8F4
  8
0
  6
CONTINUOUS
 62
     3
 10
-1016.248999999999
 20
256.61556999999988
 30
0.0
 40
0.9948280499999999
 50
123.2046899999999
 51
180.43813
  0
ARC
  5
8F5
  8
0
  6
CONTINUOUS
 62
     3
 10
-1016.2506
 20
260.17937999999992
 30
0.0
 40
0.99321198
 50
117.7993399999999
 51
180.08183
  0
ARC
  5
8F6
  8
0
  6
CONTINUOUS
 62
     7
 10
-893.7488400000002
 20
192.8429999999999
 30
0.0
 40
5.4981922999999986
 50
84.729479999999981
 51
185.27052
  0
ARC
  5
8F7
  8
0
  6
CONTINUOUS
 62
     3
 10
-1016.2494
 20
261.21694999999983
 30
0.0
 40
0.99443597
 50
121.15217
 51
179.9404899999999
  0
ARC
  5
8F8
  8
0
  6
CONTINUOUS
 62
     3
 10
-1015.0428000000001
 20
250.0324899999998
 30
0.0
 40
0.99548006
 50
90.057320999999988
 51
113.12703
  0
ARC
  5
8F9
  8
0
  6
CONTINUOUS
 62
     3
 10
-999.10315000000003
 20
174.11882
 30
0.0
 40
1.004235999999999
 50
314.93782999999991
 51
5.6649238999999989
  0
ARC
  5
8FA
  8
0
  6
CONTINUOUS
 62
     3
 10
-887.74364999999989
 20
243.83812999999989
 30
0.0
 40
1.4998400000000001
 50
359.99394000000001
 51
90.006061000000003
  0
ARC
  5
8FB
  8
0
  6
CONTINUOUS
 62
     3
 10
-887.74871999999993
 20
186.84286
 30
0.0
 40
1.5049159999999959
 50
270.18678
 51
359.81322
  0
ARC
  5
8FC
  8
0
  6
CONTINUOUS
 62
     7
 10
-938.74860000000001
 20
237.84277
 30
0.0
 40
5.5071000999999971
 50
264.84087999999991
 51
5.1591262000000002
  0
ARC
  5
8FD
  8
0
  6
CONTINUOUS
 62
     3
 10
-1015.104699999999
 20
248.08527000000001
 30
0.0
 40
0.99277198
 50
89.374808000000016
 51
106.33181999999979
  0
ARC
  5
8FE
  8
0
  6
CONTINUOUS
 62
     3
 10
-1016.2476
 20
247.73369999999991
 30
0.0
 40
0.9962600499999998
 50
106.6974899999999
 51
180.33049
  0
ARC
  5
8FF
  8
0
  6
CONTINUOUS
 62
     3
 10
-1016.2473999999989
 20
249.51952
 30
0.0
 40
0.99640006
 50
112.8173899999998
 51
180.0903999999999
  0
ARC
  5
900
  8
0
  6
CONTINUOUS
 62
     3
 10
-1016.2487
 20
240.34287999999989
 30
0.0
 40
0.9950799899999999
 50
89.71592099999998
 51
180.2840699999999
  0
ARC
  5
901
  8
0
  6
CONTINUOUS
 62
     3
 10
-1016.243599999999
 20
240.33815000000001
 30
0.0
 40
1.0002040000000001
 50
180.0116699999999
 51
269.9883200000001
  0
ARC
  5
902
  8
0
  6
CONTINUOUS
 62
     3
 10
-1016.2487
 20
230.34287999999981
 30
0.0
 40
0.9950840499999999
 50
89.716132999999985
 51
180.28387000000001
  0
ARC
  5
903
  8
0
  6
CONTINUOUS
 62
     3
 10
-1016.243599999999
 20
230.3381499999999
 30
0.0
 40
1.000199899999999
 50
180.0114699999998
 51
269.98852999999991
  0
ARC
  5
904
  8
0
  6
CONTINUOUS
 62
     3
 10
-1016.2487
 20
220.34287999999981
 30
0.0
 40
0.9950879799999999
 50
89.716344999999961
 51
180.28364999999991
  0
ARC
  5
905
  8
0
  6
CONTINUOUS
 62
     3
 10
-1016.243599999999
 20
220.33815000000001
 30
0.0
 40
1.0001959999999981
 50
180.01124999999999
 51
269.98874000000001
  0
ARC
  5
906
  8
0
  6
CONTINUOUS
 62
     3
 10
-1013.2436
 20
218.3381
 30
0.0
 40
0.99984801
 50
359.99121999999988
 51
90.008778999999976
  0
ARC
  5
907
  8
0
  6
CONTINUOUS
 62
     3
 10
-1013.248699999999
 20
222.3428999999999
 30
0.0
 40
1.0049240999999991
 50
270.28001
 51
359.71999
  0
ARC
  5
908
  8
0
  6
CONTINUOUS
 62
     3
 10
-1013.2436
 20
228.3380999999998
 30
0.0
 40
0.9998440099999999
 50
359.99101000000002
 51
90.008991000000023
  0
ARC
  5
909
  8
0
  6
CONTINUOUS
 62
     3
 10
-1013.248699999999
 20
232.3428999999999
 30
0.0
 40
1.004928
 50
270.28021999999987
 51
359.71977999999979
  0
ARC
  5
90A
  8
0
  6
CONTINUOUS
 62
     3
 10
-1013.2436
 20
238.33809999999991
 30
0.0
 40
0.99985206
 50
359.99144999999999
 51
90.008546999999993
  0
ARC
  5
90B
  8
0
  6
CONTINUOUS
 62
     3
 10
-1013.248699999999
 20
242.34289999999999
 30
0.0
 40
1.0049318999999981
 50
270.28041999999999
 51
359.71958000000001
  0
ARC
  5
90C
  8
0
  6
CONTINUOUS
 62
     3
 10
-1013.2421000000001
 20
248.07966999999991
 30
0.0
 40
0.9982959599999999
 50
359.90204
 51
90.097960999999998
  0
ARC
  5
90D
  8
0
  6
CONTINUOUS
 62
     3
 10
-1013.246199999999
 20
256.32558999999992
 30
0.0
 40
1.002375999999999
 50
0.13559199
 51
89.864409999999964
  0
ARC
  5
90E
  8
0
  6
CONTINUOUS
 62
     3
 10
-1012.9483999999979
 20
251.73249999999999
 30
0.0
 40
0.7045519900000004
 50
270.36910999999992
 51
359.63088999999991
  0
ARC
  5
90F
  8
0
  6
CONTINUOUS
 62
     3
 10
-1013.2428
 20
260.83893
 30
0.0
 40
0.9990080599999998
 50
359.94315
 51
90.056843000000015
  0
ARC
  5
910
  8
0
  6
CONTINUOUS
 62
     3
 10
-1012.7421000000001
 20
263.43961000000002
 30
0.0
 40
0.4983640000000002
 50
359.81141000000002
 51
90.188598000000013
  0
ARC
  5
911
  8
0
  6
CONTINUOUS
 62
     3
 10
-1012.748399999999
 20
265.59258999999992
 30
0.0
 40
0.5046359900000002
 50
270.52375999999992
 51
359.47624000000002
  0
ARC
  5
912
  8
0
  6
CONTINUOUS
 62
     3
 10
-864.24359000000004
 20
152.83815000000001
 30
0.0
 40
1.0001799999999981
 50
180.01031
 51
269.98967999999968
  0
ARC
  5
913
  8
0
  6
CONTINUOUS
 62
     3
 10
-872.43908999999985
 20
155.48333999999991
 30
0.0
 40
2.005392099999999
 50
270.15275000000003
 51
344.81207000000001
  0
ARC
  5
914
  8
0
  6
CONTINUOUS
 62
     3
 10
-864.24425999999983
 20
164.2974199999999
 30
0.0
 40
0.9994760199999999
 50
179.97008999999991
 51
270.02991999999989
  0
ARC
  5
915
  8
0
  6
CONTINUOUS
 62
     3
 10
-990.24854000000005
 20
220.33797000000001
 30
0.0
 40
1.000011999999999
 50
89.726507999999981
 51
270.27347999999989
  0
ARC
  5
916
  8
0
  6
CONTINUOUS
 62
     3
 10
-1006.0227999999991
 20
266.32552999999967
 30
0.0
 40
1.9924479999999991
 50
89.742107999999988
 51
169.8117899999998
  0
ARC
  5
917
  8
0
  6
CONTINUOUS
 62
     3
 10
-1006.0789
 20
271.60867000000002
 30
0.0
 40
1.9992881
 50
89.851815000000016
 51
167.89433
  0
ARC
  5
918
  8
0
  6
CONTINUOUS
 62
     3
 10
-1010.4594
 20
267.87819999999982
 30
0.0
 40
1.500248
 50
270.21661999999992
 51
347.67500000000001
  0
ARC
  5
919
  8
0
  6
CONTINUOUS
 62
     3
 10
-1006.1118
 20
275.01342999999991
 30
0.0
 40
1.9945158999999959
 50
89.771334999999979
 51
166.8280399999999
  0
ARC
  5
91A
  8
0
  6
CONTINUOUS
 62
     3
 10
-1010.435399999999
 20
271.94173999999992
 30
0.0
 40
1.503776
 50
270.05984000000001
 51
346.39312999999999
  0
ARC
  5
91B
  8
0
  6
CONTINUOUS
 62
     3
 10
-1010.4225
 20
273.96114999999992
 30
0.0
 40
1.5032319999999959
 50
270.33132000000001
 51
346.01802999999978
  0
ARC
  5
91C
  8
0
  6
CONTINUOUS
 62
     3
 10
-1006.1372
 20
276.64113999999989
 30
0.0
 40
1.996815999999999
 50
89.901436000000004
 51
165.88940999999991
  0
ARC
  5
91D
  8
0
  6
CONTINUOUS
 62
     3
 10
-989.24841000000004
 20
275.20260999999999
 30
0.0
 40
1.9953639999999999
 50
89.866758999999988
 51
180.13323
  0
ARC
  5
91E
  8
0
  6
CONTINUOUS
 62
     3
 10
-989.24756000000002
 20
277.23174999999992
 30
0.0
 40
1.9961880000000001
 50
89.890486999999965
 51
180.10950999999989
  0
ARC
  5
91F
  8
0
  6
CONTINUOUS
 62
     3
 10
-989.25023999999974
 20
278.58440999999982
 30
0.0
 40
1.9935560000000001
 50
89.814515
 51
180.18548999999999
  0
ARC
  5
920
  8
0
  6
CONTINUOUS
 62
     3
 10
-989.24823000000015
 20
279.25925000000001
 30
0.0
 40
1.9987239999999991
 50
89.871137000000004
 51
165.55096
  0
ARC
  5
921
  8
0
  6
CONTINUOUS
 62
     3
 10
-992.75043000000005
 20
269.82465000000002
 30
0.0
 40
1.506699999999999
 50
270.2541599999999
 51
359.74583999999987
  0
ARC
  5
922
  8
0
  6
CONTINUOUS
 62
     3
 10
-992.74663999999996
 20
275.11077999999992
 30
0.0
 40
1.5028360000000001
 50
270.10793999999999
 51
359.89206000000001
  0
ARC
  5
923
  8
0
  6
CONTINUOUS
 62
     3
 10
-992.74860000000001
 20
278.51281999999992
 30
0.0
 40
1.5048719999999991
 50
270.18518
 51
359.81482
  0
ARC
  5
924
  8
0
  6
CONTINUOUS
 62
     3
 10
-992.63715000000002
 20
280.14095999999989
 30
0.0
 40
1.5030159999999959
 50
270.12945000000002
 51
345.23653999999999
  0
ARC
  5
925
  8
0
  6
CONTINUOUS
 62
     3
 10
-936.24469000000011
 20
277.22701999999992
 30
0.0
 40
2.0009241000000002
 50
0.026462999
 51
89.973535999999982
  0
ARC
  5
926
  8
0
  6
CONTINUOUS
 62
     3
 10
-936.2420699999999
 20
278.57965000000002
 30
0.0
 40
1.9982921
 50
359.95102999999978
 51
90.048975000000013
  0
ARC
  5
927
  8
0
  6
CONTINUOUS
 62
     3
 10
-936.24561000000006
 20
279.25612999999998
 30
0.0
 40
2.0018279999999962
 50
0.052301
 51
89.947696999999977
  0
ARC
  5
928
  8
0
  6
CONTINUOUS
 62
     3
 10
-865.59356999999966
 20
263.19036999999992
 30
0.0
 40
1.502391899999999
 50
195.1400099999999
 51
269.99063999999998
  0
ARC
  5
929
  8
0
  6
CONTINUOUS
 62
     3
 10
-872.43420000000003
 20
275.19896999999992
 30
0.0
 40
1.998988
 50
15.047801
 51
89.987373000000005
  0
ARC
  5
92A
  8
0
  6
CONTINUOUS
 62
     3
 10
-864.24871999999971
 20
277.84292999999991
 30
0.0
 40
0.9950640200000001
 50
89.714938000000004
 51
180.28505999999999
  0
ARC
  5
92B
  8
0
  6
CONTINUOUS
 62
     3
 10
-864.24938999999983
 20
266.38357999999999
 30
0.0
 40
0.9944000200000001
 50
89.676490999999999
 51
180.32351
  0
ARC
  5
92C
  8
0
  6
CONTINUOUS
 62
     3
 10
-865.53789999999981
 20
267.87841999999989
 30
0.0
 40
1.500475999999999
 50
192.33223000000001
 51
270.15827999999999
  0
ARC
  5
92D
  8
0
  6
CONTINUOUS
 62
     3
 10
-870.39629999999988
 20
273.84145999999998
 30
0.0
 40
1.996488
 50
12.040875
 51
89.926440999999969
  0
ARC
  5
92E
  8
0
  6
CONTINUOUS
 62
     3
 10
-1013.2471
 20
182.6013299999999
 30
0.0
 40
1.003363999999999
 50
270.19171
 51
359.80827999999991
  0
ARC
  5
92F
  8
0
  6
CONTINUOUS
 62
     3
 10
-1013.248699999999
 20
192.3428999999999
 30
0.0
 40
1.0049240999999991
 50
270.28003999999999
 51
359.71996999999988
  0
ARC
  5
930
  8
0
  6
CONTINUOUS
 62
     3
 10
-1013.2436
 20
188.33809999999991
 30
0.0
 40
0.99984801
 50
359.99119000000002
 51
90.008807000000004
  0
ARC
  5
931
  8
0
  6
CONTINUOUS
 62
     3
 10
-1012.9432
 20
178.94853000000001
 30
0.0
 40
0.69944
 50
359.95416
 51
90.045839999999984
  0
ARC
  5
932
  8
0
  6
CONTINUOUS
 62
     3
 10
-1015.0408
 20
180.6531699999999
 30
0.0
 40
1.005223999999999
 50
246.98628999999991
 51
269.82935999999989
  0
ARC
  5
933
  8
0
  6
CONTINUOUS
 62
     3
 10
-1015.1032
 20
182.60065
 30
0.0
 40
1.0027280000000001
 50
253.75297
 51
270.54039999999992
  0
ARC
  5
934
  8
0
  6
CONTINUOUS
 62
     3
 10
-1016.2473999999989
 20
182.95228999999981
 30
0.0
 40
0.9963799699999999
 50
180.24948999999981
 51
253.29706999999991
  0
ARC
  5
935
  8
0
  6
CONTINUOUS
 62
     3
 10
-1016.2473
 20
181.16643999999991
 30
0.0
 40
0.9964760499999998
 50
179.91257999999991
 51
247.17966000000001
  0
ARC
  5
936
  8
0
  6
CONTINUOUS
 62
     3
 10
-1016.243599999999
 20
190.33815000000001
 30
0.0
 40
1.0001959999999981
 50
180.01127999999991
 51
269.98872
  0
ARC
  5
937
  8
0
  6
CONTINUOUS
 62
     3
 10
-1016.2487
 20
190.34288000000001
 30
0.0
 40
0.9950840499999999
 50
89.716324
 51
180.28368
  0
ARC
  5
938
  8
0
  6
CONTINUOUS
 62
     3
 10
-1016.243599999999
 20
200.33815000000001
 30
0.0
 40
1.000199899999999
 50
180.01150000000001
 51
269.98851000000002
  0
ARC
  5
939
  8
0
  6
CONTINUOUS
 62
     3
 10
-1016.2487
 20
200.34288000000001
 30
0.0
 40
0.9950840499999999
 50
89.716106000000025
 51
180.2838899999999
  0
ARC
  5
93A
  8
0
  6
CONTINUOUS
 62
     3
 10
-1016.243599999999
 20
210.33815000000001
 30
0.0
 40
1.0002040000000001
 50
180.01169999999999
 51
269.98829999999992
  0
ARC
  5
93B
  8
0
  6
CONTINUOUS
 62
     3
 10
-1016.2487
 20
210.34287999999981
 30
0.0
 40
0.9950799899999999
 50
89.715893999999963
 51
180.2841
  0
ARC
  5
93C
  8
0
  6
CONTINUOUS
 62
     3
 10
-1013.248699999999
 20
212.3428999999999
 30
0.0
 40
1.0049318999999981
 50
270.28044999999992
 51
359.71955000000008
  0
ARC
  5
93D
  8
0
  6
CONTINUOUS
 62
     3
 10
-1013.2436
 20
208.3381
 30
0.0
 40
0.99985206
 50
359.99142999999998
 51
90.008574000000024
  0
ARC
  5
93E
  8
0
  6
CONTINUOUS
 62
     3
 10
-1013.248699999999
 20
202.3428999999999
 30
0.0
 40
1.004928
 50
270.28023999999988
 51
359.71976000000001
  0
ARC
  5
93F
  8
0
  6
CONTINUOUS
 62
     3
 10
-1013.2436
 20
198.33809999999991
 30
0.0
 40
0.9998440099999999
 50
359.99097999999992
 51
90.00901800000004
  0
ARC
  5
940
  8
0
  6
CONTINUOUS
 62
     3
 10
-1003.0855
 20
256.93079
 30
0.0
 40
5.004112199999998
 50
279.68356999999992
 51
354.57833999999991
  0
ARC
  5
941
  8
0
  6
CONTINUOUS
 62
     3
 10
-1002.623
 20
253.00503999999989
 30
0.0
 40
6.0049156999999971
 50
45.22730700000001
 51
86.379093999999981
  0
ARC
  5
942
  8
0
  6
CONTINUOUS
 62
     3
 10
-999.09984999999995
 20
256.55822999999992
 30
0.0
 40
1.0011079000000001
 50
354.25024999999982
 51
45.146993999999992
  0
ARC
  5
943
  8
0
  6
CONTINUOUS
 62
     3
 10
-870.40130999999985
 20
156.8405799999999
 30
0.0
 40
2.0026239999999991
 50
270.21533999999991
 51
347.81734
  0
ARC
  5
944
  8
0
  6
CONTINUOUS
 62
     3
 10
-865.53668000000005
 20
162.80861999999999
 30
0.0
 40
1.499328
 50
89.888150999999979
 51
168.09384
  0
ARC
  5
945
  8
0
  6
CONTINUOUS
 62
     3
 10
-1002.613799999998
 20
177.68514999999999
 30
0.0
 40
6.0085920999999987
 50
273.53095000000002
 51
314.61478
  0
ARC
  5
946
  8
0
  6
CONTINUOUS
 62
     3
 10
-1003.0804000000001
 20
173.7499099999998
 30
0.0
 40
4.9985837999999987
 50
5.3731198999999981
 51
80.364975999999999
  0
ARC
  5
947
  8
0
  6
CONTINUOUS
 62
     3
 10
-1016.2462
 20
167.32263
 30
0.0
 40
0.9976240400000001
 50
180.2675099999999
 51
240.07953999999981
  0
ARC
  5
948
  8
0
  6
CONTINUOUS
 62
     3
 10
-1016.2482
 20
168.3683199999999
 30
0.0
 40
0.99566799
 50
180.02043
 51
243.40982999999991
  0
ARC
  5
949
  8
0
  6
CONTINUOUS
 62
     3
 10
-1014.9631000000001
 20
166.58903999999981
 30
0.0
 40
1.0011358999999991
 50
239.328
 51
269.38751000000002
  0
ARC
  5
94A
  8
0
  6
CONTINUOUS
 62
     3
 10
-1014.998
 20
167.73721
 30
0.0
 40
0.9992880200000001
 50
242.86126999999991
 51
269.66618999999992
  0
ARC
  5
94B
  8
0
  6
CONTINUOUS
 62
     3
 10
-1014.9724
 20
168.7016099999999
 30
0.0
 40
1.003687999999999
 50
239.37027
 51
270.49275
  0
ARC
  5
94C
  8
0
  6
CONTINUOUS
 62
     3
 10
-1014.9886
 20
169.83858000000001
 30
0.0
 40
1.0006280000000001
 50
241.64985999999999
 51
269.70470999999992
  0
ARC
  5
94D
  8
0
  6
CONTINUOUS
 62
     3
 10
-1014.951
 20
173.2184799999998
 30
0.0
 40
1.0005360000000001
 50
237.1464
 51
270.41322000000002
  0
ARC
  5
94E
  8
0
  6
CONTINUOUS
 62
     3
 10
-1014.9805
 20
174.35895999999991
 30
0.0
 40
1.001012
 50
240.47136
 51
270.3802
  0
ARC
  5
94F
  8
0
  6
CONTINUOUS
 62
     3
 10
-1016.2447
 20
174.06263999999999
 30
0.0
 40
0.99909997
 50
179.69542000000001
 51
236.66176999999999
  0
ARC
  5
950
  8
0
  6
CONTINUOUS
 62
     3
 10
-1016.2461
 20
170.4992499999999
 30
0.0
 40
0.99770796
 50
180.0740499999998
 51
242.04476
  0
ARC
  5
951
  8
0
  6
CONTINUOUS
 62
     3
 10
-1016.245
 20
169.4614599999999
 30
0.0
 40
0.9987799499999999
 50
179.6266699999999
 51
238.70855
  0
ARC
  5
952
  8
0
  6
CONTINUOUS
 62
     3
 10
-1013.246199999999
 20
174.3604099999998
 30
0.0
 40
1.002459999999999
 50
270.14037999999999
 51
359.85962000000001
  0
ARC
  5
953
  8
0
  6
CONTINUOUS
 62
     3
 10
-1016.2453
 20
175.09726000000001
 30
0.0
 40
0.9984599899999999
 50
179.95962
 51
239.38655
  0
ARC
  5
954
  8
0
  6
CONTINUOUS
 62
     3
 10
-1013.2479
 20
169.84206
 30
0.0
 40
1.0040839999999991
 50
270.23262999999992
 51
359.76737000000008
  0
ARC
  5
955
  8
0
  6
CONTINUOUS
 62
     3
 10
-1012.7472
 20
167.24135000000001
 30
0.0
 40
0.50340396
 50
270.38612999999992
 51
359.61387000000002
  0
ARC
  5
956
  8
0
  6
CONTINUOUS
 62
     3
 10
-1012.7433
 20
165.08841000000001
 30
0.0
 40
0.4995559800000002
 50
359.94911000000002
 51
90.050894000000014
  0
ARC
  5
957
  8
0
  6
CONTINUOUS
 62
     3
 10
-1006.0178
 20
164.35640000000001
 30
0.0
 40
1.9984440999999999
 50
190.33239999999989
 51
270.11368999999979
  0
ARC
  5
958
  8
0
  6
CONTINUOUS
 62
     3
 10
-1006.0789
 20
159.07736
 30
0.0
 40
1.9993919999999981
 50
192.1080399999999
 51
270.14582000000001
  0
ARC
  5
959
  8
0
  6
CONTINUOUS
 62
     3
 10
-1010.4606
 20
162.80889999999991
 30
0.0
 40
1.4991000000000001
 50
11.89856
 51
89.736657999999963
  0
ARC
  5
95A
  8
0
  6
CONTINUOUS
 62
     3
 10
-1006.1068
 20
155.66873000000001
 30
0.0
 40
2.0007559999999991
 50
193.3141599999999
 51
270.08645000000001
  0
ARC
  5
95B
  8
0
  6
CONTINUOUS
 62
     3
 10
-1010.4303999999991
 20
158.74045000000001
 30
0.0
 40
1.497512
 50
13.418233000000001
 51
90.128792999999988
  0
ARC
  5
95C
  8
0
  6
CONTINUOUS
 62
     3
 10
-1010.415999999999
 20
156.71983
 30
0.0
 40
1.4981281
 50
14.224575
 51
89.916113999999979
  0
ARC
  5
95D
  8
0
  6
CONTINUOUS
 62
     3
 10
-1006.1322999999981
 20
154.04107999999999
 30
0.0
 40
2.0031319000000001
 50
194.25158999999999
 51
269.95755000000003
  0
ARC
  5
95E
  8
0
  6
CONTINUOUS
 62
     3
 10
-989.24334999999985
 20
155.47842
 30
0.0
 40
2.0004520000000001
 50
180.0129
 51
269.98709999999988
  0
ARC
  5
95F
  8
0
  6
CONTINUOUS
 62
     3
 10
-989.24243000000001
 20
153.44926000000001
 30
0.0
 40
2.0013119999999991
 50
180.03756000000001
 51
269.96244000000002
  0
ARC
  5
960
  8
0
  6
CONTINUOUS
 62
     3
 10
-989.24517999999989
 20
152.09656999999979
 30
0.0
 40
1.9986200000000001
 50
179.9604699999999
 51
270.03952999999967
  0
ARC
  5
961
  8
0
  6
CONTINUOUS
 62
     3
 10
-989.24987999999996
 20
151.42801
 30
0.0
 40
2.000076099999998
 50
194.77497999999991
 51
270.17352999999991
  0
ARC
  5
962
  8
0
  6
CONTINUOUS
 62
     3
 10
-992.74535999999989
 20
160.8563799999998
 30
0.0
 40
1.501567999999998
 50
0.059805003
 51
89.940196999999998
  0
ARC
  5
963
  8
0
  6
CONTINUOUS
 62
     3
 10
-992.74645999999996
 20
155.57523999999981
 30
0.0
 40
1.5027160999999991
 50
0.103436
 51
89.896566000000007
  0
ARC
  5
964
  8
0
  6
CONTINUOUS
 62
     3
 10
-992.74352999999985
 20
152.1682099999999
 30
0.0
 40
1.499755999999999
 50
359.99058999999983
 51
90.009407999999965
  0
ARC
  5
965
  8
0
  6
CONTINUOUS
 62
     3
 10
-992.63225999999997
 20
150.5413199999999
 30
0.0
 40
1.4966440000000001
 50
14.57574
 51
90.058278000000001
  0
ARC
  5
966
  8
0
  6
CONTINUOUS
 62
     3
 10
-936.24982
 20
153.45399
 30
0.0
 40
2.0060479999999981
 50
270.17248999999998
 51
359.82751000000002
  0
ARC
  5
967
  8
0
  6
CONTINUOUS
 62
     3
 10
-936.24712999999986
 20
152.10130000000001
 30
0.0
 40
2.0033560000000001
 50
270.09593999999998
 51
359.90406000000002
  0
ARC
  5
968
  8
0
  6
CONTINUOUS
 62
     3
 10
-936.24572999999998
 20
151.4298399999999
 30
0.0
 40
2.0019
 50
270.05437999999992
 51
359.94562000000002
  0
ARC
  5
969
  8
0
  6
CONTINUOUS
 62
     3
 10
-865.59844999999984
 20
167.49197000000001
 30
0.0
 40
1.495995999999999
 50
89.821707000000004
 51
165.04766000000001
  0
ARC
  5
96A
  8
0
  6
CONTINUOUS
 62
     3
 10
-990.24854000000005
 20
230.33797000000001
 30
0.0
 40
1.000011999999999
 50
89.726507999999981
 51
270.27347999999989
  0
ARC
  5
96B
  8
0
  6
CONTINUOUS
 62
     3
 10
-990.24854000000005
 20
240.33797000000001
 30
0.0
 40
1.000011999999999
 50
89.726507999999981
 51
270.27347999999989
  0
ARC
  5
96C
  8
0
  6
CONTINUOUS
 62
     3
 10
-990.24854000000005
 20
250.3379699999999
 30
0.0
 40
1.000011999999999
 50
89.726507999999981
 51
270.27347999999989
  0
ARC
  5
96D
  8
0
  6
CONTINUOUS
 62
     3
 10
-1007.9796
 20
220.34296000000001
 30
0.0
 40
1.265012
 50
89.737716000000006
 51
270.26227999999992
  0
ARC
  5
96E
  8
0
  6
CONTINUOUS
 62
     3
 10
-1007.9138
 20
230.34796
 30
0.0
 40
1.3300080000000001
 50
90.000003000000007
 51
270.0
  0
ARC
  5
96F
  8
0
  6
CONTINUOUS
 62
     3
 10
-998.78375000000005
 20
240.36295000000001
 30
0.0
 40
1.465004099999996
 50
90.000003000000007
 51
270.0
  0
ARC
  5
970
  8
0
  6
CONTINUOUS
 62
     3
 10
-998.57061999999985
 20
250.3829799999998
 30
0.0
 40
1.6750159
 50
89.766540000000006
 51
270.23345999999992
  0
ARC
  5
971
  8
0
  6
CONTINUOUS
 62
     3
 10
-1006.6938
 20
220.33797000000001
 30
0.0
 40
1.0
 50
90.000003000000007
 51
270.0
  0
ARC
  5
972
  8
0
  6
CONTINUOUS
 62
     3
 10
-1006.6938
 20
230.33797000000001
 30
0.0
 40
1.0
 50
90.000003000000007
 51
270.0
  0
ARC
  5
973
  8
0
  6
CONTINUOUS
 62
     3
 10
-997.69848999999988
 20
250.3379699999999
 30
0.0
 40
1.000011999999999
 50
89.728448
 51
270.27154000000002
  0
ARC
  5
974
  8
0
  6
CONTINUOUS
 62
     3
 10
-997.69848999999988
 20
240.33797000000001
 30
0.0
 40
1.000011999999999
 50
89.728448
 51
270.27154000000002
  0
ARC
  5
975
  8
0
  6
CONTINUOUS
 62
     3
 10
-884.94726999999989
 20
247.71146999999999
 30
0.0
 40
0.996512
 50
89.798963000000015
 51
180.20103
  0
ARC
  5
976
  8
0
  6
CONTINUOUS
 62
     3
 10
-884.9425
 20
246.60872000000001
 30
0.0
 40
1.001239999999999
 50
180.04312999999991
 51
268.21195999999992
  0
ARC
  5
977
  8
0
  6
CONTINUOUS
 62
     3
 10
-884.94763
 20
184.07212999999999
 30
0.0
 40
0.99615997
 50
91.504365000000007
 51
180.24055000000001
  0
ARC
  5
978
  8
0
  6
CONTINUOUS
 62
     3
 10
-884.94219999999984
 20
182.96957
 30
0.0
 40
1.001595999999999
 50
180.09126000000001
 51
269.90875
  0
ARC
  5
979
  8
0
  6
CONTINUOUS
 62
     3
 10
-868.42376999999965
 20
250.3829799999998
 30
0.0
 40
1.675003999999999
 50
270.0
 51
90.000003000000007
  0
ARC
  5
97A
  8
0
  6
CONTINUOUS
 62
     3
 10
-871.90380999999979
 20
250.3379699999999
 30
0.0
 40
1.0
 50
270.0
 51
90.000003000000007
  0
ARC
  5
97B
  8
0
  6
CONTINUOUS
 62
     3
 10
-871.90380999999979
 20
180.3379699999999
 30
0.0
 40
1.0
 50
270.0
 51
90.000003000000007
  0
ARC
  5
97C
  8
0
  6
CONTINUOUS
 62
     3
 10
-868.42376999999965
 20
180.29294999999991
 30
0.0
 40
1.675003999999999
 50
270.0
 51
90.000003000000007
  0
ARC
  5
97D
  8
0
  6
CONTINUOUS
 62
     3
 10
-1006.6938
 20
210.33797000000001
 30
0.0
 40
1.0
 50
90.000003000000007
 51
270.0
  0
ARC
  5
97E
  8
0
  6
CONTINUOUS
 62
     3
 10
-990.24854000000005
 20
200.3379699999999
 30
0.0
 40
1.000011999999999
 50
89.726507999999981
 51
270.27347999999989
  0
ARC
  5
97F
  8
0
  6
CONTINUOUS
 62
     3
 10
-990.24854000000005
 20
190.3379699999999
 30
0.0
 40
1.000011999999999
 50
89.726507999999981
 51
270.27347999999989
  0
ARC
  5
980
  8
0
  6
CONTINUOUS
 62
     3
 10
-1007.9138
 20
200.32796999999991
 30
0.0
 40
1.3300080000000001
 50
90.000003000000007
 51
270.0
  0
ARC
  5
981
  8
0
  6
CONTINUOUS
 62
     3
 10
-1007.7838
 20
190.31297000000001
 30
0.0
 40
1.465004099999996
 50
90.000003000000007
 51
270.0
  0
ARC
  5
982
  8
0
  6
CONTINUOUS
 62
     3
 10
-1006.6985
 20
180.3379699999999
 30
0.0
 40
1.000011999999999
 50
89.728461999999965
 51
270.27154000000002
  0
ARC
  5
983
  8
0
  6
CONTINUOUS
 62
     3
 10
-990.24854000000005
 20
210.33797000000001
 30
0.0
 40
1.000011999999999
 50
89.726507999999981
 51
270.27347999999989
  0
ARC
  5
984
  8
0
  6
CONTINUOUS
 62
     3
 10
-990.24854000000005
 20
180.3379699999999
 30
0.0
 40
1.000011999999999
 50
89.726507999999981
 51
270.27347999999989
  0
ARC
  5
985
  8
0
  6
CONTINUOUS
 62
     3
 10
-1007.9796
 20
210.33797000000001
 30
0.0
 40
1.2700118999999981
 50
89.738748000000001
 51
270.26123999999999
  0
ARC
  5
986
  8
0
  6
CONTINUOUS
 62
     3
 10
-1007.570599999999
 20
180.29294999999991
 30
0.0
 40
1.6750159
 50
89.764983000000015
 51
270.23500999999987
  0
ARC
  5
987
  8
0
  6
CONTINUOUS
 62
     3
 10
-1006.6938
 20
200.3379699999999
 30
0.0
 40
1.0
 50
90.000003000000007
 51
270.0
  0
ARC
  5
988
  8
0
  6
CONTINUOUS
 62
     3
 10
-1006.6985
 20
190.3379699999999
 30
0.0
 40
1.000011999999999
 50
89.728461999999965
 51
270.27154000000002
  0
ARC
  5
989
  8
0
  6
CONTINUOUS
 62
     7
 10
-764.24377000000004
 20
616.61255000000006
 30
0.0
 40
3.0
 50
180.00001
 51
268.0
  0
ARC
  5
98A
  8
0
  6
CONTINUOUS
 62
     7
 10
-764.24377000000004
 20
757.12005999999985
 30
0.0
 40
3.0
 50
91.999998000000005
 51
180.00001
  0
ARC
  5
98B
  8
0
  6
CONTINUOUS
 62
     7
 10
-770.24377000000004
 20
616.82635000000005
 30
0.0
 40
3.0
 50
0.0
 51
88.0
  0
ARC
  5
98C
  8
0
  6
CONTINUOUS
 62
     7
 10
-770.24377000000004
 20
756.90625
 30
0.0
 40
3.0
 50
272.0
 51
0.0
  0
ARC
  5
98D
  8
0
  6
CONTINUOUS
 62
     7
 10
-839.24376999999981
 20
674.76337000000001
 30
0.0
 40
3.0
 50
180.00001
 51
268.0
  0
ARC
  5
98E
  8
0
  6
CONTINUOUS
 62
     7
 10
-839.24376999999981
 20
698.96924000000001
 30
0.0
 40
3.0
 50
91.999998000000005
 51
180.00001
  0
ARC
  5
98F
  8
0
  6
CONTINUOUS
 62
     7
 10
-770.24377000000004
 20
666.35015999999996
 30
0.0
 40
3.0
 50
0.0
 51
88.0
  0
ARC
  5
990
  8
0
  6
CONTINUOUS
 62
     7
 10
-770.24377000000004
 20
707.38244999999995
 30
0.0
 40
3.0
 50
272.0
 51
0.0
  0
ARC
  5
991
  8
0
  6
CONTINUOUS
 62
     3
 10
-952.51671999999996
 20
602.86632999999995
 30
0.0
 40
4.0
 50
179.99997999999991
 51
0.000010017912
  0
ARC
  5
992
  8
0
  6
CONTINUOUS
 62
     3
 10
-952.51671999999996
 20
602.86632999999995
 30
0.0
 40
7.5
 50
179.99997999999991
 51
0.000010017913
  0
ARC
  5
993
  8
0
  6
CONTINUOUS
 62
     7
 10
-1012.7433
 20
636.61681999999985
 30
0.0
 40
0.49952301
 50
359.94522999999992
 51
90.054773999999981
  0
ARC
  5
994
  8
0
  6
CONTINUOUS
 62
     7
 10
-1012.7472
 20
638.76977999999986
 30
0.0
 40
0.5033929900000002
 50
270.38490999999982
 51
359.61509999999993
  0
ARC
  5
995
  8
0
  6
CONTINUOUS
 62
     7
 10
-1013.2478
 20
641.3704799999997
 30
0.0
 40
1.004119999999999
 50
270.23460999999992
 51
359.76538999999991
  0
ARC
  5
996
  8
0
  6
CONTINUOUS
 62
     7
 10
-1013.246199999999
 20
645.88878999999963
 30
0.0
 40
1.002470999999999
 50
270.14107000000001
 51
359.85892999999987
  0
ARC
  5
997
  8
0
  6
CONTINUOUS
 62
     7
 10
-1016.245
 20
640.98987
 30
0.0
 40
0.9987969999999998
 50
179.62728000000001
 51
238.70795000000001
  0
ARC
  5
998
  8
0
  6
CONTINUOUS
 62
     7
 10
-1016.2461
 20
642.02759000000003
 30
0.0
 40
0.9977070099999998
 50
180.0740199999999
 51
242.04481000000001
  0
ARC
  5
999
  8
0
  6
CONTINUOUS
 62
     7
 10
-1016.2446
 20
645.59105999999997
 30
0.0
 40
0.9990889999999998
 50
179.69508999999991
 51
236.66209000000001
  0
ARC
  5
99A
  8
0
  6
CONTINUOUS
 62
     7
 10
-1016.245199999999
 20
646.62561000000005
 30
0.0
 40
0.9984580299999999
 50
179.9595799999999
 51
239.38657000000001
  0
ARC
  5
99B
  8
0
  6
CONTINUOUS
 62
     7
 10
-1014.9803000000001
 20
645.88733000000002
 30
0.0
 40
1.0010449999999991
 50
240.47187
 51
270.37970999999999
  0
ARC
  5
99C
  8
0
  6
CONTINUOUS
 62
     7
 10
-1014.9509
 20
644.7468299999997
 30
0.0
 40
1.000521999999999
 50
237.14617999999999
 51
270.41343999999998
  0
ARC
  5
99D
  8
0
  6
CONTINUOUS
 62
     7
 10
-1014.9885
 20
641.36693999999977
 30
0.0
 40
1.0006820000000001
 50
241.65062
 51
269.7039299999999
  0
ARC
  5
99E
  8
0
  6
CONTINUOUS
 62
     7
 10
-1014.9724
 20
640.22997999999995
 30
0.0
 40
1.0037439999999991
 50
239.37112999999999
 51
270.49189999999987
  0
ARC
  5
99F
  8
0
  6
CONTINUOUS
 62
     7
 10
-1014.9979
 20
639.26562999999965
 30
0.0
 40
0.9993420200000001
 50
242.86199999999999
 51
269.66546
  0
ARC
  5
9A0
  8
0
  6
CONTINUOUS
 62
     7
 10
-1014.963
 20
638.11743000000001
 30
0.0
 40
1.001123999999999
 50
239.32782000000009
 51
269.38767999999988
  0
ARC
  5
9A1
  8
0
  6
CONTINUOUS
 62
     7
 10
-1016.248
 20
639.89672999999982
 30
0.0
 40
0.9956849800000001
 50
180.02112999999991
 51
243.40913999999981
  0
ARC
  5
9A2
  8
0
  6
CONTINUOUS
 62
     7
 10
-1016.2461
 20
638.85095000000001
 30
0.0
 40
0.9976310099999999
 50
180.26780999999991
 51
240.07924
  0
ARC
  5
9A3
  8
0
  6
CONTINUOUS
 62
     7
 10
-1016.245199999999
 20
646.62561000000005
 30
0.0
 40
0.9984580299999999
 50
179.9595799999999
 51
239.38657000000001
  0
ARC
  5
9A4
  8
0
  6
CONTINUOUS
 62
     7
 10
-1013.2469
 20
645.89306999999985
 30
0.0
 40
1.0032760000000001
 50
334.19810000000001
 51
359.61810999999977
  0
ARC
  5
9A5
  8
0
  6
CONTINUOUS
 62
     7
 10
-1013.2435
 20
669.86645999999985
 30
0.0
 40
0.9998210099999999
 50
359.98971999999998
 51
90.010281999999961
  0
ARC
  5
9A6
  8
0
  6
CONTINUOUS
 62
     7
 10
-1013.248699999999
 20
673.87121999999999
 30
0.0
 40
1.004939
 50
270.28093999999999
 51
359.71906999999999
  0
ARC
  5
9A7
  8
0
  6
CONTINUOUS
 62
     7
 10
-1013.2435
 20
679.86645999999985
 30
0.0
 40
0.9998279799999998
 50
359.99015999999978
 51
90.009838000000002
  0
ARC
  5
9A8
  8
0
  6
CONTINUOUS
 62
     7
 10
-1013.248699999999
 20
683.87121999999977
 30
0.0
 40
1.004942999999999
 50
270.28113999999988
 51
359.71886999999992
  0
ARC
  5
9A9
  8
0
  6
CONTINUOUS
 62
     7
 10
-1016.2487
 20
681.87121999999999
 30
0.0
 40
0.9950770099999999
 50
89.715860000000006
 51
180.28413999999989
  0
ARC
  5
9AA
  8
0
  6
CONTINUOUS
 62
     7
 10
-1016.2435
 20
681.86657999999977
 30
0.0
 40
1.0002040000000001
 50
180.01166000000001
 51
269.9883200000001
  0
ARC
  5
9AB
  8
0
  6
CONTINUOUS
 62
     7
 10
-1016.2487
 20
671.87121999999965
 30
0.0
 40
0.9950810099999999
 50
89.716071999999997
 51
180.28391999999999
  0
ARC
  5
9AC
  8
0
  6
CONTINUOUS
 62
     7
 10
-1016.2435
 20
671.86658
 30
0.0
 40
1.0001999999999991
 50
180.01146
 51
269.98853999999972
  0
ARC
  5
9AD
  8
0
  6
CONTINUOUS
 62
     7
 10
-1016.2487
 20
661.87121999999999
 30
0.0
 40
0.9950849999999999
 50
89.716282999999976
 51
180.2837199999999
  0
ARC
  5
9AE
  8
0
  6
CONTINUOUS
 62
     7
 10
-1016.2435
 20
661.86658
 30
0.0
 40
1.0001959999999981
 50
180.01124999999999
 51
269.98874999999992
  0
ARC
  5
9AF
  8
0
  6
CONTINUOUS
 62
     7
 10
-1016.2472
 20
652.69482000000005
 30
0.0
 40
0.9965090199999998
 50
179.91374999999999
 51
247.17845
  0
ARC
  5
9B0
  8
0
  6
CONTINUOUS
 62
     7
 10
-1016.2473
 20
654.48070999999982
 30
0.0
 40
0.99638802
 50
180.24991
 51
253.29664
  0
ARC
  5
9B1
  8
0
  6
CONTINUOUS
 62
     7
 10
-1015.1033
 20
654.12902999999994
 30
0.0
 40
1.002699
 50
253.7527199999999
 51
270.54064
  0
ARC
  5
9B2
  8
0
  6
CONTINUOUS
 62
     7
 10
-1015.0408
 20
652.18151999999975
 30
0.0
 40
1.005233
 50
246.98638999999989
 51
269.82924999999989
  0
ARC
  5
9B3
  8
0
  6
CONTINUOUS
 62
     7
 10
-1012.9432
 20
650.47692999999981
 30
0.0
 40
0.6994530000000001
 50
359.95517000000001
 51
90.044829000000021
  0
ARC
  5
9B4
  8
0
  6
CONTINUOUS
 62
     7
 10
-1013.2435
 20
659.86645999999985
 30
0.0
 40
0.9998239899999999
 50
359.98991999999993
 51
90.010076999999981
  0
ARC
  5
9B5
  8
0
  6
CONTINUOUS
 62
     7
 10
-1013.248699999999
 20
663.87121999999999
 30
0.0
 40
1.0049469
 50
270.28136999999992
 51
359.71863000000002
  0
ARC
  5
9B6
  8
0
  6
CONTINUOUS
 62
     7
 10
-1013.2471
 20
654.12963999999999
 30
0.0
 40
1.003352
 50
270.19110999999992
 51
359.80889999999982
  0
ARC
  5
9B7
  8
0
  6
CONTINUOUS
 62
     7
 10
-1012.748399999999
 20
737.12097000000006
 30
0.0
 40
0.50463498
 50
270.52382999999992
 51
359.47617000000002
  0
ARC
  5
9B8
  8
0
  6
CONTINUOUS
 62
     7
 10
-1012.7421000000001
 20
734.96802000000002
 30
0.0
 40
0.4983060100000002
 50
359.80489
 51
90.195107000000007
  0
ARC
  5
9B9
  8
0
  6
CONTINUOUS
 62
     7
 10
-1013.2428
 20
732.36730999999975
 30
0.0
 40
0.9990100299999999
 50
359.94319000000002
 51
90.056808999999959
  0
ARC
  5
9BA
  8
0
  6
CONTINUOUS
 62
     7
 10
-1012.9482
 20
723.26085999999964
 30
0.0
 40
0.704566
 50
270.37009999999992
 51
359.62990999999982
  0
ARC
  5
9BB
  8
0
  6
CONTINUOUS
 62
     7
 10
-1013.246099999999
 20
727.85399999999981
 30
0.0
 40
1.002353
 50
0.13432682
 51
89.865673000000001
  0
ARC
  5
9BC
  8
0
  6
CONTINUOUS
 62
     7
 10
-1013.2421000000001
 20
719.60802999999999
 30
0.0
 40
0.9982839799999999
 50
359.90141999999992
 51
90.098575999999994
  0
ARC
  5
9BD
  8
0
  6
CONTINUOUS
 62
     7
 10
-1013.248699999999
 20
713.87121999999999
 30
0.0
 40
1.004942999999999
 50
270.28111000000001
 51
359.71888999999987
  0
ARC
  5
9BE
  8
0
  6
CONTINUOUS
 62
     7
 10
-1013.2435
 20
709.86645999999985
 30
0.0
 40
0.9998289899999999
 50
359.99018999999993
 51
90.009810999999985
  0
ARC
  5
9BF
  8
0
  6
CONTINUOUS
 62
     7
 10
-1013.248699999999
 20
703.87121999999988
 30
0.0
 40
1.004939
 50
270.28091000000001
 51
359.71910000000008
  0
ARC
  5
9C0
  8
0
  6
CONTINUOUS
 62
     7
 10
-1013.2435
 20
699.86645999999985
 30
0.0
 40
0.9998210099999999
 50
359.98975000000002
 51
90.010255000000001
  0
ARC
  5
9C1
  8
0
  6
CONTINUOUS
 62
     7
 10
-1013.248699999999
 20
693.87121999999999
 30
0.0
 40
1.0049469
 50
270.28134999999992
 51
359.71866
  0
ARC
  5
9C2
  8
0
  6
CONTINUOUS
 62
     7
 10
-1013.2435
 20
689.86645999999996
 30
0.0
 40
0.9998249999999999
 50
359.98995000000002
 51
90.010050000000007
  0
ARC
  5
9C3
  8
0
  6
CONTINUOUS
 62
     7
 10
-1016.2435
 20
691.86658
 30
0.0
 40
1.0001959999999981
 50
180.01122000000001
 51
269.98877999999991
  0
ARC
  5
9C4
  8
0
  6
CONTINUOUS
 62
     7
 10
-1016.2487
 20
691.87121999999965
 30
0.0
 40
0.9950849999999999
 50
89.716311000000005
 51
180.28368999999981
  0
ARC
  5
9C5
  8
0
  6
CONTINUOUS
 62
     7
 10
-1016.2435
 20
701.86657999999989
 30
0.0
 40
1.0001999999999991
 50
180.0114299999999
 51
269.98856999999992
  0
ARC
  5
9C6
  8
0
  6
CONTINUOUS
 62
     7
 10
-1016.2487
 20
701.87121999999999
 30
0.0
 40
0.99508202
 50
89.716099
 51
180.28390999999991
  0
ARC
  5
9C7
  8
0
  6
CONTINUOUS
 62
     7
 10
-1016.2435
 20
711.86658
 30
0.0
 40
1.000203
 50
180.01165
 51
269.98835000000003
  0
ARC
  5
9C8
  8
0
  6
CONTINUOUS
 62
     7
 10
-1016.2487
 20
711.87121999999999
 30
0.0
 40
0.99507803
 50
89.715886999999981
 51
180.28411
  0
ARC
  5
9C9
  8
0
  6
CONTINUOUS
 62
     7
 10
-1016.2473
 20
721.04785000000004
 30
0.0
 40
0.9963999999999998
 50
112.81735999999979
 51
180.09041999999991
  0
ARC
  5
9CA
  8
0
  6
CONTINUOUS
 62
     7
 10
-1016.2473999999989
 20
719.26207999999997
 30
0.0
 40
0.9962710099999999
 50
106.69792
 51
180.3300499999998
  0
ARC
  5
9CB
  8
0
  6
CONTINUOUS
 62
     7
 10
-1015.1046
 20
719.61365000000001
 30
0.0
 40
0.9927430199999999
 50
89.374555000000001
 51
106.33207
  0
ARC
  5
9CC
  8
0
  6
CONTINUOUS
 62
     7
 10
-1015.0427
 20
721.56090999999981
 30
0.0
 40
0.9954450099999999
 50
90.056905000000043
 51
113.1274499999999
  0
ARC
  5
9CD
  8
0
  6
CONTINUOUS
 62
     7
 10
-1016.249299999999
 20
732.74536000000001
 30
0.0
 40
0.9944329899999999
 50
121.15213
 51
179.9405099999999
  0
ARC
  5
9CE
  8
0
  6
CONTINUOUS
 62
     7
 10
-1016.250499999999
 20
731.70776000000001
 30
0.0
 40
0.9932109699999999
 50
117.7993199999999
 51
180.08187000000001
  0
ARC
  5
9CF
  8
0
  6
CONTINUOUS
 62
     7
 10
-1016.2489
 20
728.14391999999998
 30
0.0
 40
0.9948369899999999
 50
123.20496
 51
180.4378599999998
  0
ARC
  5
9D0
  8
0
  6
CONTINUOUS
 62
     7
 10
-1016.2498000000001
 20
727.10950000000003
 30
0.0
 40
0.99404597
 50
120.4682
 51
180.18563999999989
  0
ARC
  5
9D1
  8
0
  6
CONTINUOUS
 62
     7
 10
-1014.964399999999
 20
727.85985999999957
 30
0.0
 40
0.99648702
 50
90.540720999999976
 51
120.74377
  0
ARC
  5
9D2
  8
0
  6
CONTINUOUS
 62
     7
 10
-1014.9371
 20
729.00012000000004
 30
0.0
 40
0.99617702
 50
90.381317999999979
 51
123.9704899999999
  0
ARC
  5
9D3
  8
0
  6
CONTINUOUS
 62
     7
 10
-1015.008699999998
 20
732.37097000000006
 30
0.0
 40
0.99545902
 50
89.141291000000024
 51
117.20381999999999
  0
ARC
  5
9D4
  8
0
  6
CONTINUOUS
 62
     7
 10
-1014.975
 20
733.51207999999986
 30
0.0
 40
0.99427301
 50
89.356065999999984
 51
120.78091000000001
  0
ARC
  5
9D5
  8
0
  6
CONTINUOUS
 62
     7
 10
-1015.0189
 20
734.47229000000004
 30
0.0
 40
0.99411702
 50
89.122643999999966
 51
115.93498
  0
ARC
  5
9D6
  8
0
  6
CONTINUOUS
 62
     7
 10
-1014.9817
 20
735.62047999999982
 30
0.0
 40
0.9959030199999999
 50
89.541267000000005
 51
119.60717
  0
ARC
  5
9D7
  8
0
  6
CONTINUOUS
 62
     7
 10
-1016.2482
 20
733.84607000000005
 30
0.0
 40
0.995579
 50
116.5870899999999
 51
179.98264
  0
ARC
  5
9D8
  8
0
  6
CONTINUOUS
 62
     7
 10
-1016.2506
 20
734.88427999999988
 30
0.0
 40
0.99319202
 50
119.77338
 51
179.87958999999981
  0
ARC
  5
9D9
  8
0
  6
CONTINUOUS
 62
     7
 10
-999.10290999999995
 20
645.65600999999981
 30
0.0
 40
1.0032491999999991
 50
314.98118999999991
 51
5.1676434000000002
  0
ARC
  5
9DA
  8
0
  6
CONTINUOUS
 62
     7
 10
-864.24401999999986
 20
749.36658
 30
0.0
 40
0.99980682
 50
89.98893099999998
 51
180.0110699999999
  0
ARC
  5
9DB
  8
0
  6
CONTINUOUS
 62
     7
 10
-872.4425
 20
627.01256999999998
 30
0.0
 40
2.0062942999999991
 50
270.24932999999987
 51
345.08843999999999
  0
ARC
  5
9DC
  8
0
  6
CONTINUOUS
 62
     7
 10
-864.24474999999995
 20
737.90723000000003
 30
0.0
 40
0.9990923399999999
 50
89.947921999999977
 51
180.0520799999999
  0
ARC
  5
9DD
  8
0
  6
CONTINUOUS
 62
     7
 10
-990.25098000000003
 20
691.86632999999995
 30
0.0
 40
1.0000259
 50
89.587533999999977
 51
270.41246000000001
  0
ARC
  5
9DE
  8
0
  6
CONTINUOUS
 62
     7
 10
-998.28430000000003
 20
737.86108000000002
 30
0.0
 40
1.9952742999999991
 50
90.148580000000024
 51
170.0352199999999
  0
ARC
  5
9DF
  8
0
  6
CONTINUOUS
 62
     7
 10
-998.34644000000003
 20
743.13927999999999
 30
0.0
 40
1.997119399999999
 50
89.801366999999999
 51
167.94476
  0
ARC
  5
9E0
  8
0
  6
CONTINUOUS
 62
     7
 10
-1002.7269
 20
739.40869000000021
 30
0.0
 40
1.502416299999999
 50
269.9013799999999
 51
347.60813000000002
  0
ARC
  5
9E1
  8
0
  6
CONTINUOUS
 62
     7
 10
-1006.1135
 20
746.54407000000003
 30
0.0
 40
1.9922863
 50
90.007720999999947
 51
166.87839
  0
ARC
  5
9E2
  8
0
  6
CONTINUOUS
 62
     7
 10
-1010.4386
 20
743.47118999999986
 30
0.0
 40
1.5048382
 50
270.18263999999982
 51
346.7530799999999
  0
ARC
  5
9E3
  8
0
  6
CONTINUOUS
 62
     7
 10
-1010.4242
 20
745.49170000000004
 30
0.0
 40
1.505448699999999
 50
270.39686999999992
 51
345.95247000000001
  0
ARC
  5
9E4
  8
0
  6
CONTINUOUS
 62
     7
 10
-1006.1389
 20
748.17174999999975
 30
0.0
 40
1.994612099999999
 50
89.851992000000024
 51
165.93885999999981
  0
ARC
  5
9E5
  8
0
  6
CONTINUOUS
 62
     7
 10
-989.25049000000001
 20
746.73302999999999
 30
0.0
 40
1.9933081999999991
 50
89.807322999999968
 51
180.19266999999991
  0
ARC
  5
9E6
  8
0
  6
CONTINUOUS
 62
     7
 10
-989.24963000000014
 20
748.76220999999998
 30
0.0
 40
1.994130499999996
 50
89.831106000000005
 51
180.16889
  0
ARC
  5
9E7
  8
0
  6
CONTINUOUS
 62
     7
 10
-989.24730999999997
 20
750.11986999999988
 30
0.0
 40
1.996488899999999
 50
89.899147999999997
 51
180.10085000000001
  0
ARC
  5
9E8
  8
0
  6
CONTINUOUS
 62
     7
 10
-989.25
 20
750.78979000000004
 30
0.0
 40
1.9964978999999961
 50
89.821482000000003
 51
165.6006099999999
  0
ARC
  5
9E9
  8
0
  6
CONTINUOUS
 62
     7
 10
-992.74756000000014
 20
741.36010999999985
 30
0.0
 40
1.5037541000000001
 50
270.14287000000002
 51
359.85714000000002
  0
ARC
  5
9EA
  8
0
  6
CONTINUOUS
 62
     7
 10
-992.74865999999975
 20
746.64124000000004
 30
0.0
 40
1.504891299999997
 50
270.18592999999998
 51
359.81407000000002
  0
ARC
  5
9EB
  8
0
  6
CONTINUOUS
 62
     7
 10
-992.75072999999998
 20
750.04320999999982
 30
0.0
 40
1.506942899999999
 50
270.26337000000001
 51
359.73662999999999
  0
ARC
  5
9EC
  8
0
  6
CONTINUOUS
 62
     7
 10
-992.63879000000009
 20
751.67150999999967
 30
0.0
 40
1.505230099999999
 50
270.19421
 51
345.17177999999979
  0
ARC
  5
9ED
  8
0
  6
CONTINUOUS
 62
     7
 10
-865.59362999999985
 20
734.71862999999985
 30
0.0
 40
1.5022733999999991
 50
195.1365099999999
 51
269.99412000000001
  0
ARC
  5
9EE
  8
0
  6
CONTINUOUS
 62
     7
 10
-872.43433000000005
 20
746.72717
 30
0.0
 40
1.9991226
 50
15.050791
 51
89.984388999999979
  0
ARC
  5
9EF
  8
0
  6
CONTINUOUS
 62
     7
 10
-864.25073000000009
 20
624.35937999999999
 30
0.0
 40
0.99304521
 50
179.59730999999991
 51
270.40267999999992
  0
ARC
  5
9F0
  8
0
  6
CONTINUOUS
 62
     7
 10
-864.25145999999984
 20
635.81872999999985
 30
0.0
 40
0.99237448
 50
179.55802
 51
270.44197000000003
  0
ARC
  5
9F1
  8
0
  6
CONTINUOUS
 62
     7
 10
-865.53809000000001
 20
739.40661999999998
 30
0.0
 40
1.500286
 50
192.32630999999989
 51
270.16417000000001
  0
ARC
  5
9F2
  8
0
  6
CONTINUOUS
 62
     7
 10
-1003.0881000000001
 20
728.46056999999985
 30
0.0
 40
5.0059714
 50
279.71098000000001
 51
354.67887999999999
  0
ARC
  5
9F3
  8
0
  6
CONTINUOUS
 62
     7
 10
-1002.622799999999
 20
724.53381000000002
 30
0.0
 40
6.0044340999999992
 50
45.225577999999999
 51
86.380821999999966
  0
ARC
  5
9F4
  8
0
  6
CONTINUOUS
 62
     7
 10
-999.10180999999989
 20
728.08704
 30
0.0
 40
1.002184699999999
 50
354.80385999999987
 51
45.047306999999968
  0
ARC
  5
9F5
  8
0
  6
CONTINUOUS
 62
     7
 10
-1002.623999999998
 20
649.21167000000003
 30
0.0
 40
6.0073843
 50
273.62973999999991
 51
314.76384999999999
  0
ARC
  5
9F6
  8
0
  6
CONTINUOUS
 62
     7
 10
-1003.0809
 20
645.27782999999999
 30
0.0
 40
4.9991421999999961
 50
5.3780269000000001
 51
80.360065000000006
  0
ARC
  5
9F7
  8
0
  6
CONTINUOUS
 62
     7
 10
-1006.1069
 20
627.19690000000003
 30
0.0
 40
2.0005671999999981
 50
193.3095899999999
 51
269.80430999999999
  0
ARC
  5
9F8
  8
0
  6
CONTINUOUS
 62
     7
 10
-1010.4305000000001
 20
630.26868000000002
 30
0.0
 40
1.497715799999999
 50
13.424379
 51
90.122644999999963
  0
ARC
  5
9F9
  8
0
  6
CONTINUOUS
 62
     7
 10
-1010.4161
 20
628.24805000000003
 30
0.0
 40
1.4982997
 50
14.22974
 51
89.910949999999985
  0
ARC
  5
9FA
  8
0
  6
CONTINUOUS
 62
     7
 10
-989.24377000000004
 20
627.00635
 30
0.0
 40
2.0000371999999991
 50
180.00105999999991
 51
269.99892999999992
  0
ARC
  5
9FB
  8
0
  6
CONTINUOUS
 62
     7
 10
-989.24279999999999
 20
624.97729000000004
 30
0.0
 40
2.0009109999999981
 50
180.00001
 51
269.97390999999988
  0
ARC
  5
9FC
  8
0
  6
CONTINUOUS
 62
     7
 10
-992.74572999999998
 20
632.38440000000003
 30
0.0
 40
1.501982699999999
 50
0.075587202
 51
89.924413000000015
  0
ARC
  5
9FD
  8
0
  6
CONTINUOUS
 62
     7
 10
-992.74683000000005
 20
627.10315000000003
 30
0.0
 40
1.503128599999999
 50
0.11912965
 51
89.880870000000002
  0
ARC
  5
9FE
  8
0
  6
CONTINUOUS
 62
     7
 10
-865.60009999999988
 20
639.02257999999995
 30
0.0
 40
1.4937901
 50
89.756423999999981
 51
165.1129199999998
  0
ARC
  5
9FF
  8
0
  6
CONTINUOUS
 62
     7
 10
-990.25098000000003
 20
701.86632999999995
 30
0.0
 40
1.0000259
 50
89.587533999999977
 51
270.41246000000001
  0
ARC
  5
A00
  8
0
  6
CONTINUOUS
 62
     7
 10
-990.25098000000003
 20
711.86632999999995
 30
0.0
 40
1.0000259
 50
89.587533999999977
 51
270.41246000000001
  0
ARC
  5
A01
  8
0
  6
CONTINUOUS
 62
     7
 10
-990.25098000000003
 20
721.86632999999983
 30
0.0
 40
1.0000259
 50
89.587533999999977
 51
270.41246000000001
  0
ARC
  5
A02
  8
0
  6
CONTINUOUS
 62
     7
 10
-1007.9819
 20
691.87634000000003
 30
0.0
 40
1.2700266
 50
89.629328000000001
 51
270.37065999999987
  0
ARC
  5
A03
  8
0
  6
CONTINUOUS
 62
     7
 10
-1007.92
 20
701.88135
 30
0.0
 40
1.3350147999999991
 50
89.730435000000014
 51
270.26956999999999
  0
ARC
  5
A04
  8
0
  6
CONTINUOUS
 62
     7
 10
-998.78943000000004
 20
711.89635999999985
 30
0.0
 40
1.460011199999999
 50
89.775248000000005
 51
270.22474
  0
ARC
  5
A05
  8
0
  6
CONTINUOUS
 62
     7
 10
-998.57372999999995
 20
721.91638
 30
0.0
 40
1.6800002000000001
 50
90.000003000000007
 51
270.0
  0
ARC
  5
A06
  8
0
  6
CONTINUOUS
 62
     7
 10
-1006.6937
 20
691.86632999999995
 30
0.0
 40
1.0000056999999991
 50
90.000003000000007
 51
270.0
  0
ARC
  5
A07
  8
0
  6
CONTINUOUS
 62
     7
 10
-1006.6937
 20
701.86632999999995
 30
0.0
 40
1.0000056999999991
 50
90.000003000000007
 51
270.0
  0
ARC
  5
A08
  8
0
  6
CONTINUOUS
 62
     7
 10
-997.70092999999997
 20
721.86632999999983
 30
0.0
 40
1.0000255999999981
 50
89.589473999999967
 51
270.41052000000002
  0
ARC
  5
A09
  8
0
  6
CONTINUOUS
 62
     7
 10
-997.70092999999997
 20
711.86632999999995
 30
0.0
 40
1.0000255999999981
 50
89.589473999999967
 51
270.41052000000002
  0
ARC
  5
A0A
  8
0
  6
CONTINUOUS
 62
     7
 10
-868.42382999999984
 20
721.91638
 30
0.0
 40
1.6800077
 50
269.99998999999991
 51
90.000003000000007
  0
ARC
  5
A0B
  8
0
  6
CONTINUOUS
 62
     7
 10
-871.90380999999979
 20
721.86632999999983
 30
0.0
 40
1.0000040999999991
 50
269.99998999999991
 51
90.000003000000007
  0
ARC
  5
A0C
  8
0
  6
CONTINUOUS
 62
     7
 10
-871.90380999999979
 20
651.86632999999995
 30
0.0
 40
1.0000040999999991
 50
269.99998999999991
 51
90.000003000000007
  0
ARC
  5
A0D
  8
0
  6
CONTINUOUS
 62
     7
 10
-868.42382999999984
 20
651.82628999999963
 30
0.0
 40
1.6800077
 50
269.99998999999991
 51
90.000003000000007
  0
ARC
  5
A0E
  8
0
  6
CONTINUOUS
 62
     7
 10
-1006.6937
 20
681.86632999999995
 30
0.0
 40
1.0000056999999991
 50
90.000003000000007
 51
270.0
  0
ARC
  5
A0F
  8
0
  6
CONTINUOUS
 62
     7
 10
-990.25098000000003
 20
671.86632999999995
 30
0.0
 40
1.0000259
 50
89.587533999999977
 51
270.41246000000001
  0
ARC
  5
A10
  8
0
  6
CONTINUOUS
 62
     7
 10
-990.25098000000003
 20
661.86632999999995
 30
0.0
 40
1.0000259
 50
89.587533999999977
 51
270.41246000000001
  0
ARC
  5
A11
  8
0
  6
CONTINUOUS
 62
     7
 10
-1007.92
 20
671.85631999999998
 30
0.0
 40
1.3300148000000001
 50
89.729417999999995
 51
270.27058999999991
  0
ARC
  5
A12
  8
0
  6
CONTINUOUS
 62
     7
 10
-990.25098000000003
 20
681.86632999999995
 30
0.0
 40
1.0000259
 50
89.587533999999977
 51
270.41246000000001
  0
ARC
  5
A13
  8
0
  6
CONTINUOUS
 62
     7
 10
-990.25098000000003
 20
651.86632999999995
 30
0.0
 40
1.0000259
 50
89.587533999999977
 51
270.41246000000001
  0
ARC
  5
A14
  8
0
  6
CONTINUOUS
 62
     7
 10
-1007.9819
 20
681.86632999999995
 30
0.0
 40
1.2700266
 50
89.629320999999962
 51
270.37068999999991
  0
ARC
  5
A15
  8
0
  6
CONTINUOUS
 62
     7
 10
-1006.6937
 20
671.86632999999995
 30
0.0
 40
1.0000056999999991
 50
90.000003000000007
 51
270.0
  0
ARC
  5
A16
  8
0
  6
CONTINUOUS
 62
     7
 10
-1002.510599999999
 20
734.12634000000003
 30
0.0
 40
1.5
 50
280.24788999999998
 51
349.76262000000008
  0
ARC
  5
A17
  8
0
  6
CONTINUOUS
 62
     7
 10
-1002.510599999999
 20
639.60631999999998
 30
0.0
 40
1.5
 50
10.23737899999999
 51
79.752110000000002
  0
ARC
  5
A18
  8
0
  6
CONTINUOUS
 62
     7
 10
-998.28430000000003
 20
635.87157999999965
 30
0.0
 40
1.9952742999999991
 50
189.96477999999971
 51
269.85142000000002
  0
ARC
  5
A19
  8
0
  6
CONTINUOUS
 62
     7
 10
-1002.7269
 20
634.32397000000003
 30
0.0
 40
1.502416299999999
 50
12.39188699999999
 51
90.098617000000004
  0
ARC
  5
A1A
  8
0
  6
CONTINUOUS
 62
     7
 10
-998.34644000000003
 20
630.59338000000002
 30
0.0
 40
1.997119399999999
 50
192.05524
 51
270.19862999999992
  0
ARC
  5
A1B
  8
0
  6
CONTINUOUS
 62
     7
 10
-998.57372999999995
 20
651.81627999999978
 30
0.0
 40
1.6800002000000001
 50
90.000003000000007
 51
270.0
  0
ARC
  5
A1C
  8
0
  6
CONTINUOUS
 62
     7
 10
-997.70092999999997
 20
651.86632999999995
 30
0.0
 40
1.0000255999999981
 50
89.589473999999967
 51
270.41052000000002
  0
ARC
  5
A1D
  8
0
  6
CONTINUOUS
 62
     7
 10
-997.70092999999997
 20
661.86632999999995
 30
0.0
 40
1.0000255999999981
 50
89.589473999999967
 51
270.41052000000002
  0
ARC
  5
A1E
  8
0
  6
CONTINUOUS
 62
     7
 10
-998.78943000000004
 20
661.83630000000016
 30
0.0
 40
1.460011199999999
 50
89.775248000000005
 51
270.22474
  0
ARC
  5
A1F
  8
0
  6
CONTINUOUS
 62
     7
 10
-947.91736000000014
 20
621.47631999999999
 30
0.0
 40
1.5
 50
1.500002699999998
 51
90.000003000000007
  0
ARC
  5
A20
  8
0
  6
CONTINUOUS
 62
     3
 10
-873.22753999999998
 20
618.36632999999995
 30
0.0
 40
1.5
 50
269.99998999999991
 51
327.0
  0
ARC
  5
A21
  8
0
  6
CONTINUOUS
 62
     7
 10
-884.73021999999969
 20
615.36632999999995
 30
0.0
 40
1.5
 50
90.000003000000007
 51
178.5
  0
ARC
  5
A22
  8
0
  6
CONTINUOUS
 62
     7
 10
-870.72388000000001
 20
749.25635
 30
0.0
 40
1.5
 50
12.129792
 51
90.000003000000007
  0
ARC
  5
A23
  8
0
  6
CONTINUOUS
 62
     7
 10
-871.01610999999934
 20
750.61632999999983
 30
0.0
 40
1.5
 50
12.129792
 51
90.000003000000007
  0
ARC
  5
A24
  8
0
  6
CONTINUOUS
 62
     7
 10
-871.16015999999979
 20
751.28637999999989
 30
0.0
 40
1.5
 50
12.129792
 51
90.000003000000007
  0
ARC
  5
A25
  8
0
  6
CONTINUOUS
 62
     7
 10
-868.20385999999985
 20
661.83630000000016
 30
0.0
 40
1.460011199999999
 50
269.77525000000003
 51
90.224749999999986
  0
ARC
  5
A26
  8
0
  6
CONTINUOUS
 62
     7
 10
-871.90380999999979
 20
661.86632999999995
 30
0.0
 40
1.0000255999999981
 50
269.58947000000001
 51
90.410531000000006
  0
ARC
  5
A27
  8
0
  6
CONTINUOUS
 62
     7
 10
-868.20385999999985
 20
711.89635999999985
 30
0.0
 40
1.460011199999999
 50
269.77525000000003
 51
90.224749999999986
  0
ARC
  5
A28
  8
0
  6
CONTINUOUS
 62
     7
 10
-871.90380999999979
 20
711.86632999999995
 30
0.0
 40
1.0000255999999981
 50
269.58947000000001
 51
90.410531000000006
  0
ARC
  5
A29
  8
0
  6
CONTINUOUS
 62
     7
 10
-935.57885999999996
 20
701.88135
 30
0.0
 40
1.3350147999999991
 50
269.73043000000001
 51
90.269555999999994
  0
ARC
  5
A2A
  8
0
  6
CONTINUOUS
 62
     7
 10
-936.80505000000005
 20
701.86632999999995
 30
0.0
 40
1.0000056999999991
 50
269.99998999999991
 51
90.000003000000007
  0
ARC
  5
A2B
  8
0
  6
CONTINUOUS
 62
     7
 10
-936.80505000000005
 20
691.86632999999995
 30
0.0
 40
1.0000056999999991
 50
269.99998999999991
 51
90.000003000000007
  0
ARC
  5
A2C
  8
0
  6
CONTINUOUS
 62
     7
 10
-935.51684999999986
 20
691.87634000000003
 30
0.0
 40
1.2700266
 50
269.62931999999989
 51
90.370669999999961
  0
ARC
  5
A2D
  8
0
  6
CONTINUOUS
 62
     7
 10
-936.80505000000005
 20
681.86632999999995
 30
0.0
 40
1.0000056999999991
 50
269.99998999999991
 51
90.000003000000007
  0
ARC
  5
A2E
  8
0
  6
CONTINUOUS
 62
     7
 10
-935.51684999999986
 20
681.86632999999995
 30
0.0
 40
1.2700266
 50
269.62931999999989
 51
90.370669999999961
  0
ARC
  5
A2F
  8
0
  6
CONTINUOUS
 62
     7
 10
-936.80505000000005
 20
671.86632999999995
 30
0.0
 40
1.0000056999999991
 50
269.99998999999991
 51
90.000003000000007
  0
ARC
  5
A30
  8
0
  6
CONTINUOUS
 62
     7
 10
-935.57885999999996
 20
671.85631999999998
 30
0.0
 40
1.3300148000000001
 50
269.72941999999989
 51
90.270567000000014
  0
ARC
  5
A31
  8
0
  6
CONTINUOUS
 62
     7
 10
-886.24376999999993
 20
659.36632999999995
 30
0.0
 40
1.5
 50
90.000003000000007
 51
180.00001
  0
ARC
  5
A32
  8
0
  6
CONTINUOUS
 62
     7
 10
-886.24376999999993
 20
654.36632999999995
 30
0.0
 40
1.5
 50
179.99998999999991
 51
270.0
  0
ARC
  5
A33
  8
0
  6
CONTINUOUS
 62
     7
 10
-904.24376999999981
 20
659.36632999999995
 30
0.0
 40
1.5
 50
0.0
 51
90.000003000000007
  0
ARC
  5
A34
  8
0
  6
CONTINUOUS
 62
     7
 10
-904.24376999999981
 20
654.36632999999995
 30
0.0
 40
1.5
 50
269.99998999999991
 51
0.00000068324733
  0
ARC
  5
A35
  8
0
  6
CONTINUOUS
 62
     7
 10
-886.24376999999993
 20
659.36632999999995
 30
0.0
 40
1.02
 50
90.000003000000007
 51
180.00001
  0
ARC
  5
A36
  8
0
  6
CONTINUOUS
 62
     7
 10
-904.24376999999981
 20
659.36632999999995
 30
0.0
 40
1.02
 50
0.0
 51
90.000003000000007
  0
ARC
  5
A37
  8
0
  6
CONTINUOUS
 62
     7
 10
-904.22375
 20
654.50635
 30
0.0
 40
1.0
 50
269.99998999999991
 51
0.00000068324299
  0
ARC
  5
A38
  8
0
  6
CONTINUOUS
 62
     7
 10
-886.2637900000002
 20
654.50635
 30
0.0
 40
1.0
 50
179.99998999999991
 51
270.0
  0
CIRCLE
  5
A39
  8
0
  6
CONTINUOUS
 62
     3
 10
-897.7437699999997
 20
658.36632999999995
 30
0.0
 40
1.1000000000000001
  0
CIRCLE
  5
A3A
  8
0
  6
CONTINUOUS
 62
     3
 10
-897.7437699999997
 20
658.36632999999995
 30
0.0
 40
1.149999999999999
  0
CIRCLE
  5
A3B
  8
0
  6
CONTINUOUS
 62
     3
 10
-892.74376999999981
 20
658.36632999999995
 30
0.0
 40
1.0
  0
ARC
  5
A3C
  8
0
  6
CONTINUOUS
 62
     7
 10
-886.24376999999993
 20
714.36632999999995
 30
0.0
 40
1.5
 50
179.99998999999991
 51
270.0
  0
ARC
  5
A3D
  8
0
  6
CONTINUOUS
 62
     7
 10
-886.24376999999993
 20
719.36632999999995
 30
0.0
 40
1.5
 50
90.000003000000007
 51
180.00001
  0
ARC
  5
A3E
  8
0
  6
CONTINUOUS
 62
     7
 10
-904.24376999999981
 20
714.36632999999995
 30
0.0
 40
1.5
 50
269.99998999999991
 51
0.00000068324733
  0
ARC
  5
A3F
  8
0
  6
CONTINUOUS
 62
     7
 10
-904.24376999999981
 20
719.36632999999995
 30
0.0
 40
1.5
 50
0.0
 51
90.000003000000007
  0
ARC
  5
A40
  8
0
  6
CONTINUOUS
 62
     7
 10
-886.24376999999993
 20
714.36632999999995
 30
0.0
 40
1.02
 50
179.99998999999991
 51
270.0
  0
ARC
  5
A41
  8
0
  6
CONTINUOUS
 62
     7
 10
-904.24376999999981
 20
714.36632999999995
 30
0.0
 40
1.02
 50
269.99998999999991
 51
0.00000068324403
  0
ARC
  5
A42
  8
0
  6
CONTINUOUS
 62
     7
 10
-904.22375
 20
719.22631999999999
 30
0.0
 40
1.0
 50
0.0
 51
90.000003000000007
  0
ARC
  5
A43
  8
0
  6
CONTINUOUS
 62
     7
 10
-886.2637900000002
 20
719.22631999999999
 30
0.0
 40
1.0
 50
90.000003000000007
 51
180.00001
  0
CIRCLE
  5
A44
  8
0
  6
CONTINUOUS
 62
     3
 10
-892.74376999999981
 20
715.36632999999995
 30
0.0
 40
1.0
  0
CIRCLE
  5
A45
  8
0
  6
CONTINUOUS
 62
     3
 10
-897.7437699999997
 20
715.36632999999995
 30
0.0
 40
1.149999999999999
  0
CIRCLE
  5
A46
  8
0
  6
CONTINUOUS
 62
     3
 10
-897.7437699999997
 20
715.36632999999995
 30
0.0
 40
1.1000000000000001
  0
ARC
  5
A47
  8
0
  6
CONTINUOUS
 62
     7
 10
-1006.5431
 20
627.19629000000009
 30
0.0
 40
2.0
 50
194.1507499999999
 51
269.99998999999991
  0
ARC
  5
A48
  8
0
  6
CONTINUOUS
 62
     7
 10
-992.50097999999991
 20
623.69628999999986
 30
0.0
 40
1.5
 50
21.461708999999988
 51
90.000003000000007
  0
ARC
  5
A49
  8
0
  6
CONTINUOUS
 62
     7
 10
-776.11974999999984
 20
263.37792999999999
 30
0.0
 40
4.0
 50
315.0
 51
90.000003000000007
  0
ARC
  5
A4A
  8
0
  6
CONTINUOUS
 62
     7
 10
-845.24376999999993
 20
270.37792999999982
 30
0.0
 40
3.0
 50
270.0
 51
0.0
  0
POLYLINE
  5
A4B
  8
0
  6
CONTINUOUS
 62
     7
 66
     1
 10
0.0
 20
0.0
 30
0.0
  0
VERTEX
  5
A4C
  8
0
  6
CONTINUOUS
 62
     7
 10
-675.81407999999965
 20
607.13477999999975
 30
0.0
 42
0.11075717
  0
VERTEX
  5
A4D
  8
0
  6
CONTINUOUS
 62
     7
 10
-662.93313999999975
 20
617.04255999999975
 30
0.0
 42
0.20375769
  0
VERTEX
  5
A4E
  8
0
  6
CONTINUOUS
 62
     7
 10
-660.67541000000006
 20
624.70803000000001
 30
0.0
  0
VERTEX
  5
A4F
  8
0
  6
CONTINUOUS
 62
     7
 10
-675.44520999999986
 20
643.62317999999982
 30
0.0
 42
-1.0
  0
SEQEND
  5
A50
  8
0
 62
     7
  0
POLYLINE
  5
A51
  8
0
  6
CONTINUOUS
 62
     7
 66
     1
 10
0.0
 20
0.0
 30
0.0
  0
VERTEX
  5
A52
  8
0
  6
CONTINUOUS
 62
     7
 10
-675.81407999999965
 20
766.59775999999988
 30
0.0
 42
-0.11075703
  0
VERTEX
  5
A53
  8
0
  6
CONTINUOUS
 62
     7
 10
-662.93311000000006
 20
756.69005000000004
 30
0.0
 42
-0.20375918
  0
VERTEX
  5
A54
  8
0
  6
CONTINUOUS
 62
     7
 10
-660.67541000000006
 20
749.02457000000004
 30
0.0
  0
VERTEX
  5
A55
  8
0
  6
CONTINUOUS
 62
     7
 10
-675.44520999999986
 20
730.10942999999986
 30
0.0
 42
-1.0
  0
SEQEND
  5
A56
  8
0
 62
     7
  0
POLYLINE
  5
A57
  8
0
  6
CONTINUOUS
 62
     7
 66
     1
 10
0.0
 20
0.0
 30
0.0
  0
VERTEX
  5
A58
  8
0
  6
CONTINUOUS
 62
     7
 10
-767.24377000000004
 20
618.86632999999995
 30
0.0
  0
VERTEX
  5
A59
  8
0
  6
CONTINUOUS
 62
     7
 10
-786.98019999999985
 20
669.93632000000002
 30
0.0
 42
-1.0
  0
SEQEND
  5
A5A
  8
0
 62
     7
  0
POLYLINE
  5
A5B
  8
0
  6
CONTINUOUS
 62
     7
 66
     1
 10
0.0
 20
0.0
 30
0.0
  0
VERTEX
  5
A5C
  8
0
  6
CONTINUOUS
 62
     7
 10
-786.98023999999998
 20
703.7960599999999
 30
0.0
 42
-0.037107926
  0
VERTEX
  5
A5D
  8
0
  6
CONTINUOUS
 62
     7
 10
-782.70204000000001
 20
721.64227000000005
 30
0.0
 42
-0.032389855
  0
VERTEX
  5
A5E
  8
0
  6
CONTINUOUS
 62
     7
 10
-775.99955999999975
 20
738.73078999999984
 30
0.0
 42
-0.029578605
  0
VERTEX
  5
A5F
  8
0
  6
CONTINUOUS
 62
     7
 10
-767.24377000000004
 20
754.86632999999983
 30
0.0
  0
SEQEND
  5
A60
  8
0
 62
     7
  0
TEXT
  5
D40
  8
0
  6
CONTINUOUS
 62
     0
 10
-409.94933596346328
 20
646.6891239595659
 30
0.0
 40
15.0
  1
VX04-240M~VX04-600M
  0
ENDSEC
  0
EOF
