  0
SECTION
  2
HEADER
  9
$ACADVER
  1
AC1009
  9
$INSBASE
 10
0.0
 20
0.0
 30
0.0
  9
$EXTMIN
 10
46.337176103061658
 20
217.5943971945828
 30
-0.000000000000013
  9
$EXTMAX
 10
749.85997255932443
 20
672.21107678378996
 30
0.0000000000000023
  9
$LIMMIN
 10
0.0000005999945643
 20
-0.0000005963913736
  9
$LIMMAX
 10
853.50000059999434
 20
554.99999940360874
  9
$ORTHOMODE
 70
     1
  9
$REGENMODE
 70
     1
  9
$FILLMODE
 70
     1
  9
$QTEXTMODE
 70
     0
  9
$MIRRTEXT
 70
     0
  9
$DRAGMODE
 70
     2
  9
$LTSCALE
 40
1.0
  9
$OSMODE
 70
   551
  9
$ATTMODE
 70
     1
  9
$TEXTSIZE
 40
2.5
  9
$TRACEWID
 40
1.0
  9
$TEXTSTYLE
  7
STANDARD
  9
$CLAYER
  8
0
  9
$CELTYPE
  6
BYLAYER
  9
$CECOLOR
 62
   256
  9
$DIMSCALE
 40
1.0
  9
$DIMASZ
 40
2.0
  9
$DIMEXO
 40
1.0
  9
$DIMDLI
 40
8.0
  9
$DIMRND
 40
0.0
  9
$DIMDLE
 40
0.0
  9
$DIMEXE
 40
1.0
  9
$DIMTP
 40
-0.025
  9
$DIMTM
 40
0.043
  9
$DIMTXT
 40
2.5
  9
$DIMCEN
 40
0.0
  9
$DIMTSZ
 40
0.0
  9
$DIMTOL
 70
     0
  9
$DIMLIM
 70
     0
  9
$DIMTIH
 70
     0
  9
$DIMTOH
 70
     0
  9
$DIMSE1
 70
     0
  9
$DIMSE2
 70
     0
  9
$DIMTAD
 70
     3
  9
$DIMZIN
 70
     8
  9
$DIMBLK
  1

  9
$DIMASO
 70
     1
  9
$DIMSHO
 70
     1
  9
$DIMPOST
  1

  9
$DIMAPOST
  1
"
  9
$DIMALT
 70
     0
  9
$DIMALTD
 70
     2
  9
$DIMALTF
 40
0.0393701
  9
$DIMLFAC
 40
1.0
  9
$DIMTOFL
 70
     1
  9
$DIMTVP
 40
0.0
  9
$DIMTIX
 70
     0
  9
$DIMSOXD
 70
     0
  9
$DIMSAH
 70
     0
  9
$DIMBLK1
  1

  9
$DIMBLK2
  1

  9
$DIMSTYLE
  2
AM_JIS
  9
$DIMCLRD
 70
     2
  9
$DIMCLRE
 70
     2
  9
$DIMCLRT
 70
     4
  9
$DIMTFAC
 40
0.71
  9
$DIMGAP
 40
1.5
  9
$LUNITS
 70
     2
  9
$LUPREC
 70
     2
  9
$SKETCHINC
 40
1.0
  9
$FILLETRAD
 40
0.0
  9
$AUNITS
 70
     0
  9
$AUPREC
 70
     0
  9
$MENU
  1
.
  9
$ELEVATION
 40
0.0
  9
$PELEVATION
 40
0.0
  9
$THICKNESS
 40
0.0
  9
$LIMCHECK
 70
     0
  9
$BLIPMODE
 70
     0
  9
$CHAMFERA
 40
1.5
  9
$CHAMFERB
 40
1.5
  9
$SKPOLY
 70
     0
  9
$TDCREATE
 40
2456829.3841110538
  9
$TDUPDATE
 40
2458540.6814826159
  9
$TDINDWG
 40
0.5314156829
  9
$TDUSRTIMER
 40
0.5314154051
  9
$USRTIMER
 70
     1
  9
$ANGBASE
 50
0.0
  9
$ANGDIR
 70
     0
  9
$PDMODE
 70
     0
  9
$PDSIZE
 40
0.0
  9
$PLINEWID
 40
0.0
  9
$COORDS
 70
     1
  9
$SPLFRAME
 70
     0
  9
$SPLINETYPE
 70
     6
  9
$SPLINESEGS
 70
     8
  9
$ATTDIA
 70
     1
  9
$ATTREQ
 70
     1
  9
$HANDLING
 70
     1
  9
$HANDSEED
  5
6749
  9
$SURFTAB1
 70
     6
  9
$SURFTAB2
 70
     6
  9
$SURFTYPE
 70
     6
  9
$SURFU
 70
     6
  9
$SURFV
 70
     6
  9
$UCSNAME
  2

  9
$UCSORG
 10
0.0
 20
0.0
 30
0.0
  9
$UCSXDIR
 10
1.0
 20
0.0
 30
0.0
  9
$UCSYDIR
 10
0.0
 20
1.0
 30
0.0
  9
$PUCSNAME
  2

  9
$PUCSORG
 10
0.0
 20
0.0
 30
0.0
  9
$PUCSXDIR
 10
1.0
 20
0.0
 30
0.0
  9
$PUCSYDIR
 10
0.0
 20
1.0
 30
0.0
  9
$USERI1
 70
     0
  9
$USERI2
 70
     0
  9
$USERI3
 70
     0
  9
$USERI4
 70
     0
  9
$USERI5
 70
     0
  9
$USERR1
 40
0.0
  9
$USERR2
 40
0.0
  9
$USERR3
 40
0.0
  9
$USERR4
 40
0.0
  9
$USERR5
 40
0.0
  9
$WORLDVIEW
 70
     1
  9
$SHADEDGE
 70
     3
  9
$SHADEDIF
 70
    70
  9
$TILEMODE
 70
     1
  9
$MAXACTVP
 70
    64
  9
$PLIMCHECK
 70
     0
  9
$PEXTMIN
 10
1.0000000000000000E+020
 20
1.0000000000000000E+020
 30
1.0000000000000000E+020
  9
$PEXTMAX
 10
-1.0000000000000000E+020
 20
-1.0000000000000000E+020
 30
-1.0000000000000000E+020
  9
$PLIMMIN
 10
0.0
 20
0.0
  9
$PLIMMAX
 10
420.0
 20
297.0
  9
$UNITMODE
 70
     0
  9
$VISRETAIN
 70
     1
  9
$PLINEGEN
 70
     0
  9
$PSLTSCALE
 70
     1
  0
ENDSEC
  0
SECTION
  2
TABLES
  0
TABLE
  2
VPORT
 70
     1
  0
VPORT
  2
*ACTIVE
 70
     0
 10
0.0
 20
0.0
 11
1.0
 21
1.0
 12
398.09857433119311
 22
444.90273698918639
 13
0.0
 23
0.0
 14
7.5
 24
7.5
 15
30.0
 25
30.0
 16
0.0
 26
0.0
 36
1.0
 17
0.0
 27
0.0
 37
0.0
 40
457.7376178930233
 41
1.7571592210767459
 42
50.0
 43
0.0
 44
0.0
 50
0.0
 51
0.0
 71
    16
 72
  1000
 73
     1
 74
     3
 75
     0
 76
     0
 77
     0
 78
     0
  0
ENDTAB
  0
TABLE
  2
LTYPE
 70
    24
  0
LTYPE
  2
CONTINUOUS
 70
     0
  3
Solid line
 72
    65
 73
     0
 40
0.0
  0
LTYPE
  2
CENTER
 70
     0
  3
Center ____ _ ____ _ ____ _ ____ _ ____ _ ____
 72
    65
 73
     4
 40
50.799999999999997
 49
31.75
 49
-6.349999999999997
 49
6.349999999999997
 49
-6.349999999999997
  0
LTYPE
  2
AM_ISO02W050
 70
     0
  3
__ __ __ __ __ __ __ __ __ __ __ __ __ __ __
 72
    65
 73
     2
 40
7.5
 49
6.0
 49
-1.5
  0
LTYPE
  2
AM_ISO08W050
 70
     0
  3
____ . ____ . ____ . ____ . ____ . ____ . ____
 72
    65
 73
     4
 40
18.0
 49
12.0
 49
-1.5
 49
3.0
 49
-1.5
  0
LTYPE
  2
AM_ISO09W050
 70
     0
  3
_____ . . _____ . . _____ . . ____ .. ____
 72
    65
 73
     6
 40
22.5
 49
12.0
 49
-1.5
 49
3.0
 49
-1.5
 49
3.0
 49
-1.5
  0
LTYPE
  2
AMCONSTR
 70
     0
  3
_______________________
 72
    65
 73
     2
 40
9999.0
 49
9999.0
 49
0.0
  0
LTYPE
  2
AM_ISO08W050X2
 70
     0
  3
__ . __ . __ . __ . __ . __
 72
    65
 73
     4
 40
9.0
 49
6.0
 49
-0.75
 49
1.5
 49
-0.75
  0
LTYPE
  2
AM_ISO02W050X2
 70
     0
  3
 _ _ _ _ _ _ _ _ _ _ _ _
 72
    65
 73
     2
 40
3.75
 49
3.0
 49
-0.75
  0
LTYPE
  2
AMZIGZAG
 70
     0
  3
/\/-/\/-/\/-/\/-/\/-/\/
 72
    65
 73
     2
 40
11.0001
 49
0.0001
 49
-11.0
  0
LTYPE
  2
ACANSTGBM
 70
     0
  3
__ . . __ . .
 72
    65
 73
     6
 40
9.0
 49
4.0
 49
-1.0
 49
1.0
 49
-1.0
 49
1.0
 49
-1.0
  0
LTYPE
  2
ACANSTGLM
 70
     0
  3
_ _ _ _ _
 72
    65
 73
     2
 40
3.0
 49
2.0
 49
-1.0
  0
LTYPE
  2
ACISOWELD
 70
     0
  3
_ _ _ _ _
 72
    65
 73
     2
 40
2.0
 49
2.0
 49
-1.0
  0
LTYPE
  2
ACISOTGB
 70
     0
  3
__ . . __ . .
 72
    65
 73
     6
 40
9.0
 49
4.0
 49
-1.0
 49
1.0
 49
-1.0
 49
1.0
 49
-1.0
  0
LTYPE
  2
ACISOTGL
 70
     0
  3
_ _ _ _ _
 72
    65
 73
     2
 40
3.0
 49
2.0
 49
-1.0
  0
LTYPE
  2
ACJISTGB
 70
     0
  3
__ . . __ . .
 72
    65
 73
     6
 40
9.0
 49
4.0
 49
-1.0
 49
1.0
 49
-1.0
 49
1.0
 49
-1.0
  0
LTYPE
  2
ACJISTGL
 70
     0
  3
_ _ _ _ _
 72
    65
 73
     2
 40
3.0
 49
2.0
 49
-1.0
  0
LTYPE
  2
PHANTOM2
 70
     0
  3
Phantom (.5x) ___ _ _ ___ _ _ ___ _ _ ___ _ _
 72
    65
 73
     6
 40
31.75
 49
15.875
 49
-3.174999999999998
 49
3.174999999999998
 49
-3.174999999999998
 49
3.174999999999998
 49
-3.174999999999998
  0
LTYPE
  2
HIDDEN
 70
     0
  3
Hidden __ __ __ __ __ __ __ __ __ __ __ __ __ _
 72
    65
 73
     2
 40
9.5249999999999968
 49
6.349999999999997
 49
-3.174999999999998
  0
LTYPE
  2
CENTER2
 70
     0
  3
Center (.5x) ___ _ ___ _ ___ _ ___ _ ___ _ ___
 72
    65
 73
     4
 40
1.125
 49
0.75
 49
-0.125
 49
0.125
 49
-0.125
  0
LTYPE
  2
HIDDEN2
 70
     0
  3
Hidden (.5x) _ _ _ _ _ _ _ _ _ _ _ _ _ _ _ _ _
 72
    65
 73
     2
 40
0.1875
 49
0.125
 49
-0.0625
  0
LTYPE
  2
AMZIGZAG2
 70
     0
  3
/\/-/\/-/\/-/\/-/\/-/\/
 72
    65
 73
     2
 40
0.4401
 49
0.0001
 49
-0.4400000000000003
  0
LTYPE
  2
ACANSTGB
 70
     0
  3
__ . . __ . .
 72
    65
 73
     6
 40
0.35433070866
 49
0.15748031496
 49
-0.03937007874
 49
0.03937007874
 49
-0.03937007874
 49
0.03937007874
 49
-0.03937007874
  0
LTYPE
  2
ACANSTGL
 70
     0
  3
_ _ _ _ _
 72
    65
 73
     2
 40
0.11811023622
 49
0.07874015748
 49
-0.03937007874
  0
ENDTAB
  0
TABLE
  2
LAYER
 70
     4
  0
LAYER
  2
0
 70
     0
 62
     7
  6
CONTINUOUS
  0
LAYER
  2
DEFPOINTS
 70
     0
 62
     7
  6
CONTINUOUS
  0
LAYER
  2
AM_5
 70
     0
 62
     2
  6
CONTINUOUS
  0
LAYER
  2
AM_CL
 70
     0
 62
     1
  6
AMCONSTR
  0
ENDTAB
  0
TABLE
  2
STYLE
 70
     9
  0
STYLE
  2
STANDARD
 70
     0
 40
0.0
 41
0.7400000000000003
 50
0.0
 71
     0
 42
2.5
  3
txt.shx
  4
bigfont.shx
  0
STYLE
  2
ANNOTATIVE
 70
     0
 40
0.0
 41
1.0
 50
0.0
 71
     0
 42
0.2
  3
txt
  4

  0
STYLE
  2

 70
     1
 40
0.0
 41
1.0
 50
0.0
 71
     0
 42
2.5
  3
ltypeshp.shx
  4

  0
STYLE
  2
ACANSTS
 70
     0
 40
1.0
 41
1.0
 50
0.0
 71
     0
 42
2.5
  3
romans.shx
  4
bigfont.shx
  0
STYLE
  2
ACANSGDT
 70
     0
 40
0.0
 41
1.0
 50
0.0
 71
     0
 42
2.5
  3
amgdt.shx
  4

  0
STYLE
  2
ACISOTS
 70
     0
 40
1.0
 41
1.0
 50
0.0
 71
     0
 42
2.5
  3
isocp.shx
  4
extfont.shx
  0
STYLE
  2
ACISOGDT
 70
     0
 40
0.0
 41
1.0
 50
0.0
 71
     0
 42
2.5
  3
amgdt.shx
  4

  0
STYLE
  2
ACJISGDT
 70
     0
 40
0.0
 41
1.0
 50
0.0
 71
     0
 42
2.5
  3
amgdt.shx
  4

  0
STYLE
  2
ACJISTS
 70
     0
 40
1.0
 41
1.0
 50
0.0
 71
     0
 42
2.5
  3
isocp.shx
  4
extfont.shx
  0
ENDTAB
  0
TABLE
  2
VIEW
 70
     6
  0
VIEW
  2
AM_VIEW1
 70
     0
 40
277.50000000000011
 10
293.3007123437668
 20
416.24999940360863
 41
586.60142348754448
 11
0.0
 21
0.0
 31
1.0
 12
0.0
 22
0.0
 32
0.0
 42
50.0
 43
0.0
 44
0.0
 50
0.0
 71
    16
  0
VIEW
  2
AM_VIEW2
 70
     0
 40
277.50000000000011
 10
560.1992888562221
 20
416.24999940360863
 41
586.60142348754448
 11
0.0
 21
0.0
 31
1.0
 12
0.0
 22
0.0
 32
0.0
 42
50.0
 43
0.0
 44
0.0
 50
0.0
 71
    16
  0
VIEW
  2
AM_VIEW3
 70
     0
 40
277.50000000000011
 10
293.3007123437668
 20
138.7499994036086
 41
586.60142348754448
 11
0.0
 21
0.0
 31
1.0
 12
0.0
 22
0.0
 32
0.0
 42
50.0
 43
0.0
 44
0.0
 50
0.0
 71
    16
  0
VIEW
  2
AM_VIEW4
 70
     0
 40
277.50000000000011
 10
560.1992888562221
 20
138.7499994036086
 41
586.60142348754448
 11
0.0
 21
0.0
 31
1.0
 12
0.0
 22
0.0
 32
0.0
 42
50.0
 43
0.0
 44
0.0
 50
0.0
 71
    16
  0
VIEW
  2
AM_VIEW5
 70
     0
 40
277.50000000000011
 10
426.75000059999451
 20
277.49999940360868
 41
586.60142348754448
 11
0.0
 21
0.0
 31
1.0
 12
0.0
 22
0.0
 32
0.0
 42
50.0
 43
0.0
 44
0.0
 50
0.0
 71
    16
  0
VIEW
  2
AM_VIEW6
 70
     0
 40
554.99445000000014
 10
426.75000059999451
 20
277.49999940360863
 41
1173.1911149466191
 11
0.0
 21
0.0
 31
1.0
 12
0.0
 22
0.0
 32
0.0
 42
50.0
 43
0.0
 44
0.0
 50
0.0
 71
    16
  0
ENDTAB
  0
TABLE
  2
UCS
 70
     0
  0
ENDTAB
  0
TABLE
  2
APPID
 70
   163
  0
APPID
  2
ACAD
 70
     0
  0
APPID
  2
ACADANNOTATIVE
 70
     0
  0
APPID
  2
ACAD_MLEADERVER
 70
     0
  0
APPID
  2
MCAD_NO_VIS
 70
     0
  0
APPID
  2
ACAD_TEMP_GRAPHIC
 70
     0
  0
APPID
  2
AD_DRAW
 70
     0
  0
APPID
  2
ACATTRIBSERVICES
 70
     0
  0
APPID
  2
DESIGNERASSEMBLIES
 70
     0
  0
APPID
  2
ACADM_DIM_EDIT
 70
     0
  0
APPID
  2
AMDT_DM_ADJ
 70
     0
  0
APPID
  2
GENIUS_GENDIMSH_14
 70
     0
  0
APPID
  2
GEVID1057795304
 70
     0
  0
APPID
  2
GEVDC
 70
     0
  0
APPID
  2
GEVCON
 70
     0
  0
APPID
  2
GENIUS_GENBH_13
 70
     0
  0
APPID
  2
GENIUS_GENOENT_13
 70
     0
  0
APPID
  2
GENIUS_GENOBJ-NBEHI-BHF_13
 70
     0
  0
APPID
  2
GENIUS_GENOLIS_13
 70
     0
  0
APPID
  2
GENIUS_GENODEF_13
 70
     0
  0
APPID
  2
GENIUS_GENOREF_13
 70
     0
  0
APPID
  2
GENIUS_GENOBJ-NBEHI-BHB_13
 70
     0
  0
APPID
  2
GENIUS_GENOBJ-F-SCPASSM_13
 70
     0
  0
APPID
  2
GENIUS_GENDTOL_13
 70
     0
  0
APPID
  2
GENIUS_GENTRA_14
 70
     0
  0
APPID
  2
ASURF_PCURVE_APPNAME
 70
     0
  0
APPID
  2
GENIUS_GENCFG_13
 70
     0
  0
APPID
  2
GENIUS_GE3CFG0_13
 70
     0
  0
APPID
  2
GENIUS_GENCFG0_13
 70
     0
  0
APPID
  2
GENIUS_GENCFG1_13
 70
     0
  0
APPID
  2
GENIUS_GENCFG2_13
 70
     0
  0
APPID
  2
GENIUS_GENCFG3_13
 70
     0
  0
APPID
  2
GENIUS_GENCFG4_13
 70
     0
  0
APPID
  2
GENIUS_GEVCFG0_13
 70
     0
  0
APPID
  2
GENIUS_GENOBJ-N-TIT_13
 70
     0
  0
APPID
  2
GENIUS_GENTITLE_13
 70
     0
  0
APPID
  2
GENIUS_GENSCREG_15
 70
     0
  0
APPID
  2
GENIUS_GENOBJ-N-SDF_13
 70
     0
  0
APPID
  2
GENIUS_GENFIL_13
 70
     0
  0
APPID
  2
GENIUS_GENOBJ-N-CHA_13
 70
     0
  0
APPID
  2
GENIUS_GEFSH_13
 70
     0
  0
APPID
  2
GENIUS_GENOBJ-F-SHS_13
 70
     0
  0
APPID
  2
GENIUS_GENOBJ-N-CEN_13
 70
     0
  0
APPID
  2
GENIUS_GENREC_14
 70
     0
  0
APPID
  2
GENIUS_GENOBJ-N-REC_13
 70
     0
  0
APPID
  2
GENIUS_GENOBJ-N-HTC_13
 70
     0
  0
APPID
  2
GENIUS_GENHATCH_13
 70
     0
  0
APPID
  2
ACAD_PSEXT
 70
     0
  0
APPID
  2
ACAD_EXEMPT_FROM_CAD_STANDARDS
 70
     0
  0
APPID
  2
ACAECLAYERSTANDARD
 70
     0
  0
APPID
  2
GENIUS_GENCEN_19
 70
     0
  0
APPID
  2
ACAD_DSTYLE_DIMINSPECT
 70
     0
  0
APPID
  2
ACAD_DSTYLE_DIMANGULAR_EXT
 70
     0
  0
APPID
  2
ACADANNOPO
 70
     0
  0
APPID
  2
ACAD_NAV_VCDISPLAY
 70
     0
  0
APPID
  2
GENIUS_GENOBJ-N-FIL_13
 70
     0
  0
APPID
  2
ACAUTHENVIRON
 70
     0
  0
APPID
  2
ACDBDYNAMICBLOCKTRUENAME
 70
     0
  0
APPID
  2
ACDBDYNAMICBLOCKGUID
 70
     0
  0
APPID
  2
ACDBBLOCKREPETAG
 70
     0
  0
APPID
  2
ACAD_DSTYLE_DIMBREAK
 70
     0
  0
APPID
  2
ACAD_DSTYLE_DIMJAG
 70
     0
  0
APPID
  2
GENIUS_DUMCFG0_13
 70
     0
  0
APPID
  2
ACAD_DSTYLE_DIMTEXT_FILL
 70
     0
  0
APPID
  2
AMG_2DHIDE
 70
     0
  0
APPID
  2
GENIUS_GEFSHEP_13
 70
     0
  0
APPID
  2
GENIUS_GENOBJ-F-SHE_13
 70
     0
  0
APPID
  2
GENIUS_GEFSHE_13
 70
     0
  0
APPID
  2
ACAD_DIMASSOC_DIMLFAC
 70
     0
  0
APPID
  2
ACAD_DIMASSOC_CALC_DIMLFAC
 70
     0
  0
APPID
  2
ACAD_DIMASSOC_OVERRIDDEN_D
 70
     0
  0
APPID
  2
GENIUS_GENOBJ-F-SHSV_13
 70
     0
  0
APPID
  2
GENIUS_GEFWELD_13
 70
     0
  0
APPID
  2
GENIUS_GENOBJ-N-CRS_13
 70
     0
  0
APPID
  2
GENIUS_GENOBJ-N-RSBK_13
 70
     0
  0
APPID
  2
GENIUS_GENOBJ-N-LIB_13
 70
     0
  0
APPID
  2
GENIUS_GENSCALE_13
 70
     0
  0
APPID
  2
GENIUS_GENHINW_13
 70
     0
  0
APPID
  2
GENIUS_FIRSTVISTXT_14
 70
     0
  0
APPID
  2
GENIUS_GENOBJ-N-LEADER_13
 70
     0
  0
APPID
  2
GENIUS_GENDREL_13
 70
     0
  0
APPID
  2
GEVPT
 70
     0
  0
APPID
  2
GEVIT
 70
     0
  0
APPID
  2
VCC
 70
     0
  0
APPID
  2
GENBH
 70
     0
  0
APPID
  2
GEVMK
 70
     0
  0
APPID
  2
GENIUS_GENOBJ-F-DESC_13
 70
     0
  0
APPID
  2
GENIUS_GEFDESC_14
 70
     0
  0
APPID
  2
GENIUS_GENOBJ-F-FEAT_13
 70
     0
  0
APPID
  2
GENIUS_GEFFEAT_14
 70
     0
  0
APPID
  2
GENIUS_GEFPARTINS_13
 70
     0
  0
APPID
  2
GENIUS_GENSCREG_13
 70
     0
  0
APPID
  2
GENIUS_GEFSHP_13
 70
     0
  0
APPID
  2
GEVID1025574798
 70
     0
  0
APPID
  2
GEVID1025574769
 70
     0
  0
APPID
  2
GEVID1025757451
 70
     0
  0
APPID
  2
GEVID1240528327
 70
     0
  0
APPID
  2
AMG_2DSTRUCT_BTR
 70
     0
  0
APPID
  2
ACADM_2DVIEW_IGN_NOTIFY
 70
     0
  0
APPID
  2
GEVID1240528328
 70
     0
  0
APPID
  2
GEVID1240528329
 70
     0
  0
APPID
  2
GEVRADREF
 70
     0
  0
APPID
  2
GEVID1240528330
 70
     0
  0
APPID
  2
GEVID1240528331
 70
     0
  0
APPID
  2
GEVID1240528332
 70
     0
  0
APPID
  2
GEVID1240791080
 70
     0
  0
APPID
  2
GEVID1240791081
 70
     0
  0
APPID
  2
GEVID1240791082
 70
     0
  0
APPID
  2
GEVID1240791083
 70
     0
  0
APPID
  2
GEVID1240791084
 70
     0
  0
APPID
  2
GEVID1240791085
 70
     0
  0
APPID
  2
GEVID1240791086
 70
     0
  0
APPID
  2
GEVID1240791087
 70
     0
  0
APPID
  2
GEVID1240791088
 70
     0
  0
APPID
  2
GEVID1240791089
 70
     0
  0
APPID
  2
GEVID1240791090
 70
     0
  0
APPID
  2
GEVID1240791091
 70
     0
  0
APPID
  2
GEVID1240791092
 70
     0
  0
APPID
  2
GEVID1240791093
 70
     0
  0
APPID
  2
GEVID1240791094
 70
     0
  0
APPID
  2
GEVID1240791095
 70
     0
  0
APPID
  2
GEVID1240791096
 70
     0
  0
APPID
  2
GEVID1240791097
 70
     0
  0
APPID
  2
GEVID1240791098
 70
     0
  0
APPID
  2
GEVID1240791099
 70
     0
  0
APPID
  2
GEVID1240791100
 70
     0
  0
APPID
  2
GEVID1240791101
 70
     0
  0
APPID
  2
GEVID1240791102
 70
     0
  0
APPID
  2
GEVID1240791103
 70
     0
  0
APPID
  2
GEVID1240791104
 70
     0
  0
APPID
  2
GEVID1240791105
 70
     0
  0
APPID
  2
GEVID1240875381
 70
     0
  0
APPID
  2
GEVID1240875382
 70
     0
  0
APPID
  2
GEVID1240875383
 70
     0
  0
APPID
  2
GEVID1240875384
 70
     0
  0
APPID
  2
GEVID1240875385
 70
     0
  0
APPID
  2
GEVID1240875386
 70
     0
  0
APPID
  2
GEVID1240875387
 70
     0
  0
APPID
  2
GEVID1240875388
 70
     0
  0
APPID
  2
GEVID1240875389
 70
     0
  0
APPID
  2
GEVID1240875390
 70
     0
  0
APPID
  2
GEVID1240875391
 70
     0
  0
APPID
  2
GEVID1240875392
 70
     0
  0
APPID
  2
GEVID1240875393
 70
     0
  0
APPID
  2
GEVID1240875394
 70
     0
  0
APPID
  2
GEVID1240875395
 70
     0
  0
APPID
  2
GEVID1240875396
 70
     0
  0
APPID
  2
GEVID1240875397
 70
     0
  0
APPID
  2
GEVID1240875398
 70
     0
  0
APPID
  2
GEVID1240875399
 70
     0
  0
APPID
  2
GEVID1240908996
 70
     0
  0
APPID
  2
GEVID1240908997
 70
     0
  0
APPID
  2
GEVID1240908998
 70
     0
  0
APPID
  2
GEVID1240908999
 70
     0
  0
APPID
  2
GEVID1240909000
 70
     0
  0
APPID
  2
GENIUS_GENOBJ-N-ZOO_13
 70
     0
  0
APPID
  2
GENIUS_GENZOO_17
 70
     0
  0
APPID
  2
ACAD_DSTYLE_DIMRADIAL_EXTENSION
 70
     0
  0
APPID
  2
GENIUS_GE3SECT_13
 70
     0
  0
APPID
  2
GEV_VCCNULL_SWITCH_OFF
 70
     0
  0
APPID
  2
ACAD_DSTYLE_DIMTALN
 70
     0
  0
APPID
  2
CONTENTBLOCKDESCRIPTION
 70
     0
  0
APPID
  2
DCO15
 70
     0
  0
APPID
  2
CONTENTBLOCKICON
 70
     0
  0
ENDTAB
  0
TABLE
  2
DIMSTYLE
 70
    23
  0
DIMSTYLE
  2
STANDARD
 70
     0
  3

  4

  5

  6

  7

 40
1.0
 41
0.18
 42
0.0625
 43
0.38
 44
0.18
 45
0.0
 46
0.0
 47
0.0
 48
0.0
140
0.18
141
0.09
142
0.0
143
25.399999999999999
144
1.0
145
0.0
146
1.0
147
0.09
 71
     0
 72
     0
 73
     1
 74
     1
 75
     0
 76
     0
 77
     0
 78
     0
170
     0
171
     2
172
     0
173
     0
174
     0
175
     0
176
     0
177
     0
178
     0
  0
DIMSTYLE
  2
ANNOTATIVE
 70
     0
  3

  4

  5

  6

  7

 40
1.0
 41
0.18
 42
0.0625
 43
0.38
 44
0.18
 45
0.0
 46
0.0
 47
0.0
 48
0.0
140
0.18
141
0.09
142
0.0
143
25.399999999999999
144
1.0
145
0.0
146
1.0
147
0.09
 71
     0
 72
     0
 73
     1
 74
     1
 75
     0
 76
     0
 77
     0
 78
     0
170
     0
171
     2
172
     0
173
     0
174
     0
175
     0
176
     0
177
     0
178
     0
  0
DIMSTYLE
  2
AM_ANSI
 70
     0
  3

  4
"
  5

  6

  7

 40
1.0
 41
2.5
 42
1.0
 43
10.0
 44
1.0
 45
0.0
 46
0.0
 47
0.1
 48
0.1
140
3.5
141
0.0
142
0.0
143
0.0393701
144
1.0
145
0.0
146
0.71
147
1.5
 71
     0
 72
     0
 73
     1
 74
     1
 75
     0
 76
     0
 77
     0
 78
     8
170
     0
171
     2
172
     0
173
     0
174
     0
175
     0
176
     2
177
     2
178
     4
  0
DIMSTYLE
  2
AM_ANSI$3
 70
     0
  3

  4
"
  5

  6

  7

 40
1.0
 41
2.5
 42
1.0
 43
10.0
 44
1.0
 45
0.0
 46
0.0
 47
0.1
 48
0.1
140
3.5
141
0.0
142
0.0
143
0.0393701
144
1.0
145
0.0
146
0.71
147
1.5
 71
     0
 72
     0
 73
     1
 74
     1
 75
     0
 76
     0
 77
     0
 78
     8
170
     0
171
     2
172
     0
173
     0
174
     0
175
     0
176
     2
177
     2
178
     4
  0
DIMSTYLE
  2
AM_ANSI$4
 70
     0
  3

  4
"
  5

  6

  7

 40
1.0
 41
2.5
 42
1.0
 43
10.0
 44
1.0
 45
0.0
 46
0.0
 47
0.1
 48
0.1
140
3.5
141
0.0
142
0.0
143
0.0393701
144
1.0
145
0.0
146
0.71
147
1.5
 71
     0
 72
     0
 73
     1
 74
     1
 75
     0
 76
     0
 77
     0
 78
     8
170
     0
171
     2
172
     0
173
     0
174
     0
175
     0
176
     2
177
     2
178
     4
  0
DIMSTYLE
  2
AM_ANSI$7
 70
     0
  3

  4
"
  5

  6

  7

 40
1.0
 41
2.5
 42
1.0
 43
10.0
 44
1.0
 45
0.0
 46
0.0
 47
0.1
 48
0.1
140
5.0
141
0.0
142
0.0
143
0.0393701
144
1.0
145
0.0
146
0.71
147
1.5
 71
     0
 72
     0
 73
     1
 74
     1
 75
     0
 76
     0
 77
     0
 78
     8
170
     0
171
     2
172
     0
173
     0
174
     0
175
     0
176
     2
177
     2
178
     4
  0
DIMSTYLE
  2
AM_ANSI$SF
 70
     0
  3

  4
"
  5

  6

  7

 40
1.0
 41
2.5
 42
1.0
 43
10.0
 44
1.0
 45
0.0
 46
0.0
 47
0.1
 48
0.1
140
3.5
141
0.0
142
0.0
143
0.0393701
144
1.0
145
0.0
146
0.71
147
1.5
 71
     0
 72
     0
 73
     1
 74
     1
 75
     1
 76
     1
 77
     0
 78
     8
170
     0
171
     2
172
     0
173
     0
174
     0
175
     0
176
     2
177
     2
178
     4
  0
DIMSTYLE
  2
AM_ANSI$SH
 70
     0
  3

  4
"
  5

  6

  7

 40
1.0
 41
2.5
 42
1.0
 43
10.0
 44
1.0
 45
0.0
 46
0.0
 47
0.1
 48
0.1
140
3.5
141
0.0
142
0.0
143
0.0393701
144
1.0
145
0.0
146
0.71
147
1.5
 71
     0
 72
     0
 73
     1
 74
     1
 75
     1
 76
     1
 77
     0
 78
     8
170
     0
171
     2
172
     0
173
     1
174
     0
175
     0
176
     2
177
     2
178
     4
  0
DIMSTYLE
  2
AM_ISO
 70
     0
  3

  4
"
  5

  6

  7

 40
1.0
 41
2.5
 42
1.0
 43
10.0
 44
1.0
 45
0.0
 46
0.0
 47
0.1
 48
0.1
140
3.5
141
0.0
142
0.0
143
0.0393701
144
1.0
145
0.0
146
0.71
147
1.5
 71
     0
 72
     0
 73
     0
 74
     0
 75
     0
 76
     0
 77
     1
 78
     8
170
     0
171
     2
172
     1
173
     0
174
     0
175
     0
176
   256
177
   256
178
     2
  0
DIMSTYLE
  2
AM_ISO$3
 70
     0
  3

  4
"
  5

  6

  7

 40
1.0
 41
2.5
 42
1.0
 43
10.0
 44
1.0
 45
0.0
 46
0.0
 47
0.1
 48
0.1
140
3.5
141
0.0
142
0.0
143
0.0393701
144
1.0
145
0.0
146
0.71
147
1.5
 71
     0
 72
     0
 73
     0
 74
     1
 75
     0
 76
     0
 77
     1
 78
     8
170
     0
171
     2
172
     0
173
     0
174
     0
175
     0
176
   256
177
   256
178
     2
  0
DIMSTYLE
  2
AM_ISO$4
 70
     0
  3

  4
"
  5

  6

  7

 40
1.0
 41
2.5
 42
1.0
 43
10.0
 44
1.0
 45
0.0
 46
0.0
 47
0.1
 48
0.1
140
3.5
141
0.0
142
0.0
143
0.0393701
144
1.0
145
0.0
146
0.71
147
1.5
 71
     0
 72
     0
 73
     0
 74
     1
 75
     0
 76
     0
 77
     1
 78
     8
170
     0
171
     2
172
     0
173
     0
174
     0
175
     0
176
   256
177
   256
178
     2
  0
DIMSTYLE
  2
AM_ISO$6
 70
     0
  3

  4
"
  5

  6

  7

 40
1.0
 41
2.5
 42
1.0
 43
10.0
 44
1.0
 45
0.0
 46
0.0
 47
0.1
 48
0.1
140
3.5
141
0.0
142
0.0
143
0.0393701
144
1.0
145
0.0
146
0.71
147
1.5
 71
     0
 72
     0
 73
     0
 74
     0
 75
     0
 76
     0
 77
     0
 78
     8
170
     0
171
     2
172
     1
173
     0
174
     0
175
     0
176
   256
177
   256
178
     2
  0
DIMSTYLE
  2
AM_ISO$7
 70
     0
  3

  4
"
  5

  6

  7

 40
1.0
 41
2.5
 42
1.0
 43
10.0
 44
1.0
 45
0.0
 46
0.0
 47
0.1
 48
0.1
140
5.0
141
0.0
142
0.0
143
0.0393701
144
1.0
145
0.0
146
0.71
147
1.5
 71
     0
 72
     0
 73
     0
 74
     0
 75
     0
 76
     0
 77
     1
 78
     8
170
     0
171
     2
172
     1
173
     0
174
     0
175
     0
176
   256
177
   256
178
     2
  0
DIMSTYLE
  2
AM_ISO$SF
 70
     0
  3

  4
"
  5

  6

  7

 40
1.0
 41
2.5
 42
1.0
 43
10.0
 44
1.0
 45
0.0
 46
0.0
 47
0.1
 48
0.1
140
3.5
141
0.0
142
0.0
143
0.0393701
144
1.0
145
0.0
146
0.71
147
1.5
 71
     0
 72
     0
 73
     0
 74
     0
 75
     1
 76
     1
 77
     1
 78
     8
170
     0
171
     2
172
     1
173
     0
174
     0
175
     0
176
   256
177
   256
178
     2
  0
DIMSTYLE
  2
AM_ISO$SH
 70
     0
  3

  4
"
  5

  6

  7

 40
1.0
 41
2.5
 42
1.0
 43
10.0
 44
1.0
 45
0.0
 46
0.0
 47
0.1
 48
0.1
140
3.5
141
0.0
142
0.0
143
0.0393701
144
2.0
145
0.0
146
0.71
147
1.5
 71
     0
 72
     0
 73
     0
 74
     0
 75
     1
 76
     1
 77
     1
 78
     8
170
     0
171
     2
172
     1
173
     1
174
     0
175
     0
176
   256
177
   256
178
     2
  0
DIMSTYLE
  2
AM_JIS
 70
     0
  3

  4
"
  5

  6

  7

 40
1.0
 41
2.0
 42
1.0
 43
8.0
 44
1.0
 45
0.0
 46
0.0
 47
0.1
 48
0.1
140
2.5
141
0.0
142
0.0
143
0.0393701
144
1.0
145
0.0
146
0.71
147
1.5
 71
     0
 72
     0
 73
     0
 74
     0
 75
     0
 76
     0
 77
     3
 78
     8
170
     0
171
     2
172
     1
173
     0
174
     0
175
     0
176
     2
177
     2
178
     4
  0
DIMSTYLE
  2
AM_JIS$3
 70
     0
  3

  4
"
  5

  6

  7

 40
1.0
 41
2.0
 42
1.0
 43
10.0
 44
1.0
 45
0.0
 46
0.0
 47
0.1
 48
0.1
140
2.5
141
0.0
142
0.0
143
0.0393701
144
1.0
145
0.0
146
0.71
147
1.5
 71
     0
 72
     0
 73
     0
 74
     1
 75
     0
 76
     0
 77
     3
 78
     8
170
     0
171
     2
172
     0
173
     0
174
     0
175
     0
176
     2
177
     2
178
     4
  0
DIMSTYLE
  2
AM_JIS$4
 70
     0
  3

  4
"
  5

  6

  7

 40
1.0
 41
2.0
 42
1.0
 43
10.0
 44
1.0
 45
0.0
 46
0.0
 47
0.1
 48
0.1
140
2.5
141
0.0
142
0.0
143
0.0393701
144
1.0
145
0.0
146
0.71
147
1.5
 71
     0
 72
     0
 73
     0
 74
     0
 75
     0
 76
     0
 77
     3
 78
     8
170
     0
171
     2
172
     0
173
     0
174
     0
175
     0
176
     2
177
     2
178
     4
  0
DIMSTYLE
  2
AM_JIS$6
 70
     0
  3

  4
"
  5

  6

  7

 40
1.0
 41
2.0
 42
1.0
 43
10.0
 44
1.0
 45
0.0
 46
0.0
 47
0.1
 48
0.1
140
2.5
141
0.0
142
0.0
143
0.0393701
144
1.0
145
0.0
146
0.71
147
1.5
 71
     0
 72
     0
 73
     0
 74
     0
 75
     0
 76
     0
 77
     0
 78
     8
170
     0
171
     2
172
     1
173
     0
174
     0
175
     0
176
     2
177
     2
178
     4
  0
DIMSTYLE
  2
AM_JIS$7
 70
     0
  3

  4
"
  5

  6

  7

 40
1.0
 41
2.0
 42
1.0
 43
10.0
 44
1.0
 45
0.0
 46
0.0
 47
0.1
 48
0.1
140
2.5
141
0.0
142
0.0
143
0.0393701
144
1.0
145
0.0
146
0.71
147
1.5
 71
     0
 72
     0
 73
     0
 74
     0
 75
     0
 76
     0
 77
     3
 78
     8
170
     0
171
     2
172
     1
173
     0
174
     0
175
     0
176
     2
177
     2
178
     4
  0
DIMSTYLE
  2
AM_JIS$SF
 70
     0
  3

  4
"
  5

  6

  7

 40
1.0
 41
2.0
 42
1.0
 43
10.0
 44
1.0
 45
0.0
 46
0.0
 47
0.1
 48
0.1
140
2.5
141
0.0
142
0.0
143
0.0393701
144
1.0
145
0.0
146
0.71
147
1.5
 71
     0
 72
     0
 73
     0
 74
     0
 75
     1
 76
     1
 77
     3
 78
     8
170
     0
171
     2
172
     1
173
     0
174
     0
175
     0
176
     2
177
     2
178
     4
  0
DIMSTYLE
  2
AM_JIS$SH
 70
     0
  3

  4
"
  5

  6

  7

 40
1.0
 41
2.0
 42
1.0
 43
10.0
 44
1.0
 45
0.0
 46
0.0
 47
0.1
 48
0.1
140
2.5
141
0.0
142
0.0
143
0.0393701
144
2.0
145
0.0
146
0.71
147
1.5
 71
     0
 72
     0
 73
     0
 74
     0
 75
     1
 76
     1
 77
     3
 78
     8
170
     0
171
     2
172
     1
173
     1
174
     0
175
     0
176
     2
177
     2
178
     4
  0
DIMSTYLE
  2
AM_JIS$0
 70
     0
  3

  4
"
  5

  6

  7

 40
1.0
 41
2.0
 42
1.0
 43
8.0
 44
1.0
 45
0.0
 46
0.0
 47
0.1
 48
0.1
140
2.5
141
0.0
142
0.0
143
0.0393701
144
1.0
145
0.0
146
0.71
147
1.5
 71
     0
 72
     0
 73
     0
 74
     0
 75
     0
 76
     0
 77
     3
 78
     8
170
     0
171
     2
172
     1
173
     0
174
     0
175
     0
176
     2
177
     2
178
     4
  0
ENDTAB
  0
ENDSEC
  0
SECTION
  2
BLOCKS
  0
BLOCK
  8
0
  2
$MODEL_SPACE
 70
     0
 10
0.0
 20
0.0
 30
0.0
  3
$MODEL_SPACE
  1

  0
ENDBLK
  5
6592
  8
0
  0
BLOCK
 67
     1
  8
0
  2
$PAPER_SPACE
 70
     0
 10
0.0
 20
0.0
 30
0.0
  3
$PAPER_SPACE
  1

  0
ENDBLK
  5
658E
 67
     1
  8
0
  0
BLOCK
  8
0
  2
GENAXEH
 70
     0
 10
0.0
 20
0.0
 30
0.0
  3
GENAXEH
  1

  0
LINE
  5
6383
  8
0
 10
-1.0
 20
0.0
 30
0.0
 11
1.0
 21
0.0
 31
0.0
  0
ENDBLK
  5
6384
  8
0
  0
BLOCK
  8
0
  6
BYBLOCK
 62
     0
  2
$6-44
 70
     0
 10
0.0
 20
0.0
 30
0.0
  3
$6-44
  1

  0
ARC
  5
5DE3
  8
0
  6
CONTINUOUS
 62
     0
 10
-2.300002999999943
 20
2.3999909999999991
 30
0.0
 40
2.2000009999999981
 50
90.00000299999769
 51
179.99997799999841
  0
ARC
  5
5DE4
  8
0
  6
CONTINUOUS
 62
     0
 10
2.300002999999943
 20
2.3999909999999991
 30
0.0
 40
2.1999970000000002
 50
0.0
 51
89.999982000000799
  0
LINE
  5
5DE5
  8
0
  6
CONTINUOUS
 62
     0
 10
-0.0494449999999915
 20
0.0
 30
0.0
 11
-0.7999999999999548
 21
1.30000000000001
 31
0.0
  0
LINE
  5
5DE6
  8
0
  6
CONTINUOUS
 62
     0
 10
0.9505550000000083
 20
0.0
 30
0.0
 11
0.2000000000000455
 21
1.30000000000001
 31
0.0
  0
LINE
  5
5DE7
  8
0
  6
CONTINUOUS
 62
     0
 10
4.600000000000021
 20
1.30000000000001
 30
0.0
 11
4.600000000000021
 21
0.0
 31
0.0
  0
LINE
  5
5DE8
  8
0
  6
CONTINUOUS
 62
     0
 10
-4.600000000000021
 20
1.30000000000001
 30
0.0
 11
-4.600000000000021
 21
0.0
 31
0.0
  0
LINE
  5
5DE9
  8
0
  6
CONTINUOUS
 62
     0
 10
4.600000000000021
 20
0.0
 30
0.0
 11
-4.600000000000021
 21
0.0
 31
0.0
  0
LINE
  5
5DEA
  8
0
  6
CONTINUOUS
 62
     0
 10
2.300002999999943
 20
4.6000030000000152
 30
0.0
 11
-2.300002999999943
 21
4.6000030000000152
 31
0.0
  0
LINE
  5
5DEB
  8
0
  6
CONTINUOUS
 62
     0
 10
4.600000000000021
 20
1.30000000000001
 30
0.0
 11
-4.600000000000021
 21
1.30000000000001
 31
0.0
  0
LINE
  5
5DEC
  8
0
  6
CONTINUOUS
 62
     0
 10
-4.5
 20
1.30000000000001
 30
0.0
 11
-4.5
 21
2.3999909999999991
 31
0.0
  0
LINE
  5
5DED
  8
0
  6
CONTINUOUS
 62
     0
 10
4.5
 20
1.30000000000001
 30
0.0
 11
4.5
 21
2.3999909999999991
 31
0.0
  0
ENDBLK
  5
5DEE
  8
0
  6
BYBLOCK
 62
     0
  0
BLOCK
  8
0
  2
_OPEN30
 70
     0
 10
0.0
 20
0.0
 30
0.0
  3
_OPEN30
  1

  0
LINE
  5
63CA
  8
0
  6
BYBLOCK
 62
     0
 10
-1.0
 20
0.26794919
 30
0.0
 11
0.0
 21
0.0
 31
0.0
  0
LINE
  5
63CB
  8
0
  6
BYBLOCK
 62
     0
 10
0.0
 20
0.0
 30
0.0
 11
-1.0
 21
-0.26794919
 31
0.0
  0
LINE
  5
63CC
  8
0
  6
BYBLOCK
 62
     0
 10
0.0
 20
0.0
 30
0.0
 11
-1.0
 21
0.0
 31
0.0
  0
ENDBLK
  5
63CD
  8
0
  0
BLOCK
  8
0
  2
_ACMFILLEDHALF
 70
     0
 10
0.0
 20
0.0
 30
0.0
  3
_ACMFILLEDHALF
  1

  0
TRACE
  5
648C
  8
0
  6
CONTINUOUS
 62
     0
 10
-0.8
 20
0.0
 30
0.0
 11
-1.0
 21
0.166666666
 31
0.0
 12
0.0
 22
0.0
 32
0.0
 13
0.0
 23
0.0
 33
0.0
  0
LINE
  5
648D
  8
0
  6
CONTINUOUS
 62
     0
 10
-1.0
 20
0.0
 30
0.0
 11
-0.8
 21
0.0
 31
0.0
  0
ENDBLK
  5
648E
  8
0
  0
BLOCK
  8
0
  2
*U6
 70
     1
 10
0.0
 20
0.0
 30
0.0
  3
*U6
  1

  0
TEXT
  5
651B
  8
0
 62
     0
 10
4.2295448299684404
 20
4.4356759791489822
 30
0.0
 40
10.0
  1
ＶＸ０１－２４０Ｍ～ＶＸ０１－６００Ｍ
 41
0.7400000000000003
  0
ENDBLK
  5
651D
  8
0
  0
BLOCK
  8
0
  2
*U7
 70
     1
 10
0.0
 20
0.0
 30
0.0
  3
*U7
  1

  0
TEXT
  5
651F
  8
0
 62
     0
 10
480.1327068672561
 20
461.7520202417042
 30
0.0
 40
15.0
  1
ＶＸ０８－００３ＥＭ～ＶＸ０８－０３０ＥＭ
 41
0.7400000000000003
  0
ENDBLK
  5
6521
  8
0
  0
ENDSEC
  0
SECTION
  2
ENTITIES
  0
LINE
  5
2EEC
  8
0
 62
     0
 10
439.07945970342507
 20
345.94731355278373
 30
0.0
 11
439.07945970342507
 21
314.94731755278349
 31
0.0
  0
LINE
  5
2EED
  8
0
 62
     0
 10
655.82191846581225
 20
345.94734655278342
 30
0.0
 11
663.82191946581213
 21
345.94734655278342
 31
0.0
  0
LINE
  5
2EEE
  8
0
 62
     0
 10
663.82191946581213
 20
338.9473175527836
 30
0.0
 11
663.82191946581213
 21
345.94734655278342
 31
0.0
  0
LINE
  5
2EEF
  8
0
 62
     0
 10
655.82191846581225
 20
338.9473175527836
 30
0.0
 11
655.82191846581225
 21
345.94734655278342
 31
0.0
  0
LINE
  5
2EF0
  8
0
 62
     0
 10
655.82191846581225
 20
338.9473175527836
 30
0.0
 11
663.82191946581213
 21
338.9473175527836
 31
0.0
  0
LINE
  5
2EF1
  8
0
 62
     0
 10
716.8219354658122
 20
237.9473285527834
 30
0.0
 11
747.82193746581254
 21
237.9473285527834
 31
0.0
  0
LINE
  5
2EF2
  8
0
 62
     0
 10
569.82193246581176
 20
222.94734355278359
 30
0.0
 11
569.82193246581176
 21
237.9473285527834
 31
0.0
  0
LINE
  5
2EF3
  8
0
 62
     0
 10
712.82193646581254
 20
224.94732955278349
 30
0.0
 11
606.82194646581206
 21
224.94732955278349
 31
0.0
  0
LINE
  5
2EF4
  8
0
  6
ACISOTGL
 62
     0
 10
590.82193246581176
 20
237.9473285527834
 30
0.0
 11
590.82193246581176
 21
222.94734355278359
 31
0.0
  0
LINE
  5
2EF5
  8
0
  6
ACISOTGL
 62
     0
 10
578.8219324658121
 20
237.9473285527834
 30
0.0
 11
578.8219324658121
 21
222.94734355278359
 31
0.0
  0
LINE
  5
2EF6
  8
0
  6
AM_ISO08W050
 62
     0
 10
734.82191446581203
 20
217.60245935170889
 30
0.0
 11
734.82191446581203
 21
241.4128481109704
 31
0.0
  0
LINE
  5
2EF7
  8
0
  6
AM_ISO08W050
 62
     0
 10
584.8219324658121
 20
217.61516311605129
 30
0.0
 11
584.8219324658121
 21
242.21387713625461
 31
0.0
  0
LINE
  5
2EF8
  8
0
  6
ACISOTGL
 62
     0
 10
728.82192946581199
 20
237.9473285527834
 30
0.0
 11
728.82192946581199
 21
222.94734355278359
 31
0.0
  0
LINE
  5
2EF9
  8
0
  6
ACISOTGL
 62
     0
 10
740.82192946581199
 20
237.9473285527834
 30
0.0
 11
740.82192946581199
 21
222.94734355278359
 31
0.0
  0
LINE
  5
2EFA
  8
0
 62
     0
 10
749.82192946581199
 20
237.9473285527834
 30
0.0
 11
740.20976146581211
 21
315.68697055278341
 31
0.0
  0
LINE
  5
2EFB
  8
0
 62
     0
 10
569.8219024658124
 20
237.9473285527834
 30
0.0
 11
579.4340524658121
 21
315.68694055278348
 31
0.0
  0
LINE
  5
2EFC
  8
0
 62
     0
 10
701.82193546581198
 20
229.94732755278329
 30
0.0
 11
701.82193546581198
 21
230.94734455278339
 31
0.0
  0
LINE
  5
2EFD
  8
0
 62
     0
 10
713.82193546581198
 20
242.9473295527834
 30
0.0
 11
713.82193546581198
 21
313.94731555278332
 31
0.0
  0
LINE
  5
2EFE
  8
0
 62
     0
 10
617.8219324658121
 20
229.94732755278329
 30
0.0
 11
617.8219324658121
 21
230.94734455278339
 31
0.0
  0
LINE
  5
2EFF
  8
0
 62
     0
 10
599.8219324658121
 20
276.74731855278338
 30
0.0
 11
599.8219324658121
 21
358.19727955278341
 31
0.0
  0
LINE
  5
2F00
  8
0
 62
     0
 10
719.82192946581199
 20
276.74731855278338
 30
0.0
 11
719.82192946581199
 21
358.19727955278341
 31
0.0
  0
LINE
  5
2F01
  8
0
 62
     0
 10
605.8219324658121
 20
242.9473295527834
 30
0.0
 11
605.8219324658121
 21
313.94731555278332
 31
0.0
  0
LINE
  5
2F02
  8
0
 62
     0
 10
622.82193346581198
 20
235.94732755278329
 30
0.0
 11
696.82191946581202
 21
235.94732755278329
 31
0.0
  0
LINE
  5
2F03
  8
0
 62
     0
 10
604.82193346581209
 20
222.94734355278359
 30
0.0
 11
604.82193346581209
 21
235.94732755278329
 31
0.0
  0
LINE
  5
2F04
  8
0
 62
     0
 10
604.82193346581209
 20
222.94734355278359
 30
0.0
 11
569.82193246581176
 21
222.94734355278359
 31
0.0
  0
LINE
  5
2F05
  8
0
 62
     0
 10
714.82193446581198
 20
222.94734355278359
 30
0.0
 11
749.82192946581199
 21
222.94734355278359
 31
0.0
  0
LINE
  5
2F06
  8
0
 62
     0
 10
714.82193446581198
 20
222.94734355278359
 30
0.0
 11
714.82193446581198
 21
235.94732755278329
 31
0.0
  0
LINE
  5
2F07
  8
0
 62
     0
 10
749.82192946581199
 20
222.94734355278359
 30
0.0
 11
749.82192946581199
 21
237.9473285527834
 31
0.0
  0
LINE
  5
2F08
  8
0
  6
AM_ISO08W050
 62
     0
 10
623.65375246581175
 20
328.94731555278332
 30
0.0
 11
695.99011846581209
 21
328.94731555278332
 31
0.0
  0
LINE
  5
2F09
  8
0
  6
AM_ISO08W050
 62
     0
 10
659.82193546581209
 20
219.41258455278361
 30
0.0
 11
659.82193546581209
 21
395.39894766252678
 31
0.0
  0
LINE
  5
2F0A
  8
0
 62
     0
 10
602.82193246581187
 20
237.9473285527834
 30
0.0
 11
571.8219304658121
 21
237.9473285527834
 31
0.0
  0
LINE
  5
2F3B
  8
0
 62
     0
 10
586.01602246581251
 20
358.1013695527833
 30
0.0
 11
621.57503146581257
 21
377.14887955278323
 31
0.0
  0
LINE
  5
2F3C
  8
0
 62
     0
 10
749.82193846581208
 20
237.9473285527834
 30
0.0
 11
742.0307914658124
 21
345.15703255278351
 31
0.0
  0
LINE
  5
2F3D
  8
0
 62
     0
 10
733.62781546581209
 20
358.10133955278337
 30
0.0
 11
698.06879146581196
 21
377.14884955278342
 31
0.0
  0
LINE
  5
2F3E
  8
0
 62
     0
 10
569.82193246581176
 20
237.9473285527834
 30
0.0
 11
577.61307046581214
 21
345.15703255278351
 31
0.0
  0
ARC
  5
2F3F
  8
0
 62
     0
 10
659.82193546581209
 20
328.94731555278332
 30
0.0
 40
14.000001299999999
 50
106.6015399999951
 51
73.398451999991337
  0
CIRCLE
  5
2F40
  8
0
 62
     0
 10
659.82193546581209
 20
328.94731555278332
 30
0.0
 40
4.000000199999997
  0
CIRCLE
  5
2F41
  8
0
 62
     0
 10
659.82193546581209
 20
328.94731555278332
 30
0.0
 40
3.0
  0
ARC
  5
2F42
  8
0
 62
     0
 10
714.82193446581198
 20
358.19727955278341
 30
0.0
 40
5.0000000999999967
 50
0.0
 51
43.640500000001538
  0
ARC
  5
2F43
  8
0
 62
     0
 10
659.82193546581209
 20
305.74733455278363
 30
0.0
 40
81.000003000000035
 50
7.048598599997959
 51
172.9514000000103
  0
ARC
  5
2F44
  8
0
 62
     0
 10
747.82193746581254
 20
235.94732755278329
 30
0.0
 40
2.00000007
 50
0.0
 51
90.000002999984659
  0
ARC
  5
2F45
  8
0
 62
     0
 10
612.82194946581217
 20
229.94732755278329
 30
0.0
 40
5.0000000999999967
 50
270.0
 51
0.0
  0
ARC
  5
2F46
  8
0
 62
     0
 10
606.82194646581206
 20
222.94734355278359
 30
0.0
 40
2.00000007
 50
90.000002999984659
 51
180.00001000000091
  0
ARC
  5
2F47
  8
0
 62
     0
 10
602.82193246581187
 20
235.94732755278329
 30
0.0
 40
2.00000007
 50
0.0
 51
90.000002999984659
  0
ARC
  5
2F48
  8
0
 62
     0
 10
706.82193646581254
 20
229.94732755278329
 30
0.0
 40
5.0000000999999967
 50
179.999989999999
 51
270.0
  0
ARC
  5
2F49
  8
0
 62
     0
 10
571.8219304658121
 20
235.94732755278329
 30
0.0
 40
2.00000007
 50
90.000002999984659
 51
180.00001000000091
  0
ARC
  5
2F4A
  8
0
 62
     0
 10
604.82193346581209
 20
358.19727955278341
 30
0.0
 40
5.0000000999999967
 50
136.35948999998919
 51
180.00001000000091
  0
ARC
  5
2F4B
  8
0
 62
     0
 10
659.82193546581209
 20
313.94731555278332
 30
0.0
 40
54.000003000000007
 50
0.0
 51
180.00001000000091
  0
ARC
  5
2F4C
  8
0
 62
     0
 10
659.82193546581209
 20
276.74731855278338
 30
0.0
 40
60.000002999999992
 50
334.15806999999131
 51
0.0
  0
ARC
  5
2F4D
  8
0
 62
     0
 10
659.82193546581209
 20
276.74731855278338
 30
0.0
 40
60.000002999999992
 50
180.00001000000091
 51
205.84193000000869
  0
ARC
  5
2F4E
  8
0
 62
     0
 10
716.8219354658122
 20
235.94732755278329
 30
0.0
 40
2.00000007
 50
90.000002999984659
 51
180.00001000000091
  0
ARC
  5
2F4F
  8
0
 62
     0
 10
712.82193646581254
 20
222.94734355278359
 30
0.0
 40
2.00000007
 50
0.0
 51
90.000002999984659
  0
ARC
  5
2F50
  8
0
 62
     0
 10
696.82191946581202
 20
230.94734455278339
 30
0.0
 40
5.0000000999999967
 50
0.0
 51
90.000002999984659
  0
CIRCLE
  5
2F51
  8
0
 62
     0
 10
659.82193546581209
 20
328.94731555278332
 30
0.0
 40
29.000001000000001
  0
ARC
  5
2F52
  8
0
 62
     0
 10
622.82193346581198
 20
230.94734455278339
 30
0.0
 40
5.0000000999999967
 50
90.000002999984659
 51
180.00001000000091
  0
ARC
  5
2F53
  8
0
 62
     0
 10
659.82193546581209
 20
305.74730455278342
 30
0.0
 40
81.000003000000035
 50
265.9727499999974
 51
274.02725000000248
  0
ARC
  5
2F54
  8
0
 62
     0
 10
600.82194646581218
 20
242.9473295527834
 30
0.0
 40
5.0000000999999967
 50
270.0
 51
0.0
  0
ARC
  5
2F55
  8
0
 62
     0
 10
718.82192746581211
 20
242.9473295527834
 30
0.0
 40
5.0000000999999967
 50
179.999989999999
 51
270.0
  0
ARC
  5
2F63
  8
0
 62
     0
 10
726.07287346581211
 20
343.99733455278368
 30
0.0
 40
16.000000499999999
 50
4.1564915999975547
 51
61.823859999996472
  0
ARC
  5
2F64
  8
0
 62
     0
 10
593.57098546581256
 20
343.99733455278368
 30
0.0
 40
16.000000499999999
 50
118.1761400000035
 51
175.84350999999481
  0
LINE
  5
2F65
  8
0
 62
     0
 10
394.07942970342492
 20
313.94731855278337
 30
0.0
 11
397.07942970342492
 21
313.94731855278337
 31
0.0
  0
LINE
  5
2F66
  8
0
 62
     0
 10
439.07945970342507
 20
345.94734955278352
 30
0.0
 11
439.07945970342507
 21
314.94731755278349
 31
0.0
  0
LINE
  5
2F67
  8
0
 62
     0
 10
397.07942970342492
 20
342.94734955278341
 30
0.0
 11
439.07945970342507
 21
342.94734955278341
 31
0.0
  0
LINE
  5
2F68
  8
0
 62
     0
 10
397.07942970342492
 20
343.94731855278337
 30
0.0
 11
397.07942970342492
 21
313.94731855278337
 31
0.0
  0
LINE
  5
2F69
  8
0
 62
     0
 10
397.07942970342492
 20
314.94731755278349
 30
0.0
 11
439.07945970342507
 21
314.94731755278349
 31
0.0
  0
LINE
  5
2F6A
  8
0
  6
AM_ISO08W050
 62
     0
 10
296.40635397965752
 20
328.94731855278337
 30
0.0
 11
444.02723970342493
 21
328.94731855278337
 31
0.0
  0
LINE
  5
2F6B
  8
0
  6
AM_ISO08W050
 62
     0
 10
46.394521714136772
 20
305.74733755278339
 30
0.0
 11
304.68789176706969
 21
305.74733755278339
 31
0.0
  0
LINE
  5
2F6C
  8
0
 62
     0
 10
407.07944970342447
 20
345.94734955278352
 30
0.0
 11
439.07945970342507
 21
345.94734955278352
 31
0.0
  0
LINE
  5
2F6D
  8
0
 62
     0
 10
407.07944970342447
 20
345.94734955278352
 30
0.0
 11
407.07944970342447
 21
342.94734955278341
 31
0.0
  0
LINE
  5
2F6E
  8
0
 62
     0
 10
394.07942970342492
 20
343.94731855278337
 30
0.0
 11
397.07942970342492
 21
343.94731855278337
 31
0.0
  0
LINE
  5
2F76
  8
0
 62
     0
 10
281.57945970342507
 20
244.16868955278349
 30
0.0
 11
311.07944970342493
 21
244.16868955278349
 31
0.0
  0
LINE
  5
2F77
  8
0
 62
     0
 10
281.57945970342507
 20
367.32598255278322
 30
0.0
 11
311.07944970342493
 21
367.32598255278322
 31
0.0
  0
LINE
  5
2F7A
  8
0
 62
     0
 10
391.07942970342492
 20
239.8203035527834
 30
0.0
 11
391.07942970342492
 21
365.19832255278328
 31
0.0
  0
LINE
  5
2F7C
  8
0
 62
     0
 10
312.07946970342482
 20
223.9473305527834
 30
0.0
 11
366.07946970342482
 21
223.9473305527834
 31
0.0
  0
LINE
  5
2F7D
  8
0
 62
     0
 10
286.07945970342507
 20
237.94733155278331
 30
0.0
 11
311.5937697034251
 21
237.94733155278331
 31
0.0
  0
LINE
  5
2F7E
  8
0
 62
     0
 10
394.07942970342492
 20
235.9473305527834
 30
0.0
 11
394.07942970342492
 21
222.94733155278331
 31
0.0
  0
LINE
  5
2F7F
  8
0
 62
     0
 10
284.07944970342493
 20
222.94733155278331
 30
0.0
 11
311.07944970342493
 21
222.94733155278331
 31
0.0
  0
LINE
  5
2F80
  8
0
 62
     0
 10
366.07946970342482
 20
237.94733155278331
 30
0.0
 11
392.07944970342493
 21
237.94733155278331
 31
0.0
  0
LINE
  5
2F81
  8
0
 62
     0
 10
371.07944970342493
 20
360.18058255278328
 30
0.0
 11
379.07942970342492
 21
360.18058255278328
 31
0.0
  0
LINE
  5
2F82
  8
0
 62
     0
 10
361.07942970342492
 20
250.5606125527834
 30
0.0
 11
374.07944970342493
 21
250.5606125527834
 31
0.0
  0
LINE
  5
2F83
  8
0
 62
     0
 10
361.07942970342492
 20
242.9473175527836
 30
0.0
 11
361.07942970342492
 21
350.18062255278329
 31
0.0
  0
LINE
  5
2F84
  8
0
 62
     0
 10
367.07942970342492
 20
222.94733155278331
 30
0.0
 11
394.07942970342492
 21
222.94733155278331
 31
0.0
  0
LINE
  5
2F85
  8
0
  6
ACISOTGL
 62
     0
 10
385.07942970342492
 20
237.94733155278331
 30
0.0
 11
385.07942970342492
 21
222.94733155278331
 31
0.0
  0
LINE
  5
2F86
  8
0
  6
ACISOTGL
 62
     0
 10
293.07947970342508
 20
237.94733155278331
 30
0.0
 11
293.07947970342508
 21
222.94733155278331
 31
0.0
  0
LINE
  5
2F87
  8
0
  6
ACISOTGL
 62
     0
 10
305.07944970342493
 20
237.94733155278331
 30
0.0
 11
305.07944970342493
 21
222.94733155278331
 31
0.0
  0
LINE
  5
2F88
  8
0
  6
ACISOTGL
 62
     0
 10
373.07942970342492
 20
237.94733155278331
 30
0.0
 11
373.07942970342492
 21
222.94733155278331
 31
0.0
  0
LINE
  5
2F89
  8
0
 62
     0
 10
321.07946970342482
 20
275.41614355278341
 30
0.0
 11
321.07946970342482
 21
310.73598355278352
 31
0.0
  0
LINE
  5
2F8A
  8
0
 62
     0
 10
383.64371970342478
 20
368.59786255278328
 30
0.0
 11
388.34093970342468
 21
368.1869225527833
 31
0.0
  0
LINE
  5
2F8B
  8
0
 62
     0
 10
379.07942970342492
 20
255.56062855278341
 30
0.0
 11
379.07942970342492
 21
380.2792025527832
 31
0.0
  0
LINE
  5
2F8C
  8
0
 62
     0
 10
284.07944970342493
 20
235.9473305527834
 30
0.0
 11
284.07944970342493
 21
222.94733155278331
 31
0.0
  0
LINE
  5
2F8D
  8
0
  6
AM_ISO08W050
 62
     0
 10
379.07939970342483
 20
240.04422131859999
 30
0.0
 11
379.07939970342483
 21
220.63164459494831
 31
0.0
  0
LINE
  5
2F8E
  8
0
  6
AM_ISO08W050
 62
     0
 10
299.07941970342478
 20
240.04422131859999
 30
0.0
 11
299.07941970342478
 21
220.63164459494831
 31
0.0
  0
LINE
  5
2F8F
  8
0
 62
     0
 10
318.07949970342497
 20
386.74738255278339
 30
0.0
 11
374.21036970342487
 21
385.27753255278333
 31
0.0
  0
LINE
  5
2F90
  8
0
 62
     0
 10
394.07942970342492
 20
300.92148655278339
 30
0.0
 11
394.07942970342492
 21
356.97316255278338
 31
0.0
  0
LINE
  5
2F91
  8
0
 62
     0
 10
392.05325970342483
 20
299.89427755278331
 30
0.0
 11
393.10562970342482
 21
299.92183555278348
 31
0.0
  0
LINE
  5
2F92
  8
0
 62
     0
 10
392.05328970342492
 20
358.0003925527833
 30
0.0
 11
393.10562970342482
 21
357.97282255278333
 31
0.0
  0
LINE
  5
2F93
  8
0
 62
     0
 10
320.99231970342493
 20
274.4866865527834
 30
0.0
 11
314.54150970342482
 21
240.3896525527835
 31
0.0
  0
LINE
  5
2F95
  8
0
 62
     0
 10
281.57945970342507
 20
232.24731955278349
 30
0.0
 11
284.07944970342493
 21
232.18185955278341
 31
0.0
  0
LINE
  5
2F96
  8
0
 62
     0
 10
318.07946970342482
 20
386.74735255278352
 30
0.0
 11
318.07946970342482
 21
259.0901855527834
 31
0.0
  0
LINE
  5
2F97
  8
0
 62
     0
 10
281.57945970342507
 20
379.24738255278328
 30
0.0
 11
308.1579897034249
 21
379.94335255278338
 31
0.0
  0
LINE
  5
2F98
  8
0
 62
     0
 10
311.07944970342493
 20
384.61570255278338
 30
0.0
 11
311.07944970342493
 21
237.94733155278331
 31
0.0
  0
LINE
  5
2F99
  8
0
 62
     0
 10
313.02710970342468
 20
386.61505255278342
 30
0.0
 11
318.07943970342478
 21
386.74735255278352
 31
0.0
  0
LINE
  5
2F9A
  8
0
 62
     0
 10
311.7735297034252
 20
240.2387285527835
 30
0.0
 11
314.51294970342508
 21
240.2387285527835
 31
0.0
  0
LINE
  5
2F9B
  8
0
 62
     0
 10
281.57945970342507
 20
266.27266555278339
 30
0.0
 11
311.07944970342493
 21
266.27266555278339
 31
0.0
  0
LINE
  5
2F9C
  8
0
 62
     0
 10
353.07944970342493
 20
346.24733755278351
 30
0.0
 11
353.07944970342493
 21
328.94731855278337
 31
0.0
  0
ARC
  5
2F9D
  8
0
 62
     0
 10
374.07944970342493
 20
380.2792025527832
 30
0.0
 40
5.0000000999999967
 50
0.0
 51
88.499997000013792
  0
ARC
  5
2F9E
  8
0
 62
     0
 10
384.07946970342482
 20
373.57885255278342
 30
0.0
 40
5.0000000999999967
 50
179.999989999999
 51
265.00000000000028
  0
ARC
  5
2F9F
  8
0
 62
     0
 10
374.07944970342493
 20
255.56062855278341
 30
0.0
 40
5.0000000999999967
 50
270.0
 51
0.0
  0
ARC
  5
2FA0
  8
0
 62
     0
 10
366.07946970342482
 20
242.9473175527836
 30
0.0
 40
5.0000000999999967
 50
179.999989999999
 51
270.0
  0
ARC
  5
2FA1
  8
0
 62
     0
 10
388.07942970342492
 20
365.19832255278328
 30
0.0
 40
3.0
 50
0.0
 51
84.999997000011817
  0
ARC
  5
2FA2
  8
0
 62
     0
 10
312.07946970342482
 20
222.94733155278331
 30
0.0
 40
1.0000000199999941
 50
90.000002999984659
 51
180.00001000000091
  0
ARC
  5
2FA3
  8
0
 62
     0
 10
311.5937697034251
 20
240.94731655278341
 30
0.0
 40
3.0
 50
270.0
 51
349.28687999999659
  0
ARC
  5
2FA4
  8
0
 62
     0
 10
392.07944970342493
 20
235.9473305527834
 30
0.0
 40
2.00000007
 50
0.0
 51
90.000002999984659
  0
ARC
  5
2FA5
  8
0
 62
     0
 10
286.07945970342507
 20
235.9473305527834
 30
0.0
 40
2.00000007
 50
90.000002999984659
 51
180.00001000000091
  0
ARC
  5
2FA6
  8
0
 62
     0
 10
371.07944970342493
 20
350.18062255278329
 30
0.0
 40
10.000000200000001
 50
90.000002999984659
 51
180.00001000000091
  0
ARC
  5
2FA7
  8
0
 62
     0
 10
393.07946970342482
 20
239.8203035527834
 30
0.0
 40
2.00000007
 50
179.999989999999
 51
255.52248999999031
  0
ARC
  5
2FA8
  8
0
 62
     0
 10
393.07946970342482
 20
300.92148655278339
 30
0.0
 40
1.0000000199999941
 50
271.4999999999896
 51
0.0
  0
ARC
  5
2FA9
  8
0
 62
     0
 10
392.07944970342493
 20
359.00002255278332
 30
0.0
 40
1.0000000199999941
 50
179.999989999999
 51
268.50000999999878
  0
ARC
  5
2FAA
  8
0
 62
     0
 10
393.07946970342482
 20
356.97316255278338
 30
0.0
 40
1.0000000199999941
 50
0.0
 51
88.499997000013792
  0
ARC
  5
2FAB
  8
0
 62
     0
 10
392.07944970342493
 20
298.8945995527834
 30
0.0
 40
1.0000000199999941
 50
91.500000999988515
 51
180.00001000000091
  0
ARC
  5
2FAC
  8
0
 62
     0
 10
316.07942970342492
 20
275.41614355278341
 30
0.0
 40
5.0000000999999967
 50
349.28687999999659
 51
0.0
  0
ARC
  5
2FAD
  8
0
 62
     0
 10
366.07946970342482
 20
222.94733155278331
 30
0.0
 40
1.0000000199999941
 50
0.0
 51
90.000002999984659
  0
ARC
  5
2FAE
  8
0
 62
     0
 10
308.07944970342493
 20
382.94227255278338
 30
0.0
 40
3.0
 50
271.4999999999896
 51
0.0
  0
ARC
  5
2FAF
  8
0
 62
     0
 10
313.07942970342492
 20
384.61570255278338
 30
0.0
 40
2.00000007
 50
91.500000999988515
 51
180.00001000000091
  0
POLYLINE
  5
2FB0
  8
0
 62
     0
 66
     1
 10
0.0
 20
0.0
 30
0.0
  0
VERTEX
  5
2FB1
  8
0
  6
CONTINUOUS
 62
     0
 10
351.158489703425
 20
348.1260725527834
 30
0.0
 42
0.032705737
  0
VERTEX
  5
2FB2
  8
0
  6
CONTINUOUS
 62
     0
 10
349.21232970342493
 20
348.87457255278338
 30
0.0
 42
0.016814103
  0
VERTEX
  5
2FB3
  8
0
  6
CONTINUOUS
 62
     0
 10
347.20151970342482
 20
349.43677255278328
 30
0.0
 42
0.010836057
  0
VERTEX
  5
2FB4
  8
0
  6
CONTINUOUS
 62
     0
 10
345.16208970342501
 20
349.88962255278329
 30
0.0
 42
0.007863161
  0
VERTEX
  5
2FB5
  8
0
  6
CONTINUOUS
 62
     0
 10
343.10771970342478
 20
350.26675255278337
 30
0.0
 42
0.0061455438
  0
VERTEX
  5
2FB6
  8
0
  6
CONTINUOUS
 62
     0
 10
341.04344970342481
 20
350.58664255278342
 30
0.0
 42
0.0050541015
  0
VERTEX
  5
2FB7
  8
0
  6
CONTINUOUS
 62
     0
 10
338.97182970342459
 20
350.86054255278327
 30
0.0
 42
0.0043145835
  0
VERTEX
  5
2FB8
  8
0
  6
CONTINUOUS
 62
     0
 10
336.89408970342492
 20
351.0958625527835
 30
0.0
 42
0.0037842963
  0
VERTEX
  5
2FB9
  8
0
  6
CONTINUOUS
 62
     0
 10
334.8149097034248
 20
351.2974025527833
 30
0.0
 42
0.003403486
  0
VERTEX
  5
2FBA
  8
0
  6
CONTINUOUS
 62
     0
 10
332.73086970342501
 20
351.46927255278331
 30
0.0
 42
0.0031173927
  0
VERTEX
  5
2FBB
  8
0
  6
CONTINUOUS
 62
     0
 10
330.64436970342467
 20
351.61402255278341
 30
0.0
 42
0.0029018743
  0
VERTEX
  5
2FBC
  8
0
  6
CONTINUOUS
 62
     0
 10
328.55627970342488
 20
351.73366255278358
 30
0.0
 42
0.0027404553
  0
VERTEX
  5
2FBD
  8
0
  6
CONTINUOUS
 62
     0
 10
326.46695970342489
 20
351.8297825527834
 30
0.0
 42
0.0026217012
  0
VERTEX
  5
2FBE
  8
0
  6
CONTINUOUS
 62
     0
 10
324.37664970342479
 20
351.90349255278329
 30
0.0
 42
0.0025380412
  0
VERTEX
  5
2FBF
  8
0
  6
CONTINUOUS
 62
     0
 10
322.28567970342482
 20
351.95566255278339
 30
0.0
 42
0.0024845601
  0
VERTEX
  5
2FC0
  8
0
  6
CONTINUOUS
 62
     0
 10
320.19425970342479
 20
351.98683255278343
 30
0.0
 42
0.002458447
  0
VERTEX
  5
2FC1
  8
0
  6
CONTINUOUS
 62
     0
 10
318.10256970342482
 20
351.99733255278329
 30
0.0
  0
SEQEND
  5
2FC2
  8
0
 62
     0
  0
POLYLINE
  5
2FC3
  8
0
 62
     0
 66
     1
 10
0.0
 20
0.0
 30
0.0
  0
VERTEX
  5
2FC4
  8
0
  6
CONTINUOUS
 62
     0
 10
353.07941970342478
 20
346.24733755278351
 30
0.0
 42
0.029628731
  0
VERTEX
  5
2FC5
  8
0
  6
CONTINUOUS
 62
     0
 10
352.88780970342492
 20
349.47664255278352
 30
0.0
 42
0.029327543
  0
VERTEX
  5
2FC6
  8
0
  6
CONTINUOUS
 62
     0
 10
352.31810970342491
 20
352.65757255278339
 30
0.0
 42
0.028837186
  0
VERTEX
  5
2FC7
  8
0
  6
CONTINUOUS
 62
     0
 10
351.3822297034248
 20
355.75330255278351
 30
0.0
 42
0.028139479
  0
VERTEX
  5
2FC8
  8
0
  6
CONTINUOUS
 62
     0
 10
350.09984970342481
 20
358.72384255278331
 30
0.0
 42
0.027280614
  0
VERTEX
  5
2FC9
  8
0
  6
CONTINUOUS
 62
     0
 10
348.49736970342468
 20
361.53322255278329
 30
0.0
 42
0.026363464
  0
VERTEX
  5
2FCA
  8
0
  6
CONTINUOUS
 62
     0
 10
346.60274970342471
 20
364.15564255278321
 30
0.0
 42
0.025439158
  0
VERTEX
  5
2FCB
  8
0
  6
CONTINUOUS
 62
     0
 10
344.44517970342491
 20
366.57028255278351
 30
0.0
 42
0.024503424
  0
VERTEX
  5
2FCC
  8
0
  6
CONTINUOUS
 62
     0
 10
342.05876970342479
 20
368.7568025527832
 30
0.0
 42
0.023638789
  0
VERTEX
  5
2FCD
  8
0
  6
CONTINUOUS
 62
     0
 10
339.473219703425
 20
370.70392255278352
 30
0.0
 42
0.022857682
  0
VERTEX
  5
2FCE
  8
0
  6
CONTINUOUS
 62
     0
 10
336.71795970342509
 20
372.40270255278318
 30
0.0
 42
0.022175457
  0
VERTEX
  5
2FCF
  8
0
  6
CONTINUOUS
 62
     0
 10
333.82088970342483
 20
373.8470525527834
 30
0.0
 42
0.021601125
  0
VERTEX
  5
2FD0
  8
0
  6
CONTINUOUS
 62
     0
 10
330.8084697034252
 20
375.03274255278319
 30
0.0
 42
0.021139333
  0
VERTEX
  5
2FD1
  8
0
  6
CONTINUOUS
 62
     0
 10
327.70562970342507
 20
375.95710255278351
 30
0.0
 42
0.020791974
  0
VERTEX
  5
2FD2
  8
0
  6
CONTINUOUS
 62
     0
 10
324.53621970342522
 20
376.61845255278342
 30
0.0
 42
0.020559394
  0
VERTEX
  5
2FD3
  8
0
  6
CONTINUOUS
 62
     0
 10
321.32309970342482
 20
377.01583255278342
 30
0.0
 42
0.020441745
  0
VERTEX
  5
2FD4
  8
0
  6
CONTINUOUS
 62
     0
 10
318.08846970342478
 20
377.14882255278337
 30
0.0
  0
SEQEND
  5
2FD5
  8
0
 62
     0
  0
POLYLINE
  5
2FD6
  8
0
 62
     0
 66
     1
 10
0.0
 20
0.0
 30
0.0
  0
VERTEX
  5
2FD7
  8
0
  6
CONTINUOUS
 62
     0
 10
321.07940970342497
 20
237.9473285527834
 30
0.0
 42
0.1279115
  0
VERTEX
  5
2FD8
  8
0
  6
CONTINUOUS
 62
     0
 10
327.17351970342497
 20
239.61274555278339
 30
0.0
 42
0.075873118
  0
VERTEX
  5
2FD9
  8
0
  6
CONTINUOUS
 62
     0
 10
332.15489970342469
 20
243.57164455278351
 30
0.0
 42
0.043913378
  0
VERTEX
  5
2FDA
  8
0
  6
CONTINUOUS
 62
     0
 10
336.09566970342479
 20
248.58875755278339
 30
0.0
 42
0.028464656
  0
VERTEX
  5
2FDB
  8
0
  6
CONTINUOUS
 62
     0
 10
339.2878197034247
 20
254.1153815527835
 30
0.0
 42
0.020370663
  0
VERTEX
  5
2FDC
  8
0
  6
CONTINUOUS
 62
     0
 10
341.9345697034251
 20
259.92772855278349
 30
0.0
 42
0.015656254
  0
VERTEX
  5
2FDD
  8
0
  6
CONTINUOUS
 62
     0
 10
344.1595797034247
 20
265.91434555278329
 30
0.0
 42
0.012688911
  0
VERTEX
  5
2FDE
  8
0
  6
CONTINUOUS
 62
     0
 10
346.04396970342492
 20
272.0174465527835
 30
0.0
 42
0.010707698
  0
VERTEX
  5
2FDF
  8
0
  6
CONTINUOUS
 62
     0
 10
347.64227970342461
 20
278.20287055278362
 30
0.0
 42
0.0093245508
  0
VERTEX
  5
2FE0
  8
0
  6
CONTINUOUS
 62
     0
 10
348.99221970342478
 20
284.44678555278352
 30
0.0
 42
0.0083349492
  0
VERTEX
  5
2FE1
  8
0
  6
CONTINUOUS
 62
     0
 10
350.121569703425
 20
290.73579055278339
 30
0.0
 42
0.0076122078
  0
VERTEX
  5
2FE2
  8
0
  6
CONTINUOUS
 62
     0
 10
351.05024970342492
 20
297.05796055278353
 30
0.0
 42
0.0070829657
  0
VERTEX
  5
2FE3
  8
0
  6
CONTINUOUS
 62
     0
 10
351.79298970342461
 20
303.40472155278331
 30
0.0
 42
0.0067007819
  0
VERTEX
  5
2FE4
  8
0
  6
CONTINUOUS
 62
     0
 10
352.36076970342492
 20
309.76977055278331
 30
0.0
 42
0.0064353088
  0
VERTEX
  5
2FE5
  8
0
  6
CONTINUOUS
 62
     0
 10
352.76129970342481
 20
316.1477585527835
 30
0.0
 42
0.0062673646
  0
VERTEX
  5
2FE6
  8
0
  6
CONTINUOUS
 62
     0
 10
352.99985970342499
 20
322.53390955278343
 30
0.0
 42
0.0061857301
  0
VERTEX
  5
2FE7
  8
0
  6
CONTINUOUS
 62
     0
 10
353.07941970342478
 20
328.92390055278338
 30
0.0
  0
SEQEND
  5
2FE8
  8
0
 62
     0
  0
POINT
  5
3001
  8
0
 62
     0
 10
281.57939970342483
 20
305.74733755278339
 30
0.0
  0
POINT
  5
3088
  8
0
 62
     0
 10
281.57939970342483
 20
305.74727944296319
 30
0.0
  0
LINE
  5
30D4
  8
0
 62
     0
 10
281.57939970342483
 20
379.24727944296319
 30
0.0
 11
281.57939970342483
 21
232.24733755278351
 31
0.0
  0
LINE
  5
4FE3
  8
0
 62
     0
 10
573.45092446581225
 20
346.01442255278351
 30
0.0
 11
566.95393246581216
 21
346.3874235527835
 31
0.0
  0
LINE
  5
4FE4
  8
0
 62
     0
 10
539.01642746581194
 20
345.95137955278352
 30
0.0
 11
541.88893046581211
 21
346.40143455278348
 31
0.0
  0
LINE
  5
4FE5
  8
0
 62
     0
 10
569.39491146581213
 20
345.99341455278352
 30
0.0
 11
566.91892546581198
 21
346.39340655278329
 31
0.0
  0
LINE
  5
4FE6
  8
0
 62
     0
 10
574.89291946581216
 20
340.01443155278349
 30
0.0
 11
574.89291946581216
 21
307.72648215753992
 31
0.0
  0
LINE
  5
4FE7
  8
0
 62
     0
 10
571.81592144578065
 20
265.38554981413301
 30
0.0
 11
566.95393146581216
 21
265.1066425527834
 31
0.0
  0
LINE
  5
4FE8
  8
0
 62
     0
 10
532.81692246581224
 20
337.97277055278352
 30
0.0
 11
532.81692246581224
 21
273.52253755278338
 31
0.0
  0
LINE
  5
4FE9
  8
0
 62
     0
 10
572.4079344658121
 20
337.97277055278352
 30
0.0
 11
572.4079344658121
 21
273.52253755278338
 31
0.0
  0
LINE
  5
4FEA
  8
0
 62
     0
 10
539.04614546581206
 20
265.5381115527835
 30
0.0
 11
541.88893646581221
 21
265.09243555278363
 31
0.0
  0
LINE
  5
4FEB
  8
0
 62
     0
 10
569.3949264658122
 20
265.50034155278342
 30
0.0
 11
566.91892546581198
 21
265.10044255278342
 31
0.0
  0
LINE
  5
4FEC
  8
0
 62
     0
 10
546.69692746581222
 20
273.5214745527835
 30
0.0
 11
546.69692746581222
 21
337.97314855278353
 31
0.0
  0
LINE
  5
4FEE
  8
0
 62
     0
 10
546.6969374658122
 20
337.97277855278338
 30
0.0
 11
546.68593646581201
 21
338.38177155278339
 31
0.0
  0
LINE
  5
4FEF
  8
0
 62
     0
 10
546.68594946581209
 20
338.3817745527835
 30
0.0
 11
546.65094546581213
 21
338.78877255278348
 31
0.0
  0
LINE
  5
4FF0
  8
0
 62
     0
 10
546.65097446581217
 20
338.78876955278349
 30
0.0
 11
546.59497546581224
 21
339.18876855278347
 31
0.0
  0
LINE
  5
4FF1
  8
0
 62
     0
 10
546.59495546581218
 20
339.18876955278353
 30
0.0
 11
546.51596146581176
 21
339.5797655527835
 31
0.0
  0
LINE
  5
4FF2
  8
0
 62
     0
 10
546.51593946581215
 20
339.57977055278337
 30
0.0
 11
546.41593246581226
 21
339.95878155278342
 31
0.0
  0
LINE
  5
4FF3
  8
0
 62
     0
 10
546.41590546581222
 20
339.95876355278352
 30
0.0
 11
546.29490346581224
 21
340.3227615527835
 31
0.0
  0
LINE
  5
4FF4
  8
0
 62
     0
 10
546.29491046581222
 20
340.32277155278348
 30
0.0
 11
546.15392046581223
 21
340.6677705527834
 31
0.0
  0
LINE
  5
4FF5
  8
0
 62
     0
 10
546.15392046581223
 20
340.66776555278352
 30
0.0
 11
545.99492346581224
 21
340.99376255278349
 31
0.0
  0
LINE
  5
4FF6
  8
0
 62
     0
 10
545.99492046581213
 20
340.99376155278338
 30
0.0
 11
545.81791746581212
 21
341.29576555278351
 31
0.0
  0
LINE
  5
4FF7
  8
0
 62
     0
 10
545.81795646581202
 20
341.29577755278342
 30
0.0
 11
545.62494746581206
 21
341.57277855278352
 31
0.0
  0
LINE
  5
4FF8
  8
0
 62
     0
 10
545.6249354658122
 20
341.57278455278339
 30
0.0
 11
545.41793346581221
 21
341.8227865527835
 31
0.0
  0
LINE
  5
4FF9
  8
0
 62
     0
 10
545.41792346581224
 20
341.8227645527835
 30
0.0
 11
545.1969294658121
 21
342.04276655278352
 31
0.0
  0
LINE
  5
4FFA
  8
0
 62
     0
 10
545.19694346581218
 20
342.04277255278339
 30
0.0
 11
544.96495046581219
 21
342.23176755278348
 31
0.0
  0
LINE
  5
4FFB
  8
0
 62
     0
 10
544.96492846581225
 20
342.23176255278338
 30
0.0
 11
544.72292246581219
 21
342.38876855278352
 31
0.0
  0
LINE
  5
4FFC
  8
0
 62
     0
 10
544.72293246581205
 20
342.3887715527834
 30
0.0
 11
544.47292746581195
 21
342.51177455278338
 31
0.0
  0
LINE
  5
4FFD
  8
0
 62
     0
 10
544.47292246581219
 20
342.5117485527835
 30
0.0
 11
544.21791146581222
 21
342.6007475527835
 31
0.0
  0
LINE
  5
4FFE
  8
0
 62
     0
 10
544.21792046581197
 20
342.60076155278341
 30
0.0
 11
543.95792046581221
 21
342.65476355278349
 31
0.0
  0
LINE
  5
4FFF
  8
0
 62
     0
 10
543.95793446581195
 20
342.65476855278348
 30
0.0
 11
543.69692746581222
 21
342.67276655278351
 31
0.0
  0
LINE
  5
5000
  8
0
 62
     0
 10
543.69692946581222
 20
268.82243555278342
 30
0.0
 11
543.9579284658123
 21
268.84033755278352
 31
0.0
  0
LINE
  5
5001
  8
0
 62
     0
 10
543.95791946581198
 20
268.84033555278347
 30
0.0
 11
544.21790846581223
 21
268.89393555278338
 31
0.0
  0
LINE
  5
5002
  8
0
 62
     0
 10
544.21791546581221
 20
268.89393755278343
 30
0.0
 11
544.4729184658122
 21
268.9826365527835
 31
0.0
  0
LINE
  5
5003
  8
0
 62
     0
 10
544.4729164658122
 20
268.98264155278338
 30
0.0
 11
544.72291246581221
 21
269.10593855278353
 31
0.0
  0
LINE
  5
5004
  8
0
 62
     0
 10
544.72293646581215
 20
269.10592455278351
 30
0.0
 11
544.96494546581198
 21
269.2628295527835
 31
0.0
  0
LINE
  5
5005
  8
0
 62
     0
 10
544.96491146581218
 20
269.2628475527834
 30
0.0
 11
545.19691546581225
 21
269.45215555278338
 31
0.0
  0
LINE
  5
5006
  8
0
 62
     0
 10
545.19692546581223
 20
269.45213155278338
 30
0.0
 11
545.41792446581223
 21
269.67253555278342
 31
0.0
  0
LINE
  5
5007
  8
0
 62
     0
 10
545.41793546581221
 20
269.67253355278342
 30
0.0
 11
545.6249344658122
 21
269.92213055278341
 31
0.0
  0
LINE
  5
5008
  8
0
 62
     0
 10
545.62493946581196
 20
269.9221125527834
 30
0.0
 11
545.81795046581215
 21
270.19911655278349
 31
0.0
  0
LINE
  5
5009
  8
0
 62
     0
 10
545.81794546581227
 20
270.19911855278349
 30
0.0
 11
545.99494946581206
 21
270.50142255278331
 31
0.0
  0
LINE
  5
500A
  8
0
 62
     0
 10
545.99492646581223
 20
270.50143155278357
 30
0.0
 11
546.15392146581212
 21
270.82673055278337
 31
0.0
  0
LINE
  5
500B
  8
0
 62
     0
 10
546.15393446581197
 20
270.82673055278337
 30
0.0
 11
546.29492846581218
 21
271.17253555278342
 31
0.0
  0
LINE
  5
500C
  8
0
 62
     0
 10
546.2949244658123
 20
271.17253555278342
 30
0.0
 11
546.41592646581205
 21
271.53623555278352
 31
0.0
  0
LINE
  5
500D
  8
0
 62
     0
 10
546.41594446581212
 20
271.53622655278338
 30
0.0
 11
546.51595146581224
 21
271.91503255278337
 31
0.0
  0
LINE
  5
500E
  8
0
 62
     0
 10
546.51594746581202
 20
271.91503255278337
 30
0.0
 11
546.59494346581221
 21
272.30603555278338
 31
0.0
  0
LINE
  5
500F
  8
0
 62
     0
 10
546.59490146581209
 20
272.30603855278338
 30
0.0
 11
546.65090146581224
 21
272.70633855278339
 31
0.0
  0
LINE
  5
5010
  8
0
 62
     0
 10
546.65090346581223
 20
272.70633355278352
 30
0.0
 11
546.68590746581231
 21
273.11283455278362
 31
0.0
  0
LINE
  5
5011
  8
0
 62
     0
 10
546.68595446581196
 20
273.11283455278362
 30
0.0
 11
546.69695646581215
 21
273.52253755278338
 31
0.0
  0
ARC
  5
5012
  8
0
 62
     0
 10
573.450933465812
 20
340.01443155278349
 30
0.0
 40
6.0
 50
46.812446293648613
 51
89.999982000000799
  0
ARC
  5
5013
  8
0
 62
     0
 10
536.81692246581224
 20
337.97277055278352
 30
0.0
 40
4.0
 50
89.999982000000799
 51
179.9999639999983
  0
ARC
  5
5014
  8
0
 62
     0
 10
568.4079344658121
 20
337.97277055278352
 30
0.0
 40
4.0
 50
0.0
 51
89.999982000000799
  0
ARC
  5
5015
  8
0
 62
     0
 10
552.61292846581216
 20
220.7763365527835
 30
0.0
 40
122.221001
 50
82.574494000006609
 51
97.425503999997574
  0
ARC
  5
5016
  8
0
 62
     0
 10
554.38093346581218
 20
275.72062655278341
 30
0.0
 40
71.776710999999949
 50
79.939686999998116
 51
100.024002000001
  0
ARC
  5
5017
  8
0
 62
     0
 10
568.89291946581216
 20
340.01443155278349
 30
0.0
 40
6.0
 50
0.0
 51
85.203728000002585
  0
ARC
  5
5018
  8
0
 62
     0
 10
539.88392446581224
 20
340.01443155278349
 30
0.0
 40
5.9999919999999971
 50
98.313134000004752
 51
173.06156700000059
  0
ARC
  5
501A
  8
0
 62
     0
 10
536.81692246581224
 20
273.52253755278338
 30
0.0
 40
4.0
 50
179.99998099999939
 51
270.00001799999922
  0
ARC
  5
501B
  8
0
 62
     0
 10
568.4079344658121
 20
273.52253755278338
 30
0.0
 40
4.0
 50
270.00001799999922
 51
359.99994499999769
  0
ARC
  5
501C
  8
0
 62
     0
 10
552.61292846581216
 20
390.71833855278328
 30
0.0
 40
122.221001
 50
262.57495999999588
 51
277.42596399999888
  0
ARC
  5
501D
  8
0
 62
     0
 10
554.38093346581218
 20
335.7740405527835
 30
0.0
 40
71.776702999999983
 50
259.97597100000121
 51
280.05997100000388
  0
ARC
  5
501E
  8
0
 62
     0
 10
568.89291946581216
 20
271.47933955278347
 30
0.0
 40
6.0
 50
274.7959860000019
 51
299.8646995625254
  0
ARC
  5
501F
  8
0
 62
     0
 10
539.88392446581224
 20
271.47933955278347
 30
0.0
 40
6.0000049999999989
 50
186.92133000000149
 51
261.97358199999258
  0
LINE
  5
5929
  8
0
 62
     0
 10
272.57939970342483
 20
232.2473374978733
 30
0.0
 11
281.57939970342483
 21
232.2473374978733
 31
0.0
  0
LINE
  5
592A
  8
0
 62
     0
 10
271.57939970342483
 20
367.74733749787322
 30
0.0
 11
271.57939970342483
 21
351.91733749787318
 31
0.0
  0
ARC
  5
592B
  8
0
 62
     0
 10
268.75578070342482
 20
230.85117249787331
 30
0.0
 40
2.0
 50
270.0
 51
345.0000029999984
  0
LINE
  5
592C
  8
0
 62
     0
 10
271.57939970342483
 20
233.2473374978733
 30
0.0
 11
271.57939970342483
 21
233.66165449787329
 31
0.0
  0
LINE
  5
592D
  8
0
 62
     0
 10
271.57939970342483
 20
233.24234349787321
 30
0.0
 11
271.57939970342483
 21
233.2473374978733
 31
0.0
  0
LINE
  5
592E
  8
0
 62
     0
 10
271.49184370342482
 20
233.33489349787331
 30
0.0
 11
271.57939970342483
 21
233.2473374978733
 31
0.0
  0
LINE
  5
592F
  8
0
 62
     0
 10
273.57939970342483
 20
242.7473374978733
 30
0.0
 11
272.5028767034247
 21
238.7296994978733
 31
0.0
  0
ARC
  5
5930
  8
0
 62
     0
 10
272.57690270342482
 20
233.2448404978733
 30
0.0
 40
0.9975059999999999
 50
179.85657799999959
 51
270.14342200000038
  0
LINE
  5
5931
  8
0
 62
     0
 10
272.57939970342483
 20
242.7473374978733
 30
0.0
 11
281.57939970342483
 21
242.7473374978733
 31
0.0
  0
LINE
  5
5932
  8
0
 62
     0
 10
273.57939970342483
 20
241.12575649787331
 30
0.0
 11
270.6876327034247
 21
230.3335344978733
 31
0.0
  0
ARC
  5
5933
  8
0
 62
     0
 10
270.57102470342483
 20
239.2473374978733
 30
0.0
 40
2.0
 50
270.0
 51
345.00000000000239
  0
ARC
  5
5934
  8
0
 62
     0
 10
272.57939970342483
 20
243.7473374978733
 30
0.0
 40
1.0
 50
180.0
 51
270.0
  0
ARC
  5
5935
  8
0
 62
     0
 10
202.5793997034248
 20
227.8851394978733
 30
0.0
 40
2.0
 50
270.0
 51
0.0
  0
ARC
  5
5936
  8
0
 62
     0
 10
202.5793997034248
 20
228.3124174978733
 30
0.0
 40
2.0
 50
270.0
 51
0.0
  0
ARC
  5
5937
  8
0
 62
     0
 10
202.5793997034248
 20
229.31776849787329
 30
0.0
 40
2.0
 50
270.0
 51
346.5086890000016
  0
LINE
  5
5938
  8
0
 62
     0
 10
204.5793997034248
 20
227.8851394978733
 30
0.0
 11
204.5793997034248
 21
228.85117249787331
 31
0.0
  0
ARC
  5
5939
  8
0
 62
     0
 10
121.5793997034247
 20
227.8851394978733
 30
0.0
 40
2.0
 50
180.0
 51
270.0
  0
LINE
  5
593A
  8
0
 62
     0
 10
119.5793997034247
 20
229.86298149787319
 30
0.0
 11
119.5793997034247
 21
229.31776849787329
 31
0.0
  0
ARC
  5
593B
  8
0
 62
     0
 10
121.4288497034248
 20
228.3124174978733
 30
0.0
 40
2.0
 50
195.7695469999999
 51
270.0
  0
ARC
  5
593C
  8
0
 62
     0
 10
121.5793997034247
 20
229.31776849787329
 30
0.0
 40
2.0
 50
180.0
 51
270.0
  0
ARC
  5
593D
  8
0
 62
     0
 10
121.5793997034247
 20
230.85117249787331
 30
0.0
 40
2.0
 50
180.0
 51
270.0
  0
LINE
  5
593E
  8
0
 62
     0
 10
119.5793997034247
 20
234.2189704978733
 30
0.0
 11
119.5793997034247
 21
230.85117249787331
 31
0.0
  0
ARC
  5
593F
  8
0
 62
     0
 10
117.5793997034247
 20
234.2189704978733
 30
0.0
 40
2.0
 50
0.0
 51
90.0
  0
ARC
  5
5940
  8
0
 62
     0
 10
117.5793997034247
 20
229.86298149787319
 30
0.0
 40
2.0
 50
0.0
 51
90.0
  0
ARC
  5
5941
  8
0
 62
     0
 10
117.5793997034247
 20
227.2253424978733
 30
0.0
 40
2.0
 50
15.7695469999999
 51
90.0
  0
ARC
  5
5942
  8
0
 62
     0
 10
117.5793997034247
 20
252.84628749787331
 30
0.0
 40
2.0
 50
0.0
 51
90.0
  0
LINE
  5
5943
  8
0
 62
     0
 10
119.5793997034247
 20
240.3914184978733
 30
0.0
 11
119.5793997034247
 21
252.84628749787331
 31
0.0
  0
ARC
  5
5944
  8
0
 62
     0
 10
121.5793997034247
 20
239.2473374978733
 30
0.0
 40
2.0
 50
180.0
 51
270.0
  0
ARC
  5
5945
  8
0
 62
     0
 10
117.5793997034247
 20
240.3914184978733
 30
0.0
 40
2.0
 50
0.0
 51
90.0
  0
LINE
  5
5946
  8
0
 62
     0
 10
119.5793997034247
 20
240.3914184978733
 30
0.0
 11
119.5793997034247
 21
239.2473374978733
 31
0.0
  0
LINE
  5
5947
  8
0
 62
     0
 10
117.5793997034247
 20
242.3914184978733
 30
0.0
 11
112.0733887034247
 21
242.3914184978733
 31
0.0
  0
LINE
  5
5948
  8
0
 62
     0
 10
121.5793997034247
 20
237.2473374978733
 30
0.0
 11
270.57102470342483
 21
237.2473374978733
 31
0.0
  0
LINE
  5
5949
  8
0
 62
     0
 10
112.0733887034247
 20
254.84628749787331
 30
0.0
 11
270.07939970342483
 21
254.84628749787331
 31
0.0
  0
LINE
  5
594A
  8
0
 62
     0
 10
121.5793997034247
 20
225.8851394978733
 30
0.0
 11
202.5793997034248
 21
225.8851394978733
 31
0.0
  0
LINE
  5
594B
  8
0
 62
     0
 10
121.4288497034248
 20
226.3124174978733
 30
0.0
 11
202.5793997034248
 21
226.3124174978733
 31
0.0
  0
LINE
  5
594C
  8
0
 62
     0
 10
121.5793997034247
 20
227.31776849787329
 30
0.0
 11
202.5793997034248
 21
227.31776849787329
 31
0.0
  0
LINE
  5
594D
  8
0
 62
     0
 10
121.5793997034247
 20
228.85117249787331
 30
0.0
 11
268.75578070342482
 21
228.85117249787331
 31
0.0
  0
LINE
  5
594E
  8
0
 62
     0
 10
117.5793997034247
 20
229.2253424978733
 30
0.0
 11
112.0733887034247
 21
229.2253424978733
 31
0.0
  0
LINE
  5
594F
  8
0
 62
     0
 10
117.5793997034247
 20
231.86298149787319
 30
0.0
 11
112.0733887034247
 21
231.86298149787319
 31
0.0
  0
LINE
  5
5950
  8
0
 62
     0
 10
117.5793997034247
 20
236.2189704978733
 30
0.0
 11
112.0733887034247
 21
236.2189704978733
 31
0.0
  0
LINE
  5
5951
  8
0
 62
     0
 10
272.57939970342483
 20
368.74733749787322
 30
0.0
 11
281.57939970342483
 21
368.74733749787322
 31
0.0
  0
LINE
  5
5952
  8
0
 62
     0
 10
273.57939970342483
 20
368.74733749787322
 30
0.0
 11
272.5028767034247
 21
372.76497549787308
 31
0.0
  0
ARC
  5
5953
  8
0
 62
     0
 10
272.57939970342483
 20
367.74733749787322
 30
0.0
 40
1.0
 50
90.0
 51
180.0
  0
LINE
  5
5954
  8
0
 62
     0
 10
271.49184370342482
 20
378.15978149787321
 30
0.0
 11
271.57939970342483
 21
378.24733749787322
 31
0.0
  0
LINE
  5
5955
  8
0
 62
     0
 10
271.57939970342483
 20
378.25233149787317
 30
0.0
 11
271.57939970342483
 21
378.24733749787322
 31
0.0
  0
ARC
  5
5956
  8
0
 62
     0
 10
272.57690270342482
 20
378.24983449787322
 30
0.0
 40
0.9975059999999999
 50
89.856577999999615
 51
180.1434220000003
  0
LINE
  5
5957
  8
0
 62
     0
 10
271.57939970342483
 20
378.24733749787322
 30
0.0
 11
271.57939970342483
 21
377.83302049787329
 31
0.0
  0
LINE
  5
5958
  8
0
 62
     0
 10
272.57939970342483
 20
379.24733749787339
 30
0.0
 11
281.57939970342483
 21
379.24733749787339
 31
0.0
  0
LINE
  5
5959
  8
0
 62
     0
 10
273.57939970342483
 20
370.36891849787321
 30
0.0
 11
270.6876327034247
 21
381.16114049787319
 31
0.0
  0
ARC
  5
595A
  8
0
 62
     0
 10
270.57102470342483
 20
372.24733749787322
 30
0.0
 40
2.0
 50
14.9999999999976
 51
90.0
  0
ARC
  5
595B
  8
0
 62
     0
 10
268.75578070342482
 20
380.64350249787321
 30
0.0
 40
2.0
 50
14.999997000001709
 51
90.0
  0
LINE
  5
595C
  8
0
 62
     0
 10
204.5793997034248
 20
383.60953549787308
 30
0.0
 11
204.5793997034248
 21
382.64350249787321
 31
0.0
  0
ARC
  5
595D
  8
0
 62
     0
 10
202.5793997034248
 20
382.17690649787318
 30
0.0
 40
2.0
 50
13.491310999998401
 51
90.0
  0
ARC
  5
595E
  8
0
 62
     0
 10
202.5793997034248
 20
383.1822574978732
 30
0.0
 40
2.0
 50
0.0
 51
90.0
  0
ARC
  5
595F
  8
0
 62
     0
 10
202.5793997034248
 20
383.60953549787308
 30
0.0
 40
2.0
 50
0.0
 51
90.0
  0
LINE
  5
5960
  8
0
 62
     0
 10
119.5793997034247
 20
371.1032564978733
 30
0.0
 11
119.5793997034247
 21
372.24733749787322
 31
0.0
  0
ARC
  5
5961
  8
0
 62
     0
 10
117.5793997034247
 20
371.1032564978733
 30
0.0
 40
2.0
 50
270.0
 51
0.0
  0
ARC
  5
5962
  8
0
 62
     0
 10
121.5793997034247
 20
372.24733749787322
 30
0.0
 40
2.0
 50
90.0
 51
180.0
  0
LINE
  5
5963
  8
0
 62
     0
 10
119.5793997034247
 20
371.1032564978733
 30
0.0
 11
119.5793997034247
 21
358.64838749787322
 31
0.0
  0
ARC
  5
5964
  8
0
 62
     0
 10
117.5793997034247
 20
358.64838749787322
 30
0.0
 40
2.0
 50
270.0
 51
0.0
  0
LINE
  5
5965
  8
0
 62
     0
 10
119.5793997034247
 20
377.27570449787322
 30
0.0
 11
119.5793997034247
 21
380.64350249787321
 31
0.0
  0
ARC
  5
5966
  8
0
 62
     0
 10
117.5793997034247
 20
377.27570449787322
 30
0.0
 40
2.0
 50
270.0
 51
0.0
  0
ARC
  5
5967
  8
0
 62
     0
 10
121.5793997034247
 20
380.64350249787321
 30
0.0
 40
2.0
 50
90.0
 51
180.0
  0
ARC
  5
5968
  8
0
 62
     0
 10
117.5793997034247
 20
381.6316934978733
 30
0.0
 40
2.0
 50
270.0
 51
0.0
  0
ARC
  5
5969
  8
0
 62
     0
 10
121.5793997034247
 20
382.17690649787318
 30
0.0
 40
2.0
 50
90.0
 51
180.0
  0
ARC
  5
596A
  8
0
 62
     0
 10
117.5793997034247
 20
384.26933249787322
 30
0.0
 40
2.0
 50
270.0
 51
344.23045300000013
  0
ARC
  5
596B
  8
0
 62
     0
 10
121.4288497034248
 20
383.1822574978732
 30
0.0
 40
2.0
 50
90.0
 51
164.2304530000001
  0
LINE
  5
596C
  8
0
 62
     0
 10
119.5793997034247
 20
381.6316934978733
 30
0.0
 11
119.5793997034247
 21
382.17690649787318
 31
0.0
  0
ARC
  5
596D
  8
0
 62
     0
 10
121.5793997034247
 20
383.60953549787308
 30
0.0
 40
2.0
 50
90.0
 51
180.0
  0
LINE
  5
596E
  8
0
 62
     0
 10
117.5793997034247
 20
382.26933249787322
 30
0.0
 11
112.0733887034247
 21
382.26933249787322
 31
0.0
  0
LINE
  5
596F
  8
0
 62
     0
 10
117.5793997034247
 20
379.6316934978733
 30
0.0
 11
112.0733887034247
 21
379.6316934978733
 31
0.0
  0
LINE
  5
5970
  8
0
 62
     0
 10
117.5793997034247
 20
375.27570449787322
 30
0.0
 11
112.0733887034247
 21
375.27570449787322
 31
0.0
  0
LINE
  5
5971
  8
0
 62
     0
 10
117.5793997034247
 20
369.1032564978733
 30
0.0
 11
112.0733887034247
 21
369.1032564978733
 31
0.0
  0
LINE
  5
5972
  8
0
 62
     0
 10
121.5793997034247
 20
385.6095354978732
 30
0.0
 11
202.5793997034248
 21
385.6095354978732
 31
0.0
  0
LINE
  5
5973
  8
0
 62
     0
 10
121.4288497034248
 20
385.18225749787331
 30
0.0
 11
202.5793997034248
 21
385.18225749787331
 31
0.0
  0
LINE
  5
5974
  8
0
 62
     0
 10
121.5793997034247
 20
384.17690649787318
 30
0.0
 11
202.5793997034248
 21
384.17690649787318
 31
0.0
  0
LINE
  5
5975
  8
0
 62
     0
 10
121.5793997034247
 20
382.64350249787321
 30
0.0
 11
268.75578070342482
 21
382.64350249787321
 31
0.0
  0
LINE
  5
5976
  8
0
 62
     0
 10
121.5793997034247
 20
374.24733749787322
 30
0.0
 11
270.57102470342483
 21
374.24733749787322
 31
0.0
  0
LINE
  5
5977
  8
0
 62
     0
 10
112.0733887034247
 20
356.64838749787322
 30
0.0
 11
270.07939970342483
 21
356.64838749787322
 31
0.0
  0
LINE
  5
5978
  8
0
 62
     0
 10
271.57939970342483
 20
261.91733749787329
 30
0.0
 11
271.57939970342483
 21
269.55733749787328
 31
0.0
  0
LINE
  5
5979
  8
0
 62
     0
 10
271.57939970342483
 20
349.57727949787318
 30
0.0
 11
271.57939970342483
 21
341.93733749787327
 31
0.0
  0
ARC
  5
597A
  8
0
 62
     0
 10
272.57876070342479
 20
258.7058064978732
 30
0.0
 40
1.0026319999999971
 50
0.0540849999984558
 51
81.243759000000509
  0
LINE
  5
597B
  8
0
 62
     0
 10
272.73139270342472
 20
259.69675349787332
 30
0.0
 11
270.97259370342482
 21
259.9673374978733
 31
0.0
  0
LINE
  5
597C
  8
0
 62
     0
 10
272.72139270342478
 20
261.78675349787329
 30
0.0
 11
271.11870470342478
 21
261.56733749787332
 31
0.0
  0
ARC
  5
597D
  8
0
 62
     0
 10
272.57442470342482
 20
262.78295749787333
 30
0.0
 40
1.006985999999999
 50
278.39216299999862
 51
359.64700199999788
  0
LINE
  5
597E
  8
0
 62
     0
 10
273.58139270342468
 20
262.7767534978733
 30
0.0
 11
273.58139270342468
 21
258.70675349787331
 31
0.0
  0
ARC
  5
597F
  8
0
 62
     0
 10
271.03803670342478
 20
260.75339749787321
 30
0.0
 40
0.8033630000000001
 50
0.2393300000011745
 51
89.760669999998839
  0
ARC
  5
5980
  8
0
 62
     0
 10
271.03633070342471
 20
260.76181549787327
 30
0.0
 40
0.8050779999999997
 50
270.3602510000016
 51
359.6397490000017
  0
ARC
  5
5981
  8
0
 62
     0
 10
272.57442470342482
 20
348.71171749787322
 30
0.0
 40
1.006985999999999
 50
0.3529979999987895
 51
81.607837000001453
  0
LINE
  5
5982
  8
0
 62
     0
 10
272.72139270342478
 20
349.70792149787331
 30
0.0
 11
271.11870470342478
 21
349.92733749787322
 31
0.0
  0
ARC
  5
5983
  8
0
 62
     0
 10
272.57876070342479
 20
352.7888684978733
 30
0.0
 40
1.0026319999999971
 50
278.75624099999948
 51
359.94591499999831
  0
LINE
  5
5984
  8
0
 62
     0
 10
273.58139270342468
 20
348.71792149787308
 30
0.0
 11
273.58139270342468
 21
352.7879214978733
 31
0.0
  0
LINE
  5
5985
  8
0
 62
     0
 10
272.73139270342472
 20
351.79792149787329
 30
0.0
 11
270.97259370342482
 21
351.5273374978733
 31
0.0
  0
ARC
  5
5986
  8
0
 62
     0
 10
271.03803670342478
 20
350.74127749787323
 30
0.0
 40
0.8033630000000001
 50
270.23933000000108
 51
359.76067000000199
  0
ARC
  5
5987
  8
0
 62
     0
 10
271.03633070342471
 20
350.73285949787322
 30
0.0
 40
0.8050779999999997
 50
0.3602510000016315
 51
89.639748999998375
  0
LINE
  5
5988
  8
0
 62
     0
 10
271.57939970342483
 20
343.61128249787322
 30
0.0
 11
281.57939970342483
 21
343.61128249787322
 31
0.0
  0
LINE
  5
5989
  8
0
 62
     0
 10
271.57939970342483
 20
267.89339249787321
 30
0.0
 11
281.57939970342483
 21
267.89339249787321
 31
0.0
  0
LINE
  5
598A
  8
0
 62
     0
 10
272.71939970342481
 20
301.7773374978733
 30
0.0
 11
271.03939970342469
 21
301.54733749787329
 31
0.0
  0
LINE
  5
598B
  8
0
 62
     0
 10
272.7293997034248
 20
299.68733749787327
 30
0.0
 11
271.03939970342469
 21
299.94733749787321
 31
0.0
  0
LINE
  5
598C
  8
0
 62
     0
 10
273.57939970342483
 20
302.76733749787331
 30
0.0
 11
273.57939970342483
 21
298.69733749787332
 31
0.0
  0
LINE
  5
598D
  8
0
 62
     0
 10
272.71939970342481
 20
291.7773374978733
 30
0.0
 11
271.03939970342469
 21
291.54733749787329
 31
0.0
  0
LINE
  5
598E
  8
0
 62
     0
 10
272.7293997034248
 20
289.68733749787327
 30
0.0
 11
271.03939970342469
 21
289.94733749787321
 31
0.0
  0
LINE
  5
598F
  8
0
 62
     0
 10
273.57939970342483
 20
292.7673374978732
 30
0.0
 11
273.57939970342483
 21
288.69733749787332
 31
0.0
  0
LINE
  5
5990
  8
0
 62
     0
 10
272.7293997034248
 20
279.68733749787339
 30
0.0
 11
271.03939970342469
 21
279.94733749787332
 31
0.0
  0
LINE
  5
5991
  8
0
 62
     0
 10
272.71939970342481
 20
281.7773374978733
 30
0.0
 11
271.03939970342469
 21
281.54733749787329
 31
0.0
  0
LINE
  5
5992
  8
0
 62
     0
 10
273.57939970342483
 20
282.76733749787331
 30
0.0
 11
273.57939970342483
 21
278.69733749787332
 31
0.0
  0
LINE
  5
5993
  8
0
 62
     0
 10
273.57939970342483
 20
272.76733749787331
 30
0.0
 11
273.57939970342483
 21
268.76733749787331
 31
0.0
  0
LINE
  5
5994
  8
0
 62
     0
 10
272.71939970342481
 20
271.7773374978733
 30
0.0
 11
271.03939970342469
 21
271.54733749787329
 31
0.0
  0
LINE
  5
5995
  8
0
 62
     0
 10
272.7293997034248
 20
269.68733749787327
 30
0.0
 11
271.03939970342469
 21
269.94733749787332
 31
0.0
  0
ARC
  5
5996
  8
0
 62
     0
 10
271.03100470342468
 20
300.74733749787327
 30
0.0
 40
0.8000439999999999
 50
270.6012089999997
 51
89.398791000000301
  0
ARC
  5
5997
  8
0
 62
     0
 10
272.57676770342482
 20
298.69639149787332
 30
0.0
 40
1.0026319999999971
 50
0.0540849999984558
 51
81.243759000000509
  0
ARC
  5
5998
  8
0
 62
     0
 10
272.57243270342479
 20
302.77354149787328
 30
0.0
 40
1.006985999999999
 50
278.39216299999862
 51
359.64700199999788
  0
ARC
  5
5999
  8
0
 62
     0
 10
271.03433770342468
 20
290.75239949787328
 30
0.0
 40
0.8050779999999997
 50
270.3602510000016
 51
359.6397490000017
  0
ARC
  5
599A
  8
0
 62
     0
 10
272.57676770342482
 20
288.69639149787321
 30
0.0
 40
1.0026319999999971
 50
0.0540849999984558
 51
81.243759000000509
  0
ARC
  5
599B
  8
0
 62
     0
 10
272.57243270342479
 20
292.77354149787328
 30
0.0
 40
1.006985999999999
 50
278.39216299999862
 51
359.64700199999788
  0
ARC
  5
599C
  8
0
 62
     0
 10
271.03604370342481
 20
280.74398149787328
 30
0.0
 40
0.8033630000000001
 50
0.2393300000011745
 51
89.760669999998839
  0
ARC
  5
599D
  8
0
 62
     0
 10
271.03433770342468
 20
280.75239949787328
 30
0.0
 40
0.8050779999999997
 50
270.3602510000016
 51
359.6397490000017
  0
ARC
  5
599E
  8
0
 62
     0
 10
272.57243270342479
 20
282.77354149787328
 30
0.0
 40
1.006985999999999
 50
278.39216299999862
 51
359.64700199999788
  0
ARC
  5
599F
  8
0
 62
     0
 10
272.57676770342482
 20
278.69639149787332
 30
0.0
 40
1.0026319999999971
 50
0.0540849999984558
 51
81.243759000000509
  0
ARC
  5
59A0
  8
0
 62
     0
 10
272.57243270342479
 20
272.77354149787328
 30
0.0
 40
1.006985999999999
 50
278.39216299999862
 51
359.64700199999788
  0
ARC
  5
59A1
  8
0
 62
     0
 10
272.57676770342482
 20
268.69639149787332
 30
0.0
 40
1.0026319999999971
 50
0.0540849999984558
 51
81.243759000000509
  0
ARC
  5
59A2
  8
0
 62
     0
 10
271.03433770342468
 20
270.75239949787328
 30
0.0
 40
0.8050779999999997
 50
270.3602510000016
 51
359.6397490000017
  0
ARC
  5
59A3
  8
0
 62
     0
 10
271.03604370342481
 20
270.74398149787328
 30
0.0
 40
0.8033630000000001
 50
0.2393300000011745
 51
89.760669999998839
  0
ARC
  5
59A4
  8
0
 62
     0
 10
271.03604370342481
 20
290.74398149787328
 30
0.0
 40
0.8033630000000001
 50
0.2393300000011745
 51
89.760669999998839
  0
LINE
  5
59A5
  8
0
 62
     0
 10
269.97349570342482
 20
301.75733749787332
 30
0.0
 11
272.57331270342468
 21
301.75733749787332
 31
0.0
  0
LINE
  5
59A6
  8
0
 62
     0
 10
269.97349570342482
 20
299.72733749787318
 30
0.0
 11
272.4693997034247
 21
299.72733749787318
 31
0.0
  0
LINE
  5
59A7
  8
0
 62
     0
 10
269.97349570342482
 20
291.7773374978733
 30
0.0
 11
272.71939970342481
 21
291.7773374978733
 31
0.0
  0
LINE
  5
59A8
  8
0
 62
     0
 10
269.97349570342482
 20
289.69733749787332
 30
0.0
 11
272.62939970342478
 21
289.69733749787332
 31
0.0
  0
LINE
  5
59A9
  8
0
 62
     0
 10
269.97349570342482
 20
281.8273374978732
 30
0.0
 11
273.08461670342479
 21
281.8273374978732
 31
0.0
  0
LINE
  5
59AA
  8
0
 62
     0
 10
269.97349570342482
 20
279.64733749787331
 30
0.0
 11
272.98939970342479
 21
279.64733749787331
 31
0.0
  0
LINE
  5
59AB
  8
0
 62
     0
 10
269.97349570342482
 20
271.89733749787331
 30
0.0
 11
273.06870670342482
 21
271.89733749787331
 31
0.0
  0
LINE
  5
59AC
  8
0
 62
     0
 10
269.97349570342482
 20
269.55733749787328
 30
0.0
 11
273.09061870342481
 21
269.55733749787328
 31
0.0
  0
LINE
  5
59AD
  8
0
 62
     0
 10
269.97349570342482
 20
271.54733749787329
 30
0.0
 11
271.03939970342469
 21
271.54733749787329
 31
0.0
  0
LINE
  5
59AE
  8
0
 62
     0
 10
269.97349570342482
 20
301.54733749787329
 30
0.0
 11
271.03939970342469
 21
301.54733749787329
 31
0.0
  0
LINE
  5
59AF
  8
0
 62
     0
 10
269.97349570342482
 20
299.94733749787321
 30
0.0
 11
271.03939970342469
 21
299.94733749787321
 31
0.0
  0
LINE
  5
59B0
  8
0
 62
     0
 10
269.97349570342482
 20
291.54733749787329
 30
0.0
 11
271.03939970342469
 21
291.54733749787329
 31
0.0
  0
LINE
  5
59B1
  8
0
 62
     0
 10
269.97349570342482
 20
289.94733749787321
 30
0.0
 11
271.03939970342469
 21
289.94733749787321
 31
0.0
  0
LINE
  5
59B2
  8
0
 62
     0
 10
269.97349570342482
 20
281.54733749787329
 30
0.0
 11
271.03939970342469
 21
281.54733749787329
 31
0.0
  0
LINE
  5
59B3
  8
0
 62
     0
 10
269.97349570342482
 20
279.94733749787332
 30
0.0
 11
271.03939970342469
 21
279.94733749787332
 31
0.0
  0
LINE
  5
59B4
  8
0
 62
     0
 10
269.97349570342482
 20
269.94733749787332
 30
0.0
 11
271.03939970342469
 21
269.94733749787332
 31
0.0
  0
LINE
  5
59B5
  8
0
 62
     0
 10
272.71939970342481
 20
331.7773374978733
 30
0.0
 11
271.03939970342469
 21
331.54733749787329
 31
0.0
  0
LINE
  5
59B6
  8
0
 62
     0
 10
272.7293997034248
 20
329.68733749787339
 30
0.0
 11
271.03939970342469
 21
329.94733749787332
 31
0.0
  0
LINE
  5
59B7
  8
0
 62
     0
 10
273.57939970342483
 20
332.76733749787331
 30
0.0
 11
273.57939970342483
 21
328.69733749787332
 31
0.0
  0
LINE
  5
59B8
  8
0
 62
     0
 10
272.71939970342481
 20
321.7773374978733
 30
0.0
 11
271.03939970342469
 21
321.54733749787329
 31
0.0
  0
LINE
  5
59B9
  8
0
 62
     0
 10
272.7293997034248
 20
319.68733749787327
 30
0.0
 11
271.03939970342469
 21
319.94733749787332
 31
0.0
  0
LINE
  5
59BA
  8
0
 62
     0
 10
273.57939970342483
 20
322.76733749787331
 30
0.0
 11
273.57939970342483
 21
318.69733749787332
 31
0.0
  0
LINE
  5
59BB
  8
0
 62
     0
 10
272.71939970342481
 20
311.7773374978733
 30
0.0
 11
271.03939970342469
 21
311.54733749787329
 31
0.0
  0
LINE
  5
59BC
  8
0
 62
     0
 10
272.7293997034248
 20
309.68733749787327
 30
0.0
 11
271.03939970342469
 21
309.94733749787332
 31
0.0
  0
LINE
  5
59BD
  8
0
 62
     0
 10
273.57939970342483
 20
312.76733749787331
 30
0.0
 11
273.57939970342483
 21
308.69733749787332
 31
0.0
  0
LINE
  5
59BE
  8
0
 62
     0
 10
273.57939970342483
 20
342.7673374978732
 30
0.0
 11
273.57939970342483
 21
338.69733749787332
 31
0.0
  0
LINE
  5
59BF
  8
0
 62
     0
 10
272.71939970342481
 20
341.7773374978733
 30
0.0
 11
271.03939970342469
 21
341.54733749787329
 31
0.0
  0
LINE
  5
59C0
  8
0
 62
     0
 10
272.7293997034248
 20
339.68733749787327
 30
0.0
 11
271.03939970342469
 21
339.94733749787332
 31
0.0
  0
ARC
  5
59C1
  8
0
 62
     0
 10
271.03094370342478
 20
330.74834349787329
 30
0.0
 40
0.80105
 50
270.6048560000001
 51
80.04681700000134
  0
ARC
  5
59C2
  8
0
 62
     0
 10
272.57676770342482
 20
328.69639149787332
 30
0.0
 40
1.0026319999999971
 50
0.0540849999984558
 51
81.243759000000509
  0
ARC
  5
59C3
  8
0
 62
     0
 10
272.57243270342479
 20
332.77354149787328
 30
0.0
 40
1.006985999999999
 50
278.39216299999862
 51
359.64700199999788
  0
ARC
  5
59C4
  8
0
 62
     0
 10
271.03100470342468
 20
320.74733749787327
 30
0.0
 40
0.8000439999999999
 50
270.6012089999997
 51
89.398791000000301
  0
ARC
  5
59C5
  8
0
 62
     0
 10
272.57676770342482
 20
318.69639149787332
 30
0.0
 40
1.0026319999999971
 50
0.0540849999984558
 51
81.243759000000509
  0
ARC
  5
59C6
  8
0
 62
     0
 10
272.57243270342479
 20
322.77354149787328
 30
0.0
 40
1.006985999999999
 50
278.39216299999862
 51
359.64700199999788
  0
ARC
  5
59C7
  8
0
 62
     0
 10
271.03100470342468
 20
310.74733749787327
 30
0.0
 40
0.8000439999999999
 50
270.6012089999997
 51
89.398791000000301
  0
ARC
  5
59C8
  8
0
 62
     0
 10
272.57676770342482
 20
308.69639149787332
 30
0.0
 40
1.0026319999999971
 50
0.0540849999984558
 51
81.243759000000509
  0
ARC
  5
59C9
  8
0
 62
     0
 10
272.57243270342479
 20
312.77354149787328
 30
0.0
 40
1.006985999999999
 50
278.39216299999862
 51
359.64700199999788
  0
ARC
  5
59CA
  8
0
 62
     0
 10
272.57676770342482
 20
338.69639149787321
 30
0.0
 40
1.0026319999999971
 50
0.0540849999984558
 51
81.243759000000509
  0
ARC
  5
59CB
  8
0
 62
     0
 10
272.57243270342479
 20
342.77354149787328
 30
0.0
 40
1.006985999999999
 50
278.39216299999862
 51
359.64700199999788
  0
ARC
  5
59CC
  8
0
 62
     0
 10
271.03094470342478
 20
340.74855349787327
 30
0.0
 40
0.801261
 50
270.60461099999839
 51
94.506741999999505
  0
LINE
  5
59CD
  8
0
 62
     0
 10
269.97349570342482
 20
331.84733749787318
 30
0.0
 11
272.96761370342472
 21
331.84733749787318
 31
0.0
  0
LINE
  5
59CE
  8
0
 62
     0
 10
269.97349570342482
 20
329.66733749787329
 30
0.0
 11
272.82683670342482
 21
329.66733749787329
 31
0.0
  0
LINE
  5
59CF
  8
0
 62
     0
 10
269.97349570342482
 20
321.7873374978733
 30
0.0
 11
272.7759597034248
 21
321.7873374978733
 31
0.0
  0
LINE
  5
59D0
  8
0
 62
     0
 10
269.97349570342482
 20
319.70733749787331
 30
0.0
 11
272.59939970342469
 21
319.70733749787331
 31
0.0
  0
LINE
  5
59D1
  8
0
 62
     0
 10
269.97349570342482
 20
311.7673374978732
 30
0.0
 11
272.64635670342477
 21
311.7673374978732
 31
0.0
  0
LINE
  5
59D2
  8
0
 62
     0
 10
269.97349570342482
 20
309.72733749787318
 30
0.0
 11
272.4693997034247
 21
309.72733749787318
 31
0.0
  0
LINE
  5
59D3
  8
0
 62
     0
 10
269.97349570342482
 20
341.93733749787327
 30
0.0
 11
273.13348870342469
 21
341.93733749787327
 31
0.0
  0
LINE
  5
59D4
  8
0
 62
     0
 10
269.97349570342482
 20
339.58733749787319
 30
0.0
 11
273.03664370342477
 21
339.58733749787319
 31
0.0
  0
LINE
  5
59D5
  8
0
 62
     0
 10
269.97349570342482
 20
341.54733749787329
 30
0.0
 11
271.09390470342481
 21
341.54733749787329
 31
0.0
  0
LINE
  5
59D6
  8
0
 62
     0
 10
269.97349570342482
 20
339.94733749787332
 30
0.0
 11
271.03939970342469
 21
339.94733749787332
 31
0.0
  0
LINE
  5
59D7
  8
0
 62
     0
 10
269.97349570342482
 20
331.54733749787329
 30
0.0
 11
271.08830470342468
 21
331.54733749787329
 31
0.0
  0
LINE
  5
59D8
  8
0
 62
     0
 10
269.97349570342482
 20
329.94733749787332
 30
0.0
 11
271.03939970342469
 21
329.94733749787332
 31
0.0
  0
LINE
  5
59D9
  8
0
 62
     0
 10
269.97349570342482
 20
321.54733749787329
 30
0.0
 11
271.03939970342469
 21
321.54733749787329
 31
0.0
  0
LINE
  5
59DA
  8
0
 62
     0
 10
269.97349570342482
 20
319.94733749787332
 30
0.0
 11
271.03939970342469
 21
319.94733749787332
 31
0.0
  0
LINE
  5
59DB
  8
0
 62
     0
 10
269.97349570342482
 20
311.54733749787329
 30
0.0
 11
271.03939970342469
 21
311.54733749787329
 31
0.0
  0
LINE
  5
59DC
  8
0
 62
     0
 10
269.97349570342482
 20
309.94733749787332
 30
0.0
 11
271.03939970342469
 21
309.94733749787332
 31
0.0
  0
ARC
  5
59DD
  8
0
 62
     0
 10
193.27560270342479
 20
294.44741749787329
 30
0.0
 40
2.6000000000000001
 50
137.1002180000024
 51
180.0
  0
ARC
  5
59DE
  8
0
 62
     0
 10
193.27560270342479
 20
317.04725749787332
 30
0.0
 40
2.6000000000000001
 50
180.0
 51
222.8997819999976
  0
ARC
  5
59DF
  8
0
 62
     0
 10
181.11534770342479
 20
305.74733749787327
 30
0.0
 40
14.0
 50
317.10021800000243
 51
42.899781999997558
  0
LINE
  5
59E0
  8
0
 62
     0
 10
269.97349570342482
 20
269.01665649787333
 30
0.0
 11
269.97349570342482
 21
342.47519949787329
 31
0.0
  0
LINE
  5
59E1
  8
0
 62
     0
 10
264.8735057034246
 20
272.6396404978733
 30
0.0
 11
264.8735057034246
 21
338.8593544978732
 31
0.0
  0
LINE
  5
59E2
  8
0
 62
     0
 10
261.55650370342482
 20
272.44284049787319
 30
0.0
 11
261.55650370342482
 21
339.05184249787328
 31
0.0
  0
LINE
  5
59E3
  8
0
 62
     0
 10
187.2169047034248
 20
273.08459849787329
 30
0.0
 11
187.2169047034248
 21
292.83784149787328
 31
0.0
  0
LINE
  5
59E4
  8
0
 62
     0
 10
187.2169047034248
 20
338.40593749787331
 30
0.0
 11
187.2169047034248
 21
318.65683749787331
 31
0.0
  0
LINE
  5
59E5
  8
0
 62
     0
 10
181.7278027034248
 20
340.69854149787329
 30
0.0
 11
181.7278027034248
 21
270.79613349787331
 31
0.0
  0
LINE
  5
59E6
  8
0
 62
     0
 10
179.66400170342459
 20
340.56373749787321
 30
0.0
 11
179.66400170342459
 21
270.9309334978733
 31
0.0
  0
LINE
  5
59E7
  8
0
 62
     0
 10
190.6756027034248
 20
273.21514149787339
 30
0.0
 11
190.6756027034248
 21
294.44741749787329
 31
0.0
  0
LINE
  5
59E8
  8
0
 62
     0
 10
190.6756027034248
 20
317.04725749787332
 30
0.0
 11
190.6756027034248
 21
335.3296354978732
 31
0.0
  0
ARC
  5
59E9
  8
0
 62
     0
 10
261.87350570342471
 20
272.6396404978733
 30
0.0
 40
3.0
 50
273.55702099999962
 51
0.0000179999992061
  0
ARC
  5
59EA
  8
0
 62
     0
 10
266.37350570342471
 20
269.0271374978733
 30
0.0
 40
3.6000059999999969
 50
273.96599900000109
 51
0.0000179999992061
  0
ARC
  5
59EB
  8
0
 62
     0
 10
190.8169027034248
 20
273.08874149787329
 30
0.0
 40
3.6000009999999989
 50
180.00007799999869
 51
266.68501399999963
  0
ARC
  5
59EC
  8
0
 62
     0
 10
225.0793997034248
 20
864.59731349787296
 30
0.0
 40
596.09997599999986
 50
266.68505800000048
 51
273.5570069999996
  0
ARC
  5
59ED
  8
0
 62
     0
 10
187.3278047034245
 20
270.79613849787319
 30
0.0
 40
5.599998999999996
 50
180.00005699999841
 51
266.36204099999878
  0
ARC
  5
59EE
  8
0
 62
     0
 10
185.2640047034248
 20
270.93093849787329
 30
0.0
 40
5.600000999999998
 50
180.00005699999841
 51
266.16303700000049
  0
ARC
  5
59EF
  8
0
 62
     0
 10
225.0793997034248
 20
864.59731349787296
 30
0.0
 40
600.59997599999986
 50
266.16305400000141
 51
273.96601300000128
  0
ARC
  5
59F0
  8
0
 62
     0
 10
258.55650370342482
 20
272.44284049787319
 30
0.0
 40
3.0
 50
273.23604300000119
 51
0.0000179999992061
  0
ARC
  5
59F1
  8
0
 62
     0
 10
261.87350570342471
 20
338.85504149787329
 30
0.0
 40
3.0000029999999982
 50
0.0000179999992061
 51
86.443252999999871
  0
ARC
  5
59F2
  8
0
 62
     0
 10
266.37350570342471
 20
342.46733849787319
 30
0.0
 40
3.5999989999999982
 50
0.0000179999992061
 51
86.033744000000837
  0
ARC
  5
59F3
  8
0
 62
     0
 10
190.8169027034248
 20
338.40593749787331
 30
0.0
 40
3.5999979999999989
 50
93.315004999999587
 51
179.99998200000081
  0
ARC
  5
59F4
  8
0
 62
     0
 10
225.0793997034248
 20
-253.10263850212669
 30
0.0
 40
596.09997599999986
 50
86.44328999999945
 51
93.31508899999956
  0
ARC
  5
59F5
  8
0
 62
     0
 10
187.3278047034245
 20
340.6985394978733
 30
0.0
 40
5.5999980000000003
 50
93.638056000000859
 51
179.99998200000081
  0
ARC
  5
59F6
  8
0
 62
     0
 10
185.2640047034248
 20
340.56373649787332
 30
0.0
 40
5.5999980000000003
 50
93.837062000000614
 51
179.99998200000081
  0
ARC
  5
59F7
  8
0
 62
     0
 10
225.0793997034248
 20
-253.10263850212669
 30
0.0
 40
600.59997599999986
 50
86.033760000000385
 51
93.836910000000643
  0
ARC
  5
59F8
  8
0
 62
     0
 10
258.55650370342482
 20
339.05184149787328
 30
0.0
 40
2.999998999999999
 50
0.0000179999992061
 51
86.764376000000055
  0
ARC
  5
59F9
  8
0
 62
     0
 10
189.2169047034248
 20
318.65683749787331
 30
0.0
 40
1.999997
 50
179.99998200000081
 51
229.4100490000007
  0
ARC
  5
59FA
  8
0
 62
     0
 10
189.2169047034248
 20
292.83784149787328
 30
0.0
 40
2.0
 50
130.59005899999829
 51
179.99998200000081
  0
ARC
  5
59FB
  8
0
 62
     0
 10
178.15600270342469
 20
305.74733749787327
 30
0.0
 40
15.000002
 50
310.58999199999971
 51
49.40970199999888
  0
ARC
  5
59FC
  8
0
 62
     0
 10
269.17940870342483
 20
360.0563114978732
 30
0.0
 40
2.2000009999999981
 50
180.00000300000079
 51
269.99997799999852
  0
ARC
  5
59FD
  8
0
 62
     0
 10
269.17940870342483
 20
364.6563174978732
 30
0.0
 40
2.1999970000000002
 50
90.0
 51
179.99998200000081
  0
LINE
  5
59FE
  8
0
 62
     0
 10
271.57939970342483
 20
362.30686949787321
 30
0.0
 11
270.27939970342482
 21
361.5563144978733
 31
0.0
  0
LINE
  5
59FF
  8
0
 62
     0
 10
271.57939970342483
 20
363.30686949787321
 30
0.0
 11
270.27939970342482
 21
362.5563144978733
 31
0.0
  0
LINE
  5
5A00
  8
0
 62
     0
 10
270.27939970342482
 20
366.95631449787339
 30
0.0
 11
271.57939970342483
 21
366.95631449787339
 31
0.0
  0
LINE
  5
5A01
  8
0
 62
     0
 10
270.27939970342482
 20
357.75631449787329
 30
0.0
 11
271.57939970342483
 21
357.75631449787329
 31
0.0
  0
LINE
  5
5A02
  8
0
 62
     0
 10
271.57939970342483
 20
366.95631449787339
 30
0.0
 11
271.57939970342483
 21
357.75631449787329
 31
0.0
  0
LINE
  5
5A03
  8
0
 62
     0
 10
266.97939670342481
 20
364.6563174978732
 30
0.0
 11
266.97939670342481
 21
360.0563114978732
 31
0.0
  0
LINE
  5
5A04
  8
0
 62
     0
 10
270.27939970342482
 20
366.95631449787339
 30
0.0
 11
270.27939970342482
 21
357.75631449787329
 31
0.0
  0
LINE
  5
5A05
  8
0
 62
     0
 10
270.27939970342482
 20
357.8563144978732
 30
0.0
 11
269.17940870342483
 21
357.8563144978732
 31
0.0
  0
LINE
  5
5A06
  8
0
 62
     0
 10
270.27939970342482
 20
366.85631449787331
 30
0.0
 11
269.17940870342483
 21
366.85631449787331
 31
0.0
  0
LINE
  5
5A07
  8
0
 62
     0
 10
281.57939970342483
 20
232.2473374978733
 30
0.0
 11
281.57939970342483
 21
379.24727949787331
 31
0.0
  0
LINE
  5
5A08
  8
0
 62
     0
 10
119.5793997034247
 20
341.54727949787332
 30
0.0
 11
179.7510537034247
 21
341.54727949787332
 31
0.0
  0
LINE
  5
5A09
  8
0
 62
     0
 10
119.5793997034247
 20
339.9472794978733
 30
0.0
 11
179.66400170342459
 21
339.9472794978733
 31
0.0
  0
LINE
  5
5A0A
  8
0
 62
     0
 10
112.0733887034247
 20
331.54727949787332
 30
0.0
 11
179.66400170342459
 21
331.54727949787332
 31
0.0
  0
LINE
  5
5A0B
  8
0
 62
     0
 10
112.0733887034247
 20
329.9472794978733
 30
0.0
 11
179.66400170342459
 21
329.9472794978733
 31
0.0
  0
LINE
  5
5A0C
  8
0
 62
     0
 10
112.0733887034247
 20
319.9472794978733
 30
0.0
 11
179.66400170342459
 21
319.9472794978733
 31
0.0
  0
LINE
  5
5A0D
  8
0
 62
     0
 10
112.0733887034247
 20
321.54727949787332
 30
0.0
 11
179.66400170342459
 21
321.54727949787332
 31
0.0
  0
LINE
  5
5A0E
  8
0
 62
     0
 10
112.0733887034247
 20
321.79727949787332
 30
0.0
 11
179.66400170342459
 21
321.79727949787332
 31
0.0
  0
LINE
  5
5A0F
  8
0
 62
     0
 10
119.5793997034247
 20
339.59727949787327
 30
0.0
 11
179.66400170342459
 21
339.59727949787327
 31
0.0
  0
LINE
  5
5A10
  8
0
 62
     0
 10
119.5793997034247
 20
341.93727949787331
 30
0.0
 11
179.83506670342479
 21
341.93727949787331
 31
0.0
  0
LINE
  5
5A11
  8
0
 62
     0
 10
179.66400170342459
 20
331.84727949787327
 30
0.0
 11
112.0733887034247
 21
331.84727949787327
 31
0.0
  0
LINE
  5
5A12
  8
0
 62
     0
 10
179.66400170342459
 20
329.66727949787332
 30
0.0
 11
112.0733887034247
 21
329.66727949787332
 31
0.0
  0
LINE
  5
5A13
  8
0
 62
     0
 10
179.66400170342459
 20
319.71727949787328
 30
0.0
 11
112.0733887034247
 21
319.71727949787328
 31
0.0
  0
LINE
  5
5A14
  8
0
 62
     0
 10
179.66400170342459
 20
311.76727949787318
 30
0.0
 11
112.0733887034247
 21
311.76727949787318
 31
0.0
  0
LINE
  5
5A15
  8
0
 62
     0
 10
179.66400170342459
 20
309.73727949787332
 30
0.0
 11
112.0733887034247
 21
309.73727949787332
 31
0.0
  0
LINE
  5
5A16
  8
0
 62
     0
 10
179.66400170342459
 20
311.54727949787332
 30
0.0
 11
112.0733887034247
 21
311.54727949787332
 31
0.0
  0
LINE
  5
5A17
  8
0
 62
     0
 10
179.66400170342459
 20
309.9472794978733
 30
0.0
 11
112.0733887034247
 21
309.9472794978733
 31
0.0
  0
LINE
  5
5A18
  8
0
 62
     0
 10
119.5793997034247
 20
351.52727949787322
 30
0.0
 11
270.97221570342481
 21
351.52727949787322
 31
0.0
  0
LINE
  5
5A19
  8
0
 62
     0
 10
119.5793997034247
 20
349.92727949787331
 30
0.0
 11
271.11912870342479
 21
349.92727949787331
 31
0.0
  0
LINE
  5
5A1A
  8
0
 62
     0
 10
112.0733887034247
 20
351.91727949787321
 30
0.0
 11
273.0743447034248
 21
351.91727949787321
 31
0.0
  0
LINE
  5
5A1B
  8
0
 62
     0
 10
119.5793997034247
 20
349.57727949787318
 30
0.0
 11
273.08903670342482
 21
349.57727949787318
 31
0.0
  0
LINE
  5
5A1C
  8
0
 62
     0
 10
270.07939970342483
 20
356.64832949787319
 30
0.0
 11
270.19555970342481
 21
357.8563144978732
 31
0.0
  0
LINE
  5
5A1D
  8
0
 62
     0
 10
112.0733887034247
 20
335.02883649787327
 30
0.0
 11
119.5793997034247
 21
335.02883649787327
 31
0.0
  0
LINE
  5
5A1E
  8
0
 62
     0
 10
112.0733887034247
 20
340.74727949787319
 30
0.0
 11
119.5793997034247
 21
340.74727949787319
 31
0.0
  0
LINE
  5
5A1F
  8
0
 62
     0
 10
112.0733887034247
 20
351.26727949787318
 30
0.0
 11
119.5793997034247
 21
351.26727949787318
 31
0.0
  0
LINE
  5
5A20
  8
0
 62
     0
 10
112.0733887034247
 20
351.67861149787319
 30
0.0
 11
119.5793997034247
 21
351.67861149787319
 31
0.0
  0
LINE
  5
5A21
  8
0
 62
     0
 10
119.5793997034247
 20
351.67861149787319
 30
0.0
 11
119.5793997034247
 21
335.02883649787327
 31
0.0
  0
ARC
  5
5A22
  8
0
 62
     0
 10
54.078178703424769
 20
368.91617649787321
 30
0.0
 40
2.0
 50
96.369371000000754
 51
180.0
  0
ARC
  5
5A23
  8
0
 62
     0
 10
53.523490703424841
 20
373.88531049787321
 30
0.0
 40
2.999997
 50
276.3693710000008
 51
350.0001740000024
  0
LINE
  5
5A24
  8
0
 62
     0
 10
56.477922703424852
 20
373.36429049787313
 30
0.0
 11
57.538784703424781
 21
379.38176649787317
 31
0.0
  0
LINE
  5
5A25
  8
0
 62
     0
 10
52.078178703424769
 20
242.5784404978732
 30
0.0
 11
52.078178703424769
 21
368.91617649787321
 31
0.0
  0
LINE
  5
5A26
  8
0
 62
     0
 10
59.132377703424808
 20
379.70931549787321
 30
0.0
 11
59.132377703424808
 21
231.78530149787329
 31
0.0
  0
LINE
  5
5A27
  8
0
 62
     0
 10
89.080016703424803
 20
225.9975204978733
 30
0.0
 11
89.080016703424803
 21
385.49709649787332
 31
0.0
  0
LINE
  5
5A28
  8
0
 62
     0
 10
88.767395703424754
 20
385.48071349787313
 30
0.0
 11
62.900725703424769
 21
384.1252104978733
 31
0.0
  0
LINE
  5
5A29
  8
0
 62
     0
 10
90.330436703424752
 20
386.49727949787331
 30
0.0
 11
112.0793997034247
 21
386.49727949787331
 31
0.0
  0
ARC
  5
5A2A
  8
0
 62
     0
 10
90.330436703424752
 20
385.24727949787331
 30
0.0
 40
1.25
 50
89.999982000000799
 51
154.62363900000179
  0
ARC
  5
5A2B
  8
0
 62
     0
 10
63.20159170342481
 20
378.3832654978732
 30
0.0
 40
5.7500059999999991
 50
92.999882999999429
 51
170.00004800000099
  0
ARC
  5
5A2C
  8
0
 62
     0
 10
88.741229703424779
 20
385.98002849787321
 30
0.0
 40
0.5
 50
272.99975299999932
 51
335.24659000000122
  0
LINE
  5
5A2D
  8
0
 62
     0
 10
119.5793997034247
 20
269.94733749787332
 30
0.0
 11
179.7510617034246
 21
269.94733749787332
 31
0.0
  0
LINE
  5
5A2E
  8
0
 62
     0
 10
119.5793997034247
 20
271.54733749787329
 30
0.0
 11
179.66400170342459
 21
271.54733749787329
 31
0.0
  0
LINE
  5
5A2F
  8
0
 62
     0
 10
112.0733887034247
 20
279.94733749787332
 30
0.0
 11
179.66400170342459
 21
279.94733749787332
 31
0.0
  0
LINE
  5
5A30
  8
0
 62
     0
 10
112.0733887034247
 20
281.54733749787329
 30
0.0
 11
179.66400170342459
 21
281.54733749787329
 31
0.0
  0
LINE
  5
5A31
  8
0
 62
     0
 10
112.0733887034247
 20
291.54733749787329
 30
0.0
 11
179.66400170342459
 21
291.54733749787329
 31
0.0
  0
LINE
  5
5A32
  8
0
 62
     0
 10
112.0733887034247
 20
289.94733749787321
 30
0.0
 11
179.66400170342459
 21
289.94733749787321
 31
0.0
  0
LINE
  5
5A33
  8
0
 62
     0
 10
112.0733887034247
 20
289.69733749787332
 30
0.0
 11
179.66400170342459
 21
289.69733749787332
 31
0.0
  0
LINE
  5
5A34
  8
0
 62
     0
 10
119.5793997034247
 20
271.89733749787331
 30
0.0
 11
179.66400170342459
 21
271.89733749787331
 31
0.0
  0
LINE
  5
5A35
  8
0
 62
     0
 10
119.5793997034247
 20
269.55733749787328
 30
0.0
 11
179.83507870342461
 21
269.55733749787328
 31
0.0
  0
LINE
  5
5A36
  8
0
 62
     0
 10
179.66400170342459
 20
279.64733749787331
 30
0.0
 11
112.0733887034247
 21
279.64733749787331
 31
0.0
  0
LINE
  5
5A37
  8
0
 62
     0
 10
179.66400170342459
 20
281.8273374978732
 30
0.0
 11
112.0733887034247
 21
281.8273374978732
 31
0.0
  0
LINE
  5
5A38
  8
0
 62
     0
 10
179.66400170342459
 20
291.7773374978733
 30
0.0
 11
112.0733887034247
 21
291.7773374978733
 31
0.0
  0
LINE
  5
5A39
  8
0
 62
     0
 10
179.66400170342459
 20
299.72733749787318
 30
0.0
 11
112.0733887034247
 21
299.72733749787318
 31
0.0
  0
LINE
  5
5A3A
  8
0
 62
     0
 10
179.66400170342459
 20
301.75733749787332
 30
0.0
 11
112.0733887034247
 21
301.75733749787332
 31
0.0
  0
LINE
  5
5A3B
  8
0
 62
     0
 10
179.66400170342459
 20
299.94733749787321
 30
0.0
 11
112.0733887034247
 21
299.94733749787321
 31
0.0
  0
LINE
  5
5A3C
  8
0
 62
     0
 10
179.66400170342459
 20
301.54733749787329
 30
0.0
 11
112.0733887034247
 21
301.54733749787329
 31
0.0
  0
LINE
  5
5A3D
  8
0
 62
     0
 10
119.5793997034247
 20
259.9673374978733
 30
0.0
 11
270.97259370342482
 21
259.9673374978733
 31
0.0
  0
LINE
  5
5A3E
  8
0
 62
     0
 10
119.5793997034247
 20
261.56733749787332
 30
0.0
 11
271.11870470342478
 21
261.56733749787332
 31
0.0
  0
LINE
  5
5A3F
  8
0
 62
     0
 10
112.0733887034247
 20
259.57733749787332
 30
0.0
 11
273.07444770342482
 21
259.57733749787332
 31
0.0
  0
LINE
  5
5A40
  8
0
 62
     0
 10
119.5793997034247
 20
261.91733749787329
 30
0.0
 11
273.08893870342467
 21
261.91733749787329
 31
0.0
  0
LINE
  5
5A41
  8
0
 62
     0
 10
270.07939970342483
 20
261.91733749787329
 30
0.0
 11
270.07939970342483
 21
269.55733749787328
 31
0.0
  0
LINE
  5
5A42
  8
0
 62
     0
 10
270.07939970342483
 20
254.84628749787331
 30
0.0
 11
270.07939970342483
 21
259.57733749787332
 31
0.0
  0
LINE
  5
5A43
  8
0
 62
     0
 10
271.57939970342483
 20
243.7473374978733
 30
0.0
 11
271.57939970342483
 21
259.57733749787332
 31
0.0
  0
LINE
  5
5A44
  8
0
 62
     0
 10
270.07939970342483
 20
254.84628749787331
 30
0.0
 11
270.19555470342482
 21
253.63836149787329
 31
0.0
  0
LINE
  5
5A45
  8
0
 62
     0
 10
112.0733887034247
 20
276.46578049787331
 30
0.0
 11
119.5793997034247
 21
276.46578049787331
 31
0.0
  0
LINE
  5
5A46
  8
0
 62
     0
 10
112.0733887034247
 20
270.74733749787327
 30
0.0
 11
119.5793997034247
 21
270.74733749787327
 31
0.0
  0
LINE
  5
5A47
  8
0
 62
     0
 10
112.0733887034247
 20
260.22733749787329
 30
0.0
 11
119.5793997034247
 21
260.22733749787329
 31
0.0
  0
LINE
  5
5A48
  8
0
 62
     0
 10
112.0733887034247
 20
259.81600549787339
 30
0.0
 11
119.5793997034247
 21
259.81600549787339
 31
0.0
  0
LINE
  5
5A49
  8
0
 62
     0
 10
119.5793997034247
 20
259.81600549787339
 30
0.0
 11
119.5793997034247
 21
276.46578049787331
 31
0.0
  0
ARC
  5
5A4A
  8
0
 62
     0
 10
54.078178703424769
 20
242.5784404978732
 30
0.0
 40
2.0
 50
180.0
 51
263.63062899999932
  0
ARC
  5
5A4B
  8
0
 62
     0
 10
53.523490703424841
 20
237.60930649787329
 30
0.0
 40
2.999997
 50
9.9998259999975811
 51
83.63062899999926
  0
LINE
  5
5A4C
  8
0
 62
     0
 10
56.477922703424852
 20
238.13032649787331
 30
0.0
 11
57.538784703424781
 21
232.1128504978733
 31
0.0
  0
LINE
  5
5A4D
  8
0
 62
     0
 10
56.078178703424769
 20
371.49129849787317
 30
0.0
 11
56.078178703424769
 21
240.00331849787329
 31
0.0
  0
LINE
  5
5A4E
  8
0
 62
     0
 10
271.27939970342482
 20
271.89733749787331
 30
0.0
 11
271.57939970342483
 21
271.89733749787331
 31
0.0
  0
LINE
  5
5A4F
  8
0
 62
     0
 10
271.22870870342467
 20
269.55733749787328
 30
0.0
 11
271.57939970342483
 21
269.55733749787328
 31
0.0
  0
LINE
  5
5A50
  8
0
 62
     0
 10
88.767395703424754
 20
226.0139034978732
 30
0.0
 11
62.900725703424769
 21
227.3694064978732
 31
0.0
  0
LINE
  5
5A51
  8
0
 62
     0
 10
90.330436703424752
 20
224.9973374978733
 30
0.0
 11
112.0793997034247
 21
224.9973374978733
 31
0.0
  0
ARC
  5
5A52
  8
0
 62
     0
 10
90.330436703424752
 20
226.2473374978733
 30
0.0
 40
1.25
 50
205.3763609999981
 51
270.00001799999922
  0
ARC
  5
5A53
  8
0
 62
     0
 10
63.20159170342481
 20
233.1113514978733
 30
0.0
 40
5.7500059999999991
 50
189.9999519999989
 51
267.00011700000061
  0
ARC
  5
5A54
  8
0
 62
     0
 10
88.741229703424779
 20
225.51458849787329
 30
0.0
 40
0.5
 50
24.75340999999878
 51
87.000247000000712
  0
LINE
  5
5A55
  8
0
 62
     0
 10
270.07939970342483
 20
356.64832949787319
 30
0.0
 11
270.07939970342483
 21
351.91733749787318
 31
0.0
  0
LINE
  5
5A56
  8
0
 62
     0
 10
270.07939970342483
 20
349.5773374978732
 30
0.0
 11
270.07939970342483
 21
341.93733749787327
 31
0.0
  0
LINE
  5
5A57
  8
0
 62
     0
 10
112.0733887034247
 20
224.9973374978733
 30
0.0
 11
112.0733887034247
 21
386.49727949787331
 31
0.0
  0
ARC
  5
5A58
  8
0
 62
     0
 10
269.17940670342477
 20
251.43836449787329
 30
0.0
 40
2.2000009999999981
 50
90.000022000001564
 51
179.99999699999901
  0
ARC
  5
5A59
  8
0
 62
     0
 10
269.17940670342477
 20
246.83835849787329
 30
0.0
 40
2.1999970000000002
 50
180.00001799999919
 51
270.0
  0
LINE
  5
5A5A
  8
0
 62
     0
 10
271.57939770342477
 20
249.18780649787331
 30
0.0
 11
270.27939770342482
 21
249.9383614978733
 31
0.0
  0
LINE
  5
5A5B
  8
0
 62
     0
 10
271.57939770342477
 20
248.18780649787331
 30
0.0
 11
270.27939770342482
 21
248.9383614978733
 31
0.0
  0
LINE
  5
5A5C
  8
0
 62
     0
 10
270.27939770342482
 20
244.5383614978733
 30
0.0
 11
271.57939770342477
 21
244.5383614978733
 31
0.0
  0
LINE
  5
5A5D
  8
0
 62
     0
 10
270.27939770342482
 20
253.7383614978732
 30
0.0
 11
271.57939770342477
 21
253.7383614978732
 31
0.0
  0
LINE
  5
5A5E
  8
0
 62
     0
 10
271.57939770342477
 20
244.5383614978733
 30
0.0
 11
271.57939770342477
 21
253.7383614978732
 31
0.0
  0
LINE
  5
5A5F
  8
0
 62
     0
 10
266.97939470342482
 20
246.83835849787329
 30
0.0
 11
266.97939470342482
 21
251.43836449787329
 31
0.0
  0
LINE
  5
5A60
  8
0
 62
     0
 10
270.27939770342482
 20
244.5383614978733
 30
0.0
 11
270.27939770342482
 21
253.7383614978732
 31
0.0
  0
LINE
  5
5A61
  8
0
 62
     0
 10
270.27939770342482
 20
253.63836149787329
 30
0.0
 11
269.17940670342477
 21
253.63836149787329
 31
0.0
  0
LINE
  5
5A62
  8
0
 62
     0
 10
270.27939770342482
 20
244.63836149787329
 30
0.0
 11
269.17940670342477
 21
244.63836149787329
 31
0.0
  0
LINE
  5
5C7E
  8
0
  6
CONTINUOUS
 62
     0
 10
394.07948970342522
 20
567.2110713059169
 30
0.0
 11
397.07948970342522
 21
567.2110713059169
 31
0.0
  0
LINE
  5
5C7F
  8
0
  6
CONTINUOUS
 62
     0
 10
439.07945970342507
 20
596.21110130591694
 30
0.0
 11
439.07945970342507
 21
568.21110130591694
 31
0.0
  0
LINE
  5
5C80
  8
0
  6
CONTINUOUS
 62
     0
 10
397.07948970342522
 20
596.21110130591694
 30
0.0
 11
439.07945970342507
 21
596.21110130591694
 31
0.0
  0
LINE
  5
5C81
  8
0
  6
CONTINUOUS
 62
     0
 10
397.07948970342522
 20
597.21107130591713
 30
0.0
 11
397.07948970342522
 21
567.2110713059169
 31
0.0
  0
LINE
  5
5C82
  8
0
  6
CONTINUOUS
 62
     0
 10
397.07948970342522
 20
568.21110130591694
 30
0.0
 11
439.07945970342507
 21
568.21110130591694
 31
0.0
  0
LINE
  5
5C83
  8
0
  6
CONTINUOUS
 62
     0
 10
407.07945970342502
 20
586.21104130591675
 30
0.0
 11
407.07945970342502
 21
578.21107130591702
 31
0.0
  0
LINE
  5
5C84
  8
0
  6
CONTINUOUS
 62
     0
 10
394.07948970342522
 20
597.21107130591713
 30
0.0
 11
397.07948970342522
 21
597.21107130591713
 31
0.0
  0
LINE
  5
5C85
  8
0
  6
CONTINUOUS
 62
     0
 10
392.0533097034251
 20
611.26414130591695
 30
0.0
 11
393.10563970342491
 21
611.23658130591696
 31
0.0
  0
LINE
  5
5C86
  8
0
  6
CONTINUOUS
 62
     0
 10
284.07948970342522
 20
668.31971130591694
 30
0.0
 11
284.07948970342522
 21
655.77656130591686
 31
0.0
  0
LINE
  5
5C87
  8
0
  6
CONTINUOUS
 62
     0
 10
394.07948970342522
 20
667.37702130591686
 30
0.0
 11
394.07948970342522
 21
640.21107130591702
 31
0.0
  0
LINE
  5
5C88
  8
0
  6
CENTER
 62
     0
 10
290.72154970342501
 20
657.21107130591702
 30
0.0
 11
307.45833970342522
 21
657.21107130591702
 31
0.0
  0
LINE
  5
5C89
  8
0
  6
CONTINUOUS
 62
     0
 10
321.07948970342522
 20
672.21107130591713
 30
0.0
 11
391.15797970342493
 21
670.37602130591688
 31
0.0
  0
LINE
  5
5C8A
  8
0
  6
CONTINUOUS
 62
     0
 10
287.00093970342522
 20
671.31867130591695
 30
0.0
 11
321.07948970342522
 21
672.21107130591713
 31
0.0
  0
LINE
  5
5C8B
  8
0
  6
CENTER
 62
     0
 10
299.079489703425
 20
665.46534130591692
 30
0.0
 11
299.079489703425
 21
648.64811130591693
 31
0.0
  0
LINE
  5
5C8C
  8
0
  6
CENTER
 62
     0
 10
379.079489703425
 20
666.01463130591674
 30
0.0
 11
379.079489703425
 21
648.7950513059169
 31
0.0
  0
LINE
  5
5C8D
  8
0
  6
CENTER
 62
     0
 10
370.72148970342499
 20
657.21107130591702
 30
0.0
 11
387.86058970342492
 21
657.21107130591702
 31
0.0
  0
LINE
  5
5C8E
  8
0
  6
CONTINUOUS
 62
     0
 10
321.07948970342522
 20
667.07841130591703
 30
0.0
 11
321.07948970342522
 21
664.46202130591701
 31
0.0
  0
LINE
  5
5C8F
  8
0
  6
CONTINUOUS
 62
     0
 10
392.05327970342512
 20
553.15803130591712
 30
0.0
 11
393.10563970342491
 21
553.18559130591677
 31
0.0
  0
LINE
  5
5C90
  8
0
  6
CONTINUOUS
 62
     0
 10
284.07948970342522
 20
496.10240130591711
 30
0.0
 11
284.07948970342522
 21
508.64558130591689
 31
0.0
  0
LINE
  5
5C91
  8
0
  6
CONTINUOUS
 62
     0
 10
394.07948970342522
 20
497.04511130591669
 30
0.0
 11
394.07948970342522
 21
524.2110713059169
 31
0.0
  0
LINE
  5
5C92
  8
0
  6
CENTER
 62
     0
 10
290.76762970342497
 20
507.2110713059169
 30
0.0
 11
307.33555970342508
 21
507.2110713059169
 31
0.0
  0
LINE
  5
5C93
  8
0
  6
CONTINUOUS
 62
     0
 10
321.07948970342522
 20
492.2110713059169
 30
0.0
 11
391.15797970342493
 21
494.04612130591681
 31
0.0
  0
LINE
  5
5C94
  8
0
  6
CONTINUOUS
 62
     0
 10
287.00093970342522
 20
493.1034313059169
 30
0.0
 11
321.07948970342522
 21
492.2110713059169
 31
0.0
  0
LINE
  5
5C95
  8
0
  6
CENTER
 62
     0
 10
299.079489703425
 20
498.08912130591688
 30
0.0
 11
299.079489703425
 21
515.93150130591687
 31
0.0
  0
LINE
  5
5C96
  8
0
  6
CENTER
 62
     0
 10
379.079489703425
 20
498.37232130591678
 30
0.0
 11
379.079489703425
 21
515.78990130591706
 31
0.0
  0
LINE
  5
5C97
  8
0
  6
CONTINUOUS
 62
     0
 10
318.07948970342522
 20
499.96012130591703
 30
0.0
 11
318.07948970342522
 21
664.46202130591701
 31
0.0
  0
LINE
  5
5C98
  8
0
  6
CONTINUOUS
 62
     0
 10
391.079489703425
 20
528.08405130591677
 30
0.0
 11
391.079489703425
 21
636.33808130591694
 31
0.0
  0
LINE
  5
5C99
  8
0
  6
CONTINUOUS
 62
     0
 10
394.07948970342522
 20
610.23692130591712
 30
0.0
 11
394.07948970342522
 21
554.1852213059168
 31
0.0
  0
LINE
  5
5C9A
  8
0
  6
CONTINUOUS
 62
     0
 10
317.07948970342522
 20
671.07841130591703
 30
0.0
 11
317.07948970342522
 21
667.73527130591674
 31
0.0
  0
LINE
  5
5C9B
  8
0
  6
CONTINUOUS
 62
     0
 10
407.07945970342502
 20
578.21107130591702
 30
0.0
 11
439.07945970342507
 21
578.21107130591702
 31
0.0
  0
LINE
  5
5C9C
  8
0
  6
CONTINUOUS
 62
     0
 10
407.07945970342502
 20
586.21104130591675
 30
0.0
 11
439.07945970342507
 21
586.21104130591675
 31
0.0
  0
LINE
  5
5C9D
  8
0
  6
CONTINUOUS
 62
     0
 10
379.079489703425
 20
527.03953130591685
 30
0.0
 11
379.079489703425
 21
637.38261130591695
 31
0.0
  0
LINE
  5
5C9E
  8
0
  6
CONTINUOUS
 62
     0
 10
388.34092970342488
 20
636.450631305917
 30
0.0
 11
382.54551970342487
 21
636.95768130591694
 31
0.0
  0
LINE
  5
5C9F
  8
0
  6
CONTINUOUS
 62
     0
 10
388.34092970342488
 20
527.971481305917
 30
0.0
 11
382.54551970342487
 21
527.46446130591687
 31
0.0
  0
LINE
  5
5CA0
  8
0
  6
CONTINUOUS
 62
     0
 10
374.25395970342521
 20
642.37959130591673
 30
0.0
 11
368.80027970342508
 21
642.57002130591695
 31
0.0
  0
LINE
  5
5CA1
  8
0
  6
CONTINUOUS
 62
     0
 10
374.25398970342519
 20
522.04258130591677
 30
0.0
 11
368.80027970342508
 21
521.85212130591685
 31
0.0
  0
LINE
  5
5CA2
  8
0
  6
CONTINUOUS
 62
     0
 10
361.07948970342522
 20
498.39115130591711
 30
0.0
 11
361.07948970342522
 21
513.856971305917
 31
0.0
  0
LINE
  5
5CA3
  8
0
  6
CONTINUOUS
 62
     0
 10
361.07948970342522
 20
650.56516130591694
 30
0.0
 11
361.07948970342522
 21
666.03098130591695
 31
0.0
  0
LINE
  5
5CA4
  8
0
  6
CONTINUOUS
 62
     0
 10
318.07948970342522
 20
499.96012130591703
 30
0.0
 11
321.07948970342522
 21
499.96012130591703
 31
0.0
  0
LINE
  5
5CA5
  8
0
  6
CONTINUOUS
 62
     0
 10
318.07948970342522
 20
664.46202130591701
 30
0.0
 11
321.07948970342522
 21
664.46202130591701
 31
0.0
  0
LINE
  5
5CA6
  8
0
  6
CENTER
 62
     0
 10
370.91670970342511
 20
507.2110713059169
 30
0.0
 11
387.48463970342522
 21
507.2110713059169
 31
0.0
  0
LINE
  5
5CA7
  8
0
  6
CONTINUOUS
 62
     0
 10
321.07948970342522
 20
497.343731305917
 30
0.0
 11
321.07948970342522
 21
499.96012130591703
 31
0.0
  0
LINE
  5
5CA8
  8
0
  6
CONTINUOUS
 62
     0
 10
317.07948970342522
 20
493.343731305917
 30
0.0
 11
317.07948970342522
 21
496.68687130591678
 31
0.0
  0
LINE
  5
5CA9
  8
0
  6
CONTINUOUS
 62
     0
 10
318.07948970342522
 20
499.96012130591703
 30
0.0
 11
313.00966970342512
 21
500.137161305917
 31
0.0
  0
LINE
  5
5CAA
  8
0
  6
CONTINUOUS
 62
     0
 10
318.07948970342522
 20
664.46202130591701
 30
0.0
 11
313.00966970342512
 21
664.28498130591697
 31
0.0
  0
LINE
  5
5CAB
  8
0
  6
CONTINUOUS
 62
     0
 10
311.07945970342507
 20
502.135971305917
 30
0.0
 11
311.07945970342507
 21
662.28617130591692
 31
0.0
  0
LINE
  5
5CAC
  8
0
  6
CONTINUOUS
 62
     0
 10
281.57948970342522
 20
621.68574130591696
 30
0.0
 11
311.07945970342507
 21
621.68574130591696
 31
0.0
  0
LINE
  5
5CAD
  8
0
  6
CONTINUOUS
 62
     0
 10
281.57945970342507
 20
655.71110130591694
 30
0.0
 11
309.13181303953041
 21
656.43257733978749
 31
0.0
  0
LINE
  5
5CAE
  8
0
  6
CONTINUOUS
 62
     0
 10
281.57948970342522
 20
643.78971130591685
 30
0.0
 11
311.07945970342507
 21
643.78971130591685
 31
0.0
  0
LINE
  5
5CAF
  8
0
  6
CONTINUOUS
 62
     0
 10
281.57942970342532
 20
508.71110130591688
 30
0.0
 11
281.57942970342532
 21
655.71107130591713
 31
0.0
  0
LINE
  5
5CC2
  8
0
  6
CONTINUOUS
 62
     0
 10
281.57948970342522
 20
520.63243130591695
 30
0.0
 11
311.07945970342507
 21
520.63243130591695
 31
0.0
  0
LINE
  5
5CC3
  8
0
  6
CONTINUOUS
 62
     0
 10
281.57945970342507
 20
508.71104130591692
 30
0.0
 11
309.13181303953041
 21
507.98956527204592
 31
0.0
  0
LINE
  5
5CC4
  8
0
  6
CONTINUOUS
 62
     0
 10
281.57948970342522
 20
542.73640130591696
 30
0.0
 11
311.07945970342507
 21
542.73640130591696
 31
0.0
  0
LINE
  5
5D3B
  8
0
  6
CONTINUOUS
 62
     0
 10
318.07948970342522
 20
502.1037113059171
 30
0.0
 11
311.07945970342507
 21
502.1037113059171
 31
0.0
  0
LINE
  5
5D3C
  8
0
  6
CONTINUOUS
 62
     0
 10
318.07948970342522
 20
543.93598130591681
 30
0.0
 11
311.07945970342507
 21
543.93598130591681
 31
0.0
  0
LINE
  5
5D3D
  8
0
  6
CONTINUOUS
 62
     0
 10
318.07948970342522
 20
620.48615130591702
 30
0.0
 11
311.07945970342507
 21
620.48615130591702
 31
0.0
  0
ARC
  5
5D3E
  8
0
  6
CONTINUOUS
 62
     0
 10
392.07948970342522
 20
612.26377130591698
 30
0.0
 40
1.0
 50
180.00001000000091
 51
268.50000000000063
  0
ARC
  5
5D3F
  8
0
  6
CONTINUOUS
 62
     0
 10
393.07948970342522
 20
610.23692130591712
 30
0.0
 40
1.0
 50
0.0
 51
88.499997000000647
  0
CIRCLE
  5
5D40
  8
0
  6
CONTINUOUS
 62
     0
 10
379.079489703425
 20
657.21107130591702
 30
0.0
 40
6.0
  0
ARC
  5
5D41
  8
0
  6
CONTINUOUS
 62
     0
 10
287.07948970342522
 20
668.31971130591694
 30
0.0
 40
3.0
 50
91.500001000001546
 51
180.00001000000091
  0
ARC
  5
5D42
  8
0
  6
CONTINUOUS
 62
     0
 10
391.079489703425
 20
667.37702130591686
 30
0.0
 40
3.0
 50
0.0
 51
88.499997000000647
  0
ARC
  5
5D43
  8
0
  6
CONTINUOUS
 62
     0
 10
299.079489703425
 20
657.21107130591702
 30
0.0
 40
6.0
 50
351.50507979014992
 51
191.49490999999961
  0
ARC
  5
5D44
  8
0
  6
CONTINUOUS
 62
     0
 10
391.079489703425
 20
640.21107130591702
 30
0.0
 40
3.0
 50
284.47750999999982
 51
0.0
  0
ARC
  5
5D45
  8
0
  6
CONTINUOUS
 62
     0
 10
392.07948970342522
 20
552.15837130591694
 30
0.0
 40
1.0
 50
91.500001000001546
 51
180.00001000000091
  0
ARC
  5
5D46
  8
0
  6
CONTINUOUS
 62
     0
 10
393.07948970342522
 20
554.1852213059168
 30
0.0
 40
1.0
 50
271.49999999999937
 51
0.0
  0
CIRCLE
  5
5D47
  8
0
  6
CONTINUOUS
 62
     0
 10
379.079489703425
 20
507.2110713059169
 30
0.0
 40
6.0
  0
ARC
  5
5D48
  8
0
  6
CONTINUOUS
 62
     0
 10
287.07948970342522
 20
496.10240130591711
 30
0.0
 40
3.0
 50
180.00001000000091
 51
268.50000000000063
  0
ARC
  5
5D49
  8
0
  6
CONTINUOUS
 62
     0
 10
391.079489703425
 20
497.04511130591669
 30
0.0
 40
3.0
 50
271.49999999999937
 51
0.0
  0
ARC
  5
5D4B
  8
0
  6
CONTINUOUS
 62
     0
 10
391.079489703425
 20
524.2110713059169
 30
0.0
 40
3.0
 50
0.0
 51
75.522487999999072
  0
ARC
  5
5D4C
  8
0
  6
CONTINUOUS
 62
     0
 10
316.079489703425
 20
667.07841130591703
 30
0.0
 40
5.0
 50
0.0
 51
91.500001000001546
  0
ARC
  5
5D4D
  8
0
  6
CONTINUOUS
 62
     0
 10
316.079489703425
 20
662.07841130591714
 30
0.0
 40
5.0
 50
28.471238999999589
 51
70.528778999998195
  0
ARC
  5
5D4E
  8
0
  6
CONTINUOUS
 62
     0
 10
318.07948970342522
 20
667.73527130591674
 30
0.0
 40
1.0
 50
180.00001000000091
 51
250.52876999999941
  0
ARC
  5
5D4F
  8
0
  6
CONTINUOUS
 62
     0
 10
316.079489703425
 20
671.07841130591703
 30
0.0
 40
1.0
 50
0.0
 51
90.000003000000945
  0
ARC
  5
5D50
  8
0
  6
CONTINUOUS
 62
     0
 10
407.07945970342502
 20
582.21104130591698
 30
0.0
 40
3.9999962
 50
90.000003000000945
 51
270.0
  0
ARC
  5
5D51
  8
0
  6
CONTINUOUS
 62
     0
 10
392.07948970342522
 20
528.08405130591677
 30
0.0
 40
1.0
 50
180.00001000000091
 51
255.5224900000002
  0
ARC
  5
5D52
  8
0
  6
CONTINUOUS
 62
     0
 10
392.07948970342522
 20
636.33808130591694
 30
0.0
 40
1.0
 50
104.4775099999998
 51
180.00001000000091
  0
ARC
  5
5D53
  8
0
  6
CONTINUOUS
 62
     0
 10
388.07948970342522
 20
530.96006130591695
 30
0.0
 40
3.0
 50
275.0
 51
0.0
  0
ARC
  5
5D54
  8
0
  6
CONTINUOUS
 62
     0
 10
388.07948970342522
 20
633.46208130591685
 30
0.0
 40
3.0
 50
0.0
 51
85.000004000000885
  0
ARC
  5
5D55
  8
0
  6
CONTINUOUS
 62
     0
 10
374.07948970342522
 20
637.38261130591695
 30
0.0
 40
5.0
 50
0.0
 51
87.999999999999545
  0
ARC
  5
5D56
  8
0
  6
CONTINUOUS
 62
     0
 10
374.07948970342522
 20
527.03953130591685
 30
0.0
 40
5.0
 50
272.00000000000051
 51
0.0
  0
ARC
  5
5D57
  8
0
  6
CONTINUOUS
 62
     0
 10
382.98130970342521
 20
641.93867130591696
 30
0.0
 40
5.0
 50
207.10380999999799
 51
265.00001000000037
  0
ARC
  5
5D58
  8
0
  6
CONTINUOUS
 62
     0
 10
382.98130970342521
 20
522.48347130591685
 30
0.0
 40
5.0
 50
95.00000199999856
 51
152.89619000000201
  0
ARC
  5
5D59
  8
0
  6
CONTINUOUS
 62
     0
 10
366.07948970342522
 20
498.39115130591711
 30
0.0
 40
5.0
 50
180.00001000000091
 51
271.49999999999937
  0
ARC
  5
5D5A
  8
0
  6
CONTINUOUS
 62
     0
 10
366.07948970342522
 20
666.03098130591695
 30
0.0
 40
5.0
 50
88.499997000000647
 51
180.00001000000091
  0
ARC
  5
5D5B
  8
0
  6
CONTINUOUS
 62
     0
 10
369.07948970342522
 20
650.56516130591694
 30
0.0
 40
8.0
 50
180.00001000000091
 51
267.99999999999949
  0
ARC
  5
5D5C
  8
0
  6
CONTINUOUS
 62
     0
 10
369.07948970342522
 20
513.856971305917
 30
0.0
 40
8.0
 50
91.999998000000545
 51
180.00001000000091
  0
ARC
  5
5D5D
  8
0
  6
CONTINUOUS
 62
     0
 10
316.079489703425
 20
497.343731305917
 30
0.0
 40
5.0
 50
268.50000000000063
 51
0.0000006832495047
  0
ARC
  5
5D5E
  8
0
  6
CONTINUOUS
 62
     0
 10
316.079489703425
 20
502.343731305917
 30
0.0
 40
5.0
 50
289.47123000000067
 51
331.5287600000031
  0
ARC
  5
5D5F
  8
0
  6
CONTINUOUS
 62
     0
 10
318.07948970342522
 20
496.68687130591678
 30
0.0
 40
1.0
 50
109.4712199999996
 51
180.00001000000091
  0
ARC
  5
5D60
  8
0
  6
CONTINUOUS
 62
     0
 10
316.079489703425
 20
493.343731305917
 30
0.0
 40
1.0
 50
270.0
 51
0.0
  0
ARC
  5
5D61
  8
0
  6
CONTINUOUS
 62
     0
 10
313.07945970342519
 20
502.135971305917
 30
0.0
 40
2.0
 50
180.00001000000091
 51
267.99999999999949
  0
ARC
  5
5D62
  8
0
  6
CONTINUOUS
 62
     0
 10
313.07945970342519
 20
662.28617130591692
 30
0.0
 40
2.0
 50
91.999998000000545
 51
180.00001000000091
  0
ARC
  5
5D63
  8
0
  6
CONTINUOUS
 62
     0
 10
299.079489703425
 20
507.2110713059169
 30
0.0
 40
6.0
 50
168.5051000000048
 51
8.4949202098491892
  0
POLYLINE
  5
5DC8
  8
0
  6
CONTINUOUS
 62
     0
 66
     1
 10
0.0
 20
0.0
 30
0.0
  0
VERTEX
  5
5DC9
  8
0
  6
CONTINUOUS
 62
     0
 10
318.07948970342522
 20
543.93598130591681
 30
0.0
 42
-0.059991193
  0
VERTEX
  5
5DCA
  8
0
  6
CONTINUOUS
 62
     0
 10
343.66829970342508
 20
528.00377130591687
 30
0.0
 42
-0.30883796
  0
VERTEX
  5
5DCB
  8
0
  6
CONTINUOUS
 62
     0
 10
353.07945970342519
 20
512.06303130591687
 30
0.0
 42
-0.25905842
  0
VERTEX
  5
5DCC
  8
0
  6
CONTINUOUS
 62
     0
 10
318.6297897034251
 20
492.27497130591678
 30
0.0
  0
SEQEND
  5
5DCD
  8
0
 62
     0
  0
POLYLINE
  5
5DCE
  8
0
  6
CONTINUOUS
 62
     0
 66
     1
 10
0.0
 20
0.0
 30
0.0
  0
VERTEX
  5
5DCF
  8
0
  6
CONTINUOUS
 62
     0
 10
319.3430297034252
 20
502.28209130591688
 30
0.0
 42
0.021277534
  0
VERTEX
  5
5DD0
  8
0
  6
CONTINUOUS
 62
     0
 10
330.173169703425
 20
504.33861130591691
 30
0.0
 42
0.020622971
  0
VERTEX
  5
5DD1
  8
0
  6
CONTINUOUS
 62
     0
 10
340.29792970342521
 20
507.1556513059171
 30
0.0
 42
0.022709
  0
VERTEX
  5
5DD2
  8
0
  6
CONTINUOUS
 62
     0
 10
351.10484970342492
 20
511.2012113059169
 30
0.0
  0
SEQEND
  5
5DD3
  8
0
 62
     0
  0
POLYLINE
  5
5DD4
  8
0
  6
CONTINUOUS
 62
     0
 66
     1
 10
0.0
 20
0.0
 30
0.0
  0
VERTEX
  5
5DD5
  8
0
  6
CONTINUOUS
 62
     0
 10
318.07948970342522
 20
620.48615130591702
 30
0.0
 42
0.059991175
  0
VERTEX
  5
5DD6
  8
0
  6
CONTINUOUS
 62
     0
 10
343.66829970342508
 20
636.41836130591673
 30
0.0
 42
0.30883786
  0
VERTEX
  5
5DD7
  8
0
  6
CONTINUOUS
 62
     0
 10
353.07945970342519
 20
652.35911130591694
 30
0.0
 42
0.25905849
  0
VERTEX
  5
5DD8
  8
0
  6
CONTINUOUS
 62
     0
 10
318.62980970342522
 20
672.14716130591694
 30
0.0
  0
SEQEND
  5
5DD9
  8
0
 62
     0
  0
POLYLINE
  5
5DDA
  8
0
  6
CONTINUOUS
 62
     0
 66
     1
 10
0.0
 20
0.0
 30
0.0
  0
VERTEX
  5
5DDB
  8
0
  6
CONTINUOUS
 62
     0
 10
319.3430297034252
 20
662.1400513059167
 30
0.0
 42
-0.021277534
  0
VERTEX
  5
5DDC
  8
0
  6
CONTINUOUS
 62
     0
 10
330.173169703425
 20
660.08353130591695
 30
0.0
 42
-0.020622971
  0
VERTEX
  5
5DDD
  8
0
  6
CONTINUOUS
 62
     0
 10
340.29792970342521
 20
657.26649130591693
 30
0.0
 42
-0.022709
  0
VERTEX
  5
5DDE
  8
0
  6
CONTINUOUS
 62
     0
 10
351.10484970342492
 20
653.22093130591702
 30
0.0
  0
SEQEND
  5
5DDF
  8
0
 62
     0
  0
ARC
  5
5EB4
  8
0
 62
     0
 10
272.57831403737492
 20
520.17226330591666
 30
0.0
 40
1.0
 50
180.0
 51
270.0
  0
ARC
  5
5EB5
  8
0
 62
     0
 10
272.57831403737492
 20
644.24987930591692
 30
0.0
 40
1.0
 50
90.0
 51
180.0
  0
LINE
  5
5EB6
  8
0
 62
     0
 10
191.1783160373748
 20
500.2110713059169
 30
0.0
 11
260.92141603737491
 21
500.2110713059169
 31
0.0
  0
LINE
  5
5EB7
  8
0
 62
     0
 10
269.97643403737487
 20
498.30609230591682
 30
0.0
 11
268.32843903737489
 21
501.84005630591679
 31
0.0
  0
LINE
  5
5EB8
  8
0
 62
     0
 10
268.32843903737489
 20
501.84005630591679
 30
0.0
 11
179.5103200373749
 21
460.42404730591687
 31
0.0
  0
LINE
  5
5EB9
  8
0
 62
     0
 10
181.15851303737489
 20
456.889076305917
 30
0.0
 11
179.5103200373749
 21
460.42404730591687
 31
0.0
  0
LINE
  5
5EBA
  8
0
 62
     0
 10
188.7115180373749
 20
457.25508030591692
 30
0.0
 11
188.39011603737481
 21
457.94407230591679
 31
0.0
  0
LINE
  5
5EBB
  8
0
 62
     0
 10
265.0034160373749
 20
473.12507330591689
 30
0.0
 11
265.0034160373749
 21
493.499081305917
 31
0.0
  0
LINE
  5
5EBC
  8
0
 62
     0
 10
182.6259080373749
 20
456.3600733059169
 30
0.0
 11
269.45141303737489
 21
496.84707630591691
 31
0.0
  0
LINE
  5
5EBD
  8
0
 62
     0
 10
187.57831803737491
 20
464.1860773059168
 30
0.0
 11
187.57831803737491
 21
496.6110803059168
 31
0.0
  0
LINE
  5
5EBE
  8
0
  6
AM_ISO08W050
 62
     0
 10
182.40211703737489
 20
480.21107130591679
 30
0.0
 11
190.9924180373749
 21
480.21107130591679
 31
0.0
  0
LINE
  5
5EBF
  8
0
 62
     0
 10
185.5783180373748
 20
491.81107730591691
 30
0.0
 11
185.5783180373748
 21
468.61108030591691
 31
0.0
  0
LINE
  5
5EC0
  8
0
 62
     0
 10
185.5783180373748
 20
491.81107730591691
 30
0.0
 11
186.57831803737491
 21
491.81107730591691
 31
0.0
  0
LINE
  5
5EC1
  8
0
 62
     0
 10
185.5783180373748
 20
468.61108030591691
 30
0.0
 11
186.57831803737491
 21
468.61108030591691
 31
0.0
  0
ARC
  5
5EC2
  8
0
 62
     0
 10
191.1783160373748
 20
496.6110803059168
 30
0.0
 40
3.5999979999999989
 50
90.000061000000898
 51
179.99998200000081
  0
ARC
  5
5EC3
  8
0
 62
     0
 10
268.97941403737491
 20
497.84107630591677
 30
0.0
 40
1.100006
 50
294.99982599999879
 51
24.999513999998751
  0
ARC
  5
5EC4
  8
0
 62
     0
 10
182.155417037375
 20
457.35407730591692
 30
0.0
 40
1.0999959999999971
 50
204.99980300000141
 51
295.0001949999986
  0
ARC
  5
5EC5
  8
0
 62
     0
 10
257.40341803737488
 20
473.12507330591689
 30
0.0
 40
7.5999979999999958
 50
288.9000159999996
 51
0.0000179999992061
  0
ARC
  5
5EC6
  8
0
 62
     0
 10
191.97421903737481
 20
458.77607430591689
 30
0.0
 40
3.5999979999999989
 50
204.9991569999998
 51
269.09402099999909
  0
ARC
  5
5EC7
  8
0
 62
     0
 10
195.080717037375
 20
655.15206530591718
 30
0.0
 40
200.0
 50
269.09405199999981
 51
288.90000299999889
  0
ARC
  5
5EC8
  8
0
 62
     0
 10
187.48381603737479
 20
457.52207630591693
 30
0.0
 40
0.9999979999999998
 50
24.999268000004911
 51
114.9993579999974
  0
ARC
  5
5EC9
  8
0
 62
     0
 10
267.0034160373749
 20
493.499081305917
 30
0.0
 40
2.0
 50
115.0001499999975
 51
179.99998200000081
  0
ARC
  5
5ECA
  8
0
 62
     0
 10
260.92141603737491
 20
497.61108030591691
 30
0.0
 40
2.600006
 50
40.686130000000617
 51
90.0
  0
ARC
  5
5ECB
  8
0
 62
     0
 10
186.57831803737491
 20
492.8110773059168
 30
0.0
 40
1.0
 50
269.99894299999841
 51
0.0000179999992061
  0
ARC
  5
5ECC
  8
0
 62
     0
 10
186.57831803737491
 20
467.6110803059168
 30
0.0
 40
1.0
 50
0.0000179999992061
 51
90.0
  0
LINE
  5
5ECD
  8
0
  6
AM_ISO08W050
 62
     0
 10
225.07831403737489
 20
510.2957873059168
 30
0.0
 11
225.07831403737489
 21
496.3089653059169
 31
0.0
  0
LINE
  5
5ECE
  8
0
 62
     0
 10
281.57831403737492
 20
508.7110713059169
 30
0.0
 11
281.57831403737492
 21
655.711076305917
 31
0.0
  0
ARC
  5
5ECF
  8
0
 62
     0
 10
119.5971890373749
 20
503.73614130591659
 30
0.0
 40
2.0
 50
60.311696999998048
 51
90.0
  0
LINE
  5
5ED0
  8
0
 62
     0
 10
112.07831403737489
 20
505.73614130591682
 30
0.0
 11
119.5971890373749
 21
505.73614130591682
 31
0.0
  0
ARC
  5
5ED1
  8
0
 62
     0
 10
117.6529410373749
 20
506.44201330591687
 30
0.0
 40
2.0
 50
11.08497000000493
 51
90.0
  0
LINE
  5
5ED2
  8
0
 62
     0
 10
112.07831403737489
 20
508.44201330591659
 30
0.0
 11
117.6529410373749
 21
508.44201330591659
 31
0.0
  0
ARC
  5
5ED3
  8
0
 62
     0
 10
121.57831403737489
 20
507.2110713059169
 30
0.0
 40
2.0
 50
180.0
 51
270.0
  0
ARC
  5
5ED4
  8
0
 62
     0
 10
121.57831403737489
 20
515.71107530591689
 30
0.0
 40
2.0
 50
180.0
 51
270.0
  0
LINE
  5
5ED5
  8
0
 62
     0
 10
119.57831403737489
 20
529.41155830591686
 30
0.0
 11
119.57831403737489
 21
507.2110713059169
 31
0.0
  0
LINE
  5
5ED6
  8
0
 62
     0
 10
112.07831403737489
 20
528.02377430591685
 30
0.0
 11
119.57831403737489
 21
528.02377430591685
 31
0.0
  0
LINE
  5
5ED7
  8
0
 62
     0
 10
112.07831403737489
 20
516.44707930591687
 30
0.0
 11
119.57831403737489
 21
516.44707930591687
 31
0.0
  0
LINE
  5
5ED8
  8
0
 62
     0
 10
112.07831403737489
 20
510.38691630591711
 30
0.0
 11
119.57831403737489
 21
510.38691630591711
 31
0.0
  0
ARC
  5
5ED9
  8
0
 62
     0
 10
269.57831203737487
 20
515.71106730591691
 30
0.0
 40
2.0
 50
269.99999800000052
 51
359.99999799999722
  0
LINE
  5
5EDA
  8
0
 62
     0
 10
121.57831403737489
 20
531.41155830591686
 30
0.0
 11
269.57831103737487
 21
531.41155830591686
 31
0.0
  0
LINE
  5
5EDB
  8
0
 62
     0
 10
121.57831403737489
 20
513.71107530591678
 30
0.0
 11
269.58401503737491
 21
513.71107530591678
 31
0.0
  0
LINE
  5
5EDC
  8
0
 62
     0
 10
271.57831403737492
 20
508.7110713059169
 30
0.0
 11
281.57831103737487
 21
508.7110713059169
 31
0.0
  0
LINE
  5
5EDD
  8
0
 62
     0
 10
272.57831403737492
 20
519.17226330591689
 30
0.0
 11
281.57831203737487
 21
519.17226330591689
 31
0.0
  0
INSERT
  5
5EDE
  8
0
 62
     0
  2
$6-44
 10
271.57831203737487
 20
525.60209530591692
 30
0.0
 42
-1.0
 50
270.0
  0
LINE
  5
5EDF
  8
0
 62
     0
 10
119.57831403737489
 20
657.16385930591673
 30
0.0
 11
119.57831403737489
 21
654.12505530591693
 31
0.0
  0
ARC
  5
5EE0
  8
0
 62
     0
 10
121.57831403737489
 20
648.71107530591701
 30
0.0
 40
2.0
 50
90.0
 51
180.0
  0
LINE
  5
5EE1
  8
0
 62
     0
 10
112.07831403737489
 20
636.48567230591675
 30
0.0
 11
119.57831403737489
 21
636.48567230591675
 31
0.0
  0
LINE
  5
5EE2
  8
0
 62
     0
 10
112.07831403737489
 20
648.05169130591685
 30
0.0
 11
119.57831403737489
 21
648.05169130591685
 31
0.0
  0
LINE
  5
5EE3
  8
0
 62
     0
 10
112.07831403737489
 20
654.12505530591693
 30
0.0
 11
119.57831403737489
 21
654.12505530591693
 31
0.0
  0
LINE
  5
5EE4
  8
0
 62
     0
 10
119.57831403737489
 20
658.68931730591703
 30
0.0
 11
119.57831403737489
 21
658.08604130591698
 31
0.0
  0
ARC
  5
5EE5
  8
0
 62
     0
 10
121.57831403737489
 20
657.16385930591673
 30
0.0
 40
2.0
 50
90.0
 51
180.0
  0
LINE
  5
5EE6
  8
0
 62
     0
 10
112.07831403737489
 20
660.10421630591702
 30
0.0
 11
118.0589850373749
 21
660.10421630591702
 31
0.0
  0
LINE
  5
5EE7
  8
0
 62
     0
 10
112.07831403737489
 20
658.78970430591698
 30
0.0
 11
117.729625037375
 21
658.78970430591698
 31
0.0
  0
ARC
  5
5EE8
  8
0
 62
     0
 10
117.729625037375
 20
660.78970430591687
 30
0.0
 40
2.0
 50
270.0
 51
344.1903739999986
  0
ARC
  5
5EE9
  8
0
 62
     0
 10
121.57831403737489
 20
659.69993730591693
 30
0.0
 40
2.0
 50
90.0
 51
164.1903739999986
  0
ARC
  5
5EEA
  8
0
 62
     0
 10
118.0589850373749
 20
662.10421630591702
 30
0.0
 40
2.0
 50
270.0
 51
331.6221430000025
  0
ARC
  5
5EEB
  8
0
 62
     0
 10
121.57831403737489
 20
660.2030793059173
 30
0.0
 40
2.0
 50
90.0
 51
151.62214399999931
  0
ARC
  5
5EEC
  8
0
 62
     0
 10
269.57831403737492
 20
648.71107530591701
 30
0.0
 40
2.0
 50
0.0
 51
90.0
  0
ARC
  5
5EED
  8
0
 62
     0
 10
268.45082203737502
 20
657.16385930591673
 30
0.0
 40
2.0
 50
15.000000000001579
 51
90.0
  0
LINE
  5
5EEE
  8
0
 62
     0
 10
273.57831403737492
 20
645.755205305917
 30
0.0
 11
270.3826740373749
 21
657.68149730591676
 31
0.0
  0
ARC
  5
5EEF
  8
0
 62
     0
 10
269.41533803737502
 20
658.68931730591703
 30
0.0
 40
2.0
 50
15.000000000001579
 51
90.0
  0
LINE
  5
5EF0
  8
0
 62
     0
 10
273.57831403737492
 20
650.88028830591691
 30
0.0
 11
271.3471900373749
 21
659.20695630591695
 31
0.0
  0
ARC
  5
5EF1
  8
0
 62
     0
 10
269.96303203737489
 20
659.69993730591693
 30
0.0
 40
2.0
 50
15.000000000001579
 51
90.0
  0
LINE
  5
5EF2
  8
0
 62
     0
 10
273.57831403737492
 20
653.93492530591675
 30
0.0
 11
271.89488303737488
 21
660.21757530591674
 31
0.0
  0
ARC
  5
5EF3
  8
0
 62
     0
 10
270.24406603737492
 20
660.2030793059173
 30
0.0
 40
2.0
 50
15.000000000001579
 51
90.0
  0
LINE
  5
5EF4
  8
0
 62
     0
 10
273.57831403737492
 20
655.48690330591694
 30
0.0
 11
272.1759180373748
 21
660.72071830591699
 31
0.0
  0
ARC
  5
5EF5
  8
0
 62
     0
 10
117.57831403737489
 20
658.08604130591698
 30
0.0
 40
2.0
 50
270.0
 51
0.0
  0
ARC
  5
5EF6
  8
0
 62
     0
 10
121.57831403737489
 20
658.68931730591703
 30
0.0
 40
2.0
 50
90.0
 51
180.0
  0
LINE
  5
5EF7
  8
0
 62
     0
 10
112.07831403737489
 20
656.08604130591686
 30
0.0
 11
117.57831403737489
 21
656.08604130591686
 31
0.0
  0
LINE
  5
5EF8
  8
0
 62
     0
 10
119.57831403737489
 20
654.12505530591693
 30
0.0
 11
119.57831403737489
 21
635.08241130591693
 31
0.0
  0
INSERT
  5
5EF9
  8
0
 62
     0
  2
$6-44
 10
271.57831403737492
 20
638.82004830591677
 30
0.0
 50
90.0
  0
LINE
  5
5EFA
  8
0
 62
     0
 10
272.57831403737492
 20
645.24987930591692
 30
0.0
 11
281.57831403737492
 21
645.24987930591692
 31
0.0
  0
LINE
  5
5EFB
  8
0
 62
     0
 10
121.57831403737489
 20
633.08241130591693
 30
0.0
 11
269.57831403737492
 21
633.08241130591693
 31
0.0
  0
LINE
  5
5EFC
  8
0
 62
     0
 10
121.57831403737489
 20
662.20307930591673
 30
0.0
 11
270.24406603737492
 21
662.20307930591673
 31
0.0
  0
LINE
  5
5EFD
  8
0
 62
     0
 10
121.57831403737489
 20
650.71107530591701
 30
0.0
 11
269.57831403737492
 21
650.71107530591701
 31
0.0
  0
LINE
  5
5EFE
  8
0
 62
     0
 10
121.57831403737489
 20
659.16385930591673
 30
0.0
 11
268.45082203737502
 21
659.16385930591673
 31
0.0
  0
LINE
  5
5EFF
  8
0
 62
     0
 10
121.57831403737489
 20
660.68931730591703
 30
0.0
 11
269.41533803737502
 21
660.68931730591703
 31
0.0
  0
LINE
  5
5F00
  8
0
 62
     0
 10
121.57831403737489
 20
661.69993730591693
 30
0.0
 11
269.96303203737489
 21
661.69993730591693
 31
0.0
  0
LINE
  5
5F01
  8
0
 62
     0
 10
191.57831403737481
 20
503.2110713059169
 30
0.0
 11
191.57831403737481
 21
500.2110713059169
 31
0.0
  0
LINE
  5
5F02
  8
0
 62
     0
 10
258.57831403737492
 20
503.2110713059169
 30
0.0
 11
258.57831403737492
 21
500.2110713059169
 31
0.0
  0
LINE
  5
5F03
  8
0
 62
     0
 10
56.078314037374923
 20
521.41810130591693
 30
0.0
 11
56.078314037374923
 21
644.32603130591701
 31
0.0
  0
LINE
  5
5F04
  8
0
 62
     0
 10
52.078684037374899
 20
519.61109130591694
 30
0.0
 11
52.078684037374899
 21
644.81101130591674
 31
0.0
  0
LINE
  5
5F05
  8
0
 62
     0
 10
56.478274037374888
 20
649.47807130591696
 30
0.0
 11
57.60126403737496
 21
655.8490413059169
 31
0.0
  0
LINE
  5
5F06
  8
0
 62
     0
 10
62.963384037374972
 20
660.59300130591703
 30
0.0
 11
88.605354037374994
 21
661.93699130591699
 31
0.0
  0
LINE
  5
5F07
  8
0
 62
     0
 10
89.078314037374938
 20
503.15577130591691
 30
0.0
 11
89.078314037374938
 21
661.09764130591691
 31
0.0
  0
LINE
  5
5F08
  8
0
 62
     0
 10
59.94025403737492
 20
654.23802130591673
 30
0.0
 11
59.94025403737492
 21
510.69105130591691
 31
0.0
  0
LINE
  5
5F09
  8
0
 62
     0
 10
56.478274037374888
 20
514.94407130591708
 30
0.0
 11
57.60126403737496
 21
508.574011305917
 31
0.0
  0
LINE
  5
5F0A
  8
0
 62
     0
 10
62.963324037374889
 20
503.8300613059169
 30
0.0
 11
88.605354037374994
 21
502.48606130591691
 31
0.0
  0
LINE
  5
5F0B
  8
0
 62
     0
 10
90.171334037374919
 20
662.96104130591675
 30
0.0
 11
112.07831403737489
 21
662.96104130591675
 31
0.0
  0
LINE
  5
5F0C
  8
0
 62
     0
 10
90.171334037374919
 20
501.4610713059169
 30
0.0
 11
112.07831403737489
 21
501.4610713059169
 31
0.0
  0
LINE
  5
5F0D
  8
0
 62
     0
 10
258.57831403737492
 20
505.21107130591679
 30
0.0
 11
258.57831403737492
 21
503.2110713059169
 31
0.0
  0
LINE
  5
5F0E
  8
0
 62
     0
 10
191.57831403737481
 20
505.21107130591679
 30
0.0
 11
191.57831403737481
 21
503.2110713059169
 31
0.0
  0
LINE
  5
5F0F
  8
0
 62
     0
 10
191.57831403737481
 20
503.2110713059169
 30
0.0
 11
258.57831403737492
 21
503.2110713059169
 31
0.0
  0
LINE
  5
5F10
  8
0
 62
     0
 10
121.57831403737489
 20
505.21107130591679
 30
0.0
 11
268.35883403737489
 21
505.21107130591679
 31
0.0
  0
LINE
  5
5F11
  8
0
 62
     0
 10
235.07831403737489
 20
608.21107130591702
 30
0.0
 11
112.07831403737489
 21
608.21107130591702
 31
0.0
  0
LINE
  5
5F12
  8
0
 62
     0
 10
235.07831403737489
 20
556.21107130591679
 30
0.0
 11
112.07831403737489
 21
556.21107130591679
 31
0.0
  0
LINE
  5
5F13
  8
0
 62
     0
 10
251.07831403737489
 20
609.21107130591702
 30
0.0
 11
251.07831403737489
 21
615.21107130591702
 31
0.0
  0
LINE
  5
5F14
  8
0
 62
     0
 10
236.07831403737489
 20
609.21107130591702
 30
0.0
 11
236.07831403737489
 21
615.21107130591702
 31
0.0
  0
LINE
  5
5F15
  8
0
 62
     0
 10
251.07831403737489
 20
555.21107130591679
 30
0.0
 11
251.07831403737489
 21
549.2110713059169
 31
0.0
  0
LINE
  5
5F16
  8
0
 62
     0
 10
236.07831403737489
 20
555.21107130591679
 30
0.0
 11
236.07831403737489
 21
549.2110713059169
 31
0.0
  0
LINE
  5
5F17
  8
0
 62
     0
 10
207.57831403737489
 20
602.71107130591702
 30
0.0
 11
207.57831403737489
 21
561.7110713059169
 31
0.0
  0
LINE
  5
5F18
  8
0
 62
     0
 10
270.57831403737492
 20
602.71107130591702
 30
0.0
 11
270.57831403737492
 21
561.7110713059169
 31
0.0
  0
LINE
  5
5F19
  8
0
 62
     0
 10
207.57831403737489
 20
602.71107130591702
 30
0.0
 11
270.57831403737492
 21
602.71107130591702
 31
0.0
  0
LINE
  5
5F1A
  8
0
 62
     0
 10
207.57831403737489
 20
561.7110713059169
 30
0.0
 11
270.57831403737492
 21
561.7110713059169
 31
0.0
  0
LINE
  5
5F1B
  8
0
 62
     0
 10
207.57831403737489
 20
595.21107130591702
 30
0.0
 11
270.57831403737492
 21
595.21107130591702
 31
0.0
  0
LINE
  5
5F1C
  8
0
 62
     0
 10
119.57831403737489
 20
585.21107130591702
 30
0.0
 11
119.57831403737489
 21
579.21107130591702
 31
0.0
  0
LINE
  5
5F1D
  8
0
 62
     0
 10
270.290414037375
 20
506.69236130591679
 30
0.0
 11
271.27832403737489
 21
510.371041305917
 31
0.0
  0
LINE
  5
5F1E
  8
0
 62
     0
 10
269.70233403737501
 20
506.69236130591679
 30
0.0
 11
271.27832403737489
 21
512.5610813059169
 31
0.0
  0
LINE
  5
5F1F
  8
0
 62
     0
 10
271.57831403737492
 20
545.25285130591692
 30
0.0
 11
271.57831403737492
 21
508.7110713059169
 31
0.0
  0
LINE
  5
5F20
  8
0
 62
     0
 10
270.57831403737492
 20
558.2110713059169
 30
0.0
 11
112.07831403737489
 21
558.2110713059169
 31
0.0
  0
LINE
  5
5F21
  8
0
 62
     0
 10
270.57831403737492
 20
556.21107130591679
 30
0.0
 11
252.07831403737489
 21
556.21107130591679
 31
0.0
  0
LINE
  5
5F22
  8
0
 62
     0
 10
203.57831403737481
 20
566.21107130591702
 30
0.0
 11
112.07831403737489
 21
566.21107130591702
 31
0.0
  0
LINE
  5
5F23
  8
0
 62
     0
 10
203.57831403737481
 20
568.21107130591702
 30
0.0
 11
112.07831403737489
 21
568.21107130591702
 31
0.0
  0
LINE
  5
5F24
  8
0
 62
     0
 10
203.57831403737481
 20
576.21107130591702
 30
0.0
 11
112.07831403737489
 21
576.21107130591702
 31
0.0
  0
LINE
  5
5F25
  8
0
 62
     0
 10
203.57831403737481
 20
578.21107130591702
 30
0.0
 11
120.57831403737489
 21
578.21107130591702
 31
0.0
  0
LINE
  5
5F26
  8
0
 62
     0
 10
270.57831403737492
 20
536.2110713059169
 30
0.0
 11
112.07831403737489
 21
536.2110713059169
 31
0.0
  0
LINE
  5
5F27
  8
0
 62
     0
 10
270.57831403737492
 20
548.2110713059169
 30
0.0
 11
112.07831403737489
 21
548.2110713059169
 31
0.0
  0
LINE
  5
5F28
  8
0
 62
     0
 10
270.57831403737492
 20
546.2110713059169
 30
0.0
 11
112.07831403737489
 21
546.2110713059169
 31
0.0
  0
LINE
  5
5F29
  8
0
 62
     0
 10
270.57831403737492
 20
538.21107130591679
 30
0.0
 11
112.07831403737489
 21
538.21107130591679
 31
0.0
  0
LINE
  5
5F2A
  8
0
 62
     0
 10
270.57831403737492
 20
626.21107130591702
 30
0.0
 11
112.07831403737489
 21
626.21107130591702
 31
0.0
  0
LINE
  5
5F2B
  8
0
 62
     0
 10
270.57831403737492
 20
618.21107130591702
 30
0.0
 11
112.07831403737489
 21
618.21107130591702
 31
0.0
  0
LINE
  5
5F2C
  8
0
 62
     0
 10
270.57831403737492
 20
616.21107130591702
 30
0.0
 11
112.07831403737489
 21
616.21107130591702
 31
0.0
  0
LINE
  5
5F2D
  8
0
 62
     0
 10
270.57831403737492
 20
628.21107130591702
 30
0.0
 11
112.07831403737489
 21
628.21107130591702
 31
0.0
  0
LINE
  5
5F2E
  8
0
 62
     0
 10
203.57831403737481
 20
586.21107130591702
 30
0.0
 11
120.57831403737489
 21
586.21107130591702
 31
0.0
  0
LINE
  5
5F2F
  8
0
 62
     0
 10
203.57831403737481
 20
588.21107130591679
 30
0.0
 11
112.07831403737489
 21
588.21107130591679
 31
0.0
  0
LINE
  5
5F30
  8
0
 62
     0
 10
203.57831403737481
 20
596.2110713059169
 30
0.0
 11
112.07831403737489
 21
596.2110713059169
 31
0.0
  0
LINE
  5
5F31
  8
0
 62
     0
 10
203.57831403737481
 20
598.21107130591702
 30
0.0
 11
112.07831403737489
 21
598.21107130591702
 31
0.0
  0
LINE
  5
5F32
  8
0
 62
     0
 10
270.57831403737492
 20
608.21107130591702
 30
0.0
 11
252.07831403737489
 21
608.21107130591702
 31
0.0
  0
LINE
  5
5F33
  8
0
 62
     0
 10
270.57831403737492
 20
606.21107130591702
 30
0.0
 11
112.07831403737489
 21
606.21107130591702
 31
0.0
  0
LINE
  5
5F34
  8
0
 62
     0
 10
271.57831403737492
 20
619.16929130591711
 30
0.0
 11
271.57831403737492
 21
648.71107530591701
 31
0.0
  0
LINE
  5
5F35
  8
0
 62
     0
 10
112.07831403737489
 20
662.96104130591675
 30
0.0
 11
112.07831403737489
 21
501.4610713059169
 31
0.0
  0
ARC
  5
5F36
  8
0
 62
     0
 10
88.578314037374895
 20
662.43601130591685
 30
0.0
 40
0.5
 50
272.99997000000081
 51
335.54394999999602
  0
ARC
  5
5F37
  8
0
 62
     0
 10
63.264224037374852
 20
654.85105130591694
 30
0.0
 40
5.75
 50
92.999985999999041
 51
169.99998000000201
  0
ARC
  5
5F38
  8
0
 62
     0
 10
90.171334037374919
 20
661.71104130591698
 30
0.0
 40
1.25
 50
89.999989000000824
 51
155.54397999999961
  0
ARC
  5
5F39
  8
0
 62
     0
 10
54.328684037374899
 20
644.81101130591674
 30
0.0
 40
2.25
 50
98.816588000000024
 51
179.99997999999781
  0
ARC
  5
5F3A
  8
0
 62
     0
 10
53.523994037374848
 20
649.9991213059169
 30
0.0
 40
3.0
 50
278.81697000000048
 51
349.99994999999723
  0
ARC
  5
5F3B
  8
0
 62
     0
 10
54.328684037374899
 20
519.61109130591694
 30
0.0
 40
2.25
 50
179.99997999999781
 51
261.18293999999872
  0
ARC
  5
5F3C
  8
0
 62
     0
 10
53.523994037374848
 20
514.4231113059169
 30
0.0
 40
3.0
 50
9.9998319999961929
 51
81.183191000000207
  0
ARC
  5
5F3D
  8
0
 62
     0
 10
88.578314037374895
 20
501.98707130591691
 30
0.0
 40
0.5
 50
24.45639900000074
 51
86.999984999999697
  0
ARC
  5
5F3E
  8
0
 62
     0
 10
63.264224037374852
 20
509.57203130591671
 30
0.0
 40
5.75
 50
189.99998000000039
 51
266.9999499999995
  0
ARC
  5
5F3F
  8
0
 62
     0
 10
90.171334037374919
 20
502.7110713059169
 30
0.0
 40
1.25
 50
204.45597000000129
 51
269.99995999999919
  0
ARC
  5
5F40
  8
0
 62
     0
 10
268.35883403737489
 20
507.2110713059169
 30
0.0
 40
2.0
 50
269.999989999999
 51
344.96831000000168
  0
ARC
  5
5F41
  8
0
 62
     0
 10
267.77075403737501
 20
507.2110713059169
 30
0.0
 40
2.0
 50
269.999989999999
 51
344.96831000000168
  0
ARC
  5
5F42
  8
0
 62
     0
 10
252.07831403737489
 20
549.2110713059169
 30
0.0
 40
1.0
 50
179.999989999999
 51
270.0
  0
ARC
  5
5F43
  8
0
 62
     0
 10
235.07831403737489
 20
549.2110713059169
 30
0.0
 40
1.0
 50
269.999989999999
 51
0.0000010000014034
  0
ARC
  5
5F44
  8
0
 62
     0
 10
235.07831403737489
 20
615.21107130591702
 30
0.0
 40
1.0
 50
0.0
 51
90.000003000000945
  0
ARC
  5
5F45
  8
0
 62
     0
 10
252.07831403737489
 20
615.21107130591702
 30
0.0
 40
1.0
 50
90.000003000000945
 51
180.00001000000091
  0
ARC
  5
5F46
  8
0
 62
     0
 10
252.07831403737489
 20
555.21107130591679
 30
0.0
 40
1.0
 50
90.000003000000945
 51
180.00001000000091
  0
ARC
  5
5F47
  8
0
 62
     0
 10
235.07831403737489
 20
555.21107130591679
 30
0.0
 40
1.0
 50
0.0
 51
90.000003000000945
  0
ARC
  5
5F48
  8
0
 62
     0
 10
252.07831403737489
 20
609.21107130591702
 30
0.0
 40
1.0
 50
179.999989999999
 51
270.0
  0
ARC
  5
5F49
  8
0
 62
     0
 10
235.07831403737489
 20
609.21107130591702
 30
0.0
 40
1.0
 50
269.999989999999
 51
0.0000010000014034
  0
CIRCLE
  5
5F4A
  8
0
 62
     0
 10
246.07831403737489
 20
610.71107130591702
 30
0.0
 40
1.0
  0
CIRCLE
  5
5F4B
  8
0
 62
     0
 10
241.07831403737481
 20
610.71107130591702
 30
0.0
 40
1.149999999999999
  0
CIRCLE
  5
5F4C
  8
0
 62
     0
 10
241.07831403737481
 20
610.71107130591702
 30
0.0
 40
1.1000000000000001
  0
CIRCLE
  5
5F4D
  8
0
 62
     0
 10
241.07831403737481
 20
553.7110713059169
 30
0.0
 40
1.1000000000000001
  0
CIRCLE
  5
5F4E
  8
0
 62
     0
 10
241.07831403737481
 20
553.7110713059169
 30
0.0
 40
1.149999999999999
  0
CIRCLE
  5
5F4F
  8
0
 62
     0
 10
246.07831403737489
 20
553.7110713059169
 30
0.0
 40
1.0
  0
ARC
  5
5F50
  8
0
 62
     0
 10
203.57831403737481
 20
597.21107130591702
 30
0.0
 40
1.0
 50
269.999989999999
 51
90.000003000000945
  0
ARC
  5
5F51
  8
0
 62
     0
 10
203.57831403737481
 20
587.21107130591702
 30
0.0
 40
1.0
 50
269.999989999999
 51
90.000003000000945
  0
ARC
  5
5F52
  8
0
 62
     0
 10
203.57831403737481
 20
577.21107130591702
 30
0.0
 40
1.0
 50
269.999989999999
 51
90.000003000000945
  0
ARC
  5
5F53
  8
0
 62
     0
 10
203.57831403737481
 20
567.2110713059169
 30
0.0
 40
1.0
 50
269.999989999999
 51
90.000003000000945
  0
ARC
  5
5F54
  8
0
 62
     0
 10
268.62830403737502
 20
547.21107130591679
 30
0.0
 40
1.0
 50
269.999989999999
 51
90.000003000000945
  0
ARC
  5
5F55
  8
0
 62
     0
 10
270.57831403737492
 20
547.21107130591679
 30
0.0
 40
1.0
 50
269.999989999999
 51
90.000003000000945
  0
ARC
  5
5F56
  8
0
 62
     0
 10
268.62830403737502
 20
557.2110713059169
 30
0.0
 40
1.0
 50
269.999989999999
 51
90.000003000000945
  0
ARC
  5
5F57
  8
0
 62
     0
 10
270.57831403737492
 20
557.2110713059169
 30
0.0
 40
1.0
 50
269.999989999999
 51
90.000003000000945
  0
ARC
  5
5F58
  8
0
 62
     0
 10
268.62830403737502
 20
607.21107130591702
 30
0.0
 40
1.0
 50
269.999989999999
 51
90.000003000000945
  0
ARC
  5
5F59
  8
0
 62
     0
 10
270.57831403737492
 20
607.21107130591702
 30
0.0
 40
1.0
 50
269.999989999999
 51
90.000003000000945
  0
ARC
  5
5F5A
  8
0
 62
     0
 10
268.62830403737502
 20
617.2110713059169
 30
0.0
 40
1.0
 50
269.999989999999
 51
90.000003000000945
  0
ARC
  5
5F5B
  8
0
 62
     0
 10
270.57831403737492
 20
617.2110713059169
 30
0.0
 40
1.0
 50
269.999989999999
 51
90.000003000000945
  0
ARC
  5
5F5C
  8
0
 62
     0
 10
120.57831403737489
 20
585.21107130591702
 30
0.0
 40
1.0
 50
90.000003000000945
 51
180.00001000000091
  0
ARC
  5
5F5D
  8
0
 62
     0
 10
120.57831403737489
 20
579.21107130591702
 30
0.0
 40
1.0
 50
179.999989999999
 51
270.0
  0
ARC
  5
5F5E
  8
0
 62
     0
 10
120.5782840373749
 20
567.2110713059169
 30
0.0
 40
1.0
 50
90.000003000000945
 51
270.0
  0
ARC
  5
5F5F
  8
0
 62
     0
 10
120.5782840373749
 20
557.2110713059169
 30
0.0
 40
1.0
 50
90.000003000000945
 51
270.0
  0
ARC
  5
5F60
  8
0
 62
     0
 10
268.62830403737502
 20
537.2110713059169
 30
0.0
 40
1.0
 50
269.999989999999
 51
90.000003000000945
  0
ARC
  5
5F61
  8
0
 62
     0
 10
270.57831403737492
 20
537.2110713059169
 30
0.0
 40
1.0
 50
269.999989999999
 51
90.000003000000945
  0
ARC
  5
5F62
  8
0
 62
     0
 10
120.5782840373749
 20
537.2110713059169
 30
0.0
 40
1.0
 50
90.000003000000945
 51
270.0
  0
ARC
  5
5F63
  8
0
 62
     0
 10
120.5782840373749
 20
547.21107130591679
 30
0.0
 40
1.0
 50
90.000003000000945
 51
270.0
  0
ARC
  5
5F64
  8
0
 62
     0
 10
272.7243740373749
 20
509.99067130591669
 30
0.0
 40
1.4952499999999991
 50
140.03764999999649
 51
165.2626000000021
  0
ARC
  5
5F65
  8
0
 62
     0
 10
272.71930403737503
 20
512.16657130591693
 30
0.0
 40
1.494020999999998
 50
139.79257999999919
 51
164.69034000000019
  0
ARC
  5
5F66
  8
0
 62
     0
 10
272.72247403737492
 20
655.97813130591703
 30
0.0
 40
1.495147999999999
 50
195.00188999999639
 51
195.00621300000489
  0
ARC
  5
5F67
  8
0
 62
     0
 10
120.5782840373749
 20
617.2110713059169
 30
0.0
 40
1.0
 50
90.000003000000945
 51
270.0
  0
ARC
  5
5F68
  8
0
 62
     0
 10
120.5782840373749
 20
627.21107130591702
 30
0.0
 40
1.0
 50
90.000003000000945
 51
270.0
  0
ARC
  5
5F69
  8
0
 62
     0
 10
270.57831403737492
 20
627.21107130591702
 30
0.0
 40
1.0
 50
269.999989999999
 51
90.000003000000945
  0
ARC
  5
5F6A
  8
0
 62
     0
 10
268.62830403737502
 20
627.21107130591702
 30
0.0
 40
1.0
 50
269.999989999999
 51
90.000003000000945
  0
ARC
  5
5F6B
  8
0
 62
     0
 10
120.5782840373749
 20
607.21107130591702
 30
0.0
 40
1.0
 50
90.000003000000945
 51
270.0
  0
ARC
  5
5F6C
  8
0
 62
     0
 10
120.5782840373749
 20
597.21107130591702
 30
0.0
 40
1.0
 50
90.000003000000945
 51
270.0
  0
LINE
  5
5F6D
  8
0
 62
     0
 10
281.57832003737479
 20
655.711076305917
 30
0.0
 11
273.51824703737492
 21
655.711076305917
 31
0.0
  0
LINE
  5
5F6E
  8
0
 62
     0
 10
272.57831403737492
 20
545.25285130591692
 30
0.0
 11
281.57831403737492
 21
545.25285130591692
 31
0.0
  0
LINE
  5
5F6F
  8
0
 62
     0
 10
272.57831403737492
 20
619.16929130591711
 30
0.0
 11
281.57831403737492
 21
619.16929130591711
 31
0.0
  0
LINE
  5
5F70
  8
0
  6
AM_ISO08W050
 62
     0
 10
48.995926904796292
 20
582.2110713059169
 30
0.0
 11
442.87068294943521
 21
582.21107130591702
 31
0.0
  0
ARC
  5
6223
  8
0
  6
CONTINUOUS
 62
     0
 10
309.07945970342507
 20
658.43189200441611
 30
0.0
 40
2.0
 50
271.49998393705317
 51
0.0
1001
GENIUS_GENODEF_13
1002
{
1000
HIER
1070
     0
1002
}
1002
{
1000
MANEDIT
1070
     0
1002
}
1002
{
1000
NOSEL
1070
     0
1002
}
1002
{
1000
BEHIND
1070
     0
1002
}
1002
{
1000
OTHER
1070
     0
1002
}
1002
{
1000
REACTOR
1002
}
1001
GENIUS_GENOBJ-N-FIL_13
1002
{
1000
OWNER
1000
GEN
1002
}
  0
ARC
  5
6226
  8
0
  6
CONTINUOUS
 62
     0
 10
309.07945970342507
 20
505.99025060741718
 30
0.0
 40
2.0
 50
0.0
 51
88.500016062946642
1001
GENIUS_GENOBJ-N-FIL_13
1002
{
1000
OWNER
1000
GEN
1002
}
1001
GENIUS_GENODEF_13
1002
{
1000
HIER
1070
     0
1002
}
1002
{
1000
MANEDIT
1070
     0
1002
}
1002
{
1000
NOSEL
1070
     0
1002
}
1002
{
1000
BEHIND
1070
     0
1002
}
1002
{
1000
OTHER
1070
     0
1002
}
1002
{
1000
REACTOR
1002
}
  0
TEXT
  5
66F3
  8
0
  6
CONTINUOUS
 62
     0
 10
522.9137164226272
 20
565.73709699511016
 30
0.0
 40
10.0
  1
VX08-003EM~VX08-030EM
  0
ENDSEC
  0
EOF
