  0
SECTION
  2
HEADER
  9
$ACADVER
  1
AC1009
  9
$INSBASE
 10
0.0
 20
0.0
 30
0.0
  9
$EXTMIN
 10
127.4463532776642
 20
298.61363221159093
 30
0.0
  9
$EXTMAX
 10
911.3398490635567
 20
809.78717751480303
 30
0.0
  9
$LIMMIN
 10
507.9222345301996
 20
52.70125734438988
  9
$LIMMAX
 10
915.9222345301996
 20
336.70125734438989
  9
$ORTHOMODE
 70
     1
  9
$REGENMODE
 70
     1
  9
$FILLMODE
 70
     1
  9
$QTEXTMODE
 70
     0
  9
$MIRRTEXT
 70
     0
  9
$DRAGMODE
 70
     2
  9
$LTSCALE
 40
1.0
  9
$OSMODE
 70
   551
  9
$ATTMODE
 70
     1
  9
$TEXTSIZE
 40
2.5
  9
$TRACEWID
 40
1.0
  9
$TEXTSTYLE
  7
STANDARD
  9
$CLAYER
  8
0
  9
$CELTYPE
  6
BYLAYER
  9
$CECOLOR
 62
   256
  9
$DIMSCALE
 40
1.0
  9
$DIMASZ
 40
2.0
  9
$DIMEXO
 40
1.0
  9
$DIMDLI
 40
8.0
  9
$DIMRND
 40
0.0
  9
$DIMDLE
 40
0.0
  9
$DIMEXE
 40
1.0
  9
$DIMTP
 40
0.1
  9
$DIMTM
 40
0.1
  9
$DIMTXT
 40
2.5
  9
$DIMCEN
 40
0.0
  9
$DIMTSZ
 40
0.0
  9
$DIMTOL
 70
     0
  9
$DIMLIM
 70
     0
  9
$DIMTIH
 70
     0
  9
$DIMTOH
 70
     0
  9
$DIMSE1
 70
     0
  9
$DIMSE2
 70
     0
  9
$DIMTAD
 70
     3
  9
$DIMZIN
 70
     8
  9
$DIMBLK
  1

  9
$DIMASO
 70
     1
  9
$DIMSHO
 70
     1
  9
$DIMPOST
  1

  9
$DIMAPOST
  1
"
  9
$DIMALT
 70
     0
  9
$DIMALTD
 70
     2
  9
$DIMALTF
 40
0.0393701
  9
$DIMLFAC
 40
1.0
  9
$DIMTOFL
 70
     1
  9
$DIMTVP
 40
0.0
  9
$DIMTIX
 70
     0
  9
$DIMSOXD
 70
     0
  9
$DIMSAH
 70
     0
  9
$DIMBLK1
  1

  9
$DIMBLK2
  1

  9
$DIMSTYLE
  2
AM_JIS
  9
$DIMCLRD
 70
     2
  9
$DIMCLRE
 70
     2
  9
$DIMCLRT
 70
     4
  9
$DIMTFAC
 40
0.71
  9
$DIMGAP
 40
1.5
  9
$LUNITS
 70
     2
  9
$LUPREC
 70
     2
  9
$SKETCHINC
 40
1.0
  9
$FILLETRAD
 40
0.0
  9
$AUNITS
 70
     0
  9
$AUPREC
 70
     0
  9
$MENU
  1
.
  9
$ELEVATION
 40
0.0
  9
$PELEVATION
 40
0.0
  9
$THICKNESS
 40
0.0
  9
$LIMCHECK
 70
     0
  9
$BLIPMODE
 70
     0
  9
$CHAMFERA
 40
0.0
  9
$CHAMFERB
 40
0.0
  9
$SKPOLY
 70
     0
  9
$TDCREATE
 40
2456905.4274614118
  9
$TDUPDATE
 40
2458540.6818116209
  9
$TDINDWG
 40
0.0510243634
  9
$TDUSRTIMER
 40
0.0510243056
  9
$USRTIMER
 70
     1
  9
$ANGBASE
 50
0.0
  9
$ANGDIR
 70
     0
  9
$PDMODE
 70
     0
  9
$PDSIZE
 40
0.0
  9
$PLINEWID
 40
0.0
  9
$COORDS
 70
     1
  9
$SPLFRAME
 70
     0
  9
$SPLINETYPE
 70
     6
  9
$SPLINESEGS
 70
     8
  9
$ATTDIA
 70
     1
  9
$ATTREQ
 70
     1
  9
$HANDLING
 70
     1
  9
$HANDSEED
  5
16DA
  9
$SURFTAB1
 70
     6
  9
$SURFTAB2
 70
     6
  9
$SURFTYPE
 70
     6
  9
$SURFU
 70
     6
  9
$SURFV
 70
     6
  9
$UCSNAME
  2

  9
$UCSORG
 10
0.0
 20
0.0
 30
0.0
  9
$UCSXDIR
 10
1.0
 20
0.0
 30
0.0
  9
$UCSYDIR
 10
0.0
 20
1.0
 30
0.0
  9
$PUCSNAME
  2

  9
$PUCSORG
 10
0.0
 20
0.0
 30
0.0
  9
$PUCSXDIR
 10
1.0
 20
0.0
 30
0.0
  9
$PUCSYDIR
 10
0.0
 20
1.0
 30
0.0
  9
$USERI1
 70
     0
  9
$USERI2
 70
     0
  9
$USERI3
 70
     0
  9
$USERI4
 70
     0
  9
$USERI5
 70
     0
  9
$USERR1
 40
0.0
  9
$USERR2
 40
0.0
  9
$USERR3
 40
0.0
  9
$USERR4
 40
0.0
  9
$USERR5
 40
0.0
  9
$WORLDVIEW
 70
     1
  9
$SHADEDGE
 70
     3
  9
$SHADEDIF
 70
    70
  9
$TILEMODE
 70
     1
  9
$MAXACTVP
 70
    64
  9
$PLIMCHECK
 70
     0
  9
$PEXTMIN
 10
1.0000000000000000E+020
 20
1.0000000000000000E+020
 30
1.0000000000000000E+020
  9
$PEXTMAX
 10
-1.0000000000000000E+020
 20
-1.0000000000000000E+020
 30
-1.0000000000000000E+020
  9
$PLIMMIN
 10
0.0
 20
0.0
  9
$PLIMMAX
 10
420.0
 20
297.0
  9
$UNITMODE
 70
     0
  9
$VISRETAIN
 70
     1
  9
$PLINEGEN
 70
     0
  9
$PSLTSCALE
 70
     1
  0
ENDSEC
  0
SECTION
  2
TABLES
  0
TABLE
  2
VPORT
 70
     1
  0
VPORT
  2
*ACTIVE
 70
     0
 10
0.0
 20
0.0
 11
1.0
 21
1.0
 12
516.53815955567745
 22
554.1973556313402
 13
0.0
 23
0.0
 14
2.5
 24
2.5
 15
10.0
 25
10.0
 16
0.0
 26
0.0
 36
1.0
 17
0.0
 27
0.0
 37
0.0
 40
514.75867086657843
 41
1.7571592210767459
 42
50.0
 43
0.0
 44
0.0
 50
0.0
 51
0.0
 71
     0
 72
  1000
 73
     1
 74
     3
 75
     0
 76
     0
 77
     0
 78
     0
  0
ENDTAB
  0
TABLE
  2
LTYPE
 70
    24
  0
LTYPE
  2
CONTINUOUS
 70
     0
  3
Solid line
 72
    65
 73
     0
 40
0.0
  0
LTYPE
  2
AM_ISO02W050
 70
     0
  3
__ __ __ __ __ __ __ __ __ __ __ __ __ __ __
 72
    65
 73
     2
 40
7.5
 49
6.0
 49
-1.5
  0
LTYPE
  2
AM_ISO08W050
 70
     0
  3
____ . ____ . ____ . ____ . ____ . ____ . ____
 72
    65
 73
     4
 40
18.0
 49
12.0
 49
-1.5
 49
3.0
 49
-1.5
  0
LTYPE
  2
AM_ISO09W050
 70
     0
  3
_____ . . _____ . . _____ . . ____ .. ____
 72
    65
 73
     6
 40
22.5
 49
12.0
 49
-1.5
 49
3.0
 49
-1.5
 49
3.0
 49
-1.5
  0
LTYPE
  2
AMCONSTR
 70
     0
  3
_______________________
 72
    65
 73
     2
 40
9999.0
 49
9999.0
 49
0.0
  0
LTYPE
  2
AM_ISO08W050X2
 70
     0
  3
__ . __ . __ . __ . __ . __
 72
    65
 73
     4
 40
9.0
 49
6.0
 49
-0.75
 49
1.5
 49
-0.75
  0
LTYPE
  2
AM_ISO02W050X2
 70
     0
  3
 _ _ _ _ _ _ _ _ _ _ _ _
 72
    65
 73
     2
 40
3.75
 49
3.0
 49
-0.75
  0
LTYPE
  2
AMZIGZAG
 70
     0
  3
/\/-/\/-/\/-/\/-/\/-/\/
 72
    65
 73
     2
 40
11.0001
 49
0.0001
 49
-11.0
  0
LTYPE
  2
HIDDEN
 70
     0
  3
Hidden __ __ __ __ __ __ __ __ __ __ __ __ __ _
 72
    65
 73
     2
 40
9.5249999999999968
 49
6.349999999999997
 49
-3.174999999999998
  0
LTYPE
  2
PHANTOM2
 70
     0
  3
Phantom (.5x) ___ _ _ ___ _ _ ___ _ _ ___ _ _
 72
    65
 73
     6
 40
31.75
 49
15.875
 49
-3.174999999999998
 49
3.174999999999998
 49
-3.174999999999998
 49
3.174999999999998
 49
-3.174999999999998
  0
LTYPE
  2
CENTER
 70
     0
  3
Center ____ _ ____ _ ____ _ ____ _ ____ _ ____
 72
    65
 73
     4
 40
50.799999999999997
 49
31.75
 49
-6.349999999999997
 49
6.349999999999997
 49
-6.349999999999997
  0
LTYPE
  2
ACANSTGBM
 70
     0
  3
__ . . __ . .
 72
    65
 73
     6
 40
9.0
 49
4.0
 49
-1.0
 49
1.0
 49
-1.0
 49
1.0
 49
-1.0
  0
LTYPE
  2
ACANSTGLM
 70
     0
  3
_ _ _ _ _
 72
    65
 73
     2
 40
3.0
 49
2.0
 49
-1.0
  0
LTYPE
  2
ACISOWELD
 70
     0
  3
_ _ _ _ _
 72
    65
 73
     2
 40
2.0
 49
2.0
 49
-1.0
  0
LTYPE
  2
ACISOTGB
 70
     0
  3
__ . . __ . .
 72
    65
 73
     6
 40
9.0
 49
4.0
 49
-1.0
 49
1.0
 49
-1.0
 49
1.0
 49
-1.0
  0
LTYPE
  2
ACISOTGL
 70
     0
  3
_ _ _ _ _
 72
    65
 73
     2
 40
3.0
 49
2.0
 49
-1.0
  0
LTYPE
  2
ACJISTGB
 70
     0
  3
__ . . __ . .
 72
    65
 73
     6
 40
9.0
 49
4.0
 49
-1.0
 49
1.0
 49
-1.0
 49
1.0
 49
-1.0
  0
LTYPE
  2
ACJISTGL
 70
     0
  3
_ _ _ _ _
 72
    65
 73
     2
 40
3.0
 49
2.0
 49
-1.0
  0
LTYPE
  2
CENTER2
 70
     0
  3
Center (.5x) ___ _ ___ _ ___ _ ___ _ ___ _ ___
 72
    65
 73
     4
 40
1.125
 49
0.75
 49
-0.125
 49
0.125
 49
-0.125
  0
LTYPE
  2
HIDDEN2
 70
     0
  3
Hidden (.5x) _ _ _ _ _ _ _ _ _ _ _ _ _ _ _ _ _
 72
    65
 73
     2
 40
0.1875
 49
0.125
 49
-0.0625
  0
LTYPE
  2
AMZIGZAG2
 70
     0
  3
/\/-/\/-/\/-/\/-/\/-/\/
 72
    65
 73
     2
 40
0.4401
 49
0.0001
 49
-0.4400000000000001
  0
LTYPE
  2
ACANSTGB
 70
     0
  3
__ . . __ . .
 72
    65
 73
     6
 40
0.35433070866
 49
0.15748031496
 49
-0.03937007874
 49
0.03937007874
 49
-0.03937007874
 49
0.03937007874
 49
-0.03937007874
  0
LTYPE
  2
ACANSTGL
 70
     0
  3
_ _ _ _ _
 72
    65
 73
     2
 40
0.11811023622
 49
0.07874015748
 49
-0.03937007874
  0
ENDTAB
  0
TABLE
  2
LAYER
 70
     4
  0
LAYER
  2
0
 70
     0
 62
     7
  6
CONTINUOUS
  0
LAYER
  2
DEFPOINTS
 70
     0
 62
     7
  6
CONTINUOUS
  0
LAYER
  2
AM_5
 70
     0
 62
     2
  6
CONTINUOUS
  0
LAYER
  2
AM_CL
 70
     0
 62
     1
  6
AMCONSTR
  0
ENDTAB
  0
TABLE
  2
STYLE
 70
    10
  0
STYLE
  2
STANDARD
 70
     0
 40
0.0
 41
0.71
 50
0.0
 71
     0
 42
2.5
  3
txt.shx
  4
bigfont.shx
  0
STYLE
  2
ANNOTATIVE
 70
     0
 40
0.0
 41
1.0
 50
0.0
 71
     0
 42
0.2
  3
txt
  4

  0
STYLE
  2

 70
     1
 40
0.0
 41
1.0
 50
0.0
 71
     0
 42
2.5
  3
ltypeshp.shx
  4

  0
STYLE
  2
ACANSTS
 70
     0
 40
1.0
 41
1.0
 50
0.0
 71
     0
 42
2.5
  3
romans.shx
  4
bigfont.shx
  0
STYLE
  2
ACANSGDT
 70
     0
 40
0.0
 41
1.0
 50
0.0
 71
     0
 42
2.5
  3
amgdt.shx
  4

  0
STYLE
  2
ACISOTS
 70
     0
 40
1.0
 41
1.0
 50
0.0
 71
     0
 42
2.5
  3
isocp.shx
  4
extfont.shx
  0
STYLE
  2
ACISOGDT
 70
     0
 40
0.0
 41
1.0
 50
0.0
 71
     0
 42
2.5
  3
amgdt.shx
  4

  0
STYLE
  2
ACJISTS
 70
     0
 40
1.0
 41
1.0
 50
0.0
 71
     0
 42
2.5
  3
isocp.shx
  4
extfont.shx
  0
STYLE
  2
ACJISGDT
 70
     0
 40
0.0
 41
1.0
 50
0.0
 71
     0
 42
2.5
  3
amgdt.shx
  4

  0
STYLE
  2

 70
     1
 40
0.0
 41
1.0
 50
0.0
 71
     0
 42
2.5
  3
genltshp.shx
  4

  0
ENDTAB
  0
TABLE
  2
VIEW
 70
     6
  0
VIEW
  2
AM_VIEW1
 70
     0
 40
142.0
 10
643.64884575681072
 20
265.70125734438989
 41
271.45322245322239
 11
0.0
 21
0.0
 31
1.0
 12
0.0
 22
0.0
 32
0.0
 42
50.0
 43
0.0
 44
0.0
 50
0.0
 71
     0
  0
VIEW
  2
AM_VIEW2
 70
     0
 40
142.0
 10
780.19562330358815
 20
265.70125734438989
 41
271.45322245322239
 11
0.0
 21
0.0
 31
1.0
 12
0.0
 22
0.0
 32
0.0
 42
50.0
 43
0.0
 44
0.0
 50
0.0
 71
     0
  0
VIEW
  2
AM_VIEW3
 70
     0
 40
142.0
 10
643.64884575681072
 20
123.7012573443899
 41
271.45322245322239
 11
0.0
 21
0.0
 31
1.0
 12
0.0
 22
0.0
 32
0.0
 42
50.0
 43
0.0
 44
0.0
 50
0.0
 71
     0
  0
VIEW
  2
AM_VIEW4
 70
     0
 40
142.0
 10
780.19562330358815
 20
123.7012573443899
 41
271.45322245322239
 11
0.0
 21
0.0
 31
1.0
 12
0.0
 22
0.0
 32
0.0
 42
50.0
 43
0.0
 44
0.0
 50
0.0
 71
     0
  0
VIEW
  2
AM_VIEW5
 70
     0
 40
142.0
 10
711.9222345301996
 20
194.70125734438989
 41
271.45322245322239
 11
0.0
 21
0.0
 31
1.0
 12
0.0
 22
0.0
 32
0.0
 42
50.0
 43
0.0
 44
0.0
 50
0.0
 71
     0
  0
VIEW
  2
AM_VIEW6
 70
     0
 40
283.99716000000001
 10
711.9222345301996
 20
194.70125734438989
 41
542.90101584199601
 11
0.0
 21
0.0
 31
1.0
 12
0.0
 22
0.0
 32
0.0
 42
50.0
 43
0.0
 44
0.0
 50
0.0
 71
     0
  0
ENDTAB
  0
TABLE
  2
UCS
 70
     0
  0
ENDTAB
  0
TABLE
  2
APPID
 70
   158
  0
APPID
  2
ACAD
 70
     0
  0
APPID
  2
ACADANNOTATIVE
 70
     0
  0
APPID
  2
MCAD_NO_VIS
 70
     0
  0
APPID
  2
ACAD_TEMP_GRAPHIC
 70
     0
  0
APPID
  2
AD_DRAW
 70
     0
  0
APPID
  2
ACATTRIBSERVICES
 70
     0
  0
APPID
  2
ACAD_MLEADERVER
 70
     0
  0
APPID
  2
DESIGNERASSEMBLIES
 70
     0
  0
APPID
  2
ACADM_DIM_EDIT
 70
     0
  0
APPID
  2
AMDT_DM_ADJ
 70
     0
  0
APPID
  2
GENIUS_GENDIMSH_14
 70
     0
  0
APPID
  2
GEVID1057795304
 70
     0
  0
APPID
  2
GEVDC
 70
     0
  0
APPID
  2
GEVCON
 70
     0
  0
APPID
  2
GENIUS_GENBH_13
 70
     0
  0
APPID
  2
GENIUS_GENOENT_13
 70
     0
  0
APPID
  2
GENIUS_GENOBJ-NBEHI-BHF_13
 70
     0
  0
APPID
  2
GENIUS_GENOLIS_13
 70
     0
  0
APPID
  2
GENIUS_GENODEF_13
 70
     0
  0
APPID
  2
GENIUS_GENOREF_13
 70
     0
  0
APPID
  2
GENIUS_GENOBJ-NBEHI-BHB_13
 70
     0
  0
APPID
  2
GENIUS_GENOBJ-F-SCPASSM_13
 70
     0
  0
APPID
  2
GENIUS_GENDTOL_13
 70
     0
  0
APPID
  2
GENIUS_GENTRA_14
 70
     0
  0
APPID
  2
ASURF_PCURVE_APPNAME
 70
     0
  0
APPID
  2
GENIUS_GENCFG_13
 70
     0
  0
APPID
  2
GENIUS_GE3CFG0_13
 70
     0
  0
APPID
  2
GENIUS_GENCFG0_13
 70
     0
  0
APPID
  2
GENIUS_GENCFG1_13
 70
     0
  0
APPID
  2
GENIUS_GENCFG2_13
 70
     0
  0
APPID
  2
GENIUS_GENCFG3_13
 70
     0
  0
APPID
  2
GENIUS_GENCFG4_13
 70
     0
  0
APPID
  2
GENIUS_GEVCFG0_13
 70
     0
  0
APPID
  2
GENIUS_GENOBJ-N-TIT_13
 70
     0
  0
APPID
  2
GENIUS_GENTITLE_13
 70
     0
  0
APPID
  2
GENIUS_GENSCREG_15
 70
     0
  0
APPID
  2
GENIUS_GENOBJ-N-SDF_13
 70
     0
  0
APPID
  2
GENIUS_GENFIL_13
 70
     0
  0
APPID
  2
GENIUS_GENOBJ-N-CHA_13
 70
     0
  0
APPID
  2
GENIUS_GEFSH_13
 70
     0
  0
APPID
  2
GENIUS_GENOBJ-F-SHS_13
 70
     0
  0
APPID
  2
GENIUS_GENOBJ-N-CEN_13
 70
     0
  0
APPID
  2
GENIUS_GENREC_14
 70
     0
  0
APPID
  2
GENIUS_GENOBJ-N-REC_13
 70
     0
  0
APPID
  2
GENIUS_GENOBJ-N-HTC_13
 70
     0
  0
APPID
  2
GENIUS_GENHATCH_13
 70
     0
  0
APPID
  2
ACADANNOPO
 70
     0
  0
APPID
  2
ACAD_NAV_VCDISPLAY
 70
     0
  0
APPID
  2
ACAECLAYERSTANDARD
 70
     0
  0
APPID
  2
ACAD_DSTYLE_DIMBREAK
 70
     0
  0
APPID
  2
ACAD_DSTYLE_DIMJAG
 70
     0
  0
APPID
  2
ACAD_DSTYLE_DIMINSPECT
 70
     0
  0
APPID
  2
GENIUS_GENCEN_19
 70
     0
  0
APPID
  2
ACAD_PSEXT
 70
     0
  0
APPID
  2
ACAD_EXEMPT_FROM_CAD_STANDARDS
 70
     0
  0
APPID
  2
GENIUS_DUMCFG0_13
 70
     0
  0
APPID
  2
GENIUS_GENOBJ-N-FIL_13
 70
     0
  0
APPID
  2
ACAD_DSTYLE_DIMTEXT_FILL
 70
     0
  0
APPID
  2
AMG_2DHIDE
 70
     0
  0
APPID
  2
GENIUS_GEFSHEP_13
 70
     0
  0
APPID
  2
GENIUS_GENOBJ-F-SHE_13
 70
     0
  0
APPID
  2
GENIUS_GEFSHE_13
 70
     0
  0
APPID
  2
ACAD_DIMASSOC_DIMLFAC
 70
     0
  0
APPID
  2
ACAD_DIMASSOC_CALC_DIMLFAC
 70
     0
  0
APPID
  2
ACAD_DIMASSOC_OVERRIDDEN_D
 70
     0
  0
APPID
  2
GENIUS_GENOBJ-F-SHSV_13
 70
     0
  0
APPID
  2
GENIUS_GEFWELD_13
 70
     0
  0
APPID
  2
GENIUS_GENOBJ-N-CRS_13
 70
     0
  0
APPID
  2
GENIUS_GENOBJ-N-RSBK_13
 70
     0
  0
APPID
  2
GENIUS_GENOBJ-N-LIB_13
 70
     0
  0
APPID
  2
GENIUS_GENSCALE_13
 70
     0
  0
APPID
  2
GENIUS_GENHINW_13
 70
     0
  0
APPID
  2
GENIUS_FIRSTVISTXT_14
 70
     0
  0
APPID
  2
GENIUS_GENOBJ-N-LEADER_13
 70
     0
  0
APPID
  2
GENIUS_GENDREL_13
 70
     0
  0
APPID
  2
GEVPT
 70
     0
  0
APPID
  2
GEVIT
 70
     0
  0
APPID
  2
VCC
 70
     0
  0
APPID
  2
GENBH
 70
     0
  0
APPID
  2
GEVMK
 70
     0
  0
APPID
  2
GENIUS_GENOBJ-F-DESC_13
 70
     0
  0
APPID
  2
GENIUS_GEFDESC_14
 70
     0
  0
APPID
  2
GENIUS_GENOBJ-F-FEAT_13
 70
     0
  0
APPID
  2
GENIUS_GEFFEAT_14
 70
     0
  0
APPID
  2
GENIUS_GEFPARTINS_13
 70
     0
  0
APPID
  2
GENIUS_GENSCREG_13
 70
     0
  0
APPID
  2
GENIUS_GEFSHP_13
 70
     0
  0
APPID
  2
GEVID1025574798
 70
     0
  0
APPID
  2
GEVID1025574769
 70
     0
  0
APPID
  2
GEVID1025757451
 70
     0
  0
APPID
  2
GEVID1240528327
 70
     0
  0
APPID
  2
AMG_2DSTRUCT_BTR
 70
     0
  0
APPID
  2
ACADM_2DVIEW_IGN_NOTIFY
 70
     0
  0
APPID
  2
GEVID1240528328
 70
     0
  0
APPID
  2
GEVID1240528329
 70
     0
  0
APPID
  2
GEVRADREF
 70
     0
  0
APPID
  2
GEVID1240528330
 70
     0
  0
APPID
  2
GEVID1240528331
 70
     0
  0
APPID
  2
GEVID1240528332
 70
     0
  0
APPID
  2
GEVID1240791080
 70
     0
  0
APPID
  2
GEVID1240791081
 70
     0
  0
APPID
  2
GEVID1240791082
 70
     0
  0
APPID
  2
GEVID1240791083
 70
     0
  0
APPID
  2
GEVID1240791084
 70
     0
  0
APPID
  2
GEVID1240791085
 70
     0
  0
APPID
  2
GEVID1240791086
 70
     0
  0
APPID
  2
GEVID1240791087
 70
     0
  0
APPID
  2
GEVID1240791088
 70
     0
  0
APPID
  2
GEVID1240791089
 70
     0
  0
APPID
  2
GEVID1240791090
 70
     0
  0
APPID
  2
GEVID1240791091
 70
     0
  0
APPID
  2
GEVID1240791092
 70
     0
  0
APPID
  2
GEVID1240791093
 70
     0
  0
APPID
  2
GEVID1240791094
 70
     0
  0
APPID
  2
GEVID1240791095
 70
     0
  0
APPID
  2
GEVID1240791096
 70
     0
  0
APPID
  2
GEVID1240791097
 70
     0
  0
APPID
  2
GEVID1240791098
 70
     0
  0
APPID
  2
GEVID1240791099
 70
     0
  0
APPID
  2
GEVID1240791100
 70
     0
  0
APPID
  2
GEVID1240791101
 70
     0
  0
APPID
  2
GEVID1240791102
 70
     0
  0
APPID
  2
GEVID1240791103
 70
     0
  0
APPID
  2
GEVID1240791104
 70
     0
  0
APPID
  2
GEVID1240791105
 70
     0
  0
APPID
  2
GEVID1240875381
 70
     0
  0
APPID
  2
GEVID1240875382
 70
     0
  0
APPID
  2
GEVID1240875383
 70
     0
  0
APPID
  2
GEVID1240875384
 70
     0
  0
APPID
  2
GEVID1240875385
 70
     0
  0
APPID
  2
GEVID1240875386
 70
     0
  0
APPID
  2
GEVID1240875387
 70
     0
  0
APPID
  2
GEVID1240875388
 70
     0
  0
APPID
  2
GEVID1240875389
 70
     0
  0
APPID
  2
GEVID1240875390
 70
     0
  0
APPID
  2
GEVID1240875391
 70
     0
  0
APPID
  2
GEVID1240875392
 70
     0
  0
APPID
  2
GEVID1240875393
 70
     0
  0
APPID
  2
GEVID1240875394
 70
     0
  0
APPID
  2
GEVID1240875395
 70
     0
  0
APPID
  2
GEVID1240875396
 70
     0
  0
APPID
  2
GEVID1240875397
 70
     0
  0
APPID
  2
GEVID1240875398
 70
     0
  0
APPID
  2
GEVID1240875399
 70
     0
  0
APPID
  2
GEVID1240908996
 70
     0
  0
APPID
  2
GEVID1240908997
 70
     0
  0
APPID
  2
GEVID1240908998
 70
     0
  0
APPID
  2
GEVID1240908999
 70
     0
  0
APPID
  2
GEVID1240909000
 70
     0
  0
APPID
  2
GENIUS_GENOBJ-N-ZOO_13
 70
     0
  0
APPID
  2
GENIUS_GENZOO_17
 70
     0
  0
APPID
  2
ACAD_DSTYLE_DIMRADIAL_EXTENSION
 70
     0
  0
APPID
  2
GENIUS_GE3SECT_13
 70
     0
  0
APPID
  2
GEV_VCCNULL_SWITCH_OFF
 70
     0
  0
APPID
  2
ACAD_DSTYLE_DIMTALN
 70
     0
  0
APPID
  2
DCO15
 70
     0
  0
APPID
  2
ACAD_DSTYLE_DIMANGULAR_EXT
 70
     0
  0
APPID
  2
CONTENTBLOCKDESCRIPTION
 70
     0
  0
ENDTAB
  0
TABLE
  2
DIMSTYLE
 70
    23
  0
DIMSTYLE
  2
STANDARD
 70
     0
  3

  4

  5

  6

  7

 40
1.0
 41
0.18
 42
0.0625
 43
0.38
 44
0.18
 45
0.0
 46
0.0
 47
0.0
 48
0.0
140
0.18
141
0.09
142
0.0
143
25.399999999999999
144
1.0
145
0.0
146
1.0
147
0.09
 71
     0
 72
     0
 73
     1
 74
     1
 75
     0
 76
     0
 77
     0
 78
     0
170
     0
171
     2
172
     0
173
     0
174
     0
175
     0
176
     0
177
     0
178
     0
  0
DIMSTYLE
  2
ANNOTATIVE
 70
     0
  3

  4

  5

  6

  7

 40
1.0
 41
0.18
 42
0.0625
 43
0.38
 44
0.18
 45
0.0
 46
0.0
 47
0.0
 48
0.0
140
0.18
141
0.09
142
0.0
143
25.399999999999999
144
1.0
145
0.0
146
1.0
147
0.09
 71
     0
 72
     0
 73
     1
 74
     1
 75
     0
 76
     0
 77
     0
 78
     0
170
     0
171
     2
172
     0
173
     0
174
     0
175
     0
176
     0
177
     0
178
     0
  0
DIMSTYLE
  2
AM_ANSI
 70
     0
  3

  4
"
  5

  6

  7

 40
1.0
 41
2.5
 42
1.0
 43
10.0
 44
1.0
 45
0.0
 46
0.0
 47
0.1
 48
0.1
140
3.5
141
0.0
142
0.0
143
0.0393701
144
1.0
145
0.0
146
0.71
147
1.5
 71
     0
 72
     0
 73
     1
 74
     1
 75
     0
 76
     0
 77
     0
 78
     8
170
     0
171
     2
172
     0
173
     0
174
     0
175
     0
176
     2
177
     2
178
     4
  0
DIMSTYLE
  2
AM_ANSI$3
 70
     0
  3

  4
"
  5

  6

  7

 40
1.0
 41
2.5
 42
1.0
 43
10.0
 44
1.0
 45
0.0
 46
0.0
 47
0.1
 48
0.1
140
3.5
141
0.0
142
0.0
143
0.0393701
144
1.0
145
0.0
146
0.71
147
1.5
 71
     0
 72
     0
 73
     1
 74
     1
 75
     0
 76
     0
 77
     0
 78
     8
170
     0
171
     2
172
     0
173
     0
174
     0
175
     0
176
     2
177
     2
178
     4
  0
DIMSTYLE
  2
AM_ANSI$4
 70
     0
  3

  4
"
  5

  6

  7

 40
1.0
 41
2.5
 42
1.0
 43
10.0
 44
1.0
 45
0.0
 46
0.0
 47
0.1
 48
0.1
140
3.5
141
0.0
142
0.0
143
0.0393701
144
1.0
145
0.0
146
0.71
147
1.5
 71
     0
 72
     0
 73
     1
 74
     1
 75
     0
 76
     0
 77
     0
 78
     8
170
     0
171
     2
172
     0
173
     0
174
     0
175
     0
176
     2
177
     2
178
     4
  0
DIMSTYLE
  2
AM_ANSI$7
 70
     0
  3

  4
"
  5

  6

  7

 40
1.0
 41
2.5
 42
1.0
 43
10.0
 44
1.0
 45
0.0
 46
0.0
 47
0.1
 48
0.1
140
5.0
141
0.0
142
0.0
143
0.0393701
144
1.0
145
0.0
146
0.71
147
1.5
 71
     0
 72
     0
 73
     1
 74
     1
 75
     0
 76
     0
 77
     0
 78
     8
170
     0
171
     2
172
     0
173
     0
174
     0
175
     0
176
     2
177
     2
178
     4
  0
DIMSTYLE
  2
AM_ANSI$SF
 70
     0
  3

  4
"
  5

  6

  7

 40
1.0
 41
2.5
 42
1.0
 43
10.0
 44
1.0
 45
0.0
 46
0.0
 47
0.1
 48
0.1
140
3.5
141
0.0
142
0.0
143
0.0393701
144
1.0
145
0.0
146
0.71
147
1.5
 71
     0
 72
     0
 73
     1
 74
     1
 75
     1
 76
     1
 77
     0
 78
     8
170
     0
171
     2
172
     0
173
     0
174
     0
175
     0
176
     2
177
     2
178
     4
  0
DIMSTYLE
  2
AM_ANSI$SH
 70
     0
  3

  4
"
  5

  6

  7

 40
1.0
 41
2.5
 42
1.0
 43
10.0
 44
1.0
 45
0.0
 46
0.0
 47
0.1
 48
0.1
140
3.5
141
0.0
142
0.0
143
0.0393701
144
1.0
145
0.0
146
0.71
147
1.5
 71
     0
 72
     0
 73
     1
 74
     1
 75
     1
 76
     1
 77
     0
 78
     8
170
     0
171
     2
172
     0
173
     1
174
     0
175
     0
176
     2
177
     2
178
     4
  0
DIMSTYLE
  2
AM_ISO
 70
     0
  3

  4
"
  5

  6

  7

 40
1.0
 41
2.5
 42
1.0
 43
10.0
 44
1.0
 45
0.0
 46
0.0
 47
0.1
 48
0.1
140
3.5
141
0.0
142
0.0
143
0.0393701
144
1.0
145
0.0
146
0.71
147
1.5
 71
     0
 72
     0
 73
     0
 74
     0
 75
     0
 76
     0
 77
     1
 78
     8
170
     0
171
     2
172
     1
173
     0
174
     0
175
     0
176
   256
177
   256
178
     2
  0
DIMSTYLE
  2
AM_ISO$3
 70
     0
  3

  4
"
  5

  6

  7

 40
1.0
 41
2.5
 42
1.0
 43
10.0
 44
1.0
 45
0.0
 46
0.0
 47
0.1
 48
0.1
140
3.5
141
0.0
142
0.0
143
0.0393701
144
1.0
145
0.0
146
0.71
147
1.5
 71
     0
 72
     0
 73
     0
 74
     1
 75
     0
 76
     0
 77
     1
 78
     8
170
     0
171
     2
172
     0
173
     0
174
     0
175
     0
176
   256
177
   256
178
     2
  0
DIMSTYLE
  2
AM_ISO$4
 70
     0
  3

  4
"
  5

  6

  7

 40
1.0
 41
2.5
 42
1.0
 43
10.0
 44
1.0
 45
0.0
 46
0.0
 47
0.1
 48
0.1
140
3.5
141
0.0
142
0.0
143
0.0393701
144
1.0
145
0.0
146
0.71
147
1.5
 71
     0
 72
     0
 73
     0
 74
     1
 75
     0
 76
     0
 77
     1
 78
     8
170
     0
171
     2
172
     0
173
     0
174
     0
175
     0
176
   256
177
   256
178
     2
  0
DIMSTYLE
  2
AM_ISO$6
 70
     0
  3

  4
"
  5

  6

  7

 40
1.0
 41
2.5
 42
1.0
 43
10.0
 44
1.0
 45
0.0
 46
0.0
 47
0.1
 48
0.1
140
3.5
141
0.0
142
0.0
143
0.0393701
144
1.0
145
0.0
146
0.71
147
1.5
 71
     0
 72
     0
 73
     0
 74
     0
 75
     0
 76
     0
 77
     0
 78
     8
170
     0
171
     2
172
     1
173
     0
174
     0
175
     0
176
   256
177
   256
178
     2
  0
DIMSTYLE
  2
AM_ISO$7
 70
     0
  3

  4
"
  5

  6

  7

 40
1.0
 41
2.5
 42
1.0
 43
10.0
 44
1.0
 45
0.0
 46
0.0
 47
0.1
 48
0.1
140
5.0
141
0.0
142
0.0
143
0.0393701
144
1.0
145
0.0
146
0.71
147
1.5
 71
     0
 72
     0
 73
     0
 74
     0
 75
     0
 76
     0
 77
     1
 78
     8
170
     0
171
     2
172
     1
173
     0
174
     0
175
     0
176
   256
177
   256
178
     2
  0
DIMSTYLE
  2
AM_ISO$SF
 70
     0
  3

  4
"
  5

  6

  7

 40
1.0
 41
2.5
 42
1.0
 43
10.0
 44
1.0
 45
0.0
 46
0.0
 47
0.1
 48
0.1
140
3.5
141
0.0
142
0.0
143
0.0393701
144
1.0
145
0.0
146
0.71
147
1.5
 71
     0
 72
     0
 73
     0
 74
     0
 75
     1
 76
     1
 77
     1
 78
     8
170
     0
171
     2
172
     1
173
     0
174
     0
175
     0
176
   256
177
   256
178
     2
  0
DIMSTYLE
  2
AM_ISO$SH
 70
     0
  3

  4
"
  5

  6

  7

 40
1.0
 41
2.5
 42
1.0
 43
10.0
 44
1.0
 45
0.0
 46
0.0
 47
0.1
 48
0.1
140
3.5
141
0.0
142
0.0
143
0.0393701
144
2.0
145
0.0
146
0.71
147
1.5
 71
     0
 72
     0
 73
     0
 74
     0
 75
     1
 76
     1
 77
     1
 78
     8
170
     0
171
     2
172
     1
173
     1
174
     0
175
     0
176
   256
177
   256
178
     2
  0
DIMSTYLE
  2
AM_JIS
 70
     0
  3

  4
"
  5

  6

  7

 40
1.0
 41
2.0
 42
1.0
 43
8.0
 44
1.0
 45
0.0
 46
0.0
 47
0.1
 48
0.1
140
2.5
141
0.0
142
0.0
143
0.0393701
144
1.0
145
0.0
146
0.71
147
1.5
 71
     0
 72
     0
 73
     0
 74
     0
 75
     0
 76
     0
 77
     3
 78
     8
170
     0
171
     2
172
     1
173
     0
174
     0
175
     0
176
     2
177
     2
178
     4
  0
DIMSTYLE
  2
AM_JIS$3
 70
     0
  3

  4
"
  5

  6

  7

 40
1.0
 41
2.0
 42
1.0
 43
10.0
 44
1.0
 45
0.0
 46
0.0
 47
0.1
 48
0.1
140
2.5
141
0.0
142
0.0
143
0.0393701
144
1.0
145
0.0
146
0.71
147
1.5
 71
     0
 72
     0
 73
     0
 74
     1
 75
     0
 76
     0
 77
     3
 78
     8
170
     0
171
     2
172
     0
173
     0
174
     0
175
     0
176
     2
177
     2
178
     4
  0
DIMSTYLE
  2
AM_JIS$4
 70
     0
  3

  4
"
  5

  6

  7

 40
1.0
 41
2.0
 42
1.0
 43
10.0
 44
1.0
 45
0.0
 46
0.0
 47
0.1
 48
0.1
140
2.5
141
0.0
142
0.0
143
0.0393701
144
1.0
145
0.0
146
0.71
147
1.5
 71
     0
 72
     0
 73
     0
 74
     0
 75
     0
 76
     0
 77
     3
 78
     8
170
     0
171
     2
172
     0
173
     0
174
     0
175
     0
176
     2
177
     2
178
     4
  0
DIMSTYLE
  2
AM_JIS$6
 70
     0
  3

  4
"
  5

  6

  7

 40
1.0
 41
2.0
 42
1.0
 43
10.0
 44
1.0
 45
0.0
 46
0.0
 47
0.1
 48
0.1
140
2.5
141
0.0
142
0.0
143
0.0393701
144
1.0
145
0.0
146
0.71
147
1.5
 71
     0
 72
     0
 73
     0
 74
     0
 75
     0
 76
     0
 77
     0
 78
     8
170
     0
171
     2
172
     1
173
     0
174
     0
175
     0
176
     2
177
     2
178
     4
  0
DIMSTYLE
  2
AM_JIS$7
 70
     0
  3

  4
"
  5

  6

  7

 40
1.0
 41
2.0
 42
1.0
 43
10.0
 44
1.0
 45
0.0
 46
0.0
 47
0.1
 48
0.1
140
2.5
141
0.0
142
0.0
143
0.0393701
144
1.0
145
0.0
146
0.71
147
1.5
 71
     0
 72
     0
 73
     0
 74
     0
 75
     0
 76
     0
 77
     3
 78
     8
170
     0
171
     2
172
     1
173
     0
174
     0
175
     0
176
     2
177
     2
178
     4
  0
DIMSTYLE
  2
AM_JIS$SF
 70
     0
  3

  4
"
  5

  6

  7

 40
1.0
 41
2.0
 42
1.0
 43
10.0
 44
1.0
 45
0.0
 46
0.0
 47
0.1
 48
0.1
140
2.5
141
0.0
142
0.0
143
0.0393701
144
1.0
145
0.0
146
0.71
147
1.5
 71
     0
 72
     0
 73
     0
 74
     0
 75
     1
 76
     1
 77
     3
 78
     8
170
     0
171
     2
172
     1
173
     0
174
     0
175
     0
176
     2
177
     2
178
     4
  0
DIMSTYLE
  2
AM_JIS$SH
 70
     0
  3

  4
"
  5

  6

  7

 40
1.0
 41
2.0
 42
1.0
 43
10.0
 44
1.0
 45
0.0
 46
0.0
 47
0.1
 48
0.1
140
2.5
141
0.0
142
0.0
143
0.0393701
144
2.0
145
0.0
146
0.71
147
1.5
 71
     0
 72
     0
 73
     0
 74
     0
 75
     1
 76
     1
 77
     3
 78
     8
170
     0
171
     2
172
     1
173
     1
174
     0
175
     0
176
     2
177
     2
178
     4
  0
DIMSTYLE
  2
AM_JIS$0
 70
     0
  3

  4
"
  5

  6

  7

 40
1.0
 41
2.0
 42
1.0
 43
8.0
 44
1.0
 45
0.0
 46
0.0
 47
0.1
 48
0.1
140
2.5
141
0.0
142
0.0
143
0.0393701
144
1.0
145
0.0
146
0.71
147
1.5
 71
     0
 72
     0
 73
     0
 74
     0
 75
     0
 76
     0
 77
     3
 78
     8
170
     0
171
     2
172
     1
173
     0
174
     0
175
     0
176
     2
177
     2
178
     4
  0
ENDTAB
  0
ENDSEC
  0
SECTION
  2
BLOCKS
  0
BLOCK
  8
0
  2
$MODEL_SPACE
 70
     0
 10
0.0
 20
0.0
 30
0.0
  3
$MODEL_SPACE
  1

  0
ENDBLK
  5
1523
  8
0
  0
BLOCK
 67
     1
  8
0
  2
$PAPER_SPACE
 70
     0
 10
0.0
 20
0.0
 30
0.0
  3
$PAPER_SPACE
  1

  0
ENDBLK
  5
151F
 67
     1
  8
0
  0
BLOCK
  8
0
  2
GENAXEH
 70
     0
 10
0.0
 20
0.0
 30
0.0
  3
GENAXEH
  1

  0
LINE
  5
134A
  8
0
 10
-1.0
 20
0.0
 30
0.0
 11
1.0
 21
0.0
 31
0.0
  0
ENDBLK
  5
134B
  8
0
  0
BLOCK
  8
0
  2
_ACMOPEN15
 70
     0
 10
0.0
 20
0.0
 30
0.0
  3
_ACMOPEN15
  1

  0
LINE
  5
8A6
  8
0
 62
     0
 10
-1.0
 20
0.0
 30
0.0
 11
0.0
 21
0.0
 31
0.0
  0
LINE
  5
8A7
  8
0
 62
     0
 10
-1.0
 20
-0.131652497
 30
0.0
 11
0.0
 21
0.0
 31
0.0
  0
LINE
  5
8A8
  8
0
 62
     0
 10
0.0
 20
0.0
 30
0.0
 11
-1.0
 21
0.131652497
 31
0.0
  0
ENDBLK
  5
8A5
  8
0
  0
BLOCK
  8
0
  2
_OPEN30
 70
     0
 10
0.0
 20
0.0
 30
0.0
  3
_OPEN30
  1

  0
LINE
  5
1391
  8
0
  6
BYBLOCK
 62
     0
 10
-1.0
 20
0.26794919
 30
0.0
 11
0.0
 21
0.0
 31
0.0
  0
LINE
  5
1392
  8
0
  6
BYBLOCK
 62
     0
 10
0.0
 20
0.0
 30
0.0
 11
-1.0
 21
-0.26794919
 31
0.0
  0
LINE
  5
1393
  8
0
  6
BYBLOCK
 62
     0
 10
0.0
 20
0.0
 30
0.0
 11
-1.0
 21
0.0
 31
0.0
  0
ENDBLK
  5
1394
  8
0
  0
BLOCK
  8
0
  2
*U5
 70
     1
 10
0.0
 20
0.0
 30
0.0
  3
*U5
  1

  0
TEXT
  5
14AC
  8
0
 62
     0
 10
5.1262507922838001
 20
5.9826223594979648
 30
0.0
 40
15.0
  1
ＶＸ０８－００３ＥＭ～ＶＸ０８－０３０ＥＭ
 41
0.71
  0
ENDBLK
  5
14AE
  8
0
  0
BLOCK
  8
0
  2
*U6
 70
     1
 10
0.0
 20
0.0
 30
0.0
  3
*U6
  1

  0
TEXT
  5
14B0
  8
0
 62
     0
 10
645.79984906355685
 20
594.67076094593381
 30
0.0
 40
15.0
  1
ＶＸ０８－０４０ＥＭ～ＶＸ０８－１００ＥＭ
 41
0.71
  0
ENDBLK
  5
14B2
  8
0
  0
BLOCK
  8
0
  2
_ACMFILLEDHALF
 70
     0
 10
0.0
 20
0.0
 30
0.0
  3
_ACMFILLEDHALF
  1

  0
TRACE
  5
165F
  8
0
 62
     0
 10
-0.8
 20
0.0
 30
0.0
 11
-1.0
 21
0.166666666
 31
0.0
 12
0.0
 22
0.0
 32
0.0
 13
0.0
 23
0.0
 33
0.0
  0
LINE
  5
1660
  8
0
 62
     0
 10
-1.0
 20
0.0
 30
0.0
 11
-0.8
 21
0.0
 31
0.0
  0
ENDBLK
  5
165E
  8
0
  0
ENDSEC
  0
SECTION
  2
ENTITIES
  0
POINT
  5
B07
  8
0
 62
     0
 10
369.29154744812081
 20
417.35215909310602
 30
0.0
  0
LINE
  5
B08
  8
0
 62
     0
 10
369.29154744812081
 20
343.85215909310602
 30
0.0
 11
369.29154744812081
 21
417.35215909310602
 31
0.0
  0
POINT
  5
B09
  8
0
 62
     0
 10
369.29154744812081
 20
417.3521009832856
 30
0.0
  0
LINE
  5
B0A
  8
0
  6
AM_ISO08W050
 62
     0
 10
520.7915474481207
 20
302.02084009310607
 30
0.0
 11
520.7915474481207
 21
327.60146809310618
 31
0.0
  0
LINE
  5
B0B
  8
0
  6
AM_ISO08W050
 62
     0
 10
395.79153744812112
 20
302.02084009310607
 30
0.0
 11
395.79153744812112
 21
327.60146809310618
 31
0.0
  0
LINE
  5
B0C
  8
0
  6
AM_ISO08W050
 62
     0
 10
390.55728744812058
 20
445.35212809310599
 30
0.0
 11
603.5707574481205
 21
445.35212809310599
 31
0.0
  0
LINE
  5
B0D
  8
0
  6
AM_ISO08W050
 62
     0
 10
127.4463532776642
 20
417.35215909310602
 30
0.0
 11
398.1385670005622
 21
417.35215909310602
 31
0.0
  0
LINE
  5
B0E
  8
0
  6
AM_ISO08W050
 62
     0
 10
885.61271562312743
 20
327.60146809310612
 30
0.0
 11
885.61271562312743
 21
302.02084009310607
 31
0.0
  0
LINE
  5
B0F
  8
0
  6
AM_ISO08W050
 62
     0
 10
695.61271962312742
 20
327.60146809310618
 30
0.0
 11
695.61271962312742
 21
302.02084009310607
 31
0.0
  0
LINE
  5
B10
  8
0
 62
     0
 10
795.61270662312745
 20
456.35216509310601
 30
0.0
 11
795.61270662312745
 21
464.35211509310602
 31
0.0
  0
LINE
  5
B11
  8
0
 62
     0
 10
785.61270762312802
 20
456.35216509310601
 30
0.0
 11
795.61270662312745
 21
456.35216509310601
 31
0.0
  0
LINE
  5
B12
  8
0
 62
     0
 10
785.61270762312802
 20
456.35216509310601
 30
0.0
 11
785.61270762312802
 21
464.35211509310602
 31
0.0
  0
LINE
  5
B13
  8
0
 62
     0
 10
600.79152744812075
 20
429.35215909310602
 30
0.0
 11
542.79150744812091
 21
429.35215909310602
 31
0.0
  0
LINE
  5
B14
  8
0
 62
     0
 10
542.79150744812091
 20
462.85211509310602
 30
0.0
 11
538.79154744812081
 21
462.85211509310602
 31
0.0
  0
LINE
  5
B15
  8
0
 62
     0
 10
600.79152744812075
 20
464.35211509310602
 30
0.0
 11
555.79152744812075
 21
464.35211509310602
 31
0.0
  0
LINE
  5
B16
  8
0
 62
     0
 10
600.79152744812075
 20
461.35211509310602
 30
0.0
 11
542.79150744812091
 21
461.35211509310602
 31
0.0
  0
LINE
  5
B17
  8
0
 62
     0
 10
542.79150744812091
 20
427.85215909310602
 30
0.0
 11
538.79154744812081
 21
427.85215909310602
 31
0.0
  0
LINE
  5
B18
  8
0
 62
     0
 10
542.79150744812091
 20
427.85215909310602
 30
0.0
 11
542.79150744812091
 21
462.85211509310602
 31
0.0
  0
LINE
  5
B19
  8
0
 62
     0
 10
600.79152744812075
 20
429.35215909310602
 30
0.0
 11
600.79152744812075
 21
464.35211509310602
 31
0.0
  0
LINE
  5
B1A
  8
0
 62
     0
 10
555.79152744812075
 20
461.35211509310602
 30
0.0
 11
555.79152744812075
 21
464.35211509310602
 31
0.0
  0
LINE
  5
B1B
  8
0
  6
AM_ISO08W050
 62
     0
 10
790.61271162312744
 20
298.61363221159093
 30
0.0
 11
790.61272062312764
 21
521.65827758640205
 31
0.0
  0
LINE
  5
B1C
  8
0
 62
     0
 10
785.61270762312802
 20
464.35211509310602
 30
0.0
 11
795.61270662312745
 21
464.35211509310602
 31
0.0
  0
LINE
  5
B1D
  8
0
  6
AM_ISO08W050
 62
     0
 10
736.91880965881023
 20
445.35212809310599
 30
0.0
 11
844.30662542943696
 21
445.35212809310599
 31
0.0
  0
LINE
  5
B1E
  8
0
  6
ACISOTGL
 62
     0
 10
513.29154744812047
 20
323.35213909310608
 30
0.0
 11
513.29154744812047
 21
305.35213909310608
 31
0.0
  0
LINE
  5
B1F
  8
0
 62
     0
 10
425.79153744812112
 20
516.85217509310621
 30
0.0
 11
425.79153744812112
 21
360.85214209310618
 31
0.0
  0
LINE
  5
B20
  8
0
 62
     0
 10
725.61270462312746
 20
319.35214009310607
 30
0.0
 11
725.61270462312746
 21
305.35213909310608
 31
0.0
  0
LINE
  5
B21
  8
0
 62
     0
 10
675.61270962312733
 20
305.35213909310608
 30
0.0
 11
725.61270462312746
 21
305.35213909310608
 31
0.0
  0
LINE
  5
B22
  8
0
 62
     0
 10
675.61270962312733
 20
320.35213909310619
 30
0.0
 11
675.61270962312733
 21
305.35213909310608
 31
0.0
  0
LINE
  5
B23
  8
0
 62
     0
 10
855.612715623128
 20
305.35213909310608
 30
0.0
 11
905.61271662312674
 21
305.35213909310608
 31
0.0
  0
LINE
  5
B24
  8
0
 62
     0
 10
855.612715623128
 20
319.35214009310607
 30
0.0
 11
855.612715623128
 21
305.35213909310608
 31
0.0
  0
LINE
  5
B25
  8
0
 62
     0
 10
905.61271662312674
 20
320.35213909310619
 30
0.0
 11
905.61271662312674
 21
305.35213909310608
 31
0.0
  0
LINE
  5
B26
  8
0
 62
     0
 10
721.61272062312764
 20
323.35213909310608
 30
0.0
 11
678.61270962312733
 21
323.35213909310608
 31
0.0
  0
LINE
  5
B27
  8
0
 62
     0
 10
859.61271762312742
 20
323.35213909310608
 30
0.0
 11
902.6127166231272
 21
323.35213909310608
 31
0.0
  0
LINE
  5
B28
  8
0
 62
     0
 10
538.79154744812081
 20
445.35212809310599
 30
0.0
 11
538.79154744812081
 21
472.62008509310567
 31
0.0
  0
LINE
  5
B29
  8
0
 62
     0
 10
538.79154744812081
 20
418.08421309310592
 30
0.0
 11
538.79154744812081
 21
445.35212809310599
 31
0.0
  0
LINE
  5
B2A
  8
0
 62
     0
 10
533.29149744812025
 20
413.17674409310609
 30
0.0
 11
537.29151744812054
 21
415.48613209310582
 31
0.0
  0
LINE
  5
B2B
  8
0
 62
     0
 10
533.29155744812033
 20
477.52757509310572
 30
0.0
 11
537.2915474481207
 21
475.21817509310603
 31
0.0
  0
LINE
  5
B2C
  8
0
 62
     0
 10
708.89869962312798
 20
488.67413509310592
 30
0.0
 11
695.80186662312735
 21
447.53749309310598
 31
0.0
  0
LINE
  5
B2D
  8
0
  6
ACISOTGL
 62
     0
 10
878.11271562312766
 20
323.35213909310608
 30
0.0
 11
878.11271562312766
 21
305.35213909310608
 31
0.0
  0
LINE
  5
B2E
  8
0
  6
ACISOTGL
 62
     0
 10
893.11271862312731
 20
323.35213909310608
 30
0.0
 11
893.11271862312731
 21
305.35213909310608
 31
0.0
  0
LINE
  5
B2F
  8
0
  6
ACISOTGL
 62
     0
 10
528.29154744812081
 20
323.35213909310608
 30
0.0
 11
528.29154744812081
 21
305.35213909310608
 31
0.0
  0
LINE
  5
B30
  8
0
  6
ACISOTGL
 62
     0
 10
513.29154744812047
 20
323.35213909310608
 30
0.0
 11
513.29154744812047
 21
305.35213909310608
 31
0.0
  0
LINE
  5
B31
  8
0
 62
     0
 10
505.79154744812081
 20
323.35213909310608
 30
0.0
 11
536.79150744812091
 21
323.35213909310608
 31
0.0
  0
LINE
  5
B32
  8
0
 62
     0
 10
415.79154744812081
 20
307.35214009310607
 30
0.0
 11
500.7915074481208
 21
307.35214009310607
 31
0.0
  0
LINE
  5
B33
  8
0
  6
ACISOTGL
 62
     0
 10
703.11271962312742
 20
323.35213909310608
 30
0.0
 11
703.11271962312742
 21
305.35213909310608
 31
0.0
  0
LINE
  5
B34
  8
0
 62
     0
 10
531.79152744812075
 20
330.89153809310619
 30
0.0
 11
531.79152744812075
 21
489.35216509310601
 31
0.0
  0
LINE
  5
B35
  8
0
 62
     0
 10
490.79154744812081
 20
338.35215709310609
 30
0.0
 11
490.79154744812081
 21
476.79488509310607
 31
0.0
  0
LINE
  5
B36
  8
0
 62
     0
 10
379.79154744812081
 20
323.35213909310608
 30
0.0
 11
410.87172744812062
 21
323.35213909310608
 31
0.0
  0
LINE
  5
B37
  8
0
 62
     0
 10
377.79153744812112
 20
305.35213909310608
 30
0.0
 11
413.79153744812089
 21
305.35213909310608
 31
0.0
  0
LINE
  5
B38
  8
0
 62
     0
 10
538.79154744812081
 20
305.35213909310608
 30
0.0
 11
538.79154744812081
 21
321.35215609310598
 31
0.0
  0
LINE
  5
B39
  8
0
 62
     0
 10
377.79153744812112
 20
305.35213909310608
 30
0.0
 11
377.79153744812112
 21
321.35215609310598
 31
0.0
  0
LINE
  5
B3A
  8
0
 62
     0
 10
414.6814274481203
 20
326.13304009310599
 30
0.0
 11
429.60123744812063
 21
372.75743209310622
 31
0.0
  0
LINE
  5
B3B
  8
0
  6
ACISOTGL
 62
     0
 10
688.11271962312742
 20
323.35213909310608
 30
0.0
 11
688.11271962312742
 21
305.35213909310608
 31
0.0
  0
LINE
  5
B3C
  8
0
 62
     0
 10
510.79152744812052
 20
345.80987509310609
 30
0.0
 11
510.79152744812052
 21
506.833075093106
 31
0.0
  0
LINE
  5
B3D
  8
0
 62
     0
 10
518.79150744812091
 20
493.35215509310598
 30
0.0
 11
527.7915074481208
 21
493.35215509310598
 31
0.0
  0
LINE
  5
B3E
  8
0
 62
     0
 10
725.61270462312746
 20
428.35212709310611
 30
0.0
 11
725.61270462312746
 21
338.35215709310609
 31
0.0
  0
LINE
  5
B3F
  8
0
 62
     0
 10
719.29075962312731
 20
499.06619509310622
 30
0.0
 11
760.42738662312809
 21
512.16302509310594
 31
0.0
  0
LINE
  5
B40
  8
0
 62
     0
 10
429.79152744812092
 20
373.97654809310609
 30
0.0
 11
429.79152744812092
 21
431.99989309310621
 31
0.0
  0
LINE
  5
B41
  8
0
 62
     0
 10
872.72867562312808
 20
488.87291509310609
 30
0.0
 11
885.724603623127
 21
446.575060093106
 31
0.0
  0
LINE
  5
B42
  8
0
 62
     0
 10
862.13346162312735
 20
499.46810509310598
 30
0.0
 11
819.83563962312724
 21
512.46401509310613
 31
0.0
  0
LINE
  5
B43
  8
0
 62
     0
 10
855.612715623128
 20
428.35212709310611
 30
0.0
 11
855.612715623128
 21
338.35215709310609
 31
0.0
  0
LINE
  5
B44
  8
0
 62
     0
 10
867.61271562312788
 20
477.44582509310601
 30
0.0
 11
867.61271562312788
 21
379.08940009310618
 31
0.0
  0
LINE
  5
B45
  8
0
 62
     0
 10
713.61271962312742
 20
477.44582509310601
 30
0.0
 11
713.61271962312742
 21
379.08940009310618
 31
0.0
  0
LINE
  5
B46
  8
0
 62
     0
 10
425.79153744812112
 20
516.85214509310595
 30
0.0
 11
503.00091744812062
 21
514.83035509310582
 31
0.0
  0
LINE
  5
B47
  8
0
 62
     0
 10
905.5800346231274
 20
320.79377509310609
 30
0.0
 11
889.02863262312712
 21
431.99992609310601
 31
0.0
  0
LINE
  5
B48
  8
0
 62
     0
 10
675.64540962312753
 20
320.79377509310609
 30
0.0
 11
692.19679362312775
 21
431.99992609310601
 31
0.0
  0
LINE
  5
B49
  8
0
 62
     0
 10
425.79153744812112
 20
431.99989309310621
 30
0.0
 11
429.79152744812092
 21
431.99989309310621
 31
0.0
  0
LINE
  5
B4A
  8
0
 62
     0
 10
495.86652744812102
 20
337.80988909310599
 30
0.0
 11
502.79154744812081
 21
337.80988909310599
 31
0.0
  0
LINE
  5
B4B
  8
0
 62
     0
 10
502.79154744812081
 20
305.35213909310608
 30
0.0
 11
538.79154744812081
 21
305.35213909310608
 31
0.0
  0
LINE
  5
B4C
  8
0
 62
     0
 10
502.79154744812081
 20
305.35213909310608
 30
0.0
 11
502.79154744812081
 21
305.35213909310608
 31
0.0
  0
LINE
  5
B4D
  8
0
 62
     0
 10
727.61270562312745
 20
307.35214009310607
 30
0.0
 11
853.61271762312765
 21
307.35214009310607
 31
0.0
  0
LINE
  5
B4E
  8
0
 62
     0
 10
498.7915274481208
 20
484.79483509310597
 30
0.0
 11
507.19101744812087
 21
484.79483509310597
 31
0.0
  0
LINE
  5
B4F
  8
0
 62
     0
 10
425.79153744812112
 20
447.53746309310583
 30
0.0
 11
425.79312744812052
 21
447.53746309310583
 31
0.0
  0
LINE
  5
B50
  8
0
 62
     0
 10
425.79153744812112
 20
447.53746309310583
 30
0.0
 11
453.56019744812079
 21
472.823935093106
 31
0.0
  0
LINE
  5
B51
  8
0
  6
ACISOTGL
 62
     0
 10
403.29153744812089
 20
323.35213909310608
 30
0.0
 11
403.29153744812089
 21
305.35213909310608
 31
0.0
  0
LINE
  5
B52
  8
0
  6
ACISOTGL
 62
     0
 10
388.29153744812112
 20
323.35213909310608
 30
0.0
 11
388.29153744812112
 21
305.35213909310608
 31
0.0
  0
LINE
  5
B53
  8
0
 62
     0
 10
405.41274744812029
 20
495.48743509310623
 30
0.0
 11
425.79153744812112
 21
495.48743509310623
 31
0.0
  0
LINE
  5
B54
  8
0
 62
     0
 10
369.29154744812081
 20
343.85214109310618
 30
0.0
 11
401.36136744812052
 21
342.7322380931061
 31
0.0
  0
LINE
  5
B55
  8
0
 62
     0
 10
417.72171744812022
 20
516.57032509310602
 30
0.0
 11
425.79153744812112
 21
516.85217509310621
 31
0.0
  0
LINE
  5
B56
  8
0
 62
     0
 10
369.29154744812081
 20
490.8521350931058
 30
0.0
 11
400.8962174481203
 21
491.95580509310571
 31
0.0
  0
LINE
  5
B57
  8
0
 62
     0
 10
415.79154744812081
 20
329.60215609310598
 30
0.0
 11
415.79154744812081
 21
334.93437109310599
 31
0.0
  0
LINE
  5
B58
  8
0
 62
     0
 10
406.68678744812053
 20
511.37435509310598
 30
0.0
 11
413.86128744812061
 21
511.62485509310602
 31
0.0
  0
LINE
  5
B59
  8
0
 62
     0
 10
369.29154744812081
 20
343.85215609310598
 30
0.0
 11
369.29154744812081
 21
490.85216509310618
 31
0.0
  0
LINE
  5
B5A
  8
0
 62
     0
 10
403.79154744812081
 20
508.376215093106
 30
0.0
 11
403.79154744812081
 21
326.32870309310601
 31
0.0
  0
LINE
  5
B5B
  8
0
 62
     0
 10
405.79152744812058
 20
500.65481509310598
 30
0.0
 11
413.79153744812089
 21
500.65481509310598
 31
0.0
  0
LINE
  5
B5C
  8
0
 62
     0
 10
405.79152744812058
 20
483.684235093106
 30
0.0
 11
413.79153744812089
 21
483.684235093106
 31
0.0
  0
LINE
  5
B5D
  8
0
 62
     0
 10
405.2700374481206
 20
474.73481509310608
 30
0.0
 11
414.22062744812052
 21
474.73481509310608
 31
0.0
  0
LINE
  5
B5E
  8
0
 62
     0
 10
415.79154744812081
 20
502.65479509310597
 30
0.0
 11
415.79154744812081
 21
514.57154509310612
 31
0.0
  0
LINE
  5
B5F
  8
0
 62
     0
 10
369.29154744812081
 20
377.87747209310601
 30
0.0
 11
403.79154744812081
 21
377.87747209310601
 31
0.0
  0
LINE
  5
B60
  8
0
 62
     0
 10
369.29154744812081
 20
456.8268250931057
 30
0.0
 11
403.79154744812081
 21
456.8268250931057
 31
0.0
  0
LINE
  5
B61
  8
0
 62
     0
 10
405.79152744812058
 20
336.93436909310611
 30
0.0
 11
413.79153744812089
 21
336.93436909310611
 31
0.0
  0
LINE
  5
B62
  8
0
 62
     0
 10
405.79152744812058
 20
357.60946609310622
 30
0.0
 11
413.79153744812089
 21
357.60946609310622
 31
0.0
  0
LINE
  5
B63
  8
0
 62
     0
 10
415.79154744812081
 20
353.49276709310618
 30
0.0
 11
423.43656744812063
 21
353.49276709310618
 31
0.0
  0
LINE
  5
B64
  8
0
 62
     0
 10
415.79154744812081
 20
355.49276509310607
 30
0.0
 11
415.79154744812081
 21
481.684255093106
 31
0.0
  0
LINE
  5
B65
  8
0
 62
     0
 10
369.29154744812081
 20
478.93079509310598
 30
0.0
 11
403.79154744812081
 21
478.93079509310598
 31
0.0
  0
LINE
  5
B66
  8
0
 62
     0
 10
369.29154744812081
 20
355.7735140931062
 30
0.0
 11
403.79154744812081
 21
355.7735140931062
 31
0.0
  0
CIRCLE
  5
B67
  8
0
 62
     0
 10
790.61272062312764
 20
445.35212809310599
 30
0.0
 40
2.75000007
  0
CIRCLE
  5
B68
  8
0
 62
     0
 10
790.61272062312764
 20
445.35212809310599
 30
0.0
 40
4.000000199999997
  0
ARC
  5
B69
  8
0
 62
     0
 10
790.61272062312764
 20
445.35212809310599
 30
0.0
 40
16.000000499999999
 50
108.2099599999982
 51
71.79005199999169
  0
ARC
  5
B6A
  8
0
 62
     0
 10
415.79154744812081
 20
305.35213909310608
 30
0.0
 40
2.00000007
 50
90.000002999984659
 51
180.00001000000091
  0
ARC
  5
B6B
  8
0
 62
     0
 10
721.61272062312764
 20
319.35214009310607
 30
0.0
 40
4.000000199999997
 50
0.0
 51
90.000002999984659
  0
ARC
  5
B6C
  8
0
 62
     0
 10
410.87172744812062
 20
327.35215609310598
 30
0.0
 40
4.000000199999997
 50
270.0
 51
342.25533000000149
  0
ARC
  5
B6D
  8
0
 62
     0
 10
425.79153744812112
 20
373.97654809310609
 30
0.0
 40
4.000000199999997
 50
342.25533000000149
 51
0.0
  0
ARC
  5
B6E
  8
0
 62
     0
 10
505.79154744812081
 20
338.35215709310609
 30
0.0
 40
15.000000299999989
 50
179.999989999999
 51
270.0
  0
ARC
  5
B6F
  8
0
 62
     0
 10
498.7915274481208
 20
476.79488509310607
 30
0.0
 40
8.0000000999999976
 50
90.000002999984659
 51
180.00001000000091
  0
ARC
  5
B70
  8
0
 62
     0
 10
678.61270962312733
 20
320.35213909310619
 30
0.0
 40
3.0
 50
90.000002999984659
 51
180.00001000000091
  0
ARC
  5
B71
  8
0
 62
     0
 10
902.6127166231272
 20
320.35213909310619
 30
0.0
 40
3.0
 50
0.0
 51
90.000002999984659
  0
ARC
  5
B72
  8
0
 62
     0
 10
859.61271762312742
 20
319.35214009310607
 30
0.0
 40
4.000000199999997
 50
90.000002999984659
 51
180.00001000000091
  0
ARC
  5
B73
  8
0
 62
     0
 10
790.61272062312764
 20
379.08940009310618
 30
0.0
 40
77.000000999999983
 50
179.999989999999
 51
212.41839000001201
  0
ARC
  5
B74
  8
0
 62
     0
 10
534.79152744812075
 20
410.57863009310603
 30
0.0
 40
3.0
 50
119.9999999999999
 51
180.00001000000091
  0
ARC
  5
B75
  8
0
 62
     0
 10
534.79152744812075
 20
480.12566509310602
 30
0.0
 40
3.0
 50
179.999989999999
 51
240.0000099999921
  0
ARC
  5
B76
  8
0
 62
     0
 10
535.79154744812081
 20
472.62008509310567
 30
0.0
 40
3.0
 50
0.0
 51
60.000001999986537
  0
ARC
  5
B77
  8
0
 62
     0
 10
535.79154744812081
 20
418.08421309310592
 30
0.0
 40
3.0
 50
299.99999999999989
 51
0.0
  0
ARC
  5
B78
  8
0
 62
     0
 10
502.79154744812081
 20
506.833075093106
 30
0.0
 40
8.0000000999999976
 50
0.0
 51
88.499997000013792
  0
ARC
  5
B79
  8
0
 62
     0
 10
710.61271962312742
 20
338.35215709310609
 30
0.0
 40
15.000000299999989
 50
270.0
 51
0.0
  0
ARC
  5
B7A
  8
0
 62
     0
 10
379.79154744812081
 20
321.35215609310598
 30
0.0
 40
2.00000007
 50
90.000002999984659
 51
180.00001000000091
  0
ARC
  5
B7B
  8
0
 62
     0
 10
536.79150744812091
 20
321.35215609310598
 30
0.0
 40
2.00000007
 50
0.0
 51
90.000002999984659
  0
ARC
  5
B7C
  8
0
 62
     0
 10
502.79154744812081
 20
345.80987509310609
 30
0.0
 40
8.0000000999999976
 50
270.0
 51
0.0
  0
ARC
  5
B7D
  8
0
 62
     0
 10
853.61271762312765
 20
305.35213909310608
 30
0.0
 40
2.00000007
 50
0.0
 51
90.000002999984659
  0
ARC
  5
B7E
  8
0
 62
     0
 10
727.61270562312745
 20
305.35213909310608
 30
0.0
 40
2.00000007
 50
90.000002999984659
 51
180.00001000000091
  0
ARC
  5
B7F
  8
0
 62
     0
 10
518.79150744812091
 20
501.35216509310601
 30
0.0
 40
8.0000000999999976
 50
179.999989999999
 51
270.0
  0
ARC
  5
B80
  8
0
 62
     0
 10
790.61272062312764
 20
428.35212709310611
 30
0.0
 40
65.000000999999997
 50
0.0
 51
180.00001000000091
  0
ARC
  5
B81
  8
0
 62
     0
 10
790.61272062312764
 20
417.35215909310602
 30
0.0
 40
99.500004000000004
 50
8.4654900999952218
 51
171.5345000000008
  0
ARC
  5
B82
  8
0
 62
     0
 10
539.7915074481208
 20
330.89153809310619
 30
0.0
 40
8.0000000999999976
 50
179.999989999999
 51
252.54239000001229
  0
ARC
  5
B83
  8
0
 62
     0
 10
857.43430962312789
 20
484.17374509310582
 30
0.0
 40
16.000000499999999
 50
17.07946299999773
 51
72.920534000004452
  0
ARC
  5
B84
  8
0
 62
     0
 10
870.612715623128
 20
338.35215709310609
 30
0.0
 40
15.000000299999989
 50
179.999989999999
 51
270.0
  0
ARC
  5
B85
  8
0
 62
     0
 10
790.61272062312764
 20
379.08940009310618
 30
0.0
 40
77.000000999999983
 50
327.58160000000242
 51
0.0
  0
ARC
  5
B86
  8
0
 62
     0
 10
724.14465762312739
 20
483.82016509310591
 30
0.0
 40
16.000000499999999
 50
107.07946000000619
 51
162.92052999999709
  0
ARC
  5
B87
  8
0
 62
     0
 10
500.7915074481208
 20
305.35213909310608
 30
0.0
 40
2.00000007
 50
0.0
 51
90.000002999984659
  0
ARC
  5
B88
  8
0
 62
     0
 10
859.61271762312742
 20
477.44582509310601
 30
0.0
 40
8.0000000999999976
 50
0.0
 51
41.053350999991054
  0
ARC
  5
B89
  8
0
 62
     0
 10
721.61272062312764
 20
477.44582509310601
 30
0.0
 40
8.0000000999999976
 50
138.94665000000219
 51
180.00001000000091
  0
ARC
  5
B8A
  8
0
 62
     0
 10
527.7915074481208
 20
489.35216509310601
 30
0.0
 40
4.000000199999997
 50
0.0
 51
90.000002999984659
  0
CIRCLE
  5
B8B
  8
0
 62
     0
 10
790.61272062312764
 20
445.35212809310599
 30
0.0
 40
29.000001000000001
  0
ARC
  5
B8C
  8
0
 62
     0
 10
400.79154744812053
 20
494.95400509310588
 30
0.0
 40
3.0
 50
272.00000000000369
 51
0.0
  0
ARC
  5
B8D
  8
0
 62
     0
 10
400.79154744812053
 20
339.7503190931061
 30
0.0
 40
3.0
 50
0.0
 51
87.999999999996334
  0
ARC
  5
B8E
  8
0
 62
     0
 10
417.7915274481208
 20
514.57154509310612
 30
0.0
 40
2.00000007
 50
91.999997999994051
 51
180.00001000000091
  0
ARC
  5
B8F
  8
0
 62
     0
 10
406.79154744812081
 20
326.32870309310601
 30
0.0
 40
3.0
 50
179.999989999999
 51
268.00000999999207
  0
ARC
  5
B90
  8
0
 62
     0
 10
406.79154744812081
 20
508.376215093106
 30
0.0
 40
3.0
 50
91.999997999994051
 51
180.00001000000091
  0
ARC
  5
B91
  8
0
 62
     0
 10
413.79153744812089
 20
513.62369509310611
 30
0.0
 40
2.00000007
 50
272.00000000000369
 51
0.0
  0
ARC
  5
B92
  8
0
 62
     0
 10
413.79153744812089
 20
502.65479509310597
 30
0.0
 40
2.00000007
 50
270.0
 51
0.0
  0
ARC
  5
B93
  8
0
 62
     0
 10
413.79153744812089
 20
481.684255093106
 30
0.0
 40
2.00000007
 50
0.0
 51
90.000002999984659
  0
ARC
  5
B94
  8
0
 62
     0
 10
405.79152744812058
 20
498.65480509310601
 30
0.0
 40
2.00000007
 50
90.000002999984659
 51
180.00001000000091
  0
ARC
  5
B95
  8
0
 62
     0
 10
405.79152744812058
 20
485.68421509310588
 30
0.0
 40
2.00000007
 50
179.999989999999
 51
270.0
  0
ARC
  5
B96
  8
0
 62
     0
 10
405.79152744812058
 20
338.93435509310609
 30
0.0
 40
2.00000007
 50
179.999989999999
 51
270.0
  0
ARC
  5
B97
  8
0
 62
     0
 10
405.79152744812058
 20
359.60948209310618
 30
0.0
 40
2.00000007
 50
179.999989999999
 51
270.0
  0
ARC
  5
B98
  8
0
 62
     0
 10
413.79153744812089
 20
334.93437109310599
 30
0.0
 40
2.00000007
 50
0.0
 51
90.000002999984659
  0
ARC
  5
B99
  8
0
 62
     0
 10
413.79153744812089
 20
359.60948209310618
 30
0.0
 40
2.00000007
 50
270.0
 51
0.0
  0
ARC
  5
B9A
  8
0
 62
     0
 10
413.79153744812089
 20
355.49276509310607
 30
0.0
 40
2.00000007
 50
270.0
 51
0.0
  0
ARC
  5
B9B
  8
0
 62
     0
 10
436.18780043518922
 20
491.9768352062913
 30
0.0
 40
25.85791635767276
 50
312.21089498138332
 51
321.08945359459182
  0
ARC
  5
B9C
  8
0
 62
     0
 10
439.09504589482827
 20
489.63600915266352
 30
0.0
 40
22.125421472431348
 50
321.07754679066932
 51
331.45391751532759
  0
ARC
  5
B9D
  8
0
 62
     0
 10
441.62788365655302
 20
488.25553665022431
 30
0.0
 40
19.240813112597721
 50
331.46075778389678
 51
343.40675810374847
  0
ARC
  5
B9E
  8
0
 62
     0
 10
443.27617706647089
 20
487.75108940541912
 30
0.0
 40
17.517107732325851
 50
343.44839024211888
 51
356.55865420886909
  0
ARC
  5
B9F
  8
0
 62
     0
 10
443.63249659242513
 20
487.70926369531611
 30
0.0
 40
17.15893215328547
 50
356.6266441072363
 51
9.9963181268263437
  0
ARC
  5
BA0
  8
0
 62
     0
 10
442.60275548575851
 20
487.5091361976838
 30
0.0
 40
18.207789015940701
 50
10.05403575813637
 51
22.65680006192159
  0
ARC
  5
BA1
  8
0
 62
     0
 10
440.45835882968339
 20
486.60484930974008
 30
0.0
 40
20.53504241024493
 50
22.680399617624339
 51
33.850687599328609
  0
ARC
  5
BA2
  8
0
 62
     0
 10
437.68234134361887
 20
484.74534284015112
 30
0.0
 40
23.8763047285337
 50
33.845837199786317
 51
43.453103272648363
  0
ARC
  5
BA3
  8
0
 62
     0
 10
434.75962881014777
 20
481.98683648971121
 30
0.0
 40
27.895204590085552
 50
43.437445357664167
 51
51.663464959092217
  0
ARC
  5
BA4
  8
0
 62
     0
 10
432.05525286379537
 20
478.58320338186508
 30
0.0
 40
32.242419798759151
 50
51.645591794863492
 51
58.76245128884802
  0
ARC
  5
BA5
  8
0
 62
     0
 10
429.79330602522998
 20
474.87193772829858
 30
0.0
 40
36.588661659950517
 50
58.747724629320523
 51
65.021604873703481
  0
ARC
  5
BA6
  8
0
 62
     0
 10
428.07112955387322
 20
471.19589586373422
 30
0.0
 40
40.648108178475887
 50
65.00921453275825
 51
70.656827845413005
  0
ARC
  5
BA7
  8
0
 62
     0
 10
426.89443732478878
 20
467.8668226520976
 30
0.0
 40
44.179011740041091
 50
70.646976440493177
 51
75.84339029037784
  0
ARC
  5
BA8
  8
0
 62
     0
 10
426.20007738863808
 20
465.14066962412971
 30
0.0
 40
46.992196052740901
 50
75.835429763259953
 51
80.721210920294965
  0
ARC
  5
BA9
  8
0
 62
     0
 10
425.87966547481449
 20
463.21314926989879
 30
0.0
 40
48.946158747558961
 50
80.714855760972569
 51
85.40582169359547
  0
ARC
  5
BAA
  8
0
 62
     0
 10
425.7939913854857
 20
462.21549010051029
 30
0.0
 40
49.947475054360069
 50
85.399525524748512
 51
90.002849375825292
  0
ARC
  5
BAB
  8
0
 62
     0
 10
452.6278723559987
 20
480.55215816355371
 30
0.0
 40
11.531188258426059
 50
54.961733045696661
 51
65.573097869750384
  0
ARC
  5
BAC
  8
0
 62
     0
 10
448.11873337007597
 20
470.94023426284201
 30
0.0
 40
22.14780369447854
 50
65.235014118465699
 51
70.760301691666484
  0
ARC
  5
BAD
  8
0
 62
     0
 10
443.99104674490781
 20
459.2895634898743
 30
0.0
 40
34.507972245406229
 50
70.663985967578142
 51
74.211955188059619
  0
ARC
  5
BAE
  8
0
 62
     0
 10
440.3409837646883
 20
446.49429306201557
 30
0.0
 40
47.813655618450071
 50
74.174767649000458
 51
76.734801608422814
  0
ARC
  5
BAF
  8
0
 62
     0
 10
437.18246180212918
 20
433.17365763106
 30
0.0
 40
61.503628056173
 50
76.718300009151534
 51
78.708742837072123
  0
ARC
  5
BB0
  8
0
 62
     0
 10
434.49764891706911
 20
419.79969228841952
 30
0.0
 40
75.144412583225545
 50
78.697861248115231
 51
80.327619397696935
  0
ARC
  5
BB1
  8
0
 62
     0
 10
432.26184587517793
 20
406.72592707511768
 30
0.0
 40
88.407975642272703
 50
80.322796410537151
 51
81.709056412658043
  0
ARC
  5
BB2
  8
0
 62
     0
 10
430.44004688301573
 20
394.26572732028001
 30
0.0
 40
101.0006520052293
 50
81.705652477329295
 51
82.917715080805408
  0
ARC
  5
BB3
  8
0
 62
     0
 10
428.99311509544123
 20
382.65624975547399
 30
0.0
 40
112.6999495369124
 50
82.915424611901315
 51
84.002908771582739
  0
ARC
  5
BB4
  8
0
 62
     0
 10
427.87944244550113
 20
372.09422254031199
 30
0.0
 40
123.3205272266208
 50
84.001013845586783
 51
84.995082969013595
  0
ARC
  5
BB5
  8
0
 62
     0
 10
427.05939843734149
 20
362.75500293765032
 30
0.0
 40
132.69568006040981
 50
84.994153636804114
 51
85.917970403987354
  0
ARC
  5
BB6
  8
0
 62
     0
 10
426.48527726273062
 20
354.77266480340211
 30
0.0
 40
140.69863692503341
 50
85.916160227986182
 51
86.787445798954835
  0
ARC
  5
BB7
  8
0
 62
     0
 10
426.12015944919551
 20
348.25669720360997
 30
0.0
 40
147.2248260443192
 50
86.787684196555631
 51
87.620374465901904
  0
ARC
  5
BB8
  8
0
 62
     0
 10
425.9103404550026
 20
343.29332219725887
 30
0.0
 40
152.19263272586269
 50
87.619035391215604
 51
88.424562995240294
  0
ARC
  5
BB9
  8
0
 62
     0
 10
425.81702096435441
 20
339.94250378229958
 30
0.0
 40
155.54475015535991
 50
88.424135763305614
 51
89.212310656469995
  0
ARC
  5
BBA
  8
0
 62
     0
 10
425.79207879640649
 20
338.24964204570142
 30
0.0
 40
157.2377948152774
 50
89.211703049610847
 51
89.9914081901495
  0
LINE
  5
BBB
  8
0
 62
     0
 10
669.80720841430616
 20
457.55620109310598
 30
0.0
 11
672.67971141430576
 21
458.006256093106
 31
0.0
  0
LINE
  5
BBC
  8
0
 62
     0
 10
663.60770341430623
 20
449.57759209310569
 30
0.0
 11
663.60770341430623
 21
385.12735909310601
 31
0.0
  0
LINE
  5
BBD
  8
0
 62
     0
 10
669.83692641430639
 20
377.14293309310602
 30
0.0
 11
672.67971741430642
 21
376.69725709310597
 31
0.0
  0
LINE
  5
BBE
  8
0
 62
     0
 10
677.48770841430644
 20
385.12629609310602
 30
0.0
 11
677.48770841430644
 21
449.57797009310571
 31
0.0
  0
LINE
  5
BBF
  8
0
 62
     0
 10
677.4877184143063
 20
449.57760009310579
 30
0.0
 11
677.47671741430611
 21
449.98659309310602
 31
0.0
  0
LINE
  5
BC0
  8
0
 62
     0
 10
677.4767304143063
 20
449.98659609310579
 30
0.0
 11
677.44172641430623
 21
450.393594093106
 31
0.0
  0
LINE
  5
BC1
  8
0
 62
     0
 10
677.44175541430604
 20
450.39359109310601
 30
0.0
 11
677.38575641430623
 21
450.79359009310599
 31
0.0
  0
LINE
  5
BC2
  8
0
 62
     0
 10
677.38573641430605
 20
450.79359109310599
 30
0.0
 11
677.30674241430609
 21
451.18458709310602
 31
0.0
  0
LINE
  5
BC3
  8
0
 62
     0
 10
677.30672041430626
 20
451.184592093106
 30
0.0
 11
677.20671341430625
 21
451.563603093106
 31
0.0
  0
LINE
  5
BC4
  8
0
 62
     0
 10
677.20668641430586
 20
451.56358509310598
 30
0.0
 11
677.08568441430623
 21
451.92758309310602
 31
0.0
  0
LINE
  5
BC5
  8
0
 62
     0
 10
677.08569141430644
 20
451.92759309310571
 30
0.0
 11
676.94470141430645
 21
452.27259209310603
 31
0.0
  0
LINE
  5
BC6
  8
0
 62
     0
 10
676.94470141430645
 20
452.27258709310598
 30
0.0
 11
676.78570441430645
 21
452.59858409310601
 31
0.0
  0
LINE
  5
BC7
  8
0
 62
     0
 10
676.78570141430623
 20
452.59858309310601
 30
0.0
 11
676.60869841430622
 21
452.90058709310603
 31
0.0
  0
LINE
  5
BC8
  8
0
 62
     0
 10
676.60873741430623
 20
452.900599093106
 30
0.0
 11
676.41572841430605
 21
453.1776000931057
 31
0.0
  0
LINE
  5
BC9
  8
0
 62
     0
 10
676.4157164143063
 20
453.17760609310602
 30
0.0
 11
676.20871441430643
 21
453.42760809310602
 31
0.0
  0
LINE
  5
BCA
  8
0
 62
     0
 10
676.20870441430623
 20
453.42758609310579
 30
0.0
 11
675.98771041430575
 21
453.64758809310592
 31
0.0
  0
LINE
  5
BCB
  8
0
 62
     0
 10
675.98772441430594
 20
453.64759409310602
 30
0.0
 11
675.75573141430607
 21
453.836589093106
 31
0.0
  0
LINE
  5
BCC
  8
0
 62
     0
 10
675.75570941430612
 20
453.83658409310601
 30
0.0
 11
675.51370341430606
 21
453.99359009310598
 31
0.0
  0
LINE
  5
BCD
  8
0
 62
     0
 10
675.51371341430615
 20
453.99359309310603
 30
0.0
 11
675.26370841430639
 21
454.11659609310601
 31
0.0
  0
LINE
  5
BCE
  8
0
 62
     0
 10
675.26370341430641
 20
454.11657009310608
 30
0.0
 11
675.00869241430644
 21
454.20556909310602
 31
0.0
  0
LINE
  5
BCF
  8
0
 62
     0
 10
675.0087014143063
 20
454.20558309310599
 30
0.0
 11
674.74870141430608
 21
454.25958509310601
 31
0.0
  0
LINE
  5
BD0
  8
0
 62
     0
 10
674.74871541430639
 20
454.25959009310583
 30
0.0
 11
674.48770841430644
 21
454.27758809310569
 31
0.0
  0
LINE
  5
BD1
  8
0
 62
     0
 10
674.48771041430643
 20
380.42725709310599
 30
0.0
 11
674.7487094143064
 21
380.44515909310599
 31
0.0
  0
LINE
  5
BD2
  8
0
 62
     0
 10
674.74870041430597
 20
380.44515709310599
 30
0.0
 11
675.00868941430645
 21
380.49875709310601
 31
0.0
  0
LINE
  5
BD3
  8
0
 62
     0
 10
675.00869641430643
 20
380.498759093106
 30
0.0
 11
675.26369941430642
 21
380.58745809310602
 31
0.0
  0
LINE
  5
BD4
  8
0
 62
     0
 10
675.26369741430642
 20
380.58746309310601
 30
0.0
 11
675.51369341430598
 21
380.7107600931061
 31
0.0
  0
LINE
  5
BD5
  8
0
 62
     0
 10
675.51371741430626
 20
380.71074609310602
 30
0.0
 11
675.75572641430597
 21
380.86765109310602
 31
0.0
  0
LINE
  5
BD6
  8
0
 62
     0
 10
675.75569241430605
 20
380.86766909310597
 30
0.0
 11
675.98769641430624
 21
381.05697709310601
 31
0.0
  0
LINE
  5
BD7
  8
0
 62
     0
 10
675.98770641430644
 20
381.05695309310602
 30
0.0
 11
676.20870541430622
 21
381.27735709310599
 31
0.0
  0
LINE
  5
BD8
  8
0
 62
     0
 10
676.20871641430642
 20
381.277355093106
 30
0.0
 11
676.41571541430642
 21
381.52695209310599
 31
0.0
  0
LINE
  5
BD9
  8
0
 62
     0
 10
676.41572041430641
 20
381.52693409310598
 30
0.0
 11
676.60873141430636
 21
381.80393809310601
 31
0.0
  0
LINE
  5
BDA
  8
0
 62
     0
 10
676.60872641430615
 20
381.80394009310618
 30
0.0
 11
676.78573041430616
 21
382.106244093106
 31
0.0
  0
LINE
  5
BDB
  8
0
 62
     0
 10
676.78570741430588
 20
382.10625309310598
 30
0.0
 11
676.94470241430622
 21
382.43155209310601
 31
0.0
  0
LINE
  5
BDC
  8
0
 62
     0
 10
676.9447154143063
 20
382.43155209310601
 30
0.0
 11
677.08570941430639
 21
382.77735709310599
 31
0.0
  0
LINE
  5
BDD
  8
0
 62
     0
 10
677.0857054143064
 20
382.77735709310599
 30
0.0
 11
677.20670741430627
 21
383.14105709310599
 31
0.0
  0
LINE
  5
BDE
  8
0
 62
     0
 10
677.20672541430611
 20
383.14104809310601
 30
0.0
 11
677.30673241430645
 21
383.51985409310601
 31
0.0
  0
LINE
  5
BDF
  8
0
 62
     0
 10
677.30672841430624
 20
383.51985409310601
 30
0.0
 11
677.38572441430597
 21
383.91085709310602
 31
0.0
  0
LINE
  5
BE0
  8
0
 62
     0
 10
677.3856824143063
 20
383.91086009310601
 30
0.0
 11
677.44168241430623
 21
384.31116009310603
 31
0.0
  0
LINE
  5
BE1
  8
0
 62
     0
 10
677.44168441430611
 20
384.31115509310598
 30
0.0
 11
677.47668841430641
 21
384.71765609310597
 31
0.0
  0
LINE
  5
BE2
  8
0
 62
     0
 10
677.47673541430629
 20
384.71765609310597
 30
0.0
 11
677.48773741430637
 21
385.12735909310601
 31
0.0
  0
ARC
  5
BE3
  8
0
 62
     0
 10
667.60770341430623
 20
449.57759209310569
 30
0.0
 40
4.0
 50
89.999982000000799
 51
179.9999639999983
  0
ARC
  5
BE4
  8
0
 62
     0
 10
683.40370941430615
 20
332.38115809310602
 30
0.0
 40
122.221001
 50
83.244493703251536
 51
97.425503999997574
  0
ARC
  5
BE5
  8
0
 62
     0
 10
685.17171441430605
 20
387.32544809310599
 30
0.0
 40
71.776710999999949
 50
79.939686999998116
 51
100.024002000001
  0
ARC
  5
BE6
  8
0
 62
     0
 10
670.67470541430623
 20
451.61925309310601
 30
0.0
 40
5.9999919999999971
 50
98.313134000004752
 51
173.06156700000071
  0
ARC
  5
BE7
  8
0
 62
     0
 10
667.60770341430623
 20
385.12735909310601
 30
0.0
 40
4.0
 50
179.99998099999939
 51
270.00001799999922
  0
ARC
  5
BE8
  8
0
 62
     0
 10
683.40370941430615
 20
502.3231600931058
 30
0.0
 40
122.221001
 50
262.57495999999588
 51
270.50140782560442
  0
ARC
  5
BE9
  8
0
 62
     0
 10
685.17171441430605
 20
447.37886209310602
 30
0.0
 40
71.776702999999983
 50
259.97597100000161
 51
268.9087630302688
  0
ARC
  5
BEA
  8
0
 62
     0
 10
670.67470541430623
 20
383.08416109310599
 30
0.0
 40
6.0000049999999989
 50
186.92133000000231
 51
261.97358199999258
  0
LINE
  5
BEB
  8
0
 62
     0
 10
699.06270311124752
 20
457.77965341021053
 30
0.0
 11
697.7097064143062
 21
457.99822809310592
 31
0.0
  0
LINE
  5
BEC
  8
0
 62
     0
 10
699.1055136774263
 20
457.91411973002317
 30
0.0
 11
697.74471341430615
 21
457.99224509310602
 31
0.0
  0
LINE
  5
BED
  8
0
 62
     0
 10
360.29154744812081
 20
343.85218959310617
 30
0.0
 11
369.29154744812081
 21
343.85218959310617
 31
0.0
  0
LINE
  5
BEE
  8
0
 62
     0
 10
359.29154744812081
 20
479.35218959310612
 30
0.0
 11
359.29154744812081
 21
463.52218959310602
 31
0.0
  0
ARC
  5
BEF
  8
0
 62
     0
 10
356.4679284481208
 20
342.45602459310612
 30
0.0
 40
2.0
 50
270.0
 51
345.0000029999984
  0
LINE
  5
BF0
  8
0
 62
     0
 10
359.29154744812081
 20
344.85218959310617
 30
0.0
 11
359.29154744812081
 21
345.26650659310621
 31
0.0
  0
LINE
  5
BF1
  8
0
 62
     0
 10
359.29154744812081
 20
344.84719559310622
 30
0.0
 11
359.29154744812081
 21
344.85218959310617
 31
0.0
  0
LINE
  5
BF2
  8
0
 62
     0
 10
359.20399144812092
 20
344.93974559310618
 30
0.0
 11
359.29154744812081
 21
344.85218959310617
 31
0.0
  0
LINE
  5
BF3
  8
0
 62
     0
 10
361.29154744812081
 20
354.35218959310617
 30
0.0
 11
360.2150244481208
 21
350.33455159310608
 31
0.0
  0
ARC
  5
BF4
  8
0
 62
     0
 10
360.28905044812092
 20
344.84969259310623
 30
0.0
 40
0.9975059999999999
 50
179.85657799999959
 51
270.14342200000038
  0
LINE
  5
BF5
  8
0
 62
     0
 10
360.29154744812081
 20
354.35218959310617
 30
0.0
 11
369.29154744812081
 21
354.35218959310617
 31
0.0
  0
LINE
  5
BF6
  8
0
 62
     0
 10
361.29154744812081
 20
352.73060859310618
 30
0.0
 11
358.39978044812079
 21
341.93838659310609
 31
0.0
  0
ARC
  5
BF7
  8
0
 62
     0
 10
358.28317244812081
 20
350.85218959310617
 30
0.0
 40
2.0
 50
270.0
 51
345.00000000000239
  0
ARC
  5
BF8
  8
0
 62
     0
 10
360.29154744812081
 20
355.35218959310617
 30
0.0
 40
1.0
 50
180.0
 51
270.0
  0
ARC
  5
BF9
  8
0
 62
     0
 10
290.29154744812081
 20
339.48999159310608
 30
0.0
 40
2.0
 50
270.0
 51
0.0
  0
ARC
  5
BFA
  8
0
 62
     0
 10
290.29154744812081
 20
339.91726959310608
 30
0.0
 40
2.0
 50
270.0
 51
0.0
  0
ARC
  5
BFB
  8
0
 62
     0
 10
290.29154744812081
 20
340.92262059310599
 30
0.0
 40
2.0
 50
270.0
 51
346.5086890000016
  0
LINE
  5
BFC
  8
0
 62
     0
 10
292.29154744812081
 20
339.48999159310608
 30
0.0
 11
292.29154744812081
 21
340.45602459310612
 31
0.0
  0
ARC
  5
BFD
  8
0
 62
     0
 10
209.29154744812081
 20
339.48999159310608
 30
0.0
 40
2.0
 50
180.0
 51
270.0
  0
LINE
  5
BFE
  8
0
 62
     0
 10
207.29154744812081
 20
341.46783359310609
 30
0.0
 11
207.29154744812081
 21
340.92262059310599
 31
0.0
  0
ARC
  5
BFF
  8
0
 62
     0
 10
209.14099744812091
 20
339.91726959310608
 30
0.0
 40
2.0
 50
195.7695469999999
 51
270.0
  0
ARC
  5
C00
  8
0
 62
     0
 10
209.29154744812081
 20
340.92262059310599
 30
0.0
 40
2.0
 50
180.0
 51
270.0
  0
ARC
  5
C01
  8
0
 62
     0
 10
209.29154744812081
 20
342.45602459310612
 30
0.0
 40
2.0
 50
180.0
 51
270.0
  0
LINE
  5
C02
  8
0
 62
     0
 10
207.29154744812081
 20
345.82382259310617
 30
0.0
 11
207.29154744812081
 21
342.45602459310612
 31
0.0
  0
ARC
  5
C03
  8
0
 62
     0
 10
205.29154744812081
 20
345.82382259310617
 30
0.0
 40
2.0
 50
0.0
 51
90.0
  0
ARC
  5
C04
  8
0
 62
     0
 10
205.29154744812081
 20
341.46783359310609
 30
0.0
 40
2.0
 50
0.0
 51
90.0
  0
ARC
  5
C05
  8
0
 62
     0
 10
205.29154744812081
 20
338.83019459310611
 30
0.0
 40
2.0
 50
15.7695469999999
 51
90.0
  0
ARC
  5
C06
  8
0
 62
     0
 10
205.29154744812081
 20
364.45113959310618
 30
0.0
 40
2.0
 50
0.0
 51
90.0
  0
LINE
  5
C07
  8
0
 62
     0
 10
207.29154744812081
 20
351.99627059310598
 30
0.0
 11
207.29154744812081
 21
364.45113959310618
 31
0.0
  0
ARC
  5
C08
  8
0
 62
     0
 10
209.29154744812081
 20
350.85218959310617
 30
0.0
 40
2.0
 50
180.0
 51
270.0
  0
ARC
  5
C09
  8
0
 62
     0
 10
205.29154744812081
 20
351.99627059310598
 30
0.0
 40
2.0
 50
0.0
 51
90.0
  0
LINE
  5
C0A
  8
0
 62
     0
 10
207.29154744812081
 20
351.99627059310598
 30
0.0
 11
207.29154744812081
 21
350.85218959310617
 31
0.0
  0
LINE
  5
C0B
  8
0
 62
     0
 10
205.29154744812081
 20
353.99627059310598
 30
0.0
 11
199.78553644812069
 21
353.99627059310598
 31
0.0
  0
LINE
  5
C0C
  8
0
 62
     0
 10
209.29154744812081
 20
348.85218959310617
 30
0.0
 11
358.28317244812081
 21
348.85218959310617
 31
0.0
  0
LINE
  5
C0D
  8
0
 62
     0
 10
199.78553644812069
 20
366.45113959310618
 30
0.0
 11
357.79154744812081
 21
366.45113959310618
 31
0.0
  0
LINE
  5
C0E
  8
0
 62
     0
 10
209.29154744812081
 20
337.48999159310608
 30
0.0
 11
290.29154744812081
 21
337.48999159310608
 31
0.0
  0
LINE
  5
C0F
  8
0
 62
     0
 10
209.14099744812091
 20
337.91726959310608
 30
0.0
 11
290.29154744812081
 21
337.91726959310608
 31
0.0
  0
LINE
  5
C10
  8
0
 62
     0
 10
209.29154744812081
 20
338.92262059310599
 30
0.0
 11
290.29154744812081
 21
338.92262059310599
 31
0.0
  0
LINE
  5
C11
  8
0
 62
     0
 10
209.29154744812081
 20
340.45602459310612
 30
0.0
 11
356.4679284481208
 21
340.45602459310612
 31
0.0
  0
LINE
  5
C12
  8
0
 62
     0
 10
205.29154744812081
 20
340.83019459310611
 30
0.0
 11
199.78553644812069
 21
340.83019459310611
 31
0.0
  0
LINE
  5
C13
  8
0
 62
     0
 10
205.29154744812081
 20
343.46783359310609
 30
0.0
 11
199.78553644812069
 21
343.46783359310609
 31
0.0
  0
LINE
  5
C14
  8
0
 62
     0
 10
205.29154744812081
 20
347.82382259310617
 30
0.0
 11
199.78553644812069
 21
347.82382259310617
 31
0.0
  0
LINE
  5
C15
  8
0
 62
     0
 10
360.29154744812081
 20
480.35218959310578
 30
0.0
 11
369.29154744812081
 21
480.35218959310578
 31
0.0
  0
LINE
  5
C16
  8
0
 62
     0
 10
361.29154744812081
 20
480.35218959310578
 30
0.0
 11
360.2150244481208
 21
484.36982759310598
 31
0.0
  0
ARC
  5
C17
  8
0
 62
     0
 10
360.29154744812081
 20
479.35218959310612
 30
0.0
 40
1.0
 50
90.0
 51
180.0
  0
LINE
  5
C18
  8
0
 62
     0
 10
359.20399144812092
 20
489.76463359310583
 30
0.0
 11
359.29154744812081
 21
489.852189593106
 31
0.0
  0
LINE
  5
C19
  8
0
 62
     0
 10
359.29154744812081
 20
489.85718359310579
 30
0.0
 11
359.29154744812081
 21
489.852189593106
 31
0.0
  0
ARC
  5
C1A
  8
0
 62
     0
 10
360.28905044812092
 20
489.85468659310578
 30
0.0
 40
0.9975059999999999
 50
89.856577999999615
 51
180.14342200000019
  0
LINE
  5
C1B
  8
0
 62
     0
 10
359.29154744812081
 20
489.852189593106
 30
0.0
 11
359.29154744812081
 21
489.43787259310602
 31
0.0
  0
LINE
  5
C1C
  8
0
 62
     0
 10
360.29154744812081
 20
490.852189593106
 30
0.0
 11
369.29154744812081
 21
490.852189593106
 31
0.0
  0
LINE
  5
C1D
  8
0
 62
     0
 10
361.29154744812081
 20
481.973770593106
 30
0.0
 11
358.39978044812079
 21
492.76599259310598
 31
0.0
  0
ARC
  5
C1E
  8
0
 62
     0
 10
358.28317244812081
 20
483.852189593106
 30
0.0
 40
2.0
 50
14.9999999999976
 51
90.0
  0
ARC
  5
C1F
  8
0
 62
     0
 10
356.4679284481208
 20
492.248354593106
 30
0.0
 40
2.0
 50
14.999997000001709
 51
90.0
  0
LINE
  5
C20
  8
0
 62
     0
 10
292.29154744812081
 20
495.2143875931057
 30
0.0
 11
292.29154744812081
 21
494.248354593106
 31
0.0
  0
ARC
  5
C21
  8
0
 62
     0
 10
290.29154744812081
 20
493.78175859310602
 30
0.0
 40
2.0
 50
13.491310999998401
 51
90.0
  0
ARC
  5
C22
  8
0
 62
     0
 10
290.29154744812081
 20
494.7871095931057
 30
0.0
 40
2.0
 50
0.0
 51
90.0
  0
ARC
  5
C23
  8
0
 62
     0
 10
290.29154744812081
 20
495.2143875931057
 30
0.0
 40
2.0
 50
0.0
 51
90.0
  0
LINE
  5
C24
  8
0
 62
     0
 10
207.29154744812081
 20
482.70810859310609
 30
0.0
 11
207.29154744812081
 21
483.852189593106
 31
0.0
  0
ARC
  5
C25
  8
0
 62
     0
 10
205.29154744812081
 20
482.70810859310609
 30
0.0
 40
2.0
 50
270.0
 51
0.0
  0
ARC
  5
C26
  8
0
 62
     0
 10
209.29154744812081
 20
483.852189593106
 30
0.0
 40
2.0
 50
90.0
 51
180.0
  0
LINE
  5
C27
  8
0
 62
     0
 10
207.29154744812081
 20
482.70810859310609
 30
0.0
 11
207.29154744812081
 21
470.253239593106
 31
0.0
  0
ARC
  5
C28
  8
0
 62
     0
 10
205.29154744812081
 20
470.253239593106
 30
0.0
 40
2.0
 50
270.0
 51
0.0
  0
LINE
  5
C29
  8
0
 62
     0
 10
207.29154744812081
 20
488.88055659310578
 30
0.0
 11
207.29154744812081
 21
492.248354593106
 31
0.0
  0
ARC
  5
C2A
  8
0
 62
     0
 10
205.29154744812081
 20
488.88055659310578
 30
0.0
 40
2.0
 50
270.0
 51
0.0
  0
ARC
  5
C2B
  8
0
 62
     0
 10
209.29154744812081
 20
492.248354593106
 30
0.0
 40
2.0
 50
90.0
 51
180.0
  0
ARC
  5
C2C
  8
0
 62
     0
 10
205.29154744812081
 20
493.23654559310597
 30
0.0
 40
2.0
 50
270.0
 51
0.0
  0
ARC
  5
C2D
  8
0
 62
     0
 10
209.29154744812081
 20
493.78175859310602
 30
0.0
 40
2.0
 50
90.0
 51
180.0
  0
ARC
  5
C2E
  8
0
 62
     0
 10
205.29154744812081
 20
495.87418459310612
 30
0.0
 40
2.0
 50
270.0
 51
344.23045300000013
  0
ARC
  5
C2F
  8
0
 62
     0
 10
209.14099744812091
 20
494.7871095931057
 30
0.0
 40
2.0
 50
90.0
 51
164.2304530000001
  0
LINE
  5
C30
  8
0
 62
     0
 10
207.29154744812081
 20
493.23654559310597
 30
0.0
 11
207.29154744812081
 21
493.78175859310602
 31
0.0
  0
ARC
  5
C31
  8
0
 62
     0
 10
209.29154744812081
 20
495.2143875931057
 30
0.0
 40
2.0
 50
90.0
 51
180.0
  0
LINE
  5
C32
  8
0
 62
     0
 10
205.29154744812081
 20
493.87418459310601
 30
0.0
 11
199.78553644812069
 21
493.87418459310601
 31
0.0
  0
LINE
  5
C33
  8
0
 62
     0
 10
205.29154744812081
 20
491.23654559310597
 30
0.0
 11
199.78553644812069
 21
491.23654559310597
 31
0.0
  0
LINE
  5
C34
  8
0
 62
     0
 10
205.29154744812081
 20
486.88055659310618
 30
0.0
 11
199.78553644812069
 21
486.88055659310618
 31
0.0
  0
LINE
  5
C35
  8
0
 62
     0
 10
205.29154744812081
 20
480.70810859310569
 30
0.0
 11
199.78553644812069
 21
480.70810859310569
 31
0.0
  0
LINE
  5
C36
  8
0
 62
     0
 10
209.29154744812081
 20
497.21438759310598
 30
0.0
 11
290.29154744812081
 21
497.21438759310598
 31
0.0
  0
LINE
  5
C37
  8
0
 62
     0
 10
209.14099744812091
 20
496.78710959310598
 30
0.0
 11
290.29154744812081
 21
496.78710959310598
 31
0.0
  0
LINE
  5
C38
  8
0
 62
     0
 10
209.29154744812081
 20
495.78175859310602
 30
0.0
 11
290.29154744812081
 21
495.78175859310602
 31
0.0
  0
LINE
  5
C39
  8
0
 62
     0
 10
209.29154744812081
 20
494.248354593106
 30
0.0
 11
356.4679284481208
 21
494.248354593106
 31
0.0
  0
LINE
  5
C3A
  8
0
 62
     0
 10
209.29154744812081
 20
485.852189593106
 30
0.0
 11
358.28317244812081
 21
485.852189593106
 31
0.0
  0
LINE
  5
C3B
  8
0
 62
     0
 10
199.78553644812069
 20
468.253239593106
 30
0.0
 11
357.79154744812081
 21
468.253239593106
 31
0.0
  0
LINE
  5
C3C
  8
0
 62
     0
 10
359.29154744812081
 20
373.52218959310608
 30
0.0
 11
359.29154744812081
 21
381.16218959310618
 31
0.0
  0
LINE
  5
C3D
  8
0
 62
     0
 10
359.29154744812081
 20
461.18213159310591
 30
0.0
 11
359.29154744812081
 21
453.542189593106
 31
0.0
  0
ARC
  5
C3E
  8
0
 62
     0
 10
360.29090844812077
 20
370.3106585931061
 30
0.0
 40
1.0026319999999971
 50
0.0540849999984558
 51
81.243759000000509
  0
LINE
  5
C3F
  8
0
 62
     0
 10
360.44354044812081
 20
371.30160559310599
 30
0.0
 11
358.68474144812092
 21
371.57218959310597
 31
0.0
  0
LINE
  5
C40
  8
0
 62
     0
 10
360.43354044812082
 20
373.39160559310608
 30
0.0
 11
358.83085244812082
 21
373.17218959310622
 31
0.0
  0
ARC
  5
C41
  8
0
 62
     0
 10
360.28657244812081
 20
374.387809593106
 30
0.0
 40
1.006985999999999
 50
278.39216299999862
 51
359.64700199999788
  0
LINE
  5
C42
  8
0
 62
     0
 10
361.29354044812078
 20
374.38160559310609
 30
0.0
 11
361.29354044812078
 21
370.31160559310598
 31
0.0
  0
ARC
  5
C43
  8
0
 62
     0
 10
358.75018444812082
 20
372.35824959310622
 30
0.0
 40
0.8033630000000001
 50
0.2393300000011745
 51
89.760669999998839
  0
ARC
  5
C44
  8
0
 62
     0
 10
358.74847844812069
 20
372.36666759310617
 30
0.0
 40
0.8050779999999997
 50
270.3602510000016
 51
359.6397490000017
  0
ARC
  5
C45
  8
0
 62
     0
 10
360.28657244812081
 20
460.31656959310601
 30
0.0
 40
1.006985999999999
 50
0.3529979999987895
 51
81.607837000001453
  0
LINE
  5
C46
  8
0
 62
     0
 10
360.43354044812082
 20
461.3127735931057
 30
0.0
 11
358.83085244812082
 21
461.53218959310578
 31
0.0
  0
ARC
  5
C47
  8
0
 62
     0
 10
360.29090844812077
 20
464.39372059310591
 30
0.0
 40
1.0026319999999971
 50
278.75624099999948
 51
359.94591499999831
  0
LINE
  5
C48
  8
0
 62
     0
 10
361.29354044812078
 20
460.32277359310569
 30
0.0
 11
361.29354044812078
 21
464.39277359310603
 31
0.0
  0
LINE
  5
C49
  8
0
 62
     0
 10
360.44354044812081
 20
463.40277359310602
 30
0.0
 11
358.68474144812092
 21
463.13218959310581
 31
0.0
  0
ARC
  5
C4A
  8
0
 62
     0
 10
358.75018444812082
 20
462.34612959310579
 30
0.0
 40
0.8033630000000001
 50
270.23933000000108
 51
359.76067000000199
  0
ARC
  5
C4B
  8
0
 62
     0
 10
358.74847844812069
 20
462.33771159310578
 30
0.0
 40
0.8050779999999997
 50
0.3602510000016315
 51
89.639748999998375
  0
LINE
  5
C4C
  8
0
 62
     0
 10
359.29154744812081
 20
455.21613459310601
 30
0.0
 11
369.29154744812081
 21
455.21613459310601
 31
0.0
  0
LINE
  5
C4D
  8
0
 62
     0
 10
359.29154744812081
 20
379.49824459310622
 30
0.0
 11
369.29154744812081
 21
379.49824459310622
 31
0.0
  0
LINE
  5
C4E
  8
0
 62
     0
 10
360.4315474481208
 20
413.38218959310609
 30
0.0
 11
358.75154744812079
 21
413.15218959310607
 31
0.0
  0
LINE
  5
C4F
  8
0
 62
     0
 10
360.44154744812079
 20
411.292189593106
 30
0.0
 11
358.75154744812079
 21
411.55218959310599
 31
0.0
  0
LINE
  5
C50
  8
0
 62
     0
 10
361.29154744812081
 20
414.3721895931061
 30
0.0
 11
361.29154744812081
 21
410.30218959310599
 31
0.0
  0
LINE
  5
C51
  8
0
 62
     0
 10
360.4315474481208
 20
403.38218959310569
 30
0.0
 11
358.75154744812079
 21
403.15218959310602
 31
0.0
  0
LINE
  5
C52
  8
0
 62
     0
 10
360.44154744812079
 20
401.292189593106
 30
0.0
 11
358.75154744812079
 21
401.55218959310571
 31
0.0
  0
LINE
  5
C53
  8
0
 62
     0
 10
361.29154744812081
 20
404.3721895931061
 30
0.0
 11
361.29154744812081
 21
400.30218959310599
 31
0.0
  0
LINE
  5
C54
  8
0
 62
     0
 10
360.44154744812079
 20
391.29218959310617
 30
0.0
 11
358.75154744812079
 21
391.55218959310599
 31
0.0
  0
LINE
  5
C55
  8
0
 62
     0
 10
360.4315474481208
 20
393.38218959310609
 30
0.0
 11
358.75154744812079
 21
393.15218959310607
 31
0.0
  0
LINE
  5
C56
  8
0
 62
     0
 10
361.29154744812081
 20
394.37218959310599
 30
0.0
 11
361.29154744812081
 21
390.30218959310611
 31
0.0
  0
LINE
  5
C57
  8
0
 62
     0
 10
361.29154744812081
 20
384.37218959310599
 30
0.0
 11
361.29154744812081
 21
380.37218959310599
 31
0.0
  0
LINE
  5
C58
  8
0
 62
     0
 10
360.4315474481208
 20
383.3821895931062
 30
0.0
 11
358.75154744812079
 21
383.15218959310607
 31
0.0
  0
LINE
  5
C59
  8
0
 62
     0
 10
360.44154744812079
 20
381.29218959310617
 30
0.0
 11
358.75154744812079
 21
381.55218959310599
 31
0.0
  0
ARC
  5
C5A
  8
0
 62
     0
 10
358.74315244812078
 20
412.35218959310612
 30
0.0
 40
0.8000439999999999
 50
270.6012089999997
 51
89.398791000000301
  0
ARC
  5
C5B
  8
0
 62
     0
 10
360.2889154481208
 20
410.30124359310582
 30
0.0
 40
1.0026319999999971
 50
0.0540849999984558
 51
81.243759000000509
  0
ARC
  5
C5C
  8
0
 62
     0
 10
360.28458044812089
 20
414.37839359310573
 30
0.0
 40
1.006985999999999
 50
278.39216299999862
 51
359.64700199999788
  0
ARC
  5
C5D
  8
0
 62
     0
 10
358.74648544812078
 20
402.35725159310613
 30
0.0
 40
0.8050779999999997
 50
270.3602510000016
 51
359.6397490000017
  0
ARC
  5
C5E
  8
0
 62
     0
 10
360.2889154481208
 20
400.30124359310599
 30
0.0
 40
1.0026319999999971
 50
0.0540849999984558
 51
81.243759000000509
  0
ARC
  5
C5F
  8
0
 62
     0
 10
360.28458044812089
 20
404.37839359310613
 30
0.0
 40
1.006985999999999
 50
278.39216299999862
 51
359.64700199999788
  0
ARC
  5
C60
  8
0
 62
     0
 10
358.74819144812079
 20
392.34883359310618
 30
0.0
 40
0.8033630000000001
 50
0.2393300000011745
 51
89.760669999998839
  0
ARC
  5
C61
  8
0
 62
     0
 10
358.74648544812078
 20
392.35725159310613
 30
0.0
 40
0.8050779999999997
 50
270.3602510000016
 51
359.6397490000017
  0
ARC
  5
C62
  8
0
 62
     0
 10
360.28458044812089
 20
394.37839359310618
 30
0.0
 40
1.006985999999999
 50
278.39216299999862
 51
359.64700199999788
  0
ARC
  5
C63
  8
0
 62
     0
 10
360.2889154481208
 20
390.30124359310599
 30
0.0
 40
1.0026319999999971
 50
0.0540849999984558
 51
81.243759000000509
  0
ARC
  5
C64
  8
0
 62
     0
 10
360.28458044812089
 20
384.37839359310618
 30
0.0
 40
1.006985999999999
 50
278.39216299999862
 51
359.64700199999788
  0
ARC
  5
C65
  8
0
 62
     0
 10
360.2889154481208
 20
380.30124359310599
 30
0.0
 40
1.0026319999999971
 50
0.0540849999984558
 51
81.243759000000509
  0
ARC
  5
C66
  8
0
 62
     0
 10
358.74648544812078
 20
382.35725159310613
 30
0.0
 40
0.8050779999999997
 50
270.3602510000016
 51
359.6397490000017
  0
ARC
  5
C67
  8
0
 62
     0
 10
358.74819144812079
 20
382.34883359310601
 30
0.0
 40
0.8033630000000001
 50
0.2393300000011745
 51
89.760669999998839
  0
ARC
  5
C68
  8
0
 62
     0
 10
358.74819144812079
 20
402.34883359310618
 30
0.0
 40
0.8033630000000001
 50
0.2393300000011745
 51
89.760669999998839
  0
LINE
  5
C69
  8
0
 62
     0
 10
357.6856434481208
 20
413.36218959310571
 30
0.0
 11
360.28546044812077
 21
413.36218959310571
 31
0.0
  0
LINE
  5
C6A
  8
0
 62
     0
 10
357.6856434481208
 20
411.33218959310602
 30
0.0
 11
360.1815474481208
 21
411.33218959310602
 31
0.0
  0
LINE
  5
C6B
  8
0
 62
     0
 10
357.6856434481208
 20
403.38218959310569
 30
0.0
 11
360.4315474481208
 21
403.38218959310569
 31
0.0
  0
LINE
  5
C6C
  8
0
 62
     0
 10
357.6856434481208
 20
401.30218959310599
 30
0.0
 11
360.34154744812082
 21
401.30218959310599
 31
0.0
  0
LINE
  5
C6D
  8
0
 62
     0
 10
357.6856434481208
 20
393.4321895931061
 30
0.0
 11
360.79676444812083
 21
393.4321895931061
 31
0.0
  0
LINE
  5
C6E
  8
0
 62
     0
 10
357.6856434481208
 20
391.25218959310621
 30
0.0
 11
360.70154744812089
 21
391.25218959310621
 31
0.0
  0
LINE
  5
C6F
  8
0
 62
     0
 10
357.6856434481208
 20
383.50218959310621
 30
0.0
 11
360.78085444812092
 21
383.50218959310621
 31
0.0
  0
LINE
  5
C70
  8
0
 62
     0
 10
357.6856434481208
 20
381.16218959310618
 30
0.0
 11
360.80276644812091
 21
381.16218959310618
 31
0.0
  0
LINE
  5
C71
  8
0
 62
     0
 10
357.6856434481208
 20
383.15218959310607
 30
0.0
 11
358.75154744812079
 21
383.15218959310607
 31
0.0
  0
LINE
  5
C72
  8
0
 62
     0
 10
357.6856434481208
 20
413.15218959310607
 30
0.0
 11
358.75154744812079
 21
413.15218959310607
 31
0.0
  0
LINE
  5
C73
  8
0
 62
     0
 10
357.6856434481208
 20
411.55218959310599
 30
0.0
 11
358.75154744812079
 21
411.55218959310599
 31
0.0
  0
LINE
  5
C74
  8
0
 62
     0
 10
357.6856434481208
 20
403.15218959310602
 30
0.0
 11
358.75154744812079
 21
403.15218959310602
 31
0.0
  0
LINE
  5
C75
  8
0
 62
     0
 10
357.6856434481208
 20
401.55218959310571
 30
0.0
 11
358.75154744812079
 21
401.55218959310571
 31
0.0
  0
LINE
  5
C76
  8
0
 62
     0
 10
357.6856434481208
 20
393.15218959310607
 30
0.0
 11
358.75154744812079
 21
393.15218959310607
 31
0.0
  0
LINE
  5
C77
  8
0
 62
     0
 10
357.6856434481208
 20
391.55218959310599
 30
0.0
 11
358.75154744812079
 21
391.55218959310599
 31
0.0
  0
LINE
  5
C78
  8
0
 62
     0
 10
357.6856434481208
 20
381.55218959310599
 30
0.0
 11
358.75154744812079
 21
381.55218959310599
 31
0.0
  0
LINE
  5
C79
  8
0
 62
     0
 10
360.4315474481208
 20
443.38218959310598
 30
0.0
 11
358.75154744812079
 21
443.15218959310602
 31
0.0
  0
LINE
  5
C7A
  8
0
 62
     0
 10
360.44154744812079
 20
441.29218959310577
 30
0.0
 11
358.75154744812079
 21
441.55218959310599
 31
0.0
  0
LINE
  5
C7B
  8
0
 62
     0
 10
361.29154744812081
 20
444.37218959310599
 30
0.0
 11
361.29154744812081
 21
440.30218959310582
 31
0.0
  0
LINE
  5
C7C
  8
0
 62
     0
 10
360.4315474481208
 20
433.38218959310609
 30
0.0
 11
358.75154744812079
 21
433.15218959310602
 31
0.0
  0
LINE
  5
C7D
  8
0
 62
     0
 10
360.44154744812079
 20
431.29218959310617
 30
0.0
 11
358.75154744812079
 21
431.55218959310599
 31
0.0
  0
LINE
  5
C7E
  8
0
 62
     0
 10
361.29154744812081
 20
434.3721895931061
 30
0.0
 11
361.29154744812081
 21
430.30218959310599
 31
0.0
  0
LINE
  5
C7F
  8
0
 62
     0
 10
360.4315474481208
 20
423.38218959310569
 30
0.0
 11
358.75154744812079
 21
423.15218959310579
 31
0.0
  0
LINE
  5
C80
  8
0
 62
     0
 10
360.44154744812079
 20
421.29218959310572
 30
0.0
 11
358.75154744812079
 21
421.55218959310582
 31
0.0
  0
LINE
  5
C81
  8
0
 62
     0
 10
361.29154744812081
 20
424.37218959310582
 30
0.0
 11
361.29154744812081
 21
420.30218959310571
 31
0.0
  0
LINE
  5
C82
  8
0
 62
     0
 10
361.29154744812081
 20
454.3721895931061
 30
0.0
 11
361.29154744812081
 21
450.30218959310599
 31
0.0
  0
LINE
  5
C83
  8
0
 62
     0
 10
360.4315474481208
 20
453.38218959310609
 30
0.0
 11
358.75154744812079
 21
453.15218959310602
 31
0.0
  0
LINE
  5
C84
  8
0
 62
     0
 10
360.44154744812079
 20
451.292189593106
 30
0.0
 11
358.75154744812079
 21
451.55218959310571
 31
0.0
  0
ARC
  5
C85
  8
0
 62
     0
 10
358.74309144812082
 20
442.35319559310608
 30
0.0
 40
0.80105
 50
270.6048560000001
 51
80.04681700000134
  0
ARC
  5
C86
  8
0
 62
     0
 10
360.2889154481208
 20
440.30124359310571
 30
0.0
 40
1.0026319999999971
 50
0.0540849999984558
 51
81.243759000000509
  0
ARC
  5
C87
  8
0
 62
     0
 10
360.28458044812089
 20
444.37839359310601
 30
0.0
 40
1.006985999999999
 50
278.39216299999862
 51
359.64700199999788
  0
ARC
  5
C88
  8
0
 62
     0
 10
358.74315244812078
 20
432.352189593106
 30
0.0
 40
0.8000439999999999
 50
270.6012089999997
 51
89.398791000000301
  0
ARC
  5
C89
  8
0
 62
     0
 10
360.2889154481208
 20
430.30124359310582
 30
0.0
 40
1.0026319999999971
 50
0.0540849999984558
 51
81.243759000000509
  0
ARC
  5
C8A
  8
0
 62
     0
 10
360.28458044812089
 20
434.37839359310578
 30
0.0
 40
1.006985999999999
 50
278.39216299999862
 51
359.64700199999788
  0
ARC
  5
C8B
  8
0
 62
     0
 10
358.74315244812078
 20
422.35218959310578
 30
0.0
 40
0.8000439999999999
 50
270.6012089999997
 51
89.398791000000301
  0
ARC
  5
C8C
  8
0
 62
     0
 10
360.2889154481208
 20
420.30124359310599
 30
0.0
 40
1.0026319999999971
 50
0.0540849999984558
 51
81.243759000000509
  0
ARC
  5
C8D
  8
0
 62
     0
 10
360.28458044812089
 20
424.37839359310618
 30
0.0
 40
1.006985999999999
 50
278.39216299999862
 51
359.64700199999788
  0
ARC
  5
C8E
  8
0
 62
     0
 10
360.2889154481208
 20
450.30124359310611
 30
0.0
 40
1.0026319999999971
 50
0.0540849999984558
 51
81.243759000000509
  0
ARC
  5
C8F
  8
0
 62
     0
 10
360.28458044812089
 20
454.37839359310613
 30
0.0
 40
1.006985999999999
 50
278.39216299999862
 51
359.64700199999788
  0
ARC
  5
C90
  8
0
 62
     0
 10
358.74309244812082
 20
452.353405593106
 30
0.0
 40
0.801261
 50
270.60461099999839
 51
94.506741999999505
  0
LINE
  5
C91
  8
0
 62
     0
 10
357.6856434481208
 20
443.45218959310603
 30
0.0
 11
360.6797614481207
 21
443.45218959310603
 31
0.0
  0
LINE
  5
C92
  8
0
 62
     0
 10
357.6856434481208
 20
441.27218959310608
 30
0.0
 11
360.5389844481208
 21
441.27218959310608
 31
0.0
  0
LINE
  5
C93
  8
0
 62
     0
 10
357.6856434481208
 20
433.39218959310608
 30
0.0
 11
360.48810744812079
 21
433.39218959310608
 31
0.0
  0
LINE
  5
C94
  8
0
 62
     0
 10
357.6856434481208
 20
431.3121895931057
 30
0.0
 11
360.31154744812079
 21
431.3121895931057
 31
0.0
  0
LINE
  5
C95
  8
0
 62
     0
 10
357.6856434481208
 20
423.37218959310599
 30
0.0
 11
360.35850444812081
 21
423.37218959310599
 31
0.0
  0
LINE
  5
C96
  8
0
 62
     0
 10
357.6856434481208
 20
421.33218959310602
 30
0.0
 11
360.1815474481208
 21
421.33218959310602
 31
0.0
  0
LINE
  5
C97
  8
0
 62
     0
 10
357.6856434481208
 20
453.542189593106
 30
0.0
 11
360.84563644812079
 21
453.542189593106
 31
0.0
  0
LINE
  5
C98
  8
0
 62
     0
 10
357.6856434481208
 20
451.19218959310598
 30
0.0
 11
360.74879144812093
 21
451.19218959310598
 31
0.0
  0
LINE
  5
C99
  8
0
 62
     0
 10
357.6856434481208
 20
453.15218959310602
 30
0.0
 11
358.80605244812079
 21
453.15218959310602
 31
0.0
  0
LINE
  5
C9A
  8
0
 62
     0
 10
357.6856434481208
 20
451.55218959310571
 30
0.0
 11
358.75154744812079
 21
451.55218959310571
 31
0.0
  0
LINE
  5
C9B
  8
0
 62
     0
 10
357.6856434481208
 20
443.15218959310602
 30
0.0
 11
358.80045244812078
 21
443.15218959310602
 31
0.0
  0
LINE
  5
C9C
  8
0
 62
     0
 10
357.6856434481208
 20
441.55218959310599
 30
0.0
 11
358.75154744812079
 21
441.55218959310599
 31
0.0
  0
LINE
  5
C9D
  8
0
 62
     0
 10
357.6856434481208
 20
433.15218959310602
 30
0.0
 11
358.75154744812079
 21
433.15218959310602
 31
0.0
  0
LINE
  5
C9E
  8
0
 62
     0
 10
357.6856434481208
 20
431.55218959310599
 30
0.0
 11
358.75154744812079
 21
431.55218959310599
 31
0.0
  0
LINE
  5
C9F
  8
0
 62
     0
 10
357.6856434481208
 20
423.15218959310579
 30
0.0
 11
358.75154744812079
 21
423.15218959310579
 31
0.0
  0
LINE
  5
CA0
  8
0
 62
     0
 10
357.6856434481208
 20
421.55218959310582
 30
0.0
 11
358.75154744812079
 21
421.55218959310582
 31
0.0
  0
ARC
  5
CA1
  8
0
 62
     0
 10
280.98775044812089
 20
406.05226959310602
 30
0.0
 40
2.6000000000000001
 50
137.1002180000024
 51
180.0
  0
ARC
  5
CA2
  8
0
 62
     0
 10
280.98775044812089
 20
428.65210959310599
 30
0.0
 40
2.6000000000000001
 50
180.0
 51
222.8997819999976
  0
ARC
  5
CA3
  8
0
 62
     0
 10
268.82749544812089
 20
417.352189593106
 30
0.0
 40
14.0
 50
317.10021800000243
 51
42.899781999997558
  0
LINE
  5
CA4
  8
0
 62
     0
 10
357.6856434481208
 20
380.62150859310623
 30
0.0
 11
357.6856434481208
 21
454.08005159310602
 31
0.0
  0
LINE
  5
CA5
  8
0
 62
     0
 10
352.58565344812058
 20
384.2444925931062
 30
0.0
 11
352.58565344812058
 21
450.46420659310598
 31
0.0
  0
LINE
  5
CA6
  8
0
 62
     0
 10
349.26865144812092
 20
384.04769259310598
 30
0.0
 11
349.26865144812092
 21
450.65669459310578
 31
0.0
  0
LINE
  5
CA7
  8
0
 62
     0
 10
274.92905244812079
 20
384.68945059310607
 30
0.0
 11
274.92905244812079
 21
404.44269359310613
 31
0.0
  0
LINE
  5
CA8
  8
0
 62
     0
 10
274.92905244812079
 20
450.01078959310581
 30
0.0
 11
274.92905244812079
 21
430.2616895931061
 31
0.0
  0
LINE
  5
CA9
  8
0
 62
     0
 10
269.4399504481209
 20
452.30339359310602
 30
0.0
 11
269.4399504481209
 21
382.40098559310599
 31
0.0
  0
LINE
  5
CAA
  8
0
 62
     0
 10
267.37614944812071
 20
452.16858959310571
 30
0.0
 11
267.37614944812071
 21
382.53578559310608
 31
0.0
  0
LINE
  5
CAB
  8
0
 62
     0
 10
278.38775044812093
 20
384.81999359310618
 30
0.0
 11
278.38775044812093
 21
406.05226959310602
 31
0.0
  0
LINE
  5
CAC
  8
0
 62
     0
 10
278.38775044812093
 20
428.65210959310599
 30
0.0
 11
278.38775044812093
 21
446.9344875931057
 31
0.0
  0
ARC
  5
CAD
  8
0
 62
     0
 10
349.58565344812081
 20
384.2444925931062
 30
0.0
 40
3.0
 50
273.55702099999962
 51
0.0000179999992061
  0
ARC
  5
CAE
  8
0
 62
     0
 10
354.08565344812069
 20
380.63198959310603
 30
0.0
 40
3.6000059999999969
 50
273.96599900000109
 51
0.0000179999992061
  0
ARC
  5
CAF
  8
0
 62
     0
 10
278.52905044812093
 20
384.69359359310607
 30
0.0
 40
3.6000009999999989
 50
180.00007799999861
 51
266.68501399999963
  0
ARC
  5
CB0
  8
0
 62
     0
 10
312.79154744812081
 20
976.20216559310575
 30
0.0
 40
596.09997599999986
 50
266.68505800000048
 51
273.5570069999996
  0
ARC
  5
CB1
  8
0
 62
     0
 10
275.0399524481208
 20
382.40099059310597
 30
0.0
 40
5.599998999999996
 50
180.00005699999841
 51
266.36204099999878
  0
ARC
  5
CB2
  8
0
 62
     0
 10
272.9761524481209
 20
382.53579059310613
 30
0.0
 40
5.600000999999998
 50
180.00005699999841
 51
266.16303700000037
  0
ARC
  5
CB3
  8
0
 62
     0
 10
312.79154744812081
 20
976.20216559310575
 30
0.0
 40
600.59997599999986
 50
266.16305400000141
 51
273.96601300000128
  0
ARC
  5
CB4
  8
0
 62
     0
 10
346.26865144812092
 20
384.04769259310598
 30
0.0
 40
3.0
 50
273.23604300000119
 51
0.0000179999992061
  0
ARC
  5
CB5
  8
0
 62
     0
 10
349.58565344812081
 20
450.45989359310607
 30
0.0
 40
3.0000029999999982
 50
0.0000179999992061
 51
86.443252999999871
  0
ARC
  5
CB6
  8
0
 62
     0
 10
354.08565344812069
 20
454.07219059310597
 30
0.0
 40
3.5999989999999982
 50
0.0000179999992061
 51
86.033744000000837
  0
ARC
  5
CB7
  8
0
 62
     0
 10
278.52905044812093
 20
450.01078959310581
 30
0.0
 40
3.5999979999999989
 50
93.315004999999587
 51
179.99998200000081
  0
ARC
  5
CB8
  8
0
 62
     0
 10
312.79154744812081
 20
-141.49778640689379
 30
0.0
 40
596.09997599999986
 50
86.44328999999945
 51
93.31508899999956
  0
ARC
  5
CB9
  8
0
 62
     0
 10
275.0399524481208
 20
452.30339159310603
 30
0.0
 40
5.5999980000000003
 50
93.638056000000859
 51
179.99998200000081
  0
ARC
  5
CBA
  8
0
 62
     0
 10
272.9761524481209
 20
452.16858859310582
 30
0.0
 40
5.5999980000000003
 50
93.837062000000586
 51
179.99998200000081
  0
ARC
  5
CBB
  8
0
 62
     0
 10
312.79154744812081
 20
-141.49778640689379
 30
0.0
 40
600.59997599999986
 50
86.033760000000385
 51
93.836910000000643
  0
ARC
  5
CBC
  8
0
 62
     0
 10
346.26865144812092
 20
450.65669359310601
 30
0.0
 40
2.999998999999999
 50
0.0000179999992061
 51
86.764376000000055
  0
ARC
  5
CBD
  8
0
 62
     0
 10
276.92905244812079
 20
430.2616895931061
 30
0.0
 40
1.999997
 50
179.99998200000081
 51
229.4100490000007
  0
ARC
  5
CBE
  8
0
 62
     0
 10
276.92905244812079
 20
404.44269359310613
 30
0.0
 40
2.0
 50
130.59005899999829
 51
179.99998200000081
  0
ARC
  5
CBF
  8
0
 62
     0
 10
265.86815044812079
 20
417.352189593106
 30
0.0
 40
15.000002
 50
310.58999199999971
 51
49.40970199999888
  0
ARC
  5
CC0
  8
0
 62
     0
 10
356.89155644812081
 20
471.6611635931061
 30
0.0
 40
2.2000009999999981
 50
180.00000300000079
 51
269.99997799999852
  0
ARC
  5
CC1
  8
0
 62
     0
 10
356.89155644812081
 20
476.26116959310599
 30
0.0
 40
2.1999970000000002
 50
90.0
 51
179.99998200000081
  0
LINE
  5
CC2
  8
0
 62
     0
 10
359.29154744812081
 20
473.91172159310582
 30
0.0
 11
357.9915474481208
 21
473.16116659310609
 31
0.0
  0
LINE
  5
CC3
  8
0
 62
     0
 10
359.29154744812081
 20
474.91172159310599
 30
0.0
 11
357.9915474481208
 21
474.16116659310609
 31
0.0
  0
LINE
  5
CC4
  8
0
 62
     0
 10
357.9915474481208
 20
478.56116659310601
 30
0.0
 11
359.29154744812081
 21
478.56116659310601
 31
0.0
  0
LINE
  5
CC5
  8
0
 62
     0
 10
357.9915474481208
 20
469.36116659310608
 30
0.0
 11
359.29154744812081
 21
469.36116659310608
 31
0.0
  0
LINE
  5
CC6
  8
0
 62
     0
 10
359.29154744812081
 20
478.56116659310601
 30
0.0
 11
359.29154744812081
 21
469.36116659310608
 31
0.0
  0
LINE
  5
CC7
  8
0
 62
     0
 10
354.69154444812079
 20
476.26116959310599
 30
0.0
 11
354.69154444812079
 21
471.6611635931061
 31
0.0
  0
LINE
  5
CC8
  8
0
 62
     0
 10
357.9915474481208
 20
478.56116659310601
 30
0.0
 11
357.9915474481208
 21
469.36116659310608
 31
0.0
  0
LINE
  5
CC9
  8
0
 62
     0
 10
357.9915474481208
 20
469.4611665931061
 30
0.0
 11
356.89155644812081
 21
469.4611665931061
 31
0.0
  0
LINE
  5
CCA
  8
0
 62
     0
 10
357.9915474481208
 20
478.4611665931061
 30
0.0
 11
356.89155644812081
 21
478.4611665931061
 31
0.0
  0
LINE
  5
CCB
  8
0
 62
     0
 10
369.29154744812081
 20
343.85218959310617
 30
0.0
 11
369.29154744812081
 21
490.85213159310598
 31
0.0
  0
LINE
  5
CCC
  8
0
 62
     0
 10
207.29154744812081
 20
453.15213159310571
 30
0.0
 11
267.4632014481208
 21
453.15213159310571
 31
0.0
  0
LINE
  5
CCD
  8
0
 62
     0
 10
207.29154744812081
 20
451.55213159310603
 30
0.0
 11
267.37614944812071
 21
451.55213159310603
 31
0.0
  0
LINE
  5
CCE
  8
0
 62
     0
 10
199.78553644812069
 20
443.15213159310599
 30
0.0
 11
267.37614944812071
 21
443.15213159310599
 31
0.0
  0
LINE
  5
CCF
  8
0
 62
     0
 10
199.78553644812069
 20
441.55213159310603
 30
0.0
 11
267.37614944812071
 21
441.55213159310603
 31
0.0
  0
LINE
  5
CD0
  8
0
 62
     0
 10
199.78553644812069
 20
431.55213159310608
 30
0.0
 11
267.37614944812071
 21
431.55213159310608
 31
0.0
  0
LINE
  5
CD1
  8
0
 62
     0
 10
199.78553644812069
 20
433.15213159310599
 30
0.0
 11
267.37614944812071
 21
433.15213159310599
 31
0.0
  0
LINE
  5
CD2
  8
0
 62
     0
 10
199.78553644812069
 20
433.40213159310582
 30
0.0
 11
267.37614944812071
 21
433.40213159310582
 31
0.0
  0
LINE
  5
CD3
  8
0
 62
     0
 10
207.29154744812081
 20
451.20213159310578
 30
0.0
 11
267.37614944812071
 21
451.20213159310578
 31
0.0
  0
LINE
  5
CD4
  8
0
 62
     0
 10
207.29154744812081
 20
453.54213159310609
 30
0.0
 11
267.54721444812083
 21
453.54213159310609
 31
0.0
  0
LINE
  5
CD5
  8
0
 62
     0
 10
267.37614944812071
 20
443.45213159310612
 30
0.0
 11
199.78553644812069
 21
443.45213159310612
 31
0.0
  0
LINE
  5
CD6
  8
0
 62
     0
 10
267.37614944812071
 20
441.272131593106
 30
0.0
 11
199.78553644812069
 21
441.272131593106
 31
0.0
  0
LINE
  5
CD7
  8
0
 62
     0
 10
267.37614944812071
 20
431.32213159310601
 30
0.0
 11
199.78553644812069
 21
431.32213159310601
 31
0.0
  0
LINE
  5
CD8
  8
0
 62
     0
 10
267.37614944812071
 20
423.37213159310602
 30
0.0
 11
199.78553644812069
 21
423.37213159310602
 31
0.0
  0
LINE
  5
CD9
  8
0
 62
     0
 10
267.37614944812071
 20
421.34213159310599
 30
0.0
 11
199.78553644812069
 21
421.34213159310599
 31
0.0
  0
LINE
  5
CDA
  8
0
 62
     0
 10
267.37614944812071
 20
423.15213159310582
 30
0.0
 11
199.78553644812069
 21
423.15213159310582
 31
0.0
  0
LINE
  5
CDB
  8
0
 62
     0
 10
267.37614944812071
 20
421.55213159310603
 30
0.0
 11
199.78553644812069
 21
421.55213159310603
 31
0.0
  0
LINE
  5
CDC
  8
0
 62
     0
 10
207.29154744812081
 20
463.13213159310578
 30
0.0
 11
358.68436344812079
 21
463.13213159310578
 31
0.0
  0
LINE
  5
CDD
  8
0
 62
     0
 10
207.29154744812081
 20
461.5321315931057
 30
0.0
 11
358.83127644812078
 21
461.5321315931057
 31
0.0
  0
LINE
  5
CDE
  8
0
 62
     0
 10
199.78553644812069
 20
463.522131593106
 30
0.0
 11
360.7864924481209
 21
463.522131593106
 31
0.0
  0
LINE
  5
CDF
  8
0
 62
     0
 10
207.29154744812081
 20
461.18213159310591
 30
0.0
 11
360.80118444812081
 21
461.18213159310591
 31
0.0
  0
LINE
  5
CE0
  8
0
 62
     0
 10
357.79154744812081
 20
468.25318159310609
 30
0.0
 11
357.90770744812079
 21
469.4611665931061
 31
0.0
  0
LINE
  5
CE1
  8
0
 62
     0
 10
199.78553644812069
 20
446.63368859310611
 30
0.0
 11
207.29154744812081
 21
446.63368859310611
 31
0.0
  0
LINE
  5
CE2
  8
0
 62
     0
 10
199.78553644812069
 20
452.3521315931057
 30
0.0
 11
207.29154744812081
 21
452.3521315931057
 31
0.0
  0
LINE
  5
CE3
  8
0
 62
     0
 10
199.78553644812069
 20
462.87213159310602
 30
0.0
 11
207.29154744812081
 21
462.87213159310602
 31
0.0
  0
LINE
  5
CE4
  8
0
 62
     0
 10
199.78553644812069
 20
463.28346359310569
 30
0.0
 11
207.29154744812081
 21
463.28346359310569
 31
0.0
  0
LINE
  5
CE5
  8
0
 62
     0
 10
207.29154744812081
 20
463.28346359310569
 30
0.0
 11
207.29154744812081
 21
446.63368859310611
 31
0.0
  0
ARC
  5
CE6
  8
0
 62
     0
 10
141.79032644812079
 20
480.52102859310583
 30
0.0
 40
2.0
 50
96.369371000000754
 51
180.0
  0
ARC
  5
CE7
  8
0
 62
     0
 10
141.23563844812091
 20
485.49016259310582
 30
0.0
 40
2.999997
 50
276.3693710000008
 51
350.0001740000024
  0
LINE
  5
CE8
  8
0
 62
     0
 10
144.19007044812091
 20
484.96914259310603
 30
0.0
 11
145.25093244812081
 21
490.98661859310579
 31
0.0
  0
LINE
  5
CE9
  8
0
 62
     0
 10
139.79032644812079
 20
354.1832925931061
 30
0.0
 11
139.79032644812079
 21
480.52102859310583
 31
0.0
  0
LINE
  5
CEA
  8
0
 62
     0
 10
146.84452544812081
 20
491.31416759310588
 30
0.0
 11
146.84452544812081
 21
343.39015359310599
 31
0.0
  0
LINE
  5
CEB
  8
0
 62
     0
 10
176.79216444812079
 20
337.60237259310611
 30
0.0
 11
176.79216444812079
 21
497.10194859310587
 31
0.0
  0
LINE
  5
CEC
  8
0
 62
     0
 10
176.47954344812081
 20
497.08556559310591
 30
0.0
 11
150.61287344812081
 21
495.73006259310603
 31
0.0
  0
LINE
  5
CED
  8
0
 62
     0
 10
178.04258444812081
 20
498.10213159310598
 30
0.0
 11
199.79154744812081
 21
498.10213159310598
 31
0.0
  0
ARC
  5
CEE
  8
0
 62
     0
 10
178.04258444812081
 20
496.85213159310592
 30
0.0
 40
1.25
 50
89.999982000000799
 51
154.62363900000179
  0
ARC
  5
CEF
  8
0
 62
     0
 10
150.91373944812079
 20
489.9881175931057
 30
0.0
 40
5.7500059999999991
 50
92.999882999999429
 51
170.00004800000099
  0
ARC
  5
CF0
  8
0
 62
     0
 10
176.45337744812079
 20
497.58488059310571
 30
0.0
 40
0.5
 50
272.99975299999932
 51
335.24659000000122
  0
LINE
  5
CF1
  8
0
 62
     0
 10
207.29154744812081
 20
381.55218959310599
 30
0.0
 11
267.46320944812078
 21
381.55218959310599
 31
0.0
  0
LINE
  5
CF2
  8
0
 62
     0
 10
207.29154744812081
 20
383.15218959310607
 30
0.0
 11
267.37614944812071
 21
383.15218959310607
 31
0.0
  0
LINE
  5
CF3
  8
0
 62
     0
 10
199.78553644812069
 20
391.55218959310599
 30
0.0
 11
267.37614944812071
 21
391.55218959310599
 31
0.0
  0
LINE
  5
CF4
  8
0
 62
     0
 10
199.78553644812069
 20
393.15218959310607
 30
0.0
 11
267.37614944812071
 21
393.15218959310607
 31
0.0
  0
LINE
  5
CF5
  8
0
 62
     0
 10
199.78553644812069
 20
403.15218959310602
 30
0.0
 11
267.37614944812071
 21
403.15218959310602
 31
0.0
  0
LINE
  5
CF6
  8
0
 62
     0
 10
199.78553644812069
 20
401.55218959310571
 30
0.0
 11
267.37614944812071
 21
401.55218959310571
 31
0.0
  0
LINE
  5
CF7
  8
0
 62
     0
 10
199.78553644812069
 20
401.30218959310599
 30
0.0
 11
267.37614944812071
 21
401.30218959310599
 31
0.0
  0
LINE
  5
CF8
  8
0
 62
     0
 10
207.29154744812081
 20
383.50218959310621
 30
0.0
 11
267.37614944812071
 21
383.50218959310621
 31
0.0
  0
LINE
  5
CF9
  8
0
 62
     0
 10
207.29154744812081
 20
381.16218959310618
 30
0.0
 11
267.5472264481208
 21
381.16218959310618
 31
0.0
  0
LINE
  5
CFA
  8
0
 62
     0
 10
267.37614944812071
 20
391.25218959310621
 30
0.0
 11
199.78553644812069
 21
391.25218959310621
 31
0.0
  0
LINE
  5
CFB
  8
0
 62
     0
 10
267.37614944812071
 20
393.4321895931061
 30
0.0
 11
199.78553644812069
 21
393.4321895931061
 31
0.0
  0
LINE
  5
CFC
  8
0
 62
     0
 10
267.37614944812071
 20
403.38218959310569
 30
0.0
 11
199.78553644812069
 21
403.38218959310569
 31
0.0
  0
LINE
  5
CFD
  8
0
 62
     0
 10
267.37614944812071
 20
411.33218959310602
 30
0.0
 11
199.78553644812069
 21
411.33218959310602
 31
0.0
  0
LINE
  5
CFE
  8
0
 62
     0
 10
267.37614944812071
 20
413.36218959310571
 30
0.0
 11
199.78553644812069
 21
413.36218959310571
 31
0.0
  0
LINE
  5
CFF
  8
0
 62
     0
 10
267.37614944812071
 20
411.55218959310599
 30
0.0
 11
199.78553644812069
 21
411.55218959310599
 31
0.0
  0
LINE
  5
D00
  8
0
 62
     0
 10
267.37614944812071
 20
413.15218959310607
 30
0.0
 11
199.78553644812069
 21
413.15218959310607
 31
0.0
  0
LINE
  5
D01
  8
0
 62
     0
 10
207.29154744812081
 20
371.57218959310597
 30
0.0
 11
358.68474144812092
 21
371.57218959310597
 31
0.0
  0
LINE
  5
D02
  8
0
 62
     0
 10
207.29154744812081
 20
373.17218959310622
 30
0.0
 11
358.83085244812082
 21
373.17218959310622
 31
0.0
  0
LINE
  5
D03
  8
0
 62
     0
 10
199.78553644812069
 20
371.18218959310599
 30
0.0
 11
360.78659544812092
 21
371.18218959310599
 31
0.0
  0
LINE
  5
D04
  8
0
 62
     0
 10
207.29154744812081
 20
373.52218959310608
 30
0.0
 11
360.80108644812088
 21
373.52218959310608
 31
0.0
  0
LINE
  5
D05
  8
0
 62
     0
 10
357.79154744812081
 20
373.52218959310608
 30
0.0
 11
357.79154744812081
 21
381.16218959310618
 31
0.0
  0
LINE
  5
D06
  8
0
 62
     0
 10
357.79154744812081
 20
366.45113959310618
 30
0.0
 11
357.79154744812081
 21
371.18218959310599
 31
0.0
  0
LINE
  5
D07
  8
0
 62
     0
 10
359.29154744812081
 20
355.35218959310617
 30
0.0
 11
359.29154744812081
 21
371.18218959310599
 31
0.0
  0
LINE
  5
D08
  8
0
 62
     0
 10
357.79154744812081
 20
366.45113959310618
 30
0.0
 11
357.9077024481208
 21
365.24321359310608
 31
0.0
  0
LINE
  5
D09
  8
0
 62
     0
 10
199.78553644812069
 20
388.07063259310598
 30
0.0
 11
207.29154744812081
 21
388.07063259310598
 31
0.0
  0
LINE
  5
D0A
  8
0
 62
     0
 10
199.78553644812069
 20
382.35218959310617
 30
0.0
 11
207.29154744812081
 21
382.35218959310617
 31
0.0
  0
LINE
  5
D0B
  8
0
 62
     0
 10
199.78553644812069
 20
371.83218959310608
 30
0.0
 11
207.29154744812081
 21
371.83218959310608
 31
0.0
  0
LINE
  5
D0C
  8
0
 62
     0
 10
199.78553644812069
 20
371.42085759310618
 30
0.0
 11
207.29154744812081
 21
371.42085759310618
 31
0.0
  0
LINE
  5
D0D
  8
0
 62
     0
 10
207.29154744812081
 20
371.42085759310618
 30
0.0
 11
207.29154744812081
 21
388.07063259310598
 31
0.0
  0
ARC
  5
D0E
  8
0
 62
     0
 10
141.79032644812079
 20
354.1832925931061
 30
0.0
 40
2.0
 50
180.0
 51
263.63062899999932
  0
ARC
  5
D0F
  8
0
 62
     0
 10
141.23563844812091
 20
349.21415859310622
 30
0.0
 40
2.999997
 50
9.9998259999975811
 51
83.63062899999926
  0
LINE
  5
D10
  8
0
 62
     0
 10
144.19007044812091
 20
349.73517859310613
 30
0.0
 11
145.25093244812081
 21
343.71770259310608
 31
0.0
  0
LINE
  5
D11
  8
0
 62
     0
 10
143.79032644812079
 20
483.09615059310579
 30
0.0
 11
143.79032644812079
 21
351.60817059310608
 31
0.0
  0
LINE
  5
D12
  8
0
 62
     0
 10
358.9915474481208
 20
383.50218959310621
 30
0.0
 11
359.29154744812081
 21
383.50218959310621
 31
0.0
  0
LINE
  5
D13
  8
0
 62
     0
 10
358.94085644812083
 20
381.16218959310618
 30
0.0
 11
359.29154744812081
 21
381.16218959310618
 31
0.0
  0
LINE
  5
D14
  8
0
 62
     0
 10
176.47954344812081
 20
337.61875559310607
 30
0.0
 11
150.61287344812081
 21
338.97425859310607
 31
0.0
  0
LINE
  5
D15
  8
0
 62
     0
 10
178.04258444812081
 20
336.60218959310612
 30
0.0
 11
199.79154744812081
 21
336.60218959310612
 31
0.0
  0
ARC
  5
D16
  8
0
 62
     0
 10
178.04258444812081
 20
337.85218959310612
 30
0.0
 40
1.25
 50
205.3763609999981
 51
270.00001799999922
  0
ARC
  5
D17
  8
0
 62
     0
 10
150.91373944812079
 20
344.71620359310617
 30
0.0
 40
5.7500059999999991
 50
189.9999519999989
 51
267.00011700000061
  0
ARC
  5
D18
  8
0
 62
     0
 10
176.45337744812079
 20
337.11944059310599
 30
0.0
 40
0.5
 50
24.75340999999878
 51
87.000247000000712
  0
LINE
  5
D19
  8
0
 62
     0
 10
357.79154744812081
 20
468.25318159310609
 30
0.0
 11
357.79154744812081
 21
463.52218959310602
 31
0.0
  0
LINE
  5
D1A
  8
0
 62
     0
 10
357.79154744812081
 20
461.18218959310587
 30
0.0
 11
357.79154744812081
 21
453.542189593106
 31
0.0
  0
LINE
  5
D1B
  8
0
 62
     0
 10
199.78553644812069
 20
336.60218959310612
 30
0.0
 11
199.78553644812069
 21
498.10213159310598
 31
0.0
  0
ARC
  5
D1C
  8
0
 62
     0
 10
356.89155444812093
 20
363.04321659310619
 30
0.0
 40
2.2000009999999981
 50
90.000022000001564
 51
179.99999699999901
  0
ARC
  5
D1D
  8
0
 62
     0
 10
356.89155444812093
 20
358.44321059310607
 30
0.0
 40
2.1999970000000002
 50
180.00001799999899
 51
270.0
  0
LINE
  5
D1E
  8
0
 62
     0
 10
359.29154544812093
 20
360.79265859310618
 30
0.0
 11
357.99154544812092
 21
361.5432135931062
 31
0.0
  0
LINE
  5
D1F
  8
0
 62
     0
 10
359.29154544812093
 20
359.79265859310618
 30
0.0
 11
357.99154544812092
 21
360.54321359310609
 31
0.0
  0
LINE
  5
D20
  8
0
 62
     0
 10
357.99154544812092
 20
356.14321359310622
 30
0.0
 11
359.29154544812093
 21
356.14321359310622
 31
0.0
  0
LINE
  5
D21
  8
0
 62
     0
 10
357.99154544812092
 20
365.3432135931061
 30
0.0
 11
359.29154544812093
 21
365.3432135931061
 31
0.0
  0
LINE
  5
D22
  8
0
 62
     0
 10
359.29154544812093
 20
356.14321359310622
 30
0.0
 11
359.29154544812093
 21
365.3432135931061
 31
0.0
  0
LINE
  5
D23
  8
0
 62
     0
 10
354.69154244812091
 20
358.44321059310607
 30
0.0
 11
354.69154244812091
 21
363.04321659310619
 31
0.0
  0
LINE
  5
D24
  8
0
 62
     0
 10
357.99154544812092
 20
356.14321359310622
 30
0.0
 11
357.99154544812092
 21
365.3432135931061
 31
0.0
  0
LINE
  5
D25
  8
0
 62
     0
 10
357.99154544812092
 20
365.24321359310608
 30
0.0
 11
356.89155444812093
 21
365.24321359310608
 31
0.0
  0
LINE
  5
D26
  8
0
 62
     0
 10
357.99154544812092
 20
356.24321359310608
 30
0.0
 11
356.89155444812093
 21
356.24321359310608
 31
0.0
  0
LINE
  5
FF9
  8
0
  6
CONTINUOUS
 62
     0
 10
377.79152744812092
 20
777.32574751480331
 30
0.0
 11
377.79152744812092
 21
801.39746751480288
 31
0.0
  0
LINE
  5
FFA
  8
0
  6
CONTINUOUS
 62
     0
 10
538.79155744812067
 20
763.78717751480303
 30
0.0
 11
538.79155744812067
 21
802.1878675148032
 31
0.0
  0
LINE
  5
FFB
  8
0
  6
CONTINUOUS
 62
     0
 10
425.7915274481208
 20
595.28717751480303
 30
0.0
 11
425.7915274481208
 21
794.28717751480258
 31
0.0
  0
LINE
  5
FFC
  8
0
  6
CONTINUOUS
 62
     0
 10
381.44289744812068
 20
805.38226751480283
 30
0.0
 11
431.79158744812048
 21
809.78717751480303
 31
0.0
  0
LINE
  5
FFD
  8
0
  6
CENTER
 62
     0
 10
395.7915274481208
 20
776.28717751480303
 30
0.0
 11
395.7915274481208
 21
803.28717751480315
 31
0.0
  0
LINE
  5
FFE
  8
0
  6
CONTINUOUS
 62
     0
 10
531.79155744812056
 20
633.68380751480265
 30
0.0
 11
531.79155744812056
 21
755.89056751480302
 31
0.0
  0
LINE
  5
FFF
  8
0
  6
CENTER
 62
     0
 10
520.79155744812078
 20
776.28717751480303
 30
0.0
 11
520.79155744812078
 21
803.28717751480315
 31
0.0
  0
LINE
  5
1000
  8
0
  6
CENTER
 62
     0
 10
382.29152744812092
 20
789.78717751480258
 30
0.0
 11
409.2915274481208
 21
789.78717751480258
 31
0.0
  0
LINE
  5
1001
  8
0
  6
CENTER
 62
     0
 10
507.29155744812061
 20
789.78717751480258
 30
0.0
 11
534.29155744812078
 21
789.78717751480258
 31
0.0
  0
LINE
  5
1002
  8
0
  6
CONTINUOUS
 62
     0
 10
431.79152744812052
 20
809.78717751480303
 30
0.0
 11
534.9311474481209
 21
806.18542751480254
 31
0.0
  0
LINE
  5
1003
  8
0
  6
CONTINUOUS
 62
     0
 10
380.75631744812091
 20
773.46203751480255
 30
0.0
 11
396.52059744812078
 21
769.23797751480288
 31
0.0
  0
LINE
  5
1004
  8
0
  6
CONTINUOUS
 62
     0
 10
417.05306744812083
 20
802.47479751480273
 30
0.0
 11
425.44295744812081
 21
803.20880751480331
 31
0.0
  0
LINE
  5
1005
  8
0
  6
CONTINUOUS
 62
     0
 10
380.75631744812091
 20
616.11230751480286
 30
0.0
 11
396.5204774481208
 21
620.33630751480291
 31
0.0
  0
LINE
  5
1006
  8
0
  6
CONTINUOUS
 62
     0
 10
431.79152744812052
 20
579.78717751480303
 30
0.0
 11
534.93111744812097
 21
583.38888751480283
 31
0.0
  0
LINE
  5
1007
  8
0
  6
CENTER
 62
     0
 10
507.29155744812061
 20
599.78717751480303
 30
0.0
 11
534.29155744812078
 21
599.78717751480303
 31
0.0
  0
LINE
  5
1008
  8
0
  6
CENTER
 62
     0
 10
382.29152744812092
 20
599.78717751480303
 30
0.0
 11
409.2915274481208
 21
599.78717751480303
 31
0.0
  0
LINE
  5
1009
  8
0
  6
CENTER
 62
     0
 10
520.79155744812078
 20
613.28717751480303
 30
0.0
 11
520.79155744812078
 21
586.28717751480303
 31
0.0
  0
LINE
  5
100A
  8
0
  6
CENTER
 62
     0
 10
395.7915274481208
 20
613.28717751480303
 30
0.0
 11
395.7915274481208
 21
586.28717751480303
 31
0.0
  0
LINE
  5
100B
  8
0
  6
CONTINUOUS
 62
     0
 10
381.44289744812068
 20
584.19210751480273
 30
0.0
 11
431.79152744812052
 21
579.78717751480303
 31
0.0
  0
LINE
  5
100C
  8
0
  6
CONTINUOUS
 62
     0
 10
538.79155744812067
 20
625.78717751480303
 30
0.0
 11
538.79155744812067
 21
587.38644751480274
 31
0.0
  0
LINE
  5
100D
  8
0
  6
CONTINUOUS
 62
     0
 10
377.79152744812092
 20
612.2485975148029
 30
0.0
 11
377.79152744812092
 21
588.17688751480273
 31
0.0
  0
LINE
  5
100E
  8
0
  6
CONTINUOUS
 62
     0
 10
600.79152744812075
 20
710.78717751480258
 30
0.0
 11
542.79155744812067
 21
710.78717751480258
 31
0.0
  0
LINE
  5
100F
  8
0
  6
CONTINUOUS
 62
     0
 10
415.7915274481208
 20
629.71496751480299
 30
0.0
 11
415.7915274481208
 21
759.85937751480253
 31
0.0
  0
LINE
  5
1010
  8
0
  6
CONTINUOUS
 62
     0
 10
533.29155744812078
 20
726.96258751480286
 30
0.0
 11
537.29152744812063
 21
724.65319751480286
 31
0.0
  0
LINE
  5
1011
  8
0
  6
CONTINUOUS
 62
     0
 10
533.29149744812082
 20
662.61181751480274
 30
0.0
 11
537.29149744812082
 21
664.92120751480275
 31
0.0
  0
LINE
  5
1012
  8
0
  6
CONTINUOUS
 62
     0
 10
538.79152744812063
 20
667.51922751480265
 30
0.0
 11
538.79152744812063
 21
694.78717751480247
 31
0.0
  0
LINE
  5
1013
  8
0
  6
CONTINUOUS
 62
     0
 10
538.79152744812063
 20
694.78717751480247
 30
0.0
 11
538.79152744812063
 21
722.05511751480276
 31
0.0
  0
LINE
  5
1014
  8
0
  6
CONTINUOUS
 62
     0
 10
542.79155744812067
 20
712.28717751480303
 30
0.0
 11
538.79152744812063
 21
712.28717751480303
 31
0.0
  0
LINE
  5
1015
  8
0
  6
CONTINUOUS
 62
     0
 10
600.79152744812075
 20
678.78717751480303
 30
0.0
 11
600.79152744812075
 21
710.78717751480258
 31
0.0
  0
LINE
  5
1016
  8
0
  6
CONTINUOUS
 62
     0
 10
542.79155744812067
 20
677.28717751480258
 30
0.0
 11
542.79155744812067
 21
712.28717751480303
 31
0.0
  0
LINE
  5
1017
  8
0
  6
CONTINUOUS
 62
     0
 10
555.79155744812056
 20
689.78717751480258
 30
0.0
 11
555.79155744812056
 21
699.78717751480303
 31
0.0
  0
LINE
  5
1018
  8
0
  6
CONTINUOUS
 62
     0
 10
600.79152744812075
 20
678.78717751480303
 30
0.0
 11
542.79155744812067
 21
678.78717751480303
 31
0.0
  0
LINE
  5
1019
  8
0
  6
CONTINUOUS
 62
     0
 10
542.79155744812067
 20
677.28717751480258
 30
0.0
 11
538.79152744812063
 21
677.28717751480258
 31
0.0
  0
LINE
  5
101A
  8
0
  6
CONTINUOUS
 62
     0
 10
555.79152744812063
 20
689.78717751480258
 30
0.0
 11
600.79152744812075
 21
689.78717751480258
 31
0.0
  0
LINE
  5
101B
  8
0
  6
CONTINUOUS
 62
     0
 10
555.79152744812063
 20
699.78717751480303
 30
0.0
 11
600.79152744812075
 21
699.78717751480303
 31
0.0
  0
LINE
  5
101C
  8
0
  6
CONTINUOUS
 62
     0
 10
527.89623744812081
 20
759.88916751480269
 30
0.0
 11
518.03435744812077
 21
760.14740751480258
 31
0.0
  0
LINE
  5
101D
  8
0
  6
CONTINUOUS
 62
     0
 10
527.89623744812081
 20
629.68518751480303
 30
0.0
 11
518.03435744812077
 21
629.42694751480303
 31
0.0
  0
LINE
  5
101E
  8
0
  6
CONTINUOUS
 62
     0
 10
510.79155744812061
 20
625.5804475148027
 30
0.0
 11
510.79155744812061
 21
763.99389751480271
 31
0.0
  0
LINE
  5
101F
  8
0
  6
CONTINUOUS
 62
     0
 10
490.79152744812052
 20
590.1317475148029
 30
0.0
 11
490.79152744812052
 21
605.57357751480265
 31
0.0
  0
LINE
  5
1020
  8
0
  6
CONTINUOUS
 62
     0
 10
503.00093744812079
 20
771.99115751480304
 30
0.0
 11
502.47740744812052
 21
772.0048875148027
 31
0.0
  0
LINE
  5
1021
  8
0
  6
CONTINUOUS
 62
     0
 10
503.00096744812078
 20
617.58319751480281
 30
0.0
 11
502.47737744812048
 21
617.56945751480248
 31
0.0
  0
LINE
  5
1022
  8
0
  6
CONTINUOUS
 62
     0
 10
490.79152744812052
 20
784.00079751480303
 30
0.0
 11
490.79152744812052
 21
799.44262751480255
 31
0.0
  0
LINE
  5
1023
  8
0
  6
CONTINUOUS
 62
     0
 10
425.7915274481208
 20
595.28717751480303
 30
0.0
 11
429.7915274481208
 21
595.28717751480303
 31
0.0
  0
LINE
  5
1024
  8
0
  6
CONTINUOUS
 62
     0
 10
425.7915274481208
 20
794.28717751480258
 30
0.0
 11
429.7915274481208
 21
794.28717751480258
 31
0.0
  0
LINE
  5
1025
  8
0
  6
CONTINUOUS
 62
     0
 10
429.7915274481208
 20
794.28717751480258
 30
0.0
 11
429.7915274481208
 21
804.15564751480269
 31
0.0
  0
LINE
  5
1026
  8
0
  6
CONTINUOUS
 62
     0
 10
417.05300744812081
 20
587.09955751480265
 30
0.0
 11
425.44295744812081
 21
586.36551751480295
 31
0.0
  0
LINE
  5
1027
  8
0
  6
CONTINUOUS
 62
     0
 10
429.7915274481208
 20
595.28717751480303
 30
0.0
 11
429.7915274481208
 21
585.41870751480258
 31
0.0
  0
LINE
  5
1028
  8
0
  6
CONTINUOUS
 62
     0
 10
418.68685744812058
 20
595.53524751480279
 30
0.0
 11
425.7914674481209
 21
595.28717751480303
 31
0.0
  0
LINE
  5
1029
  8
0
  6
CONTINUOUS
 62
     0
 10
425.7915274481208
 20
599.99698751480275
 30
0.0
 11
415.7915274481208
 21
599.99698751480275
 31
0.0
  0
LINE
  5
102A
  8
0
  6
CONTINUOUS
 62
     0
 10
425.7915274481208
 20
617.37036751480275
 30
0.0
 11
403.7915274481208
 21
617.37036751480275
 31
0.0
  0
LINE
  5
102B
  8
0
  6
CONTINUOUS
 62
     0
 10
425.7915274481208
 20
664.51074751480257
 30
0.0
 11
415.7915274481208
 21
664.51074751480257
 31
0.0
  0
LINE
  5
102C
  8
0
  6
CONTINUOUS
 62
     0
 10
425.7915274481208
 20
725.0636075148027
 30
0.0
 11
415.7915274481208
 21
725.0636075148027
 31
0.0
  0
LINE
  5
102D
  8
0
  6
CONTINUOUS
 62
     0
 10
425.7915274481208
 20
772.20398751480332
 30
0.0
 11
403.7915274481208
 21
772.20398751480332
 31
0.0
  0
LINE
  5
102E
  8
0
  6
CONTINUOUS
 62
     0
 10
369.29152744812092
 20
633.20852751480277
 30
0.0
 11
403.7915274481208
 21
633.20852751480277
 31
0.0
  0
LINE
  5
102F
  8
0
  6
CONTINUOUS
 62
     0
 10
369.29152744812092
 20
756.36578751480283
 30
0.0
 11
403.7915274481208
 21
756.36578751480283
 31
0.0
  0
LINE
  5
1030
  8
0
  6
CONTINUOUS
 62
     0
 10
369.29152744812092
 20
734.26184751480287
 30
0.0
 11
403.7915274481208
 21
734.26184751480287
 31
0.0
  0
LINE
  5
1031
  8
0
  6
CONTINUOUS
 62
     0
 10
369.29152744812092
 20
655.31250751480275
 30
0.0
 11
403.7915274481208
 21
655.31250751480275
 31
0.0
  0
LINE
  5
1032
  8
0
  6
CONTINUOUS
 62
     0
 10
369.29146744812101
 20
621.287147514803
 30
0.0
 11
401.3613574481206
 21
620.16723751480299
 31
0.0
  0
LINE
  5
1033
  8
0
  6
CONTINUOUS
 62
     0
 10
369.29152744812092
 20
768.28717751480269
 30
0.0
 11
400.89620744812061
 21
769.39080751480253
 31
0.0
  0
LINE
  5
1034
  8
0
  6
CONTINUOUS
 62
     0
 10
403.7915274481208
 20
603.86606751480304
 30
0.0
 11
403.7915274481208
 21
785.70831751480273
 31
0.0
  0
LINE
  5
1035
  8
0
  6
CONTINUOUS
 62
     0
 10
403.7915274481208
 20
626.71496751480277
 30
0.0
 11
412.7915274481208
 21
626.71496751480277
 31
0.0
  0
LINE
  5
1036
  8
0
  6
CONTINUOUS
 62
     0
 10
403.7915274481208
 20
637.46960751480265
 30
0.0
 11
415.7915274481208
 21
637.46960751480265
 31
0.0
  0
LINE
  5
1037
  8
0
  6
CONTINUOUS
 62
     0
 10
403.7915274481208
 20
762.85937751480253
 30
0.0
 11
412.7915274481208
 21
762.85937751480253
 31
0.0
  0
LINE
  5
1038
  8
0
  6
CONTINUOUS
 62
     0
 10
403.7915274481208
 20
752.10473751480299
 30
0.0
 11
415.7915274481208
 21
752.10473751480299
 31
0.0
  0
LINE
  5
1039
  8
0
  6
CONTINUOUS
 62
     0
 10
406.79152744812052
 20
611.89715751480276
 30
0.0
 11
412.7915274481208
 21
611.89715751480276
 31
0.0
  0
LINE
  5
103A
  8
0
  6
CONTINUOUS
 62
     0
 10
415.7915274481208
 20
598.5334475148029
 30
0.0
 11
415.7915274481208
 21
608.89715751480253
 31
0.0
  0
LINE
  5
103B
  8
0
  6
CONTINUOUS
 62
     0
 10
406.79152744812052
 20
600.86606751480304
 30
0.0
 11
412.8287574481206
 21
600.86606751480304
 31
0.0
  0
LINE
  5
103C
  8
0
  6
CONTINUOUS
 62
     0
 10
406.79152744812052
 20
788.70831751480296
 30
0.0
 11
412.8287574481206
 21
788.70831751480296
 31
0.0
  0
LINE
  5
103D
  8
0
  6
CONTINUOUS
 62
     0
 10
415.7915274481208
 20
791.04089751480285
 30
0.0
 11
415.7915274481208
 21
780.67718751480288
 31
0.0
  0
LINE
  5
103E
  8
0
  6
CONTINUOUS
 62
     0
 10
406.79152744812052
 20
777.67718751480254
 30
0.0
 11
412.7915274481208
 21
777.67718751480254
 31
0.0
  0
LINE
  5
103F
  8
0
  6
CONTINUOUS
 62
     0
 10
418.68679744812079
 20
794.0390675148027
 30
0.0
 11
425.7914674481209
 21
794.28717751480258
 31
0.0
  0
LINE
  5
1040
  8
0
  6
CONTINUOUS
 62
     0
 10
425.7915274481208
 20
789.57733751480305
 30
0.0
 11
415.7915274481208
 21
789.57733751480305
 31
0.0
  0
ARC
  5
1041
  8
0
  6
CONTINUOUS
 62
     0
 10
534.79155744812067
 20
802.1878675148032
 30
0.0
 40
4.0
 50
0.0
 51
88.000000000002785
  0
CIRCLE
  5
1042
  8
0
  6
CONTINUOUS
 62
     0
 10
395.7915274481208
 20
789.78717751480258
 30
0.0
 40
7.5
  0
CIRCLE
  5
1043
  8
0
  6
CONTINUOUS
 62
     0
 10
520.79155744812078
 20
789.78717751480258
 30
0.0
 40
7.5
  0
ARC
  5
1044
  8
0
  6
CONTINUOUS
 62
     0
 10
381.7915274481208
 20
801.39746751480288
 30
0.0
 40
4.0
 50
95.00000199999856
 51
180.00001000000091
  0
ARC
  5
1045
  8
0
  6
CONTINUOUS
 62
     0
 10
535.79155744812056
 20
755.84991751480254
 30
0.0
 40
4.0
 50
97.180758000000822
 51
180.00001000000091
  0
ARC
  5
1046
  8
0
  6
CONTINUOUS
 62
     0
 10
534.79155744812067
 20
763.78717751480303
 30
0.0
 40
4.0
 50
277.18074999999709
 51
0.0
  0
ARC
  5
1047
  8
0
  6
CONTINUOUS
 62
     0
 10
381.7915274481208
 20
777.32574751480331
 30
0.0
 40
4.0
 50
180.00001000000091
 51
254.99998999999869
  0
ARC
  5
1048
  8
0
  6
CONTINUOUS
 62
     0
 10
416.7915274481208
 20
805.46338751480289
 30
0.0
 40
3.0
 50
95.00000199999856
 51
275.0
  0
ARC
  5
1049
  8
0
  6
CONTINUOUS
 62
     0
 10
425.7915274481208
 20
799.22406751480275
 30
0.0
 40
4.0
 50
0.0
 51
95.00000199999856
  0
ARC
  5
104A
  8
0
  6
CONTINUOUS
 62
     0
 10
381.7915274481208
 20
612.2485975148029
 30
0.0
 40
4.0
 50
105.0000000000007
 51
180.00001000000091
  0
ARC
  5
104B
  8
0
  6
CONTINUOUS
 62
     0
 10
534.79155744812067
 20
625.78717751480303
 30
0.0
 40
4.0
 50
0.0
 51
82.819246999996963
  0
ARC
  5
104C
  8
0
  6
CONTINUOUS
 62
     0
 10
535.79155744812056
 20
633.72442751480276
 30
0.0
 40
4.0
 50
180.00001000000091
 51
262.81925000000291
  0
ARC
  5
104D
  8
0
  6
CONTINUOUS
 62
     0
 10
381.7915274481208
 20
588.17688751480273
 30
0.0
 40
4.0
 50
180.00001000000091
 51
265.00001000000037
  0
CIRCLE
  5
104E
  8
0
  6
CONTINUOUS
 62
     0
 10
520.79155744812078
 20
599.78717751480303
 30
0.0
 40
7.5
  0
CIRCLE
  5
104F
  8
0
  6
CONTINUOUS
 62
     0
 10
395.7915274481208
 20
599.78717751480303
 30
0.0
 40
7.5
  0
ARC
  5
1050
  8
0
  6
CONTINUOUS
 62
     0
 10
534.79155744812067
 20
587.38644751480274
 30
0.0
 40
4.0
 50
271.99999999999721
 51
0.0
  0
ARC
  5
1051
  8
0
  6
CONTINUOUS
 62
     0
 10
535.79152744812063
 20
667.51922751480265
 30
0.0
 40
3.0
 50
300.00001000000083
 51
0.0
  0
ARC
  5
1052
  8
0
  6
CONTINUOUS
 62
     0
 10
535.79152744812063
 20
722.05511751480276
 30
0.0
 40
3.0
 50
0.0
 51
60.000002000001302
  0
ARC
  5
1053
  8
0
  6
CONTINUOUS
 62
     0
 10
534.79155744812067
 20
729.56067751480259
 30
0.0
 40
3.0
 50
179.999989999999
 51
240.00000999999969
  0
ARC
  5
1054
  8
0
  6
CONTINUOUS
 62
     0
 10
534.79155744812067
 20
660.01367751480291
 30
0.0
 40
3.0
 50
120.0000000000005
 51
180.00001000000091
  0
ARC
  5
1055
  8
0
  6
CONTINUOUS
 62
     0
 10
555.79152744812063
 20
694.78717751480247
 30
0.0
 40
4.9999924
 50
90.00000299999769
 51
270.0
  0
ARC
  5
1056
  8
0
  6
CONTINUOUS
 62
     0
 10
527.79155744812056
 20
633.68380751480265
 30
0.0
 40
4.0
 50
271.50000000000267
 51
0.0
  0
ARC
  5
1057
  8
0
  6
CONTINUOUS
 62
     0
 10
527.79155744812056
 20
755.89056751480302
 30
0.0
 40
4.0
 50
0.0
 51
88.499997000000647
  0
ARC
  5
1058
  8
0
  6
CONTINUOUS
 62
     0
 10
502.79155744812061
 20
763.99389751480271
 30
0.0
 40
8.0
 50
0.0
 51
88.499997000000647
  0
ARC
  5
1059
  8
0
  6
CONTINUOUS
 62
     0
 10
502.79155744812061
 20
625.5804475148027
 30
0.0
 40
8.0
 50
271.50000000000267
 51
0.0
  0
ARC
  5
105A
  8
0
  6
CONTINUOUS
 62
     0
 10
518.24376744812071
 20
621.42968751480248
 30
0.0
 40
8.0
 50
91.500001000001546
 51
164.96420000000299
  0
ARC
  5
105B
  8
0
  6
CONTINUOUS
 62
     0
 10
518.24376744812071
 20
768.1446575148027
 30
0.0
 40
8.0
 50
195.0357999999969
 51
268.49999999999733
  0
ARC
  5
105C
  8
0
  6
CONTINUOUS
 62
     0
 10
502.79152744812052
 20
784.00079751480303
 30
0.0
 40
12.0
 50
180.00001000000091
 51
268.49999999999733
  0
ARC
  5
105D
  8
0
  6
CONTINUOUS
 62
     0
 10
502.79152744812052
 20
605.57357751480265
 30
0.0
 40
12.0
 50
91.500001000001546
 51
180.00001000000091
  0
ARC
  5
105E
  8
0
  6
CONTINUOUS
 62
     0
 10
498.79152744812052
 20
799.44262751480255
 30
0.0
 40
8.0
 50
88.000000000002785
 51
180.00001000000091
  0
ARC
  5
105F
  8
0
  6
CONTINUOUS
 62
     0
 10
498.79152744812052
 20
590.1317475148029
 30
0.0
 40
8.0
 50
180.00001000000091
 51
271.99999000000139
  0
ARC
  5
1060
  8
0
  6
CONTINUOUS
 62
     0
 10
425.7915274481208
 20
590.35028751480297
 30
0.0
 40
4.0
 50
265.00001000000037
 51
0.0000006832495047
  0
ARC
  5
1061
  8
0
  6
CONTINUOUS
 62
     0
 10
416.7915274481208
 20
584.11096751480272
 30
0.0
 40
3.0
 50
85.000003999997659
 51
264.99999999999989
  0
ARC
  5
1062
  8
0
  6
CONTINUOUS
 62
     0
 10
424.7915274481208
 20
804.15564751480269
 30
0.0
 40
5.0
 50
0.0
 51
95.00000199999856
  0
ARC
  5
1063
  8
0
  6
CONTINUOUS
 62
     0
 10
424.7915274481208
 20
585.41870751480258
 30
0.0
 40
5.0
 50
265.00001000000037
 51
0.0000006832495047
  0
ARC
  5
1064
  8
0
  6
CONTINUOUS
 62
     0
 10
400.7915274481208
 20
772.38897751480272
 30
0.0
 40
3.0
 50
271.99999999999721
 51
0.0
  0
ARC
  5
1065
  8
0
  6
CONTINUOUS
 62
     0
 10
400.7915274481208
 20
617.185337514803
 30
0.0
 40
3.0
 50
0.0
 51
88.000000000002785
  0
ARC
  5
1066
  8
0
  6
CONTINUOUS
 62
     0
 10
412.7915274481208
 20
629.71496751480299
 30
0.0
 40
3.0
 50
270.0
 51
0.0
  0
ARC
  5
1067
  8
0
  6
CONTINUOUS
 62
     0
 10
412.7915274481208
 20
759.85937751480253
 30
0.0
 40
3.0
 50
0.0
 51
90.00000299999769
  0
ARC
  5
1068
  8
0
  6
CONTINUOUS
 62
     0
 10
412.7915274481208
 20
608.89715751480253
 30
0.0
 40
3.0
 50
0.0
 51
90.00000299999769
  0
ARC
  5
1069
  8
0
  6
CONTINUOUS
 62
     0
 10
418.79152744812058
 20
598.5334475148029
 30
0.0
 40
3.0
 50
180.00001000000091
 51
268.0000000000029
  0
ARC
  5
106A
  8
0
  6
CONTINUOUS
 62
     0
 10
406.79152744812052
 20
614.89715751480298
 30
0.0
 40
3.0
 50
180.00001000000091
 51
270.0
  0
ARC
  5
106B
  8
0
  6
CONTINUOUS
 62
     0
 10
406.79152744812052
 20
603.86606751480304
 30
0.0
 40
3.0
 50
180.00001000000091
 51
270.0
  0
ARC
  5
106C
  8
0
  6
CONTINUOUS
 62
     0
 10
412.8287574481206
 20
597.86606751480258
 30
0.0
 40
3.0
 50
6.3862994000021986
 51
90.00000299999769
  0
ARC
  5
106D
  8
0
  6
CONTINUOUS
 62
     0
 10
412.8287574481206
 20
791.70831751480284
 30
0.0
 40
3.0
 50
270.0
 51
353.61370000000329
  0
ARC
  5
106E
  8
0
  6
CONTINUOUS
 62
     0
 10
406.79152744812052
 20
774.67718751480254
 30
0.0
 40
3.0
 50
90.00000299999769
 51
180.00001000000091
  0
ARC
  5
106F
  8
0
  6
CONTINUOUS
 62
     0
 10
418.79152744812058
 20
791.04089751480285
 30
0.0
 40
3.0
 50
91.999998000000545
 51
180.00001000000091
  0
ARC
  5
1070
  8
0
  6
CONTINUOUS
 62
     0
 10
412.7915274481208
 20
780.67718751480288
 30
0.0
 40
3.0
 50
270.0
 51
0.0
  0
ARC
  5
1071
  8
0
  6
CONTINUOUS
 62
     0
 10
406.79152744812052
 20
785.70831751480273
 30
0.0
 40
3.0
 50
90.00000299999769
 51
180.00001000000091
  0
POLYLINE
  5
1072
  8
0
  6
CONTINUOUS
 62
     0
 66
     1
 10
0.0
 20
0.0
 30
0.0
  0
VERTEX
  5
1073
  8
0
  6
CONTINUOUS
 62
     0
 10
425.7915274481208
 20
664.51074751480257
 30
0.0
 42
-0.07005559
  0
VERTEX
  5
1074
  8
0
  6
CONTINUOUS
 62
     0
 10
452.1521874481208
 20
644.31340751480275
 30
0.0
 42
-0.27110578
  0
VERTEX
  5
1075
  8
0
  6
CONTINUOUS
 62
     0
 10
460.79152744812052
 20
624.43005751480291
 30
0.0
 42
-0.21303172
  0
VERTEX
  5
1076
  8
0
  6
CONTINUOUS
 62
     0
 10
441.20108744812057
 20
606.2952475148029
 30
0.0
  0
VERTEX
  5
1077
  8
0
  6
CONTINUOUS
 62
     0
 10
425.7915274481208
 20
599.99698751480275
 30
0.0
 42
-1.0
  0
SEQEND
  5
1078
  8
0
 62
     0
  0
POLYLINE
  5
1079
  8
0
  6
CONTINUOUS
 62
     0
 66
     1
 10
0.0
 20
0.0
 30
0.0
  0
VERTEX
  5
107A
  8
0
  6
CONTINUOUS
 62
     0
 10
425.7915274481208
 20
617.37036751480275
 30
0.0
 42
0.040443759
  0
VERTEX
  5
107B
  8
0
  6
CONTINUOUS
 62
     0
 10
437.3197074481206
 20
617.59373751480302
 30
0.0
 42
0.042469384
  0
VERTEX
  5
107C
  8
0
  6
CONTINUOUS
 62
     0
 10
448.65339744812098
 20
619.7072475148027
 30
0.0
 42
0.022671411
  0
VERTEX
  5
107D
  8
0
  6
CONTINUOUS
 62
     0
 10
454.13788744812098
 20
621.49818751480291
 30
0.0
  0
VERTEX
  5
107E
  8
0
  6
CONTINUOUS
 62
     0
 10
459.44350744812061
 20
623.76702751480298
 30
0.0
 42
-1.0
  0
SEQEND
  5
107F
  8
0
 62
     0
  0
POLYLINE
  5
1080
  8
0
  6
CONTINUOUS
 62
     0
 66
     1
 10
0.0
 20
0.0
 30
0.0
  0
VERTEX
  5
1081
  8
0
  6
CONTINUOUS
 62
     0
 10
425.7915274481208
 20
772.20398751480332
 30
0.0
 42
-0.040443759
  0
VERTEX
  5
1082
  8
0
  6
CONTINUOUS
 62
     0
 10
437.3197074481206
 20
771.98061751480259
 30
0.0
 42
-0.042469384
  0
VERTEX
  5
1083
  8
0
  6
CONTINUOUS
 62
     0
 10
448.65339744812098
 20
769.86709751480271
 30
0.0
 42
-0.022671411
  0
VERTEX
  5
1084
  8
0
  6
CONTINUOUS
 62
     0
 10
454.13788744812098
 20
768.07615751480273
 30
0.0
  0
VERTEX
  5
1085
  8
0
  6
CONTINUOUS
 62
     0
 10
459.44350744812061
 20
765.80732751480275
 30
0.0
 42
-1.0
  0
SEQEND
  5
1086
  8
0
 62
     0
  0
POLYLINE
  5
1087
  8
0
  6
CONTINUOUS
 62
     0
 66
     1
 10
0.0
 20
0.0
 30
0.0
  0
VERTEX
  5
1088
  8
0
  6
CONTINUOUS
 62
     0
 10
425.7915274481208
 20
725.0636075148027
 30
0.0
 42
0.070055609
  0
VERTEX
  5
1089
  8
0
  6
CONTINUOUS
 62
     0
 10
452.1521874481208
 20
745.26094751480287
 30
0.0
 42
0.27110581
  0
VERTEX
  5
108A
  8
0
  6
CONTINUOUS
 62
     0
 10
460.79152744812052
 20
765.14428751480273
 30
0.0
 42
0.21303143
  0
VERTEX
  5
108B
  8
0
  6
CONTINUOUS
 62
     0
 10
441.20108744812057
 20
783.27912751480289
 30
0.0
  0
VERTEX
  5
108C
  8
0
  6
CONTINUOUS
 62
     0
 10
425.7915274481208
 20
789.5773975148029
 30
0.0
 42
-1.0
  0
SEQEND
  5
108D
  8
0
 62
     0
  0
ARC
  5
108E
  8
0
 62
     0
 10
360.29152744812092
 20
632.74836701480274
 30
0.0
 40
1.0
 50
180.0
 51
270.0
  0
ARC
  5
108F
  8
0
 62
     0
 10
360.29152744812092
 20
756.82598301480255
 30
0.0
 40
1.0
 50
90.0
 51
180.0
  0
LINE
  5
1090
  8
0
 62
     0
 10
278.89152944812082
 20
612.78717501480276
 30
0.0
 11
348.63462944812079
 21
612.78717501480276
 31
0.0
  0
LINE
  5
1091
  8
0
 62
     0
 10
357.68964744812092
 20
610.88219601480273
 30
0.0
 11
356.041652448121
 21
614.41616001480281
 31
0.0
  0
LINE
  5
1092
  8
0
 62
     0
 10
356.041652448121
 20
614.41616001480281
 30
0.0
 11
267.22353344812092
 21
573.0001510148029
 31
0.0
  0
LINE
  5
1093
  8
0
 62
     0
 10
268.8717264481208
 20
569.46518001480285
 30
0.0
 11
267.22353344812092
 21
573.0001510148029
 31
0.0
  0
LINE
  5
1094
  8
0
 62
     0
 10
276.42473144812089
 20
569.83118401480283
 30
0.0
 11
276.10332944812092
 21
570.5201760148027
 31
0.0
  0
LINE
  5
1095
  8
0
 62
     0
 10
352.71662944812078
 20
585.70117701480274
 30
0.0
 11
352.71662944812078
 21
606.07518501480286
 31
0.0
  0
LINE
  5
1096
  8
0
 62
     0
 10
270.33912144812092
 20
568.93617701480275
 30
0.0
 11
357.16462644812111
 21
609.42318001480282
 31
0.0
  0
LINE
  5
1097
  8
0
 62
     0
 10
275.29153144812091
 20
576.76218101480265
 30
0.0
 11
275.29153144812091
 21
609.18718401480282
 31
0.0
  0
LINE
  5
1098
  8
0
  6
AM_ISO08W050
 62
     0
 10
270.11533044812091
 20
592.78717501480276
 30
0.0
 11
278.70563144812093
 21
592.78717501480276
 31
0.0
  0
LINE
  5
1099
  8
0
 62
     0
 10
273.29153144812091
 20
604.38718101480265
 30
0.0
 11
273.29153144812091
 21
581.18718401480282
 31
0.0
  0
LINE
  5
109A
  8
0
 62
     0
 10
273.29153144812091
 20
604.38718101480265
 30
0.0
 11
274.29153144812091
 21
604.38718101480265
 31
0.0
  0
LINE
  5
109B
  8
0
 62
     0
 10
273.29153144812091
 20
581.18718401480282
 30
0.0
 11
274.29153144812091
 21
581.18718401480282
 31
0.0
  0
ARC
  5
109C
  8
0
 62
     0
 10
278.89152944812082
 20
609.18718401480282
 30
0.0
 40
3.5999979999999989
 50
90.000061000000898
 51
179.99998200000081
  0
ARC
  5
109D
  8
0
 62
     0
 10
356.69262744812102
 20
610.41718001480274
 30
0.0
 40
1.100006
 50
294.99982600000169
 51
24.999513999998751
  0
ARC
  5
109E
  8
0
 62
     0
 10
269.868630448121
 20
569.93018101480266
 30
0.0
 40
1.0999959999999971
 50
204.99980300000141
 51
295.00019499999559
  0
ARC
  5
109F
  8
0
 62
     0
 10
345.11663144812098
 20
585.70117701480274
 30
0.0
 40
7.5999979999999958
 50
288.90001600000272
 51
0.0000179999992061
  0
ARC
  5
10A0
  8
0
 62
     0
 10
279.68743244812089
 20
571.3521780148028
 30
0.0
 40
3.5999979999999989
 50
204.9991569999998
 51
269.09402099999909
  0
ARC
  5
10A1
  8
0
 62
     0
 10
282.79393044812088
 20
767.72816901480269
 30
0.0
 40
200.0
 50
269.09405199999651
 51
288.9000030000019
  0
ARC
  5
10A2
  8
0
 62
     0
 10
275.19702944812087
 20
570.09818001480289
 30
0.0
 40
0.9999979999999998
 50
24.999268000004911
 51
114.9993579999945
  0
ARC
  5
10A3
  8
0
 62
     0
 10
354.7166294481209
 20
606.07518501480286
 30
0.0
 40
2.0
 50
115.0001500000004
 51
179.99998200000081
  0
ARC
  5
10A4
  8
0
 62
     0
 10
348.63462944812079
 20
610.18718401480282
 30
0.0
 40
2.600006
 50
40.686130000000617
 51
90.0
  0
ARC
  5
10A5
  8
0
 62
     0
 10
274.29153144812091
 20
605.38718101480299
 30
0.0
 40
1.0
 50
269.99894299999522
 51
0.0000179999992061
  0
ARC
  5
10A6
  8
0
 62
     0
 10
274.29153144812091
 20
580.18718401480282
 30
0.0
 40
1.0
 50
0.0000179999992061
 51
90.0
  0
LINE
  5
10A7
  8
0
  6
AM_ISO08W050
 62
     0
 10
312.79152744812092
 20
622.87189101480283
 30
0.0
 11
312.79152744812092
 21
608.88506901480275
 31
0.0
  0
LINE
  5
10A8
  8
0
 62
     0
 10
369.29152744812092
 20
621.28717501480276
 30
0.0
 11
369.29152744812092
 21
768.28718001480286
 31
0.0
  0
ARC
  5
10A9
  8
0
 62
     0
 10
207.3104024481209
 20
616.31224501480301
 30
0.0
 40
2.0
 50
60.311697000000869
 51
90.0
  0
LINE
  5
10AA
  8
0
 62
     0
 10
199.79152744812089
 20
618.3122450148029
 30
0.0
 11
207.3104024481209
 21
618.3122450148029
 31
0.0
  0
ARC
  5
10AB
  8
0
 62
     0
 10
205.36615444812091
 20
619.01811701480278
 30
0.0
 40
2.0
 50
11.08497000000493
 51
90.0
  0
LINE
  5
10AC
  8
0
 62
     0
 10
199.79152744812089
 20
621.0181170148029
 30
0.0
 11
205.36615444812091
 21
621.0181170148029
 31
0.0
  0
ARC
  5
10AD
  8
0
 62
     0
 10
209.29152744812089
 20
619.78717501480287
 30
0.0
 40
2.0
 50
180.0
 51
270.0
  0
ARC
  5
10AE
  8
0
 62
     0
 10
209.29152744812089
 20
628.28717901480275
 30
0.0
 40
2.0
 50
180.0
 51
270.0
  0
LINE
  5
10AF
  8
0
 62
     0
 10
207.29152744812089
 20
641.98766201480282
 30
0.0
 11
207.29152744812089
 21
619.78717501480287
 31
0.0
  0
LINE
  5
10B0
  8
0
 62
     0
 10
199.79152744812089
 20
640.59987801480281
 30
0.0
 11
207.29152744812089
 21
640.59987801480281
 31
0.0
  0
LINE
  5
10B1
  8
0
 62
     0
 10
199.79152744812089
 20
629.02318301480273
 30
0.0
 11
207.29152744812089
 21
629.02318301480273
 31
0.0
  0
LINE
  5
10B2
  8
0
 62
     0
 10
199.79152744812089
 20
622.96302001480285
 30
0.0
 11
207.29152744812089
 21
622.96302001480285
 31
0.0
  0
ARC
  5
10B3
  8
0
 62
     0
 10
357.29152544812092
 20
628.28717101480288
 30
0.0
 40
2.0
 50
269.99999799999722
 51
359.99999799999722
  0
LINE
  5
10B4
  8
0
 62
     0
 10
209.29152744812089
 20
643.98766201480271
 30
0.0
 11
357.29152444812092
 21
643.98766201480271
 31
0.0
  0
LINE
  5
10B5
  8
0
 62
     0
 10
209.29152744812089
 20
626.28717901480275
 30
0.0
 11
357.2972284481209
 21
626.28717901480275
 31
0.0
  0
LINE
  5
10B6
  8
0
 62
     0
 10
359.2915274481208
 20
621.28717501480276
 30
0.0
 11
369.29152444812092
 21
621.28717501480276
 31
0.0
  0
LINE
  5
10B7
  8
0
 62
     0
 10
360.29152744812092
 20
631.74836701480274
 30
0.0
 11
369.29152544812098
 21
631.74836701480274
 31
0.0
  0
LINE
  5
10B9
  8
0
 62
     0
 10
207.29152744812089
 20
769.73996301480258
 30
0.0
 11
207.29152744812089
 21
766.70115901480256
 31
0.0
  0
ARC
  5
10BA
  8
0
 62
     0
 10
209.29152744812089
 20
761.28717901480275
 30
0.0
 40
2.0
 50
90.0
 51
180.0
  0
LINE
  5
10BB
  8
0
 62
     0
 10
199.79152744812089
 20
749.06177601480272
 30
0.0
 11
207.29152744812089
 21
749.06177601480272
 31
0.0
  0
LINE
  5
10BC
  8
0
 62
     0
 10
199.79152744812089
 20
760.62779501480304
 30
0.0
 11
207.29152744812089
 21
760.62779501480304
 31
0.0
  0
LINE
  5
10BD
  8
0
 62
     0
 10
199.79152744812089
 20
766.70115901480256
 30
0.0
 11
207.29152744812089
 21
766.70115901480256
 31
0.0
  0
LINE
  5
10BE
  8
0
 62
     0
 10
207.29152744812089
 20
771.265421014803
 30
0.0
 11
207.29152744812089
 21
770.66214501480272
 31
0.0
  0
ARC
  5
10BF
  8
0
 62
     0
 10
209.29152744812089
 20
769.73996301480258
 30
0.0
 40
2.0
 50
90.0
 51
180.0
  0
LINE
  5
10C0
  8
0
 62
     0
 10
199.79152744812089
 20
772.68032001480287
 30
0.0
 11
205.77219844812089
 21
772.68032001480287
 31
0.0
  0
LINE
  5
10C1
  8
0
 62
     0
 10
199.79152744812089
 20
771.36580801480306
 30
0.0
 11
205.44283844812099
 21
771.36580801480306
 31
0.0
  0
ARC
  5
10C2
  8
0
 62
     0
 10
205.44283844812099
 20
773.36580801480272
 30
0.0
 40
2.0
 50
270.0
 51
344.1903739999978
  0
ARC
  5
10C3
  8
0
 62
     0
 10
209.29152744812089
 20
772.27604101480301
 30
0.0
 40
2.0
 50
90.0
 51
164.19037399999769
  0
ARC
  5
10C4
  8
0
 62
     0
 10
205.77219844812089
 20
774.68032001480253
 30
0.0
 40
2.0
 50
270.0
 51
331.62214300000107
  0
ARC
  5
10C5
  8
0
 62
     0
 10
209.29152744812089
 20
772.77918301480304
 30
0.0
 40
2.0
 50
90.0
 51
151.6221439999978
  0
ARC
  5
10C6
  8
0
 62
     0
 10
357.2915274481208
 20
761.28717901480275
 30
0.0
 40
2.0
 50
0.0
 51
90.0
  0
ARC
  5
10C7
  8
0
 62
     0
 10
356.1640354481209
 20
769.73996301480258
 30
0.0
 40
2.0
 50
15.000000000000741
 51
90.0
  0
LINE
  5
10C8
  8
0
 62
     0
 10
361.2915274481208
 20
758.33130901480286
 30
0.0
 11
358.09588744812089
 21
770.25760101480273
 31
0.0
  0
ARC
  5
10C9
  8
0
 62
     0
 10
357.12855144812102
 20
771.265421014803
 30
0.0
 40
2.0
 50
15.000000000000741
 51
90.0
  0
LINE
  5
10CA
  8
0
 62
     0
 10
361.2915274481208
 20
763.45639201480253
 30
0.0
 11
359.06040344812089
 21
771.78306001480269
 31
0.0
  0
ARC
  5
10CB
  8
0
 62
     0
 10
357.67624544812088
 20
772.27604101480301
 30
0.0
 40
2.0
 50
15.000000000000741
 51
90.0
  0
LINE
  5
10CC
  8
0
 62
     0
 10
361.2915274481208
 20
766.51102901480272
 30
0.0
 11
359.60809644812088
 21
772.79367901480271
 31
0.0
  0
ARC
  5
10CD
  8
0
 62
     0
 10
357.95727944812091
 20
772.77918301480304
 30
0.0
 40
2.0
 50
15.000000000000741
 51
90.0
  0
LINE
  5
10CE
  8
0
 62
     0
 10
361.2915274481208
 20
768.06300701480291
 30
0.0
 11
359.88913144812091
 21
773.29682201480284
 31
0.0
  0
ARC
  5
10CF
  8
0
 62
     0
 10
205.29152744812089
 20
770.66214501480272
 30
0.0
 40
2.0
 50
270.0
 51
0.0
  0
ARC
  5
10D0
  8
0
 62
     0
 10
209.29152744812089
 20
771.265421014803
 30
0.0
 40
2.0
 50
90.0
 51
180.0
  0
LINE
  5
10D1
  8
0
 62
     0
 10
199.79152744812089
 20
768.66214501480272
 30
0.0
 11
205.29152744812089
 21
768.66214501480272
 31
0.0
  0
LINE
  5
10D2
  8
0
 62
     0
 10
207.29152744812089
 20
766.70115901480256
 30
0.0
 11
207.29152744812089
 21
747.65851501480302
 31
0.0
  0
LINE
  5
10D4
  8
0
 62
     0
 10
360.29152744812092
 20
757.82598301480255
 30
0.0
 11
369.29152744812092
 21
757.82598301480255
 31
0.0
  0
LINE
  5
10D5
  8
0
 62
     0
 10
209.29152744812089
 20
745.65851501480302
 30
0.0
 11
357.2915274481208
 21
745.65851501480302
 31
0.0
  0
LINE
  5
10D6
  8
0
 62
     0
 10
209.29152744812089
 20
774.77918301480304
 30
0.0
 11
357.95727944812091
 21
774.77918301480304
 31
0.0
  0
LINE
  5
10D7
  8
0
 62
     0
 10
209.29152744812089
 20
763.28717901480275
 30
0.0
 11
357.2915274481208
 21
763.28717901480275
 31
0.0
  0
LINE
  5
10D8
  8
0
 62
     0
 10
209.29152744812089
 20
771.7399630148027
 30
0.0
 11
356.1640354481209
 21
771.7399630148027
 31
0.0
  0
LINE
  5
10D9
  8
0
 62
     0
 10
209.29152744812089
 20
773.26542101480254
 30
0.0
 11
357.12855144812102
 21
773.26542101480254
 31
0.0
  0
LINE
  5
10DA
  8
0
 62
     0
 10
209.29152744812089
 20
774.27604101480301
 30
0.0
 11
357.67624544812088
 21
774.27604101480301
 31
0.0
  0
LINE
  5
10DB
  8
0
 62
     0
 10
279.29152744812092
 20
615.78717501480287
 30
0.0
 11
279.29152744812092
 21
612.78717501480276
 31
0.0
  0
LINE
  5
10DC
  8
0
 62
     0
 10
346.29152744812092
 20
615.78717501480287
 30
0.0
 11
346.29152744812092
 21
612.78717501480276
 31
0.0
  0
LINE
  5
10DD
  8
0
 62
     0
 10
143.79152744812089
 20
633.9942050148029
 30
0.0
 11
143.79152744812089
 21
756.90213501480287
 31
0.0
  0
LINE
  5
10DE
  8
0
 62
     0
 10
139.79189744812089
 20
632.18719501480291
 30
0.0
 11
139.79189744812089
 21
757.38711501480259
 31
0.0
  0
LINE
  5
10DF
  8
0
 62
     0
 10
144.19148744812091
 20
762.05417501480269
 30
0.0
 11
145.3144774481209
 21
768.42514501480275
 31
0.0
  0
LINE
  5
10E0
  8
0
 62
     0
 10
150.6765974481209
 20
773.16910501480288
 30
0.0
 11
176.31856744812089
 21
774.51309501480284
 31
0.0
  0
LINE
  5
10E1
  8
0
 62
     0
 10
176.79152744812089
 20
615.73187501480288
 30
0.0
 11
176.79152744812089
 21
773.67374501480253
 31
0.0
  0
LINE
  5
10E2
  8
0
 62
     0
 10
147.65346744812089
 20
766.81412501480304
 30
0.0
 11
147.65346744812089
 21
623.26715501480282
 31
0.0
  0
LINE
  5
10E3
  8
0
 62
     0
 10
144.19148744812091
 20
627.52017501480282
 30
0.0
 11
145.3144774481209
 21
621.15011501480274
 31
0.0
  0
LINE
  5
10E4
  8
0
 62
     0
 10
150.67653744812091
 20
616.40616501480281
 30
0.0
 11
176.31856744812089
 21
615.06216501480253
 31
0.0
  0
LINE
  5
10E5
  8
0
 62
     0
 10
177.88454744812091
 20
775.53714501480272
 30
0.0
 11
199.79152744812089
 21
775.53714501480272
 31
0.0
  0
LINE
  5
10E6
  8
0
 62
     0
 10
177.88454744812091
 20
614.03717501480287
 30
0.0
 11
199.79152744812089
 21
614.03717501480287
 31
0.0
  0
LINE
  5
10E7
  8
0
 62
     0
 10
346.29152744812092
 20
617.78717501480276
 30
0.0
 11
346.29152744812092
 21
615.78717501480287
 31
0.0
  0
LINE
  5
10E8
  8
0
 62
     0
 10
279.29152744812092
 20
617.78717501480276
 30
0.0
 11
279.29152744812092
 21
615.78717501480287
 31
0.0
  0
LINE
  5
10E9
  8
0
 62
     0
 10
279.29152744812092
 20
615.78717501480287
 30
0.0
 11
346.29152744812092
 21
615.78717501480287
 31
0.0
  0
LINE
  5
10EA
  8
0
 62
     0
 10
209.29152744812089
 20
617.78717501480276
 30
0.0
 11
356.07204744812088
 21
617.78717501480276
 31
0.0
  0
LINE
  5
10EB
  8
0
 62
     0
 10
322.79152744812092
 20
720.78717501480276
 30
0.0
 11
199.79152744812089
 21
720.78717501480276
 31
0.0
  0
LINE
  5
10EC
  8
0
 62
     0
 10
322.79152744812092
 20
668.78717501480276
 30
0.0
 11
199.79152744812089
 21
668.78717501480276
 31
0.0
  0
LINE
  5
10ED
  8
0
 62
     0
 10
338.79152744812092
 20
721.78717501480276
 30
0.0
 11
338.79152744812092
 21
727.78717501480287
 31
0.0
  0
LINE
  5
10EE
  8
0
 62
     0
 10
323.7915274481208
 20
721.78717501480276
 30
0.0
 11
323.7915274481208
 21
727.78717501480287
 31
0.0
  0
LINE
  5
10EF
  8
0
 62
     0
 10
338.79152744812092
 20
667.78717501480276
 30
0.0
 11
338.79152744812092
 21
661.78717501480287
 31
0.0
  0
LINE
  5
10F0
  8
0
 62
     0
 10
323.7915274481208
 20
667.78717501480276
 30
0.0
 11
323.7915274481208
 21
661.78717501480287
 31
0.0
  0
LINE
  5
10F1
  8
0
 62
     0
 10
295.29152744812092
 20
715.28717501480287
 30
0.0
 11
295.29152744812092
 21
674.28717501480287
 31
0.0
  0
LINE
  5
10F2
  8
0
 62
     0
 10
358.29152744812092
 20
715.28717501480287
 30
0.0
 11
358.29152744812092
 21
674.28717501480287
 31
0.0
  0
LINE
  5
10F3
  8
0
 62
     0
 10
295.29152744812092
 20
715.28717501480287
 30
0.0
 11
358.29152744812092
 21
715.28717501480287
 31
0.0
  0
LINE
  5
10F4
  8
0
 62
     0
 10
295.29152744812092
 20
674.28717501480287
 30
0.0
 11
358.29152744812092
 21
674.28717501480287
 31
0.0
  0
LINE
  5
10F5
  8
0
 62
     0
 10
295.29152744812092
 20
707.78717501480287
 30
0.0
 11
358.29152744812092
 21
707.78717501480287
 31
0.0
  0
LINE
  5
10F6
  8
0
 62
     0
 10
207.29152744812089
 20
697.78717501480276
 30
0.0
 11
207.29152744812089
 21
691.78717501480276
 31
0.0
  0
LINE
  5
10F7
  8
0
 62
     0
 10
358.00362744812088
 20
619.26846501480281
 30
0.0
 11
358.99153744812088
 21
622.94714501480303
 31
0.0
  0
LINE
  5
10F8
  8
0
 62
     0
 10
357.415547448121
 20
619.26846501480281
 30
0.0
 11
358.99153744812088
 21
625.13718501480287
 31
0.0
  0
LINE
  5
10F9
  8
0
 62
     0
 10
359.2915274481208
 20
657.82895501480289
 30
0.0
 11
359.2915274481208
 21
621.28717501480276
 31
0.0
  0
LINE
  5
10FA
  8
0
 62
     0
 10
358.29152744812092
 20
670.78717501480276
 30
0.0
 11
199.79152744812089
 21
670.78717501480276
 31
0.0
  0
LINE
  5
10FB
  8
0
 62
     0
 10
358.29152744812092
 20
668.78717501480276
 30
0.0
 11
339.79152744812092
 21
668.78717501480276
 31
0.0
  0
LINE
  5
10FC
  8
0
 62
     0
 10
291.29152744812092
 20
678.78717501480287
 30
0.0
 11
199.79152744812089
 21
678.78717501480287
 31
0.0
  0
LINE
  5
10FD
  8
0
 62
     0
 10
291.29152744812092
 20
680.78717501480276
 30
0.0
 11
199.79152744812089
 21
680.78717501480276
 31
0.0
  0
LINE
  5
10FE
  8
0
 62
     0
 10
291.29152744812092
 20
688.78717501480276
 30
0.0
 11
199.79152744812089
 21
688.78717501480276
 31
0.0
  0
LINE
  5
10FF
  8
0
 62
     0
 10
291.29152744812092
 20
690.78717501480287
 30
0.0
 11
208.29152744812089
 21
690.78717501480287
 31
0.0
  0
LINE
  5
1100
  8
0
 62
     0
 10
358.29152744812092
 20
648.78717501480287
 30
0.0
 11
199.79152744812089
 21
648.78717501480287
 31
0.0
  0
LINE
  5
1101
  8
0
 62
     0
 10
358.29152744812092
 20
660.78717501480276
 30
0.0
 11
199.79152744812089
 21
660.78717501480276
 31
0.0
  0
LINE
  5
1102
  8
0
 62
     0
 10
358.29152744812092
 20
658.78717501480276
 30
0.0
 11
199.79152744812089
 21
658.78717501480276
 31
0.0
  0
LINE
  5
1103
  8
0
 62
     0
 10
358.29152744812092
 20
650.78717501480276
 30
0.0
 11
199.79152744812089
 21
650.78717501480276
 31
0.0
  0
LINE
  5
1104
  8
0
 62
     0
 10
358.29152744812092
 20
738.78717501480276
 30
0.0
 11
199.79152744812089
 21
738.78717501480276
 31
0.0
  0
LINE
  5
1105
  8
0
 62
     0
 10
358.29152744812092
 20
730.78717501480276
 30
0.0
 11
199.79152744812089
 21
730.78717501480276
 31
0.0
  0
LINE
  5
1106
  8
0
 62
     0
 10
358.29152744812092
 20
728.78717501480287
 30
0.0
 11
199.79152744812089
 21
728.78717501480287
 31
0.0
  0
LINE
  5
1107
  8
0
 62
     0
 10
358.29152744812092
 20
740.78717501480287
 30
0.0
 11
199.79152744812089
 21
740.78717501480287
 31
0.0
  0
LINE
  5
1108
  8
0
 62
     0
 10
291.29152744812092
 20
698.78717501480287
 30
0.0
 11
208.29152744812089
 21
698.78717501480287
 31
0.0
  0
LINE
  5
1109
  8
0
 62
     0
 10
291.29152744812092
 20
700.78717501480276
 30
0.0
 11
199.79152744812089
 21
700.78717501480276
 31
0.0
  0
LINE
  5
110A
  8
0
 62
     0
 10
291.29152744812092
 20
708.78717501480276
 30
0.0
 11
199.79152744812089
 21
708.78717501480276
 31
0.0
  0
LINE
  5
110B
  8
0
 62
     0
 10
291.29152744812092
 20
710.78717501480276
 30
0.0
 11
199.79152744812089
 21
710.78717501480276
 31
0.0
  0
LINE
  5
110C
  8
0
 62
     0
 10
358.29152744812092
 20
720.78717501480276
 30
0.0
 11
339.79152744812092
 21
720.78717501480276
 31
0.0
  0
LINE
  5
110D
  8
0
 62
     0
 10
358.29152744812092
 20
718.78717501480276
 30
0.0
 11
199.79152744812089
 21
718.78717501480276
 31
0.0
  0
LINE
  5
110E
  8
0
 62
     0
 10
359.2915274481208
 20
731.74539501480285
 30
0.0
 11
359.2915274481208
 21
761.28717901480275
 31
0.0
  0
LINE
  5
110F
  8
0
 62
     0
 10
199.79152744812089
 20
775.53714501480272
 30
0.0
 11
199.79152744812089
 21
614.03717501480287
 31
0.0
  0
ARC
  5
1110
  8
0
 62
     0
 10
176.29152744812089
 20
775.0121150148027
 30
0.0
 40
0.5
 50
272.99997000000388
 51
335.54394999999732
  0
ARC
  5
1111
  8
0
 62
     0
 10
150.97743744812081
 20
767.42715501480302
 30
0.0
 40
5.75
 50
92.999985999995786
 51
169.9999800000015
  0
ARC
  5
1112
  8
0
 62
     0
 10
177.88454744812091
 20
774.28714501480283
 30
0.0
 40
1.25
 50
89.999988999997541
 51
155.54397999999961
  0
ARC
  5
1113
  8
0
 62
     0
 10
142.04189744812089
 20
757.38711501480259
 30
0.0
 40
2.25
 50
98.816588000003236
 51
179.99997999999781
  0
ARC
  5
1114
  8
0
 62
     0
 10
141.23720744812081
 20
762.57522501480275
 30
0.0
 40
3.0
 50
278.8169699999973
 51
349.99994999999802
  0
ARC
  5
1115
  8
0
 62
     0
 10
142.04189744812089
 20
632.18719501480291
 30
0.0
 40
2.25
 50
179.99997999999781
 51
261.18293999999872
  0
ARC
  5
1116
  8
0
 62
     0
 10
141.23720744812081
 20
626.99921501480299
 30
0.0
 40
3.0
 50
9.9998319999967595
 51
81.183191000000207
  0
ARC
  5
1117
  8
0
 62
     0
 10
176.29152744812089
 20
614.56317501480271
 30
0.0
 40
0.5
 50
24.45639900000074
 51
86.999984999999697
  0
ARC
  5
1118
  8
0
 62
     0
 10
150.97743744812081
 20
622.14813501480273
 30
0.0
 40
5.75
 50
189.99997999999979
 51
266.9999499999962
  0
ARC
  5
1119
  8
0
 62
     0
 10
177.88454744812091
 20
615.28717501480287
 30
0.0
 40
1.25
 50
204.45597000000129
 51
269.99995999999589
  0
ARC
  5
111A
  8
0
 62
     0
 10
356.07204744812088
 20
619.78717501480287
 30
0.0
 40
2.0
 50
269.999989999999
 51
344.96831000000168
  0
ARC
  5
111B
  8
0
 62
     0
 10
355.48396744812089
 20
619.78717501480287
 30
0.0
 40
2.0
 50
269.999989999999
 51
344.96831000000168
  0
ARC
  5
111C
  8
0
 62
     0
 10
339.79152744812092
 20
661.78717501480287
 30
0.0
 40
1.0
 50
179.999989999999
 51
270.0
  0
ARC
  5
111D
  8
0
 62
     0
 10
322.79152744812092
 20
661.78717501480287
 30
0.0
 40
1.0
 50
269.999989999999
 51
0.0000010000014034
  0
ARC
  5
111E
  8
0
 62
     0
 10
322.79152744812092
 20
727.78717501480287
 30
0.0
 40
1.0
 50
0.0
 51
90.00000299999769
  0
ARC
  5
111F
  8
0
 62
     0
 10
339.79152744812092
 20
727.78717501480287
 30
0.0
 40
1.0
 50
90.00000299999769
 51
180.00001000000091
  0
ARC
  5
1120
  8
0
 62
     0
 10
339.79152744812092
 20
667.78717501480276
 30
0.0
 40
1.0
 50
90.00000299999769
 51
180.00001000000091
  0
ARC
  5
1121
  8
0
 62
     0
 10
322.79152744812092
 20
667.78717501480276
 30
0.0
 40
1.0
 50
0.0
 51
90.00000299999769
  0
ARC
  5
1122
  8
0
 62
     0
 10
339.79152744812092
 20
721.78717501480276
 30
0.0
 40
1.0
 50
179.999989999999
 51
270.0
  0
ARC
  5
1123
  8
0
 62
     0
 10
322.79152744812092
 20
721.78717501480276
 30
0.0
 40
1.0
 50
269.999989999999
 51
0.0000010000014034
  0
CIRCLE
  5
1124
  8
0
 62
     0
 10
333.79152744812092
 20
723.28717501480276
 30
0.0
 40
1.0
  0
CIRCLE
  5
1125
  8
0
 62
     0
 10
328.79152744812092
 20
723.28717501480276
 30
0.0
 40
1.149999999999999
  0
CIRCLE
  5
1126
  8
0
 62
     0
 10
328.79152744812092
 20
723.28717501480276
 30
0.0
 40
1.1000000000000001
  0
CIRCLE
  5
1127
  8
0
 62
     0
 10
328.79152744812092
 20
666.28717501480287
 30
0.0
 40
1.1000000000000001
  0
CIRCLE
  5
1128
  8
0
 62
     0
 10
328.79152744812092
 20
666.28717501480287
 30
0.0
 40
1.149999999999999
  0
CIRCLE
  5
1129
  8
0
 62
     0
 10
333.79152744812092
 20
666.28717501480287
 30
0.0
 40
1.0
  0
ARC
  5
112A
  8
0
 62
     0
 10
291.29152744812092
 20
709.78717501480276
 30
0.0
 40
1.0
 50
269.999989999999
 51
90.00000299999769
  0
ARC
  5
112B
  8
0
 62
     0
 10
291.29152744812092
 20
699.78717501480276
 30
0.0
 40
1.0
 50
269.999989999999
 51
90.00000299999769
  0
ARC
  5
112C
  8
0
 62
     0
 10
291.29152744812092
 20
689.78717501480276
 30
0.0
 40
1.0
 50
269.999989999999
 51
90.00000299999769
  0
ARC
  5
112D
  8
0
 62
     0
 10
291.29152744812092
 20
679.78717501480276
 30
0.0
 40
1.0
 50
269.999989999999
 51
90.00000299999769
  0
ARC
  5
112E
  8
0
 62
     0
 10
356.34151744812101
 20
659.78717501480276
 30
0.0
 40
1.0
 50
269.999989999999
 51
90.00000299999769
  0
ARC
  5
112F
  8
0
 62
     0
 10
358.29152744812092
 20
659.78717501480276
 30
0.0
 40
1.0
 50
269.999989999999
 51
90.00000299999769
  0
ARC
  5
1130
  8
0
 62
     0
 10
356.34151744812101
 20
669.78717501480287
 30
0.0
 40
1.0
 50
269.999989999999
 51
90.00000299999769
  0
ARC
  5
1131
  8
0
 62
     0
 10
358.29152744812092
 20
669.78717501480287
 30
0.0
 40
1.0
 50
269.999989999999
 51
90.00000299999769
  0
ARC
  5
1132
  8
0
 62
     0
 10
356.34151744812101
 20
719.78717501480287
 30
0.0
 40
1.0
 50
269.999989999999
 51
90.00000299999769
  0
ARC
  5
1133
  8
0
 62
     0
 10
358.29152744812092
 20
719.78717501480287
 30
0.0
 40
1.0
 50
269.999989999999
 51
90.00000299999769
  0
ARC
  5
1134
  8
0
 62
     0
 10
356.34151744812101
 20
729.78717501480276
 30
0.0
 40
1.0
 50
269.999989999999
 51
90.00000299999769
  0
ARC
  5
1135
  8
0
 62
     0
 10
358.29152744812092
 20
729.78717501480276
 30
0.0
 40
1.0
 50
269.999989999999
 51
90.00000299999769
  0
ARC
  5
1136
  8
0
 62
     0
 10
208.29152744812089
 20
697.78717501480276
 30
0.0
 40
1.0
 50
90.00000299999769
 51
180.00001000000091
  0
ARC
  5
1137
  8
0
 62
     0
 10
208.29152744812089
 20
691.78717501480276
 30
0.0
 40
1.0
 50
179.999989999999
 51
270.0
  0
ARC
  5
1138
  8
0
 62
     0
 10
208.29149744812091
 20
679.78717501480276
 30
0.0
 40
1.0
 50
90.00000299999769
 51
270.0
  0
ARC
  5
1139
  8
0
 62
     0
 10
208.29149744812091
 20
669.78717501480287
 30
0.0
 40
1.0
 50
90.00000299999769
 51
270.0
  0
ARC
  5
113A
  8
0
 62
     0
 10
356.34151744812101
 20
649.78717501480276
 30
0.0
 40
1.0
 50
269.999989999999
 51
90.00000299999769
  0
ARC
  5
113B
  8
0
 62
     0
 10
358.29152744812092
 20
649.78717501480276
 30
0.0
 40
1.0
 50
269.999989999999
 51
90.00000299999769
  0
ARC
  5
113C
  8
0
 62
     0
 10
208.29149744812091
 20
649.78717501480276
 30
0.0
 40
1.0
 50
90.00000299999769
 51
270.0
  0
ARC
  5
113D
  8
0
 62
     0
 10
208.29149744812091
 20
659.78717501480276
 30
0.0
 40
1.0
 50
90.00000299999769
 51
270.0
  0
ARC
  5
113E
  8
0
 62
     0
 10
360.43758744812089
 20
622.56677501480283
 30
0.0
 40
1.4952499999999991
 50
140.03764999999859
 51
165.2626000000021
  0
ARC
  5
113F
  8
0
 62
     0
 10
360.43251744812102
 20
624.74267501480278
 30
0.0
 40
1.494020999999998
 50
139.79258000000121
 51
164.69034000000019
  0
ARC
  5
1140
  8
0
 62
     0
 10
360.4356874481208
 20
768.554235014803
 30
0.0
 40
1.495147999999999
 50
195.00188999999639
 51
195.00621300000489
  0
ARC
  5
1141
  8
0
 62
     0
 10
208.29149744812091
 20
729.78717501480276
 30
0.0
 40
1.0
 50
90.00000299999769
 51
270.0
  0
ARC
  5
1142
  8
0
 62
     0
 10
208.29149744812091
 20
739.78717501480276
 30
0.0
 40
1.0
 50
90.00000299999769
 51
270.0
  0
ARC
  5
1143
  8
0
 62
     0
 10
358.29152744812092
 20
739.78717501480276
 30
0.0
 40
1.0
 50
269.999989999999
 51
90.00000299999769
  0
ARC
  5
1144
  8
0
 62
     0
 10
356.34151744812101
 20
739.78717501480276
 30
0.0
 40
1.0
 50
269.999989999999
 51
90.00000299999769
  0
ARC
  5
1145
  8
0
 62
     0
 10
208.29149744812091
 20
719.78717501480287
 30
0.0
 40
1.0
 50
90.00000299999769
 51
270.0
  0
ARC
  5
1146
  8
0
 62
     0
 10
208.29149744812091
 20
709.78717501480276
 30
0.0
 40
1.0
 50
90.00000299999769
 51
270.0
  0
LINE
  5
1147
  8
0
 62
     0
 10
369.2915334481209
 20
768.28718001480286
 30
0.0
 11
361.23146044812091
 21
768.28718001480286
 31
0.0
  0
LINE
  5
1148
  8
0
 62
     0
 10
360.29152744812092
 20
657.82895501480289
 30
0.0
 11
369.29152744812092
 21
657.82895501480289
 31
0.0
  0
LINE
  5
1149
  8
0
 62
     0
 10
360.29152744812092
 20
731.74539501480285
 30
0.0
 11
369.29152744812092
 21
731.74539501480285
 31
0.0
  0
LINE
  5
114A
  8
0
  6
AM_ISO08W050
 62
     0
 10
131.2359954357116
 20
694.78717501480287
 30
0.0
 11
605.99779672945988
 21
694.78717501480287
 31
0.0
  0
ARC
  5
114B
  8
0
  6
CONTINUOUS
 62
     0
 10
356.89153444812098
 20
640.47820201480283
 30
0.0
 40
2.2000009999999981
 50
90.000022000001564
 51
179.99999700000231
  0
ARC
  5
114C
  8
0
  6
CONTINUOUS
 62
     0
 10
356.89153444812098
 20
635.87819601480282
 30
0.0
 40
2.1999970000000002
 50
180.00001799999919
 51
270.0
  0
LINE
  5
114D
  8
0
  6
CONTINUOUS
 62
     0
 10
359.29152544812098
 20
638.22764401480288
 30
0.0
 11
357.99152544812102
 21
638.97819901480273
 31
0.0
  0
LINE
  5
114E
  8
0
  6
CONTINUOUS
 62
     0
 10
359.29152544812098
 20
637.22764401480265
 30
0.0
 11
357.99152544812102
 21
637.97819901480273
 31
0.0
  0
LINE
  5
114F
  8
0
  6
CONTINUOUS
 62
     0
 10
357.99152544812102
 20
633.57819901480275
 30
0.0
 11
359.29152544812098
 21
633.57819901480275
 31
0.0
  0
LINE
  5
1150
  8
0
  6
CONTINUOUS
 62
     0
 10
357.99152544812102
 20
642.77819901480268
 30
0.0
 11
359.29152544812098
 21
642.77819901480268
 31
0.0
  0
LINE
  5
1151
  8
0
  6
CONTINUOUS
 62
     0
 10
359.29152544812098
 20
633.57819901480275
 30
0.0
 11
359.29152544812098
 21
642.77819901480268
 31
0.0
  0
LINE
  5
1152
  8
0
  6
CONTINUOUS
 62
     0
 10
354.69152244812102
 20
635.87819601480282
 30
0.0
 11
354.69152244812102
 21
640.47820201480283
 31
0.0
  0
LINE
  5
1153
  8
0
  6
CONTINUOUS
 62
     0
 10
357.99152544812102
 20
633.57819901480275
 30
0.0
 11
357.99152544812102
 21
642.77819901480268
 31
0.0
  0
LINE
  5
1154
  8
0
  6
CONTINUOUS
 62
     0
 10
357.99152544812102
 20
642.67819901480289
 30
0.0
 11
356.89153444812098
 21
642.67819901480289
 31
0.0
  0
LINE
  5
1155
  8
0
  6
CONTINUOUS
 62
     0
 10
357.99152544812102
 20
633.67819901480254
 30
0.0
 11
356.89153444812098
 21
633.67819901480254
 31
0.0
  0
ARC
  5
1156
  8
0
  6
CONTINUOUS
 62
     0
 10
356.89153644812092
 20
749.09614901480302
 30
0.0
 40
2.2000009999999981
 50
180.00000299999761
 51
269.99997799999852
  0
ARC
  5
1157
  8
0
  6
CONTINUOUS
 62
     0
 10
356.89153644812092
 20
753.69615501480291
 30
0.0
 40
2.1999970000000002
 50
90.0
 51
179.99998200000081
  0
LINE
  5
1158
  8
0
  6
CONTINUOUS
 62
     0
 10
359.2915274481208
 20
751.34670701480286
 30
0.0
 11
357.99152744812091
 21
750.59615201480301
 31
0.0
  0
LINE
  5
1159
  8
0
  6
CONTINUOUS
 62
     0
 10
359.2915274481208
 20
752.34670701480275
 30
0.0
 11
357.99152744812091
 21
751.59615201480301
 31
0.0
  0
LINE
  5
115A
  8
0
  6
CONTINUOUS
 62
     0
 10
357.99152744812091
 20
755.99615201480287
 30
0.0
 11
359.2915274481208
 21
755.99615201480287
 31
0.0
  0
LINE
  5
115B
  8
0
  6
CONTINUOUS
 62
     0
 10
357.99152744812091
 20
746.79615201480271
 30
0.0
 11
359.2915274481208
 21
746.79615201480271
 31
0.0
  0
LINE
  5
115C
  8
0
  6
CONTINUOUS
 62
     0
 10
359.2915274481208
 20
755.99615201480287
 30
0.0
 11
359.2915274481208
 21
746.79615201480271
 31
0.0
  0
LINE
  5
115D
  8
0
  6
CONTINUOUS
 62
     0
 10
354.6915244481209
 20
753.69615501480291
 30
0.0
 11
354.6915244481209
 21
749.09614901480302
 31
0.0
  0
LINE
  5
115E
  8
0
  6
CONTINUOUS
 62
     0
 10
357.99152744812091
 20
755.99615201480287
 30
0.0
 11
357.99152744812091
 21
746.79615201480271
 31
0.0
  0
LINE
  5
115F
  8
0
  6
CONTINUOUS
 62
     0
 10
357.99152744812091
 20
746.89615201480274
 30
0.0
 11
356.89153644812092
 21
746.89615201480274
 31
0.0
  0
LINE
  5
1160
  8
0
  6
CONTINUOUS
 62
     0
 10
357.99152744812091
 20
755.89615201480274
 30
0.0
 11
356.89153644812092
 21
755.89615201480274
 31
0.0
  0
TEXT
  5
1684
  8
0
  6
CONTINUOUS
 62
     0
 10
670.33482310836052
 20
682.88702321104734
 30
0.0
 40
10.0
  1
VX08-040EM~VX08-100EM
  0
ENDSEC
  0
EOF
