  0
SECTION
  2
HEADER
  9
$ACADVER
  1
AC1009
  9
$INSBASE
 10
0.0
 20
0.0
 30
0.0
  9
$EXTMIN
 10
187.5599369297274
 20
433.38394369658198
 30
0.0
  9
$EXTMAX
 10
1271.3470080241671
 20
1206.4723481779811
 30
0.0
  9
$LIMMIN
 10
0.0000005999945643
 20
-0.0000005963913736
  9
$LIMMAX
 10
1707.000000599995
 20
1109.9999994036091
  9
$ORTHOMODE
 70
     1
  9
$REGENMODE
 70
     1
  9
$FILLMODE
 70
     1
  9
$QTEXTMODE
 70
     0
  9
$MIRRTEXT
 70
     0
  9
$DRAGMODE
 70
     2
  9
$LTSCALE
 40
1.0
  9
$OSMODE
 70
   551
  9
$ATTMODE
 70
     1
  9
$TEXTSIZE
 40
2.5
  9
$TRACEWID
 40
1.0
  9
$TEXTSTYLE
  7
STANDARD
  9
$CLAYER
  8
0
  9
$CELTYPE
  6
BYLAYER
  9
$CECOLOR
 62
   256
  9
$DIMSCALE
 40
1.0
  9
$DIMASZ
 40
2.0
  9
$DIMEXO
 40
1.0
  9
$DIMDLI
 40
8.0
  9
$DIMRND
 40
0.0
  9
$DIMDLE
 40
0.0
  9
$DIMEXE
 40
1.0
  9
$DIMTP
 40
-0.025
  9
$DIMTM
 40
0.043
  9
$DIMTXT
 40
2.5
  9
$DIMCEN
 40
0.0
  9
$DIMTSZ
 40
0.0
  9
$DIMTOL
 70
     0
  9
$DIMLIM
 70
     0
  9
$DIMTIH
 70
     0
  9
$DIMTOH
 70
     0
  9
$DIMSE1
 70
     0
  9
$DIMSE2
 70
     0
  9
$DIMTAD
 70
     3
  9
$DIMZIN
 70
     8
  9
$DIMBLK
  1

  9
$DIMASO
 70
     1
  9
$DIMSHO
 70
     1
  9
$DIMPOST
  1

  9
$DIMAPOST
  1
"
  9
$DIMALT
 70
     0
  9
$DIMALTD
 70
     2
  9
$DIMALTF
 40
0.0393701
  9
$DIMLFAC
 40
1.0
  9
$DIMTOFL
 70
     1
  9
$DIMTVP
 40
0.0
  9
$DIMTIX
 70
     0
  9
$DIMSOXD
 70
     0
  9
$DIMSAH
 70
     0
  9
$DIMBLK1
  1

  9
$DIMBLK2
  1

  9
$DIMSTYLE
  2
AM_JIS
  9
$DIMCLRD
 70
     2
  9
$DIMCLRE
 70
     2
  9
$DIMCLRT
 70
     4
  9
$DIMTFAC
 40
0.71
  9
$DIMGAP
 40
1.5
  9
$LUNITS
 70
     2
  9
$LUPREC
 70
     2
  9
$SKETCHINC
 40
1.0
  9
$FILLETRAD
 40
0.0
  9
$AUNITS
 70
     0
  9
$AUPREC
 70
     0
  9
$MENU
  1
.
  9
$ELEVATION
 40
0.0
  9
$PELEVATION
 40
0.0
  9
$THICKNESS
 40
0.0
  9
$LIMCHECK
 70
     0
  9
$BLIPMODE
 70
     0
  9
$CHAMFERA
 40
3.0
  9
$CHAMFERB
 40
3.0
  9
$SKPOLY
 70
     0
  9
$TDCREATE
 40
2456829.3841110538
  9
$TDUPDATE
 40
2458540.6827157522
  9
$TDINDWG
 40
0.61172125
  9
$TDUSRTIMER
 40
0.6117208333
  9
$USRTIMER
 70
     1
  9
$ANGBASE
 50
0.0
  9
$ANGDIR
 70
     0
  9
$PDMODE
 70
     0
  9
$PDSIZE
 40
0.0
  9
$PLINEWID
 40
0.0
  9
$COORDS
 70
     1
  9
$SPLFRAME
 70
     0
  9
$SPLINETYPE
 70
     6
  9
$SPLINESEGS
 70
     8
  9
$ATTDIA
 70
     1
  9
$ATTREQ
 70
     1
  9
$HANDLING
 70
     1
  9
$HANDSEED
  5
90B7
  9
$SURFTAB1
 70
     6
  9
$SURFTAB2
 70
     6
  9
$SURFTYPE
 70
     6
  9
$SURFU
 70
     6
  9
$SURFV
 70
     6
  9
$UCSNAME
  2

  9
$UCSORG
 10
0.0
 20
0.0
 30
0.0
  9
$UCSXDIR
 10
1.0
 20
0.0
 30
0.0
  9
$UCSYDIR
 10
0.0
 20
1.0
 30
0.0
  9
$PUCSNAME
  2

  9
$PUCSORG
 10
0.0
 20
0.0
 30
0.0
  9
$PUCSXDIR
 10
1.0
 20
0.0
 30
0.0
  9
$PUCSYDIR
 10
0.0
 20
1.0
 30
0.0
  9
$USERI1
 70
     0
  9
$USERI2
 70
     0
  9
$USERI3
 70
     0
  9
$USERI4
 70
     0
  9
$USERI5
 70
     0
  9
$USERR1
 40
0.0
  9
$USERR2
 40
0.0
  9
$USERR3
 40
0.0
  9
$USERR4
 40
0.0
  9
$USERR5
 40
0.0
  9
$WORLDVIEW
 70
     1
  9
$SHADEDGE
 70
     3
  9
$SHADEDIF
 70
    70
  9
$TILEMODE
 70
     1
  9
$MAXACTVP
 70
    64
  9
$PLIMCHECK
 70
     0
  9
$PEXTMIN
 10
1.0000000000000000E+020
 20
1.0000000000000000E+020
 30
1.0000000000000000E+020
  9
$PEXTMAX
 10
-1.0000000000000000E+020
 20
-1.0000000000000000E+020
 30
-1.0000000000000000E+020
  9
$PLIMMIN
 10
0.0
 20
0.0
  9
$PLIMMAX
 10
420.0
 20
297.0
  9
$UNITMODE
 70
     0
  9
$VISRETAIN
 70
     1
  9
$PLINEGEN
 70
     0
  9
$PSLTSCALE
 70
     1
  0
ENDSEC
  0
SECTION
  2
TABLES
  0
TABLE
  2
VPORT
 70
     1
  0
VPORT
  2
*ACTIVE
 70
     0
 10
0.0
 20
0.0
 11
1.0
 21
1.0
 12
729.45234360236657
 22
819.90576848170815
 13
0.0
 23
0.0
 14
15.0
 24
15.0
 15
60.0
 25
60.0
 16
0.0
 26
0.0
 36
1.0
 17
0.0
 27
0.0
 37
0.0
 40
778.52116040511964
 41
1.757159221076747
 42
50.0
 43
0.0
 44
0.0
 50
0.0
 51
0.0
 71
     0
 72
  1000
 73
     1
 74
     3
 75
     0
 76
     0
 77
     0
 78
     0
  0
ENDTAB
  0
TABLE
  2
LTYPE
 70
    24
  0
LTYPE
  2
CONTINUOUS
 70
     0
  3
Solid line
 72
    65
 73
     0
 40
0.0
  0
LTYPE
  2
AM_ISO02W050
 70
     0
  3
__ __ __ __ __ __ __ __ __ __ __ __ __ __ __
 72
    65
 73
     2
 40
7.5
 49
6.0
 49
-1.5
  0
LTYPE
  2
AM_ISO08W050
 70
     0
  3
____ . ____ . ____ . ____ . ____ . ____ . ____
 72
    65
 73
     4
 40
18.0
 49
12.0
 49
-1.5
 49
3.0
 49
-1.5
  0
LTYPE
  2
AM_ISO09W050
 70
     0
  3
_____ . . _____ . . _____ . . ____ .. ____
 72
    65
 73
     6
 40
22.5
 49
12.0
 49
-1.5
 49
3.0
 49
-1.5
 49
3.0
 49
-1.5
  0
LTYPE
  2
AMCONSTR
 70
     0
  3
_______________________
 72
    65
 73
     2
 40
9999.0
 49
9999.0
 49
0.0
  0
LTYPE
  2
AM_ISO08W050X2
 70
     0
  3
__ . __ . __ . __ . __ . __
 72
    65
 73
     4
 40
9.0
 49
6.0
 49
-0.75
 49
1.5
 49
-0.75
  0
LTYPE
  2
AM_ISO02W050X2
 70
     0
  3
 _ _ _ _ _ _ _ _ _ _ _ _
 72
    65
 73
     2
 40
3.75
 49
3.0
 49
-0.75
  0
LTYPE
  2
AMZIGZAG
 70
     0
  3
/\/-/\/-/\/-/\/-/\/-/\/
 72
    65
 73
     2
 40
11.0001
 49
0.0001
 49
-11.0
  0
LTYPE
  2
ACANSTGBM
 70
     0
  3
__ . . __ . .
 72
    65
 73
     6
 40
9.0
 49
4.0
 49
-1.0
 49
1.0
 49
-1.0
 49
1.0
 49
-1.0
  0
LTYPE
  2
ACANSTGLM
 70
     0
  3
_ _ _ _ _
 72
    65
 73
     2
 40
3.0
 49
2.0
 49
-1.0
  0
LTYPE
  2
ACISOWELD
 70
     0
  3
_ _ _ _ _
 72
    65
 73
     2
 40
2.0
 49
2.0
 49
-1.0
  0
LTYPE
  2
ACISOTGB
 70
     0
  3
__ . . __ . .
 72
    65
 73
     6
 40
9.0
 49
4.0
 49
-1.0
 49
1.0
 49
-1.0
 49
1.0
 49
-1.0
  0
LTYPE
  2
ACISOTGL
 70
     0
  3
_ _ _ _ _
 72
    65
 73
     2
 40
3.0
 49
2.0
 49
-1.0
  0
LTYPE
  2
ACJISTGB
 70
     0
  3
__ . . __ . .
 72
    65
 73
     6
 40
9.0
 49
4.0
 49
-1.0
 49
1.0
 49
-1.0
 49
1.0
 49
-1.0
  0
LTYPE
  2
ACJISTGL
 70
     0
  3
_ _ _ _ _
 72
    65
 73
     2
 40
3.0
 49
2.0
 49
-1.0
  0
LTYPE
  2
HIDDEN
 70
     0
  3
Hidden __ __ __ __ __ __ __ __ __ __ __ __ __ _
 72
    65
 73
     2
 40
9.5249999999999968
 49
6.349999999999997
 49
-3.174999999999998
  0
LTYPE
  2
PHANTOM2
 70
     0
  3
Phantom (.5x) ___ _ _ ___ _ _ ___ _ _ ___ _ _
 72
    65
 73
     6
 40
31.75
 49
15.875
 49
-3.174999999999998
 49
3.174999999999998
 49
-3.174999999999998
 49
3.174999999999998
 49
-3.174999999999998
  0
LTYPE
  2
CENTER
 70
     0
  3
Center ____ _ ____ _ ____ _ ____ _ ____ _ ____
 72
    65
 73
     4
 40
50.799999999999997
 49
31.75
 49
-6.349999999999997
 49
6.349999999999997
 49
-6.349999999999997
  0
LTYPE
  2
CENTER2
 70
     0
  3
Center (.5x) ___ _ ___ _ ___ _ ___ _ ___ _ ___
 72
    65
 73
     4
 40
1.125
 49
0.75
 49
-0.125
 49
0.125
 49
-0.125
  0
LTYPE
  2
HIDDEN2
 70
     0
  3
Hidden (.5x) _ _ _ _ _ _ _ _ _ _ _ _ _ _ _ _ _
 72
    65
 73
     2
 40
0.1875
 49
0.125
 49
-0.0625
  0
LTYPE
  2
AMZIGZAG2
 70
     0
  3
/\/-/\/-/\/-/\/-/\/-/\/
 72
    65
 73
     2
 40
0.4401
 49
0.0001
 49
-0.4400000000000001
  0
LTYPE
  2
ACANSTGB
 70
     0
  3
__ . . __ . .
 72
    65
 73
     6
 40
0.35433070866
 49
0.15748031496
 49
-0.03937007874
 49
0.03937007874
 49
-0.03937007874
 49
0.03937007874
 49
-0.03937007874
  0
LTYPE
  2
ACANSTGL
 70
     0
  3
_ _ _ _ _
 72
    65
 73
     2
 40
0.11811023622
 49
0.07874015748
 49
-0.03937007874
  0
ENDTAB
  0
TABLE
  2
LAYER
 70
     4
  0
LAYER
  2
0
 70
     0
 62
     7
  6
CONTINUOUS
  0
LAYER
  2
DEFPOINTS
 70
     0
 62
     7
  6
CONTINUOUS
  0
LAYER
  2
AM_CL
 70
     0
 62
     1
  6
AMCONSTR
  0
LAYER
  2
AM_5
 70
     0
 62
     2
  6
CONTINUOUS
  0
ENDTAB
  0
TABLE
  2
STYLE
 70
    10
  0
STYLE
  2
STANDARD
 70
     0
 40
0.0
 41
0.7400000000000003
 50
0.0
 71
     0
 42
2.5
  3
txt.shx
  4
bigfont.shx
  0
STYLE
  2
ANNOTATIVE
 70
     0
 40
0.0
 41
1.0
 50
0.0
 71
     0
 42
0.2
  3
txt
  4

  0
STYLE
  2

 70
     1
 40
0.0
 41
1.0
 50
0.0
 71
     0
 42
2.5
  3
ltypeshp.shx
  4

  0
STYLE
  2
ACANSTS
 70
     0
 40
1.0
 41
1.0
 50
0.0
 71
     0
 42
2.5
  3
romans.shx
  4
bigfont.shx
  0
STYLE
  2
ACANSGDT
 70
     0
 40
0.0
 41
1.0
 50
0.0
 71
     0
 42
2.5
  3
amgdt.shx
  4

  0
STYLE
  2
ACISOTS
 70
     0
 40
1.0
 41
1.0
 50
0.0
 71
     0
 42
2.5
  3
isocp.shx
  4
extfont.shx
  0
STYLE
  2
ACISOGDT
 70
     0
 40
0.0
 41
1.0
 50
0.0
 71
     0
 42
2.5
  3
amgdt.shx
  4

  0
STYLE
  2
ACJISGDT
 70
     0
 40
0.0
 41
1.0
 50
0.0
 71
     0
 42
2.5
  3
amgdt.shx
  4

  0
STYLE
  2
ACJISTS
 70
     0
 40
1.0
 41
1.0
 50
0.0
 71
     0
 42
2.5
  3
isocp.shx
  4
extfont.shx
  0
STYLE
  2

 70
     1
 40
0.0
 41
1.0
 50
0.0
 71
     0
 42
2.5
  3
genltshp.shx
  4

  0
ENDTAB
  0
TABLE
  2
VIEW
 70
     6
  0
VIEW
  2
AM_VIEW1
 70
     0
 40
555.00000000000011
 10
586.60142408753893
 20
832.49999940360874
 41
1173.202846975089
 11
0.0
 21
0.0
 31
1.0
 12
0.0
 22
0.0
 32
0.0
 42
50.0
 43
0.0
 44
0.0
 50
0.0
 71
     0
  0
VIEW
  2
AM_VIEW2
 70
     0
 40
555.00000000000011
 10
1120.3985771124501
 20
832.49999940360874
 41
1173.202846975089
 11
0.0
 21
0.0
 31
1.0
 12
0.0
 22
0.0
 32
0.0
 42
50.0
 43
0.0
 44
0.0
 50
0.0
 71
     0
  0
VIEW
  2
AM_VIEW3
 70
     0
 40
555.00000000000011
 10
586.60142408753893
 20
277.49999940360868
 41
1173.202846975089
 11
0.0
 21
0.0
 31
1.0
 12
0.0
 22
0.0
 32
0.0
 42
50.0
 43
0.0
 44
0.0
 50
0.0
 71
     0
  0
VIEW
  2
AM_VIEW4
 70
     0
 40
555.00000000000011
 10
1120.3985771124501
 20
277.49999940360868
 41
1173.202846975089
 11
0.0
 21
0.0
 31
1.0
 12
0.0
 22
0.0
 32
0.0
 42
50.0
 43
0.0
 44
0.0
 50
0.0
 71
     0
  0
VIEW
  2
AM_VIEW5
 70
     0
 40
555.00000000000011
 10
853.50000059999434
 20
554.99999940360874
 41
1173.202846975089
 11
0.0
 21
0.0
 31
1.0
 12
0.0
 22
0.0
 32
0.0
 42
50.0
 43
0.0
 44
0.0
 50
0.0
 71
     0
  0
VIEW
  2
AM_VIEW6
 70
     0
 40
1109.9889000000001
 10
853.50000059999434
 20
554.99999940360874
 41
2346.3822298932391
 11
0.0
 21
0.0
 31
1.0
 12
0.0
 22
0.0
 32
0.0
 42
50.0
 43
0.0
 44
0.0
 50
0.0
 71
     0
  0
ENDTAB
  0
TABLE
  2
UCS
 70
     0
  0
ENDTAB
  0
TABLE
  2
APPID
 70
   158
  0
APPID
  2
ACAD
 70
     0
  0
APPID
  2
ACADANNOTATIVE
 70
     0
  0
APPID
  2
ACAD_MLEADERVER
 70
     0
  0
APPID
  2
MCAD_NO_VIS
 70
     0
  0
APPID
  2
ACAD_TEMP_GRAPHIC
 70
     0
  0
APPID
  2
AD_DRAW
 70
     0
  0
APPID
  2
ACATTRIBSERVICES
 70
     0
  0
APPID
  2
DESIGNERASSEMBLIES
 70
     0
  0
APPID
  2
ACADM_DIM_EDIT
 70
     0
  0
APPID
  2
AMDT_DM_ADJ
 70
     0
  0
APPID
  2
GENIUS_GENDIMSH_14
 70
     0
  0
APPID
  2
GEVID1057795304
 70
     0
  0
APPID
  2
GEVDC
 70
     0
  0
APPID
  2
GEVCON
 70
     0
  0
APPID
  2
GENIUS_GENBH_13
 70
     0
  0
APPID
  2
GENIUS_GENOENT_13
 70
     0
  0
APPID
  2
GENIUS_GENOBJ-NBEHI-BHF_13
 70
     0
  0
APPID
  2
GENIUS_GENOLIS_13
 70
     0
  0
APPID
  2
GENIUS_GENODEF_13
 70
     0
  0
APPID
  2
GENIUS_GENOREF_13
 70
     0
  0
APPID
  2
GENIUS_GENOBJ-NBEHI-BHB_13
 70
     0
  0
APPID
  2
GENIUS_GENOBJ-F-SCPASSM_13
 70
     0
  0
APPID
  2
GENIUS_GENDTOL_13
 70
     0
  0
APPID
  2
GENIUS_GENTRA_14
 70
     0
  0
APPID
  2
ASURF_PCURVE_APPNAME
 70
     0
  0
APPID
  2
GENIUS_GENCFG_13
 70
     0
  0
APPID
  2
GENIUS_GE3CFG0_13
 70
     0
  0
APPID
  2
GENIUS_GENCFG0_13
 70
     0
  0
APPID
  2
GENIUS_GENCFG1_13
 70
     0
  0
APPID
  2
GENIUS_GENCFG2_13
 70
     0
  0
APPID
  2
GENIUS_GENCFG3_13
 70
     0
  0
APPID
  2
GENIUS_GENCFG4_13
 70
     0
  0
APPID
  2
GENIUS_GEVCFG0_13
 70
     0
  0
APPID
  2
GENIUS_GENOBJ-N-TIT_13
 70
     0
  0
APPID
  2
GENIUS_GENTITLE_13
 70
     0
  0
APPID
  2
GENIUS_GENSCREG_15
 70
     0
  0
APPID
  2
GENIUS_GENOBJ-N-SDF_13
 70
     0
  0
APPID
  2
GENIUS_GENFIL_13
 70
     0
  0
APPID
  2
GENIUS_GENOBJ-N-CHA_13
 70
     0
  0
APPID
  2
GENIUS_GEFSH_13
 70
     0
  0
APPID
  2
GENIUS_GENOBJ-F-SHS_13
 70
     0
  0
APPID
  2
GENIUS_GENOBJ-N-CEN_13
 70
     0
  0
APPID
  2
GENIUS_GENREC_14
 70
     0
  0
APPID
  2
GENIUS_GENOBJ-N-REC_13
 70
     0
  0
APPID
  2
GENIUS_GENOBJ-N-HTC_13
 70
     0
  0
APPID
  2
GENIUS_GENHATCH_13
 70
     0
  0
APPID
  2
ACAD_PSEXT
 70
     0
  0
APPID
  2
ACAD_EXEMPT_FROM_CAD_STANDARDS
 70
     0
  0
APPID
  2
ACAECLAYERSTANDARD
 70
     0
  0
APPID
  2
GENIUS_GENCEN_19
 70
     0
  0
APPID
  2
ACAD_DSTYLE_DIMINSPECT
 70
     0
  0
APPID
  2
ACAD_DSTYLE_DIMANGULAR_EXT
 70
     0
  0
APPID
  2
ACADANNOPO
 70
     0
  0
APPID
  2
ACAD_NAV_VCDISPLAY
 70
     0
  0
APPID
  2
GENIUS_GENOBJ-N-FIL_13
 70
     0
  0
APPID
  2
ACAD_DSTYLE_DIMBREAK
 70
     0
  0
APPID
  2
ACAD_DSTYLE_DIMJAG
 70
     0
  0
APPID
  2
ACAD_DSTYLE_DIMRADIAL_EXTENSION
 70
     0
  0
APPID
  2
GENIUS_GENHINW_13
 70
     0
  0
APPID
  2
GENIUS_FIRSTVISTXT_14
 70
     0
  0
APPID
  2
GENIUS_GENOBJ-N-LEADER_13
 70
     0
  0
APPID
  2
GENIUS_DUMCFG0_13
 70
     0
  0
APPID
  2
ACAD_DSTYLE_DIMTEXT_FILL
 70
     0
  0
APPID
  2
AMG_2DHIDE
 70
     0
  0
APPID
  2
GENIUS_GEFSHEP_13
 70
     0
  0
APPID
  2
GENIUS_GENOBJ-F-SHE_13
 70
     0
  0
APPID
  2
GENIUS_GEFSHE_13
 70
     0
  0
APPID
  2
ACAD_DIMASSOC_DIMLFAC
 70
     0
  0
APPID
  2
ACAD_DIMASSOC_CALC_DIMLFAC
 70
     0
  0
APPID
  2
ACAD_DIMASSOC_OVERRIDDEN_D
 70
     0
  0
APPID
  2
GENIUS_GENOBJ-F-SHSV_13
 70
     0
  0
APPID
  2
GENIUS_GEFWELD_13
 70
     0
  0
APPID
  2
GENIUS_GENOBJ-N-CRS_13
 70
     0
  0
APPID
  2
GENIUS_GENOBJ-N-RSBK_13
 70
     0
  0
APPID
  2
GENIUS_GENOBJ-N-LIB_13
 70
     0
  0
APPID
  2
GENIUS_GENSCALE_13
 70
     0
  0
APPID
  2
GENIUS_GENDREL_13
 70
     0
  0
APPID
  2
GEVPT
 70
     0
  0
APPID
  2
GEVIT
 70
     0
  0
APPID
  2
VCC
 70
     0
  0
APPID
  2
GENBH
 70
     0
  0
APPID
  2
GEVMK
 70
     0
  0
APPID
  2
GENIUS_GENOBJ-F-DESC_13
 70
     0
  0
APPID
  2
GENIUS_GEFDESC_14
 70
     0
  0
APPID
  2
GENIUS_GENOBJ-F-FEAT_13
 70
     0
  0
APPID
  2
GENIUS_GEFFEAT_14
 70
     0
  0
APPID
  2
GENIUS_GEFPARTINS_13
 70
     0
  0
APPID
  2
GENIUS_GENSCREG_13
 70
     0
  0
APPID
  2
GENIUS_GEFSHP_13
 70
     0
  0
APPID
  2
GEVID1025574798
 70
     0
  0
APPID
  2
GEVID1025574769
 70
     0
  0
APPID
  2
GEVID1025757451
 70
     0
  0
APPID
  2
GEVID1240528327
 70
     0
  0
APPID
  2
AMG_2DSTRUCT_BTR
 70
     0
  0
APPID
  2
ACADM_2DVIEW_IGN_NOTIFY
 70
     0
  0
APPID
  2
GEVID1240528328
 70
     0
  0
APPID
  2
GEVID1240528329
 70
     0
  0
APPID
  2
GEVRADREF
 70
     0
  0
APPID
  2
GEVID1240528330
 70
     0
  0
APPID
  2
GEVID1240528331
 70
     0
  0
APPID
  2
GEVID1240528332
 70
     0
  0
APPID
  2
GEVID1240791080
 70
     0
  0
APPID
  2
GEVID1240791081
 70
     0
  0
APPID
  2
GEVID1240791082
 70
     0
  0
APPID
  2
GEVID1240791083
 70
     0
  0
APPID
  2
GEVID1240791084
 70
     0
  0
APPID
  2
GEVID1240791085
 70
     0
  0
APPID
  2
GEVID1240791086
 70
     0
  0
APPID
  2
GEVID1240791087
 70
     0
  0
APPID
  2
GEVID1240791088
 70
     0
  0
APPID
  2
GEVID1240791089
 70
     0
  0
APPID
  2
GEVID1240791090
 70
     0
  0
APPID
  2
GEVID1240791091
 70
     0
  0
APPID
  2
GEVID1240791092
 70
     0
  0
APPID
  2
GEVID1240791093
 70
     0
  0
APPID
  2
GEVID1240791094
 70
     0
  0
APPID
  2
GEVID1240791095
 70
     0
  0
APPID
  2
GEVID1240791096
 70
     0
  0
APPID
  2
GEVID1240791097
 70
     0
  0
APPID
  2
GEVID1240791098
 70
     0
  0
APPID
  2
GEVID1240791099
 70
     0
  0
APPID
  2
GEVID1240791100
 70
     0
  0
APPID
  2
GEVID1240791101
 70
     0
  0
APPID
  2
GEVID1240791102
 70
     0
  0
APPID
  2
GEVID1240791103
 70
     0
  0
APPID
  2
GEVID1240791104
 70
     0
  0
APPID
  2
GEVID1240791105
 70
     0
  0
APPID
  2
GEVID1240875381
 70
     0
  0
APPID
  2
GEVID1240875382
 70
     0
  0
APPID
  2
GEVID1240875383
 70
     0
  0
APPID
  2
GEVID1240875384
 70
     0
  0
APPID
  2
GEVID1240875385
 70
     0
  0
APPID
  2
GEVID1240875386
 70
     0
  0
APPID
  2
GEVID1240875387
 70
     0
  0
APPID
  2
GEVID1240875388
 70
     0
  0
APPID
  2
GEVID1240875389
 70
     0
  0
APPID
  2
GEVID1240875390
 70
     0
  0
APPID
  2
GEVID1240875391
 70
     0
  0
APPID
  2
GEVID1240875392
 70
     0
  0
APPID
  2
GEVID1240875393
 70
     0
  0
APPID
  2
GEVID1240875394
 70
     0
  0
APPID
  2
GEVID1240875395
 70
     0
  0
APPID
  2
GEVID1240875396
 70
     0
  0
APPID
  2
GEVID1240875397
 70
     0
  0
APPID
  2
GEVID1240875398
 70
     0
  0
APPID
  2
GEVID1240875399
 70
     0
  0
APPID
  2
GEVID1240908996
 70
     0
  0
APPID
  2
GEVID1240908997
 70
     0
  0
APPID
  2
GEVID1240908998
 70
     0
  0
APPID
  2
GEVID1240908999
 70
     0
  0
APPID
  2
GEVID1240909000
 70
     0
  0
APPID
  2
GENIUS_GENOBJ-N-ZOO_13
 70
     0
  0
APPID
  2
GENIUS_GENZOO_17
 70
     0
  0
APPID
  2
GENIUS_GE3SECT_13
 70
     0
  0
APPID
  2
GEV_VCCNULL_SWITCH_OFF
 70
     0
  0
APPID
  2
ACAD_DSTYLE_DIMTALN
 70
     0
  0
APPID
  2
DCO15
 70
     0
  0
APPID
  2
CONTENTBLOCKDESCRIPTION
 70
     0
  0
ENDTAB
  0
TABLE
  2
DIMSTYLE
 70
    23
  0
DIMSTYLE
  2
STANDARD
 70
     0
  3

  4

  5

  6

  7

 40
1.0
 41
0.18
 42
0.0625
 43
0.38
 44
0.18
 45
0.0
 46
0.0
 47
0.0
 48
0.0
140
0.18
141
0.09
142
0.0
143
25.399999999999999
144
1.0
145
0.0
146
1.0
147
0.09
 71
     0
 72
     0
 73
     1
 74
     1
 75
     0
 76
     0
 77
     0
 78
     0
170
     0
171
     2
172
     0
173
     0
174
     0
175
     0
176
     0
177
     0
178
     0
  0
DIMSTYLE
  2
ANNOTATIVE
 70
     0
  3

  4

  5

  6

  7

 40
1.0
 41
0.18
 42
0.0625
 43
0.38
 44
0.18
 45
0.0
 46
0.0
 47
0.0
 48
0.0
140
0.18
141
0.09
142
0.0
143
25.399999999999999
144
1.0
145
0.0
146
1.0
147
0.09
 71
     0
 72
     0
 73
     1
 74
     1
 75
     0
 76
     0
 77
     0
 78
     0
170
     0
171
     2
172
     0
173
     0
174
     0
175
     0
176
     0
177
     0
178
     0
  0
DIMSTYLE
  2
AM_ANSI
 70
     0
  3

  4
"
  5

  6

  7

 40
1.0
 41
2.5
 42
1.0
 43
10.0
 44
1.0
 45
0.0
 46
0.0
 47
0.1
 48
0.1
140
3.5
141
0.0
142
0.0
143
0.0393701
144
1.0
145
0.0
146
0.71
147
1.5
 71
     0
 72
     0
 73
     1
 74
     1
 75
     0
 76
     0
 77
     0
 78
     8
170
     0
171
     2
172
     0
173
     0
174
     0
175
     0
176
     2
177
     2
178
     4
  0
DIMSTYLE
  2
AM_ANSI$3
 70
     0
  3

  4
"
  5

  6

  7

 40
1.0
 41
2.5
 42
1.0
 43
10.0
 44
1.0
 45
0.0
 46
0.0
 47
0.1
 48
0.1
140
3.5
141
0.0
142
0.0
143
0.0393701
144
1.0
145
0.0
146
0.71
147
1.5
 71
     0
 72
     0
 73
     1
 74
     1
 75
     0
 76
     0
 77
     0
 78
     8
170
     0
171
     2
172
     0
173
     0
174
     0
175
     0
176
     2
177
     2
178
     4
  0
DIMSTYLE
  2
AM_ANSI$4
 70
     0
  3

  4
"
  5

  6

  7

 40
1.0
 41
2.5
 42
1.0
 43
10.0
 44
1.0
 45
0.0
 46
0.0
 47
0.1
 48
0.1
140
3.5
141
0.0
142
0.0
143
0.0393701
144
1.0
145
0.0
146
0.71
147
1.5
 71
     0
 72
     0
 73
     1
 74
     1
 75
     0
 76
     0
 77
     0
 78
     8
170
     0
171
     2
172
     0
173
     0
174
     0
175
     0
176
     2
177
     2
178
     4
  0
DIMSTYLE
  2
AM_ANSI$7
 70
     0
  3

  4
"
  5

  6

  7

 40
1.0
 41
2.5
 42
1.0
 43
10.0
 44
1.0
 45
0.0
 46
0.0
 47
0.1
 48
0.1
140
5.0
141
0.0
142
0.0
143
0.0393701
144
1.0
145
0.0
146
0.71
147
1.5
 71
     0
 72
     0
 73
     1
 74
     1
 75
     0
 76
     0
 77
     0
 78
     8
170
     0
171
     2
172
     0
173
     0
174
     0
175
     0
176
     2
177
     2
178
     4
  0
DIMSTYLE
  2
AM_ANSI$SF
 70
     0
  3

  4
"
  5

  6

  7

 40
1.0
 41
2.5
 42
1.0
 43
10.0
 44
1.0
 45
0.0
 46
0.0
 47
0.1
 48
0.1
140
3.5
141
0.0
142
0.0
143
0.0393701
144
1.0
145
0.0
146
0.71
147
1.5
 71
     0
 72
     0
 73
     1
 74
     1
 75
     1
 76
     1
 77
     0
 78
     8
170
     0
171
     2
172
     0
173
     0
174
     0
175
     0
176
     2
177
     2
178
     4
  0
DIMSTYLE
  2
AM_ANSI$SH
 70
     0
  3

  4
"
  5

  6

  7

 40
1.0
 41
2.5
 42
1.0
 43
10.0
 44
1.0
 45
0.0
 46
0.0
 47
0.1
 48
0.1
140
3.5
141
0.0
142
0.0
143
0.0393701
144
1.0
145
0.0
146
0.71
147
1.5
 71
     0
 72
     0
 73
     1
 74
     1
 75
     1
 76
     1
 77
     0
 78
     8
170
     0
171
     2
172
     0
173
     1
174
     0
175
     0
176
     2
177
     2
178
     4
  0
DIMSTYLE
  2
AM_ISO
 70
     0
  3

  4
"
  5

  6

  7

 40
1.0
 41
2.5
 42
1.0
 43
10.0
 44
1.0
 45
0.0
 46
0.0
 47
0.1
 48
0.1
140
3.5
141
0.0
142
0.0
143
0.0393701
144
1.0
145
0.0
146
0.71
147
1.5
 71
     0
 72
     0
 73
     0
 74
     0
 75
     0
 76
     0
 77
     1
 78
     8
170
     0
171
     2
172
     1
173
     0
174
     0
175
     0
176
   256
177
   256
178
     2
  0
DIMSTYLE
  2
AM_ISO$3
 70
     0
  3

  4
"
  5

  6

  7

 40
1.0
 41
2.5
 42
1.0
 43
10.0
 44
1.0
 45
0.0
 46
0.0
 47
0.1
 48
0.1
140
3.5
141
0.0
142
0.0
143
0.0393701
144
1.0
145
0.0
146
0.71
147
1.5
 71
     0
 72
     0
 73
     0
 74
     1
 75
     0
 76
     0
 77
     1
 78
     8
170
     0
171
     2
172
     0
173
     0
174
     0
175
     0
176
   256
177
   256
178
     2
  0
DIMSTYLE
  2
AM_ISO$4
 70
     0
  3

  4
"
  5

  6

  7

 40
1.0
 41
2.5
 42
1.0
 43
10.0
 44
1.0
 45
0.0
 46
0.0
 47
0.1
 48
0.1
140
3.5
141
0.0
142
0.0
143
0.0393701
144
1.0
145
0.0
146
0.71
147
1.5
 71
     0
 72
     0
 73
     0
 74
     1
 75
     0
 76
     0
 77
     1
 78
     8
170
     0
171
     2
172
     0
173
     0
174
     0
175
     0
176
   256
177
   256
178
     2
  0
DIMSTYLE
  2
AM_ISO$6
 70
     0
  3

  4
"
  5

  6

  7

 40
1.0
 41
2.5
 42
1.0
 43
10.0
 44
1.0
 45
0.0
 46
0.0
 47
0.1
 48
0.1
140
3.5
141
0.0
142
0.0
143
0.0393701
144
1.0
145
0.0
146
0.71
147
1.5
 71
     0
 72
     0
 73
     0
 74
     0
 75
     0
 76
     0
 77
     0
 78
     8
170
     0
171
     2
172
     1
173
     0
174
     0
175
     0
176
   256
177
   256
178
     2
  0
DIMSTYLE
  2
AM_ISO$7
 70
     0
  3

  4
"
  5

  6

  7

 40
1.0
 41
2.5
 42
1.0
 43
10.0
 44
1.0
 45
0.0
 46
0.0
 47
0.1
 48
0.1
140
5.0
141
0.0
142
0.0
143
0.0393701
144
1.0
145
0.0
146
0.71
147
1.5
 71
     0
 72
     0
 73
     0
 74
     0
 75
     0
 76
     0
 77
     1
 78
     8
170
     0
171
     2
172
     1
173
     0
174
     0
175
     0
176
   256
177
   256
178
     2
  0
DIMSTYLE
  2
AM_ISO$SF
 70
     0
  3

  4
"
  5

  6

  7

 40
1.0
 41
2.5
 42
1.0
 43
10.0
 44
1.0
 45
0.0
 46
0.0
 47
0.1
 48
0.1
140
3.5
141
0.0
142
0.0
143
0.0393701
144
1.0
145
0.0
146
0.71
147
1.5
 71
     0
 72
     0
 73
     0
 74
     0
 75
     1
 76
     1
 77
     1
 78
     8
170
     0
171
     2
172
     1
173
     0
174
     0
175
     0
176
   256
177
   256
178
     2
  0
DIMSTYLE
  2
AM_ISO$SH
 70
     0
  3

  4
"
  5

  6

  7

 40
1.0
 41
2.5
 42
1.0
 43
10.0
 44
1.0
 45
0.0
 46
0.0
 47
0.1
 48
0.1
140
3.5
141
0.0
142
0.0
143
0.0393701
144
2.0
145
0.0
146
0.71
147
1.5
 71
     0
 72
     0
 73
     0
 74
     0
 75
     1
 76
     1
 77
     1
 78
     8
170
     0
171
     2
172
     1
173
     1
174
     0
175
     0
176
   256
177
   256
178
     2
  0
DIMSTYLE
  2
AM_JIS
 70
     0
  3

  4
"
  5

  6

  7

 40
1.0
 41
2.0
 42
1.0
 43
8.0
 44
1.0
 45
0.0
 46
0.0
 47
0.1
 48
0.1
140
2.5
141
0.0
142
0.0
143
0.0393701
144
1.0
145
0.0
146
0.71
147
1.5
 71
     0
 72
     0
 73
     0
 74
     0
 75
     0
 76
     0
 77
     3
 78
     8
170
     0
171
     2
172
     1
173
     0
174
     0
175
     0
176
     2
177
     2
178
     4
  0
DIMSTYLE
  2
AM_JIS$3
 70
     0
  3

  4
"
  5

  6

  7

 40
1.0
 41
2.0
 42
1.0
 43
10.0
 44
1.0
 45
0.0
 46
0.0
 47
0.1
 48
0.1
140
2.5
141
0.0
142
0.0
143
0.0393701
144
1.0
145
0.0
146
0.71
147
1.5
 71
     0
 72
     0
 73
     0
 74
     1
 75
     0
 76
     0
 77
     3
 78
     8
170
     0
171
     2
172
     0
173
     0
174
     0
175
     0
176
     2
177
     2
178
     4
  0
DIMSTYLE
  2
AM_JIS$4
 70
     0
  3

  4
"
  5

  6

  7

 40
1.0
 41
2.0
 42
1.0
 43
10.0
 44
1.0
 45
0.0
 46
0.0
 47
0.1
 48
0.1
140
2.5
141
0.0
142
0.0
143
0.0393701
144
1.0
145
0.0
146
0.71
147
1.5
 71
     0
 72
     0
 73
     0
 74
     0
 75
     0
 76
     0
 77
     3
 78
     8
170
     0
171
     2
172
     0
173
     0
174
     0
175
     0
176
     2
177
     2
178
     4
  0
DIMSTYLE
  2
AM_JIS$6
 70
     0
  3

  4
"
  5

  6

  7

 40
1.0
 41
2.0
 42
1.0
 43
10.0
 44
1.0
 45
0.0
 46
0.0
 47
0.1
 48
0.1
140
2.5
141
0.0
142
0.0
143
0.0393701
144
1.0
145
0.0
146
0.71
147
1.5
 71
     0
 72
     0
 73
     0
 74
     0
 75
     0
 76
     0
 77
     0
 78
     8
170
     0
171
     2
172
     1
173
     0
174
     0
175
     0
176
     2
177
     2
178
     4
  0
DIMSTYLE
  2
AM_JIS$7
 70
     0
  3

  4
"
  5

  6

  7

 40
1.0
 41
2.0
 42
1.0
 43
10.0
 44
1.0
 45
0.0
 46
0.0
 47
0.1
 48
0.1
140
2.5
141
0.0
142
0.0
143
0.0393701
144
1.0
145
0.0
146
0.71
147
1.5
 71
     0
 72
     0
 73
     0
 74
     0
 75
     0
 76
     0
 77
     3
 78
     8
170
     0
171
     2
172
     1
173
     0
174
     0
175
     0
176
     2
177
     2
178
     4
  0
DIMSTYLE
  2
AM_JIS$SF
 70
     0
  3

  4
"
  5

  6

  7

 40
1.0
 41
2.0
 42
1.0
 43
10.0
 44
1.0
 45
0.0
 46
0.0
 47
0.1
 48
0.1
140
2.5
141
0.0
142
0.0
143
0.0393701
144
1.0
145
0.0
146
0.71
147
1.5
 71
     0
 72
     0
 73
     0
 74
     0
 75
     1
 76
     1
 77
     3
 78
     8
170
     0
171
     2
172
     1
173
     0
174
     0
175
     0
176
     2
177
     2
178
     4
  0
DIMSTYLE
  2
AM_JIS$SH
 70
     0
  3

  4
"
  5

  6

  7

 40
1.0
 41
2.0
 42
1.0
 43
10.0
 44
1.0
 45
0.0
 46
0.0
 47
0.1
 48
0.1
140
2.5
141
0.0
142
0.0
143
0.0393701
144
2.0
145
0.0
146
0.71
147
1.5
 71
     0
 72
     0
 73
     0
 74
     0
 75
     1
 76
     1
 77
     3
 78
     8
170
     0
171
     2
172
     1
173
     1
174
     0
175
     0
176
     2
177
     2
178
     4
  0
DIMSTYLE
  2
AM_JIS$0
 70
     0
  3

  4
"
  5

  6

  7

 40
1.0
 41
2.0
 42
1.0
 43
8.0
 44
1.0
 45
0.0
 46
0.0
 47
0.1
 48
0.1
140
2.5
141
0.0
142
0.0
143
0.0393701
144
1.0
145
0.0
146
0.71
147
1.5
 71
     0
 72
     0
 73
     0
 74
     0
 75
     0
 76
     0
 77
     3
 78
     8
170
     0
171
     2
172
     1
173
     0
174
     0
175
     0
176
     2
177
     2
178
     4
  0
ENDTAB
  0
ENDSEC
  0
SECTION
  2
BLOCKS
  0
BLOCK
  8
0
  2
$MODEL_SPACE
 70
     0
 10
0.0
 20
0.0
 30
0.0
  3
$MODEL_SPACE
  1

  0
ENDBLK
  5
8EFD
  8
0
  0
BLOCK
 67
     1
  8
0
  2
$PAPER_SPACE
 70
     0
 10
0.0
 20
0.0
 30
0.0
  3
$PAPER_SPACE
  1

  0
ENDBLK
  5
8EF9
 67
     1
  8
0
  0
BLOCK
  8
0
  2
GENAXEH
 70
     0
 10
0.0
 20
0.0
 30
0.0
  3
GENAXEH
  1

  0
LINE
  5
8D29
  8
0
 10
-1.0
 20
0.0
 30
0.0
 11
1.0
 21
0.0
 31
0.0
  0
ENDBLK
  5
8D2A
  8
0
  0
BLOCK
  8
0
  2
_ACMFILLEDHALF
 70
     0
 10
0.0
 20
0.0
 30
0.0
  3
_ACMFILLEDHALF
  1

  0
TRACE
  5
8877
  8
0
 62
     0
 10
-0.8
 20
0.0
 30
0.0
 11
-1.0
 21
0.166666666
 31
0.0
 12
0.0
 22
0.0
 32
0.0
 13
0.0
 23
0.0
 33
0.0
  0
LINE
  5
8878
  8
0
 62
     0
 10
-1.0
 20
0.0
 30
0.0
 11
-0.8
 21
0.0
 31
0.0
  0
ENDBLK
  5
8879
  8
0
  0
BLOCK
  8
0
  2
_ACMFILLED
 70
     0
 10
0.0
 20
0.0
 30
0.0
  3
_ACMFILLED
  1

  0
TRACE
  5
8887
  8
0
 62
     0
 10
-1.0
 20
-0.166666666
 30
0.0
 11
-1.0
 21
0.166666666
 31
0.0
 12
0.0
 22
0.0
 32
0.0
 13
0.0
 23
0.0
 33
0.0
  0
ENDBLK
  5
8888
  8
0
  0
BLOCK
  8
0
  2
_ACMFILLED15
 70
     0
 10
0.0
 20
0.0
 30
0.0
  3
_ACMFILLED15
  1

  0
TRACE
  5
88BC
  8
0
 62
     0
 10
-1.0
 20
-0.131652497
 30
0.0
 11
-1.0
 21
0.131652497
 31
0.0
 12
0.0
 22
0.0
 32
0.0
 13
0.0
 23
0.0
 33
0.0
  0
ENDBLK
  5
88BD
  8
0
  0
BLOCK
  8
0
  2
_ACMOPEN15
 70
     0
 10
0.0
 20
0.0
 30
0.0
  3
_ACMOPEN15
  1

  0
LINE
  5
88EF
  8
0
 62
     0
 10
-1.0
 20
0.0
 30
0.0
 11
0.0
 21
0.0
 31
0.0
  0
LINE
  5
88F0
  8
0
 62
     0
 10
-1.0
 20
-0.131652497
 30
0.0
 11
0.0
 21
0.0
 31
0.0
  0
LINE
  5
88F1
  8
0
 62
     0
 10
0.0
 20
0.0
 30
0.0
 11
-1.0
 21
0.131652497
 31
0.0
  0
ENDBLK
  5
88F2
  8
0
  0
BLOCK
  8
0
  6
BYBLOCK
 62
     0
  2
$6-44
 70
     0
 10
0.0
 20
0.0
 30
0.0
  3
$6-44
  1

  0
ARC
  5
8935
  8
0
  6
CONTINUOUS
 62
     3
 10
-2.300002999999998
 20
2.3999909999999991
 30
0.0
 40
2.2000009999999981
 50
90.000003000000007
 51
179.999978
  0
ARC
  5
8936
  8
0
  6
CONTINUOUS
 62
     3
 10
2.300002999999998
 20
2.3999909999999991
 30
0.0
 40
2.1999970000000002
 50
0.0
 51
89.99998199999996
  0
LINE
  5
8937
  8
0
  6
CONTINUOUS
 62
     0
 10
-0.049445
 20
0.0
 30
0.0
 11
-0.8
 21
1.3
 31
0.0
  0
LINE
  5
8938
  8
0
  6
CONTINUOUS
 62
     0
 10
0.9505549999999999
 20
0.0
 30
0.0
 11
0.2
 21
1.3
 31
0.0
  0
LINE
  5
8939
  8
0
  6
CONTINUOUS
 62
     0
 10
4.5999999999999961
 20
1.3
 30
0.0
 11
4.5999999999999961
 21
0.0
 31
0.0
  0
LINE
  5
893A
  8
0
  6
CONTINUOUS
 62
     0
 10
-4.5999999999999961
 20
1.3
 30
0.0
 11
-4.5999999999999961
 21
0.0
 31
0.0
  0
LINE
  5
893B
  8
0
  6
CONTINUOUS
 62
     0
 10
4.5999999999999961
 20
0.0
 30
0.0
 11
-4.5999999999999961
 21
0.0
 31
0.0
  0
LINE
  5
893C
  8
0
  6
CONTINUOUS
 62
     3
 10
2.300002999999998
 20
4.6000030000000001
 30
0.0
 11
-2.300002999999998
 21
4.6000030000000001
 31
0.0
  0
LINE
  5
893D
  8
0
  6
CONTINUOUS
 62
     3
 10
4.5999999999999961
 20
1.3
 30
0.0
 11
-4.5999999999999961
 21
1.3
 31
0.0
  0
LINE
  5
893E
  8
0
  6
CONTINUOUS
 62
     3
 10
-4.5
 20
1.3
 30
0.0
 11
-4.5
 21
2.3999909999999991
 31
0.0
  0
LINE
  5
893F
  8
0
  6
CONTINUOUS
 62
     3
 10
4.5
 20
1.3
 30
0.0
 11
4.5
 21
2.3999909999999991
 31
0.0
  0
ENDBLK
  5
8940
  8
0
  6
BYBLOCK
 62
     0
  0
BLOCK
  8
0
  2
_OPEN30
 70
     0
 10
0.0
 20
0.0
 30
0.0
  3
_OPEN30
  1

  0
LINE
  5
8D70
  8
0
  6
BYBLOCK
 62
     0
 10
-1.0
 20
0.26794919
 30
0.0
 11
0.0
 21
0.0
 31
0.0
  0
LINE
  5
8D71
  8
0
  6
BYBLOCK
 62
     0
 10
0.0
 20
0.0
 30
0.0
 11
-1.0
 21
-0.26794919
 31
0.0
  0
LINE
  5
8D72
  8
0
  6
BYBLOCK
 62
     0
 10
0.0
 20
0.0
 30
0.0
 11
-1.0
 21
0.0
 31
0.0
  0
ENDBLK
  5
8D73
  8
0
  0
BLOCK
  8
0
  2
*U9
 70
     1
 10
0.0
 20
0.0
 30
0.0
  3
*U9
  1

  0
TEXT
  5
8E86
  8
0
 62
     0
 10
5.1211371559201639
 20
5.9826223594979648
 30
0.0
 40
15.0
  1
ＶＸ０８－００３ＥＭ～ＶＸ０８－０３０ＥＭ
 41
0.7400000000000003
  0
ENDBLK
  5
8E88
  8
0
  0
BLOCK
  8
0
  2
*U10
 70
     1
 10
0.0
 20
0.0
 30
0.0
  3
*U10
  1

  0
TEXT
  5
8E8A
  8
0
 62
     0
 10
959.76652504236245
 20
915.44067748151815
 30
0.0
 40
15.0
  1
ＶＸ０８－２４０ＥＭ～ＶＸ０８－５００ＥＭ
 41
0.7400000000000003
  0
ENDBLK
  5
8E8C
  8
0
  0
ENDSEC
  0
SECTION
  2
ENTITIES
  0
POINT
  5
68C5
  8
0
 62
     0
 10
426.99858015850288
 20
551.88397369658185
 30
0.0
  0
LINE
  5
68C6
  8
0
 62
     0
 10
426.99858015850288
 20
478.3839736965819
 30
0.0
 11
426.99858015850288
 21
551.88397369658185
 31
0.0
  0
POINT
  5
694B
  8
0
 62
     0
 10
426.99858015850288
 20
551.88391558676165
 30
0.0
  0
LINE
  5
694C
  8
0
 62
     0
 10
426.99858015850288
 20
625.38391558676165
 30
0.0
 11
426.99858015850288
 21
551.88391558676165
 31
0.0
  0
LINE
  5
69B8
  8
0
 62
     0
 10
426.99858015850288
 20
625.38391558676165
 30
0.0
 11
426.99858015850288
 21
478.3839736965819
 31
0.0
  0
LINE
  5
69C6
  8
0
  6
AM_ISO08W050
 62
     0
 10
473.68483015850308
 20
639.38397869658229
 30
0.0
 11
837.92733015850285
 21
639.38397869658229
 31
0.0
  0
LINE
  5
69C7
  8
0
 62
     0
 10
1111.347003024167
 20
771.39262869658205
 30
0.0
 11
1115.8250330241669
 21
770.50487869658207
 31
0.0
  0
LINE
  5
69C8
  8
0
 62
     0
 10
1096.868948024166
 20
770.50492869658206
 30
0.0
 11
1101.347003024167
 21
771.39272869658214
 31
0.0
  0
LINE
  5
69C9
  8
0
 62
     0
 10
1093.700978024166
 20
760.83897869658222
 30
0.0
 11
1096.097463024166
 21
769.78282869658221
 31
0.0
  0
LINE
  5
69CA
  8
0
 62
     0
 10
1118.9930330241671
 20
760.83892869658223
 30
0.0
 11
1116.5965180241669
 21
769.78282869658221
 31
0.0
  0
LINE
  5
69CB
  8
0
 62
     0
 10
1111.3470330241671
 20
807.38392869658207
 30
0.0
 11
1111.3470330241671
 21
765.38397869658206
 31
0.0
  0
LINE
  5
69CC
  8
0
 62
     0
 10
1101.3470330241671
 20
807.38392869658207
 30
0.0
 11
1101.3470330241671
 21
765.38397869658206
 31
0.0
  0
LINE
  5
69CD
  8
0
 62
     0
 10
768.99848015850284
 20
670.8839786965824
 30
0.0
 11
768.99848015850284
 21
666.8839786965824
 31
0.0
  0
LINE
  5
69CE
  8
0
 62
     0
 10
768.99848015850284
 20
670.8839786965824
 30
0.0
 11
830.99848015850273
 21
670.8839786965824
 31
0.0
  0
LINE
  5
69CF
  8
0
 62
     0
 10
748.99848015850284
 20
611.88397869658195
 30
0.0
 11
830.99848015850273
 21
611.88397869658195
 31
0.0
  0
LINE
  5
69D0
  8
0
 62
     0
 10
830.99848015850273
 20
670.8839786965824
 30
0.0
 11
830.99848015850273
 21
611.88397869658195
 31
0.0
  0
LINE
  5
69D1
  8
0
 62
     0
 10
748.99848015850284
 20
669.38397869658206
 30
0.0
 11
748.99848015850284
 21
609.3839786965824
 31
0.0
  0
LINE
  5
69D2
  8
0
 62
     0
 10
748.99848015850284
 20
666.8839786965824
 30
0.0
 11
830.99848015850273
 21
666.8839786965824
 31
0.0
  0
LINE
  5
69D3
  8
0
 62
     0
 10
516.99858015850305
 20
691.88397869658206
 30
0.0
 11
516.99858015850305
 21
496.8839736965819
 31
0.0
  0
LINE
  5
69D4
  8
0
 62
     0
 10
742.9984801585033
 20
669.38397869658206
 30
0.0
 11
748.99848015850284
 21
669.38397869658206
 31
0.0
  0
LINE
  5
69D5
  8
0
 62
     0
 10
577.99858015850316
 20
772.38392869658207
 30
0.0
 11
587.47663015850321
 21
770.50487869658207
 31
0.0
  0
LINE
  5
69D6
  8
0
 62
     0
 10
568.52048015850323
 20
770.50492869658206
 30
0.0
 11
577.99848015850318
 21
772.38392869658207
 31
0.0
  0
LINE
  5
69D7
  8
0
 62
     0
 10
590.49863015850315
 20
761.38392869658219
 30
0.0
 11
588.24813015850305
 21
769.78282869658221
 31
0.0
  0
LINE
  5
69D8
  8
0
 62
     0
 10
565.49858015850316
 20
761.38392869658219
 30
0.0
 11
567.74903015850305
 21
769.78282869658221
 31
0.0
  0
LINE
  5
69D9
  8
0
 62
     0
 10
568.20443015850287
 20
770.38397869658206
 30
0.0
 11
587.7925301585027
 21
770.38397869658206
 31
0.0
  0
LINE
  5
69DA
  8
0
 62
     0
 10
742.9984801585033
 20
609.3839786965824
 30
0.0
 11
748.99848015850284
 21
609.3839786965824
 31
0.0
  0
LINE
  5
69DB
  8
0
 62
     0
 10
1098.347003024167
 20
660.8839286965823
 30
0.0
 11
1114.3470330241671
 21
660.8839286965823
 31
0.0
  0
LINE
  5
69DC
  8
0
 62
     0
 10
1098.347003024167
 20
670.8839786965824
 30
0.0
 11
1114.3470330241671
 21
670.8839786965824
 31
0.0
  0
LINE
  5
69DD
  8
0
 62
     0
 10
1098.347003024167
 20
660.8839286965823
 30
0.0
 11
1098.347003024167
 21
670.8839786965824
 31
0.0
  0
LINE
  5
69DE
  8
0
 62
     0
 10
1114.3470330241671
 20
660.8839286965823
 30
0.0
 11
1114.3470330241671
 21
670.8839786965824
 31
0.0
  0
LINE
  5
69DF
  8
0
 62
     0
 10
973.34701302416624
 20
647.85034869658239
 30
0.0
 11
973.34701302416624
 21
634.00967869658223
 31
0.0
  0
LINE
  5
69E0
  8
0
 62
     0
 10
1006.347033024167
 20
481.38394369658221
 30
0.0
 11
1006.347033024167
 21
624.38397869658195
 31
0.0
  0
LINE
  5
69E1
  8
0
 62
     0
 10
600.99848015850273
 20
631.48996369658198
 30
0.0
 11
620.99848015850273
 21
631.48996369658198
 31
0.0
  0
LINE
  5
69E2
  8
0
 62
     0
 10
739.92873015850284
 20
699.49117869658221
 30
0.0
 11
741.06833015850293
 21
699.45137869658208
 31
0.0
  0
LINE
  5
69E3
  8
0
 62
     0
 10
720.1269801585031
 20
725.94752869658214
 30
0.0
 11
733.43428015850282
 21
724.78332869658209
 31
0.0
  0
LINE
  5
69E4
  8
0
  6
ACISOTGL
 62
     0
 10
964.34701302416624
 20
469.3839736965819
 30
0.0
 11
964.34701302416624
 21
439.38394369658221
 31
0.0
  0
LINE
  5
69E5
  8
0
  6
ACISOTGL
 62
     0
 10
983.34700302416718
 20
469.3839736965819
 30
0.0
 11
983.34700302416718
 21
439.38394369658221
 31
0.0
  0
LINE
  5
69E6
  8
0
 62
     0
 10
941.34701302416624
 20
469.3839736965819
 30
0.0
 11
941.34701302416624
 21
439.38394369658221
 31
0.0
  0
LINE
  5
69E7
  8
0
 62
     0
 10
1006.347033024167
 20
469.3839736965819
 30
0.0
 11
946.34701302416579
 21
469.3839736965819
 31
0.0
  0
LINE
  5
69E8
  8
0
 62
     0
 10
1011.347033024167
 20
439.38394369658221
 30
0.0
 11
941.34701302416624
 21
439.38394369658221
 31
0.0
  0
LINE
  5
69E9
  8
0
 62
     0
 10
1106.3470330241671
 20
446.38391369658211
 30
0.0
 11
1016.347033024167
 21
446.38391369658211
 31
0.0
  0
LINE
  5
69EA
  8
0
  6
AM_ISO08W050
 62
     0
 10
973.84701302416624
 20
474.04522869658229
 30
0.0
 11
973.84701302416624
 21
436.38394369658232
 31
0.0
  0
LINE
  5
69EB
  8
0
 62
     0
 10
737.9984801585033
 20
719.80232869658209
 30
0.0
 11
737.9984801585033
 21
473.04422369658221
 31
0.0
  0
LINE
  5
69EC
  8
0
 62
     0
 10
687.9984801585033
 20
469.3839736965819
 30
0.0
 11
737.9984801585033
 21
469.3839736965819
 31
0.0
  0
LINE
  5
69ED
  8
0
  6
AM_ISO08W050
 62
     0
 10
712.9984801585033
 20
473.29184369658162
 30
0.0
 11
712.9984801585033
 21
436.38394369658232
 31
0.0
  0
LINE
  5
69EE
  8
0
 62
     0
 10
742.9984801585033
 20
464.38394369658221
 30
0.0
 11
742.9984801585033
 21
439.38394369658221
 31
0.0
  0
LINE
  5
69EF
  8
0
 62
     0
 10
595.99848015850273
 20
761.38392869658219
 30
0.0
 11
616.17298015850338
 21
760.67942869658214
 31
0.0
  0
LINE
  5
69F0
  8
0
  6
AM_ISO08W050
 62
     0
 10
542.9984801585033
 20
472.38397369658168
 30
0.0
 11
542.9984801585033
 21
436.38394369658232
 31
0.0
  0
LINE
  5
69F1
  8
0
 62
     0
 10
742.9984801585033
 20
697.45257869658224
 30
0.0
 11
742.9984801585033
 21
581.31537369658213
 31
0.0
  0
LINE
  5
69F2
  8
0
  6
ACISOTGL
 62
     0
 10
722.4984801585033
 20
469.3839736965819
 30
0.0
 11
722.4984801585033
 21
439.38394369658221
 31
0.0
  0
LINE
  5
69F3
  8
0
  6
ACISOTGL
 62
     0
 10
703.49848015850284
 20
469.3839736965819
 30
0.0
 11
703.49848015850284
 21
439.38394369658221
 31
0.0
  0
LINE
  5
69F4
  8
0
 62
     0
 10
624.02678015850324
 20
756.40522869658207
 30
0.0
 11
701.34748015850278
 21
753.70507869658218
 31
0.0
  0
LINE
  5
69F5
  8
0
  6
ACISOTGL
 62
     0
 10
533.49848015850284
 20
469.3839736965819
 30
0.0
 11
533.49848015850284
 21
439.38394369658221
 31
0.0
  0
LINE
  5
69F6
  8
0
 62
     0
 10
512.9984801585033
 20
439.38394369658221
 30
0.0
 11
742.9984801585033
 21
439.38394369658221
 31
0.0
  0
LINE
  5
69F7
  8
0
 62
     0
 10
739.9287801585034
 20
579.27676869658205
 30
0.0
 11
741.0683801585028
 21
579.31656369658242
 31
0.0
  0
LINE
  5
69F8
  8
0
 62
     0
 10
512.9984801585033
 20
464.38394369658221
 30
0.0
 11
512.9984801585033
 21
439.38394369658221
 31
0.0
  0
LINE
  5
69F9
  8
0
  6
AM_ISO08W050
 62
     0
 10
1106.3470330241671
 20
433.38394369658198
 30
0.0
 11
1106.3470330241671
 21
815.38322869658214
 31
0.0
  0
LINE
  5
69FA
  8
0
 62
     0
 10
517.9984801585033
 20
469.3839736965819
 30
0.0
 11
564.82793015850302
 21
469.3839736965819
 31
0.0
  0
LINE
  5
69FB
  8
0
 62
     0
 10
620.99848015850273
 20
755.68247869658217
 30
0.0
 11
620.99848015850273
 21
631.48996369658198
 31
0.0
  0
LINE
  5
69FC
  8
0
 62
     0
 10
600.99848015850273
 20
631.48996369658198
 30
0.0
 11
600.99848015850273
 21
541.62292869658222
 31
0.0
  0
LINE
  5
69FD
  8
0
  6
ACISOTGL
 62
     0
 10
552.49848015850318
 20
469.3839736965819
 30
0.0
 11
552.49848015850318
 21
439.38394369658221
 31
0.0
  0
LINE
  5
69FE
  8
0
 62
     0
 10
710.99848015850284
 20
743.71117869658224
 30
0.0
 11
710.99848015850284
 21
495.6909836965819
 31
0.0
  0
LINE
  5
69FF
  8
0
 62
     0
 10
989.34703302416722
 20
546.34787369658216
 30
0.0
 11
989.34703302416722
 21
690.31777869658197
 31
0.0
  0
LINE
  5
6A00
  8
0
 62
     0
 10
692.9984801585033
 20
691.34162869658223
 30
0.0
 11
710.99848015850284
 21
691.34162869658223
 31
0.0
  0
LINE
  5
6A01
  8
0
 62
     0
 10
677.99848015850318
 20
485.69098369658241
 30
0.0
 11
700.99848015850284
 21
485.69098369658241
 31
0.0
  0
LINE
  5
6A02
  8
0
 62
     0
 10
677.99848015850318
 20
676.34162869658212
 30
0.0
 11
677.99848015850318
 21
479.38397369658202
 31
0.0
  0
LINE
  5
6A03
  8
0
 62
     0
 10
1011.347033024167
 20
464.38394369658221
 30
0.0
 11
1011.347033024167
 21
439.38394369658221
 31
0.0
  0
LINE
  5
6A04
  8
0
 62
     0
 10
941.34701302416624
 20
469.3839736965819
 30
0.0
 11
979.5443580241672
 21
665.89222869658215
 31
0.0
  0
LINE
  5
6A05
  8
0
 62
     0
 10
569.35053015850269
 20
472.2518636965824
 30
0.0
 11
600.04378015850307
 21
537.3587386965819
 31
0.0
  0
LINE
  5
6A06
  8
0
 62
     0
 10
1106.3470330241671
 20
455.38394369658221
 30
0.0
 11
1047.337693024167
 21
455.38394369658221
 31
0.0
  0
LINE
  5
6A07
  8
0
 62
     0
 10
1014.275958024166
 20
452.31286869658243
 30
0.0
 11
1022.466418024167
 21
460.50335869658238
 31
0.0
  0
LINE
  5
6A08
  8
0
 62
     0
 10
1041.601918024166
 20
457.1924436965823
 30
0.0
 11
1035.2732730241671
 21
461.62381369658198
 31
0.0
  0
LINE
  5
6A09
  8
0
 62
     0
 10
518.99848015850284
 20
677.5791286965823
 30
0.0
 11
518.99848015850284
 21
651.1597636965821
 31
0.0
  0
LINE
  5
6A0A
  8
0
 62
     0
 10
516.99843015850308
 20
496.88394369658198
 30
0.0
 11
535.17293015850339
 21
496.24926869658202
 31
0.0
  0
LINE
  5
6A0B
  8
0
 62
     0
 10
595.99848015850273
 20
761.38392869658219
 30
0.0
 11
595.99848015850273
 21
528.77789369658171
 31
0.0
  0
LINE
  5
6A0C
  8
0
 62
     0
 10
564.99848015850318
 20
761.38392869658219
 30
0.0
 11
595.99848015850273
 21
761.38392869658219
 31
0.0
  0
LINE
  5
6A0D
  8
0
 62
     0
 10
561.60008015850281
 20
731.81642869658219
 30
0.0
 11
564.60008015850315
 21
734.93177869658223
 31
0.0
  0
LINE
  5
6A0E
  8
0
 62
     0
 10
562.9984801585033
 20
759.38397869658218
 30
0.0
 11
562.9984801585033
 21
735.28462869658222
 31
0.0
  0
LINE
  5
6A0F
  8
0
 62
     0
 10
567.92878015850317
 20
760.40377869658221
 30
0.0
 11
595.99863015850315
 21
761.38397869658206
 31
0.0
  0
LINE
  5
6A10
  8
0
 62
     0
 10
565.99848015850273
 20
758.40497869658213
 30
0.0
 11
565.99848015850273
 21
469.52295369658202
 31
0.0
  0
LINE
  5
6A11
  8
0
 62
     0
 10
516.99863015850315
 20
691.88397869658206
 30
0.0
 11
535.17313015850323
 21
692.51862869658214
 31
0.0
  0
LINE
  5
6A12
  8
0
 62
     0
 10
541.39688015850334
 20
710.83612869658214
 30
0.0
 11
561.60008015850281
 21
731.81642869658219
 31
0.0
  0
LINE
  5
6A13
  8
0
 62
     0
 10
553.85348015850275
 20
469.383913696582
 30
0.0
 11
542.07228015850285
 21
477.88717869658228
 31
0.0
  0
LINE
  5
6A14
  8
0
 62
     0
 10
539.99848015850318
 20
707.36792869658223
 30
0.0
 11
539.99848015850318
 21
481.94146869658198
 31
0.0
  0
LINE
  5
6A15
  8
0
 62
     0
 10
1239.347023024166
 20
647.85034869658239
 30
0.0
 11
1239.347023024166
 21
634.00967869658223
 31
0.0
  0
LINE
  5
6A16
  8
0
  6
AM_ISO08W050
 62
     0
 10
1189.321868274166
 20
639.38397869658229
 30
0.0
 11
1023.372197774167
 21
639.38397869658229
 31
0.0
  0
LINE
  5
6A17
  8
0
 62
     0
 10
1206.347003024167
 20
481.38394369658221
 30
0.0
 11
1206.347003024167
 21
624.38397869658195
 31
0.0
  0
LINE
  5
6A18
  8
0
  6
ACISOTGL
 62
     0
 10
1248.347023024166
 20
469.3839736965819
 30
0.0
 11
1248.347023024166
 21
439.38394369658221
 31
0.0
  0
LINE
  5
6A19
  8
0
  6
ACISOTGL
 62
     0
 10
1229.347023024166
 20
469.3839736965819
 30
0.0
 11
1229.347023024166
 21
439.38394369658221
 31
0.0
  0
LINE
  5
6A1A
  8
0
 62
     0
 10
1271.3470080241671
 20
469.3839736965819
 30
0.0
 11
1271.3470080241671
 21
439.38394369658221
 31
0.0
  0
LINE
  5
6A1B
  8
0
 62
     0
 10
1206.347003024167
 20
469.3839736965819
 30
0.0
 11
1266.3470080241671
 21
469.3839736965819
 31
0.0
  0
LINE
  5
6A1C
  8
0
 62
     0
 10
1201.347003024167
 20
439.38394369658221
 30
0.0
 11
1271.3470080241671
 21
439.38394369658221
 31
0.0
  0
LINE
  5
6A1D
  8
0
 62
     0
 10
1106.3470330241671
 20
446.38391369658211
 30
0.0
 11
1196.347003024167
 21
446.38391369658211
 31
0.0
  0
LINE
  5
6A1E
  8
0
  6
AM_ISO08W050
 62
     0
 10
1238.8470080241671
 20
474.04522869658229
 30
0.0
 11
1238.8470080241671
 21
436.38394369658232
 31
0.0
  0
LINE
  5
6A1F
  8
0
 62
     0
 10
1223.347023024166
 20
546.34787369658216
 30
0.0
 11
1223.347023024166
 21
690.31777869658197
 31
0.0
  0
LINE
  5
6A20
  8
0
 62
     0
 10
1201.347003024167
 20
464.38394369658221
 30
0.0
 11
1201.347003024167
 21
439.38394369658221
 31
0.0
  0
LINE
  5
6A21
  8
0
 62
     0
 10
1271.3470080241671
 20
469.38394369658232
 30
0.0
 11
1233.149663024167
 21
665.89227869658225
 31
0.0
  0
LINE
  5
6A22
  8
0
 62
     0
 10
1106.3470330241671
 20
455.38394369658221
 30
0.0
 11
1165.356343024167
 21
455.38394369658221
 31
0.0
  0
LINE
  5
6A23
  8
0
 62
     0
 10
1198.418083024166
 20
452.31286869658243
 30
0.0
 11
1190.2275880241659
 21
460.50335869658238
 31
0.0
  0
LINE
  5
6A24
  8
0
 62
     0
 10
1171.0920930241659
 20
457.19241369658198
 30
0.0
 11
1177.420768024167
 21
461.62381369658198
 31
0.0
  0
LINE
  5
6A25
  8
0
 62
     0
 10
518.99848015850284
 20
677.5791286965823
 30
0.0
 11
539.99848015850318
 21
677.5791286965823
 31
0.0
  0
LINE
  5
6A26
  8
0
 62
     0
 10
518.99848015850284
 20
667.39012869658177
 30
0.0
 11
539.99848015850318
 21
667.39012869658177
 31
0.0
  0
LINE
  5
6A27
  8
0
 62
     0
 10
518.99848015850284
 20
651.1597636965821
 30
0.0
 11
539.99848015850318
 21
651.1597636965821
 31
0.0
  0
LINE
  5
6A28
  8
0
 62
     0
 10
518.99848015850284
 20
537.608158696582
 30
0.0
 11
539.99848015850318
 21
537.608158696582
 31
0.0
  0
LINE
  5
6A29
  8
0
 62
     0
 10
518.99848015850284
 20
521.37777869658191
 30
0.0
 11
539.99848015850318
 21
521.37777869658191
 31
0.0
  0
LINE
  5
6A2A
  8
0
 62
     0
 10
518.99848015850284
 20
511.18878369658199
 30
0.0
 11
539.99848015850318
 21
511.18878369658199
 31
0.0
  0
LINE
  5
6A2B
  8
0
 62
     0
 10
518.99848015850284
 20
537.608158696582
 30
0.0
 11
518.99848015850284
 21
511.18878369658199
 31
0.0
  0
LINE
  5
6A2C
  8
0
 62
     0
 10
514.99858015850305
 20
494.88394369658232
 30
0.0
 11
516.9984801585033
 21
496.88394369658198
 31
0.0
  0
LINE
  5
6A2D
  8
0
 62
     0
 10
426.99858015850288
 20
478.38394369658232
 30
0.0
 11
435.49748015850292
 21
478.38394369658232
 31
0.0
  0
LINE
  5
6A2E
  8
0
  6
AM_ISO08W050
 62
     0
 10
189.31491488044409
 20
551.88397369658185
 30
0.0
 11
489.70712299158077
 21
551.88397369658185
 31
0.0
  0
LINE
  5
6A2F
  8
0
 62
     0
 10
504.9984801585033
 20
693.88392869658219
 30
0.0
 11
514.99848015850318
 21
693.88392869658219
 31
0.0
  0
LINE
  5
6A30
  8
0
 62
     0
 10
503.99848015850279
 20
494.88397369658219
 30
0.0
 11
514.99848015850318
 21
494.88397369658219
 31
0.0
  0
LINE
  5
6A31
  8
0
 62
     0
 10
501.99858015850288
 20
496.8839736965819
 30
0.0
 11
501.99858015850288
 21
690.88397869658206
 31
0.0
  0
LINE
  5
6A32
  8
0
 62
     0
 10
426.99858015850288
 20
625.3839786965824
 30
0.0
 11
440.5730301585026
 21
625.85800369658205
 31
0.0
  0
LINE
  5
6A33
  8
0
 62
     0
 10
450.19838015850252
 20
503.38394369658232
 30
0.0
 11
498.99848015850279
 21
503.38394369658232
 31
0.0
  0
LINE
  5
6A34
  8
0
 62
     0
 10
514.99858015850305
 20
693.88392869658219
 30
0.0
 11
516.9984801585033
 21
691.88397869658206
 31
0.0
  0
LINE
  5
6A35
  8
0
 62
     0
 10
443.93398015850278
 20
627.31936869658216
 30
0.0
 11
500.53408015850277
 21
683.91942869658214
 31
0.0
  0
LINE
  5
6A36
  8
0
 62
     0
 10
440.1959301585029
 20
481.67385869658199
 30
0.0
 11
447.37928015850321
 21
501.41003869658198
 31
0.0
  0
LINE
  5
6A37
  8
0
 62
     0
 10
426.99858015850288
 20
625.3839786965824
 30
0.0
 11
426.99858015850288
 21
478.38394369658232
 31
0.0
  0
LINE
  5
6A38
  8
0
 62
     0
 10
501.99858015850288
 20
677.5791286965823
 30
0.0
 11
516.99858015850305
 21
677.5791286965823
 31
0.0
  0
LINE
  5
6A39
  8
0
 62
     0
 10
501.99858015850288
 20
667.39012869658177
 30
0.0
 11
516.99858015850305
 21
667.39012869658177
 31
0.0
  0
LINE
  5
6A3A
  8
0
 62
     0
 10
501.99858015850288
 20
651.1597636965821
 30
0.0
 11
516.99858015850305
 21
651.1597636965821
 31
0.0
  0
LINE
  5
6A3B
  8
0
 62
     0
 10
501.99858015850288
 20
537.608158696582
 30
0.0
 11
516.99858015850305
 21
537.608158696582
 31
0.0
  0
LINE
  5
6A3C
  8
0
 62
     0
 10
501.99858015850288
 20
521.37777869658191
 30
0.0
 11
516.99858015850305
 21
521.37777869658191
 31
0.0
  0
LINE
  5
6A3D
  8
0
 62
     0
 10
501.99858015850288
 20
511.18878369658199
 30
0.0
 11
516.99858015850305
 21
511.18878369658199
 31
0.0
  0
LINE
  5
6A3E
  8
0
 62
     0
 10
426.99858015850288
 20
512.40930369658236
 30
0.0
 11
438.99858015850288
 21
512.40930369658236
 31
0.0
  0
LINE
  5
6A3F
  8
0
 62
     0
 10
426.99858015850288
 20
591.35864869658224
 30
0.0
 11
441.99858015850288
 21
591.35864869658224
 31
0.0
  0
LINE
  5
6A40
  8
0
 62
     0
 10
448.0977801585031
 20
544.93210369658198
 30
0.0
 11
448.0977801585031
 21
503.38394369658232
 31
0.0
  0
LINE
  5
6A41
  8
0
 62
     0
 10
442.54128015850301
 20
625.92673369658223
 30
0.0
 11
442.54128015850301
 21
551.88397369658185
 31
0.0
  0
LINE
  5
6A42
  8
0
 62
     0
 10
438.99858015850288
 20
544.93210369658198
 30
0.0
 11
438.99858015850288
 21
479.81427369658229
 31
0.0
  0
LINE
  5
6A43
  8
0
 62
     0
 10
441.99858015850288
 20
547.93210369658198
 30
0.0
 11
498.99848015850279
 21
547.93210369658198
 31
0.0
  0
LINE
  5
6A44
  8
0
 62
     0
 10
426.99858015850288
 20
613.46261869658201
 30
0.0
 11
442.54128015850301
 21
613.46261869658201
 31
0.0
  0
LINE
  5
6A45
  8
0
 62
     0
 10
426.99858015850288
 20
490.30529869658199
 30
0.0
 11
438.99858015850288
 21
490.30529869658199
 31
0.0
  0
ARC
  5
6A46
  8
0
 62
     0
 10
1099.3470330241671
 20
765.38397869658206
 30
0.0
 40
2.0000000500000001
 50
270.0
 51
0.0
  0
ARC
  5
6A47
  8
0
 62
     0
 10
1113.347003024167
 20
765.38397869658206
 30
0.0
 40
2.0000000500000001
 50
179.999989999999
 51
270.0
  0
ARC
  5
6A48
  8
0
 62
     0
 10
1115.630603024166
 20
769.52407869658214
 30
0.0
 40
1.0
 50
14.99999999999444
 51
78.786709999983316
  0
ARC
  5
6A49
  8
0
 62
     0
 10
1097.0634330241669
 20
769.52407869658214
 30
0.0
 40
1.0
 50
101.2132900000166
 51
164.99998999999781
  0
ARC
  5
6A4A
  8
0
 62
     0
 10
1106.3470330241671
 20
807.38392869658207
 30
0.0
 40
5.0
 50
359.999989999999
 51
179.999989999999
  0
ARC
  5
6A4B
  8
0
 62
     0
 10
596.42348015850303
 20
762.45367869658219
 30
0.0
 40
6.0
 50
126.46669999998841
 51
190.2700599999921
  0
ARC
  5
6A4C
  8
0
 62
     0
 10
559.57343015850302
 20
762.45367869658219
 30
0.0
 40
6.0
 50
349.72994999999918
 51
53.533291000006017
  0
ARC
  5
6A4D
  8
0
 62
     0
 10
587.28213015850315
 20
769.52407869658214
 30
0.0
 40
1.0
 50
14.99999999999446
 51
78.78670999998333
  0
ARC
  5
6A4E
  8
0
 62
     0
 10
568.71493015850331
 20
769.52407869658214
 30
0.0
 40
1.0
 50
101.2132900000166
 51
164.99998999999789
  0
ARC
  5
6A4F
  8
0
 62
     0
 10
577.99848015850318
 20
787.38392869658219
 30
0.0
 40
25.000000499999999
 50
306.46671999999887
 51
233.53328999998371
  0
CIRCLE
  5
6A50
  8
0
 62
     0
 10
577.99848015850318
 20
787.38392869658219
 30
0.0
 40
15.0
  0
ARC
  5
6A51
  8
0
 62
     0
 10
1106.3470330241671
 20
639.38397869658229
 30
0.0
 40
27.500000499999999
 50
106.912390000006
 51
73.0875969999869
  0
ARC
  5
6A52
  8
0
 62
     0
 10
739.99848015850284
 20
577.27798869658216
 30
0.0
 40
2.0000000500000001
 50
91.999997999993994
 51
180.00001000000091
  0
ARC
  5
6A53
  8
0
 62
     0
 10
737.9984801585033
 20
464.38394369658221
 30
0.0
 40
5.0
 50
0.0
 51
90.000002999984659
  0
ARC
  5
6A54
  8
0
 62
     0
 10
564.82793015850302
 20
474.3839736965819
 30
0.0
 40
5.0
 50
270.0
 51
334.75946999998979
  0
ARC
  5
6A55
  8
0
 62
     0
 10
739.99848015850284
 20
701.48992869658207
 30
0.0
 40
2.0000000500000001
 50
179.999989999999
 51
268.00000999999207
  0
ARC
  5
6A56
  8
0
 62
     0
 10
700.99848015850284
 20
743.71117869658224
 30
0.0
 40
10.0
 50
0.0
 51
87.999999999996334
  0
ARC
  5
6A57
  8
0
 62
     0
 10
1106.3470330241671
 20
624.38397869658195
 30
0.0
 40
100.0
 50
90.000002999984659
 51
180.00001000000091
  0
ARC
  5
6A58
  8
0
 62
     0
 10
732.9984801585033
 20
719.80232869658209
 30
0.0
 40
5.0
 50
0.0
 51
84.999997000011817
  0
ARC
  5
6A59
  8
0
 62
     0
 10
740.99848015850284
 20
697.45257869658224
 30
0.0
 40
2.0000000500000001
 50
0.0
 51
87.999999999996334
  0
ARC
  5
6A5A
  8
0
 62
     0
 10
946.34701302416579
 20
464.38394369658221
 30
0.0
 40
5.0
 50
90.000002999984659
 51
180.00001000000091
  0
ARC
  5
6A5B
  8
0
 62
     0
 10
1106.3470330241671
 20
614.38397869658229
 30
0.0
 40
147.0
 50
90.000002999984659
 51
134.59796000000441
  0
ARC
  5
6A5C
  8
0
 62
     0
 10
1106.3470330241671
 20
614.38397869658229
 30
0.0
 40
142.0
 50
90.000002999984659
 51
136.44564000000531
  0
ARC
  5
6A5D
  8
0
 62
     0
 10
1106.3470330241671
 20
639.38397869658229
 30
0.0
 40
60.0
 50
90.000002999984659
 51
270.0
  0
ARC
  5
6A5E
  8
0
 62
     0
 10
687.9984801585033
 20
479.38397369658202
 30
0.0
 40
10.0
 50
179.999989999999
 51
270.0
  0
ARC
  5
6A5F
  8
0
 62
     0
 10
740.99848015850284
 20
581.31537369658213
 30
0.0
 40
2.0000000500000001
 50
271.9999999999776
 51
0.0
  0
ARC
  5
6A60
  8
0
 62
     0
 10
624.20133015850274
 20
761.40217869658215
 30
0.0
 40
5.0
 50
214.88734000000119
 51
267.99999999999642
  0
ARC
  5
6A61
  8
0
 62
     0
 10
615.99848015850273
 20
755.68247869658217
 30
0.0
 40
5.0
 50
34.887350000004567
 51
87.999999999996334
  0
ARC
  5
6A62
  8
0
 62
     0
 10
692.9984801585033
 20
676.34162869658212
 30
0.0
 40
15.0
 50
90.000002999984659
 51
180.00001000000091
  0
ARC
  5
6A63
  8
0
 62
     0
 10
1106.3470330241671
 20
546.38394369658215
 30
0.0
 40
117.0
 50
179.999989999999
 51
211.27329999999671
  0
ARC
  5
6A64
  8
0
 62
     0
 10
994.3470330241671
 20
481.38394369658221
 30
0.0
 40
12.0
 50
270.0
 51
0.0
  0
ARC
  5
6A65
  8
0
 62
     0
 10
700.99848015850284
 20
495.6909836965819
 30
0.0
 40
10.0
 50
270.0
 51
0.0
  0
ARC
  5
6A66
  8
0
 62
     0
 10
1070.835713024167
 20
648.14706869658198
 30
0.0
 40
93.0
 50
136.44564000000531
 51
169.00000000000091
  0
ARC
  5
6A67
  8
0
 62
     0
 10
720.99848015850284
 20
735.90947869658214
 30
0.0
 40
10.0
 50
179.999989999999
 51
265.00000000000028
  0
ARC
  5
6A68
  8
0
 62
     0
 10
1016.347033024167
 20
441.383913696582
 30
0.0
 40
5.0
 50
90.000002999984659
 51
180.00001000000091
  0
ARC
  5
6A69
  8
0
 62
     0
 10
1006.347033024167
 20
464.38394369658221
 30
0.0
 40
5.0
 50
0.0
 51
90.000002999984659
  0
ARC
  5
6A6A
  8
0
 62
     0
 10
590.99848015850273
 20
541.62292869658222
 30
0.0
 40
10.0
 50
334.75946999998979
 51
0.0
  0
ARC
  5
6A6B
  8
0
 62
     0
 10
999.34703302416676
 20
690.31777869658197
 30
0.0
 40
10.0
 50
149.46391999999179
 51
180.00001000000091
  0
ARC
  5
6A6C
  8
0
 62
     0
 10
517.9984801585033
 20
464.38394369658221
 30
0.0
 40
5.0
 50
90.000002999984659
 51
180.00001000000091
  0
ARC
  5
6A6D
  8
0
 62
     0
 10
742.9984801585033
 20
473.04422369658221
 30
0.0
 40
5.0
 50
179.999989999999
 51
240.00000999998821
  0
ARC
  5
6A6E
  8
0
 62
     0
 10
1073.347003024166
 20
647.85034869658239
 30
0.0
 40
100.0
 50
134.59796000000441
 51
180.00001000000091
  0
ARC
  5
6A6F
  8
0
 62
     0
 10
1047.337693024167
 20
465.38394369658232
 30
0.0
 40
10.0
 50
234.999999999983
 51
270.0
  0
ARC
  5
6A70
  8
0
 62
     0
 10
1021.347033024167
 20
445.24179369658202
 30
0.0
 40
10.0
 50
135.00000000000941
 51
180.00001000000091
  0
ARC
  5
6A71
  8
0
 62
     0
 10
1029.537493024166
 20
453.4322536965816
 30
0.0
 40
10.0
 50
54.999998999997921
 51
135.00000000000941
  0
ARC
  5
6A72
  8
0
 62
     0
 10
560.99848015850284
 20
738.39997869658168
 30
0.0
 40
5.0
 50
316.08091999998931
 51
0.0
  0
ARC
  5
6A73
  8
0
 62
     0
 10
557.9984801585033
 20
735.28462869658222
 30
0.0
 40
5.0
 50
316.08091999998931
 51
0.0
  0
ARC
  5
6A74
  8
0
 62
     0
 10
567.9984801585033
 20
758.40497869658213
 30
0.0
 40
2.0000000500000001
 50
91.999997999993994
 51
180.00001000000091
  0
ARC
  5
6A75
  8
0
 62
     0
 10
544.99848015850296
 20
707.36792869658223
 30
0.0
 40
5.0
 50
136.08091999998931
 51
180.00001000000091
  0
ARC
  5
6A76
  8
0
 62
     0
 10
564.99848015850318
 20
759.38397869658218
 30
0.0
 40
2.0000000500000001
 50
90.000002999984659
 51
180.00001000000091
  0
ARC
  5
6A77
  8
0
 62
     0
 10
544.99848015850296
 20
481.94146869658198
 30
0.0
 40
5.0
 50
179.999989999999
 51
234.17956999999311
  0
ARC
  5
6A78
  8
0
 62
     0
 10
1106.3470330241671
 20
624.38397869658195
 30
0.0
 40
100.0
 50
0.0
 51
90.000002999984659
  0
ARC
  5
6A79
  8
0
 62
     0
 10
1266.3470080241671
 20
464.38394369658221
 30
0.0
 40
5.0
 50
0.0
 51
90.000002999984659
  0
ARC
  5
6A7A
  8
0
 62
     0
 10
1106.3470330241671
 20
614.38397869658229
 30
0.0
 40
147.0
 50
45.402042999998812
 51
90.000002999984659
  0
ARC
  5
6A7B
  8
0
 62
     0
 10
1106.3470330241671
 20
614.38397869658229
 30
0.0
 40
142.0
 50
43.554364000004902
 51
90.000002999984659
  0
ARC
  5
6A7C
  8
0
 62
     0
 10
1106.3470330241671
 20
639.38397869658229
 30
0.0
 40
60.0
 50
270.0
 51
90.000002999984659
  0
ARC
  5
6A7D
  8
0
 62
     0
 10
1106.3470330241671
 20
546.38394369658215
 30
0.0
 40
117.0
 50
328.72670000000318
 51
0.0
  0
ARC
  5
6A7E
  8
0
 62
     0
 10
1218.347038024167
 20
481.38394369658221
 30
0.0
 40
12.0
 50
180.00001000000091
 51
270.0
  0
ARC
  5
6A7F
  8
0
 62
     0
 10
1141.858328024166
 20
648.14706869658198
 30
0.0
 40
93.0
 50
10.999999999999
 51
43.554364000004902
  0
ARC
  5
6A80
  8
0
 62
     0
 10
1196.347003024167
 20
441.383913696582
 30
0.0
 40
5.0
 50
0.0
 51
90.000002999984659
  0
ARC
  5
6A81
  8
0
 62
     0
 10
1206.347003024167
 20
464.38394369658221
 30
0.0
 40
5.0
 50
90.000002999984659
 51
180.00001000000091
  0
ARC
  5
6A82
  8
0
 62
     0
 10
1213.347038024167
 20
690.31777869658197
 30
0.0
 40
10.0
 50
0.0
 51
30.53608499998974
  0
ARC
  5
6A83
  8
0
 62
     0
 10
1139.3470330241671
 20
647.85034869658239
 30
0.0
 40
100.0
 50
0.0
 51
45.402042999998812
  0
ARC
  5
6A84
  8
0
 62
     0
 10
1165.356343024167
 20
465.38394369658232
 30
0.0
 40
10.0
 50
270.0
 51
305.00000000001711
  0
ARC
  5
6A85
  8
0
 62
     0
 10
1191.347003024167
 20
445.24179369658202
 30
0.0
 40
10.0
 50
0.0
 51
45.000000999994299
  0
ARC
  5
6A86
  8
0
 62
     0
 10
1183.1565430241669
 20
453.4322536965816
 30
0.0
 40
10.0
 50
45.000000999994299
 51
125.000000000017
  0
CIRCLE
  5
6A87
  8
0
 62
     0
 10
1106.3470330241671
 20
639.38397869658229
 30
0.0
 40
6.0
  0
CIRCLE
  5
6A88
  8
0
 62
     0
 10
1106.3470330241671
 20
639.38397869658229
 30
0.0
 40
4.500000049999997
  0
ARC
  5
6A89
  8
0
 62
     0
 10
435.49748015850292
 20
483.38394369658198
 30
0.0
 40
5.0
 50
270.0
 51
339.99999999999648
  0
ARC
  5
6A8A
  8
0
 62
     0
 10
496.99858015850288
 20
687.45502869658208
 30
0.0
 40
5.0
 50
315.00000000000938
 51
0.0
  0
ARC
  5
6A8B
  8
0
 62
     0
 10
504.9984801585033
 20
690.88397869658206
 30
0.0
 40
3.0000000500000001
 50
90.000002999984659
 51
180.00001000000091
  0
ARC
  5
6A8C
  8
0
 62
     0
 10
498.99848015850279
 20
500.38397369658202
 30
0.0
 40
3.0000000500000001
 50
0.0
 51
90.000002999984659
  0
ARC
  5
6A8D
  8
0
 62
     0
 10
450.19838015850252
 20
500.38397369658202
 30
0.0
 40
3.0000000500000001
 50
90.000002999984659
 51
159.9999999999965
  0
ARC
  5
6A8E
  8
0
 62
     0
 10
503.99848015850279
 20
496.8839736965819
 30
0.0
 40
2.0000000500000001
 50
179.999989999999
 51
270.0
  0
ARC
  5
6A8F
  8
0
 62
     0
 10
440.39848015850282
 20
630.85495369658202
 30
0.0
 40
5.0
 50
271.9999999999776
 51
315.00000000000938
  0
ARC
  5
6A90
  8
0
 62
     0
 10
534.9984801585033
 20
491.25235369658242
 30
0.0
 40
5.0
 50
0.0
 51
87.999999999996334
  0
ARC
  5
6A91
  8
0
 62
     0
 10
534.9984801585033
 20
697.51557869658222
 30
0.0
 40
5.0
 50
271.9999999999776
 51
0.0
  0
LINE
  5
815C
  8
0
 62
     0
 10
417.99858015850288
 20
478.3840026965816
 30
0.0
 11
426.99858015850288
 21
478.3840026965816
 31
0.0
  0
LINE
  5
815D
  8
0
 62
     0
 10
416.99858015850288
 20
613.88400269658177
 30
0.0
 11
416.99858015850288
 21
598.05400269658162
 31
0.0
  0
ARC
  5
815E
  8
0
 62
     0
 10
414.17496115850292
 20
476.98783769658172
 30
0.0
 40
2.0
 50
270.0
 51
345.0000029999984
  0
LINE
  5
815F
  8
0
 62
     0
 10
416.99858015850288
 20
479.38400269658172
 30
0.0
 11
416.99858015850288
 21
479.79831969658193
 31
0.0
  0
LINE
  5
8160
  8
0
 62
     0
 10
416.99858015850288
 20
479.37900869658171
 30
0.0
 11
416.99858015850288
 21
479.38400269658172
 31
0.0
  0
LINE
  5
8161
  8
0
 62
     0
 10
416.91102415850298
 20
479.47155869658201
 30
0.0
 11
416.99858015850288
 21
479.38400269658172
 31
0.0
  0
LINE
  5
8162
  8
0
 62
     0
 10
418.99858015850288
 20
488.88400269658172
 30
0.0
 11
417.92205715850292
 21
484.86636469658163
 31
0.0
  0
ARC
  5
8163
  8
0
 62
     0
 10
417.9960831585031
 20
479.38150569658183
 30
0.0
 40
0.9975059999999999
 50
179.85657799999629
 51
270.14342200000038
  0
LINE
  5
8164
  8
0
 62
     0
 10
417.99858015850288
 20
488.88400269658172
 30
0.0
 11
426.99858015850288
 21
488.88400269658172
 31
0.0
  0
LINE
  5
8165
  8
0
 62
     0
 10
418.99858015850288
 20
487.26242169658161
 30
0.0
 11
416.10681315850297
 21
476.47019969658157
 31
0.0
  0
ARC
  5
8166
  8
0
 62
     0
 10
415.99020515850299
 20
485.38400269658172
 30
0.0
 40
2.0
 50
270.0
 51
345.00000000000563
  0
ARC
  5
8167
  8
0
 62
     0
 10
417.99858015850288
 20
489.8840026965816
 30
0.0
 40
1.0
 50
180.0
 51
270.0
  0
ARC
  5
8168
  8
0
 62
     0
 10
347.99858015850299
 20
474.02180469658202
 30
0.0
 40
2.0
 50
270.0
 51
0.0
  0
ARC
  5
8169
  8
0
 62
     0
 10
347.99858015850299
 20
474.44908269658202
 30
0.0
 40
2.0
 50
270.0
 51
0.0
  0
ARC
  5
816A
  8
0
 62
     0
 10
347.99858015850299
 20
475.4544336965817
 30
0.0
 40
2.0
 50
270.0
 51
346.50868899999841
  0
LINE
  5
816B
  8
0
 62
     0
 10
349.99858015850299
 20
474.02180469658202
 30
0.0
 11
349.99858015850299
 21
474.98783769658172
 31
0.0
  0
ARC
  5
816C
  8
0
 62
     0
 10
266.99858015850288
 20
474.02180469658202
 30
0.0
 40
2.0
 50
180.0
 51
270.0
  0
LINE
  5
816D
  8
0
 62
     0
 10
264.99858015850288
 20
475.99964669658192
 30
0.0
 11
264.99858015850288
 21
475.4544336965817
 31
0.0
  0
ARC
  5
816E
  8
0
 62
     0
 10
266.84803015850309
 20
474.44908269658202
 30
0.0
 40
2.0
 50
195.7695469999999
 51
270.0
  0
ARC
  5
816F
  8
0
 62
     0
 10
266.99858015850288
 20
475.4544336965817
 30
0.0
 40
2.0
 50
180.0
 51
270.0
  0
ARC
  5
8170
  8
0
 62
     0
 10
266.99858015850288
 20
476.98783769658172
 30
0.0
 40
2.0
 50
180.0
 51
270.0
  0
LINE
  5
8171
  8
0
 62
     0
 10
264.99858015850288
 20
480.35563569658183
 30
0.0
 11
264.99858015850288
 21
476.98783769658172
 31
0.0
  0
ARC
  5
8172
  8
0
 62
     0
 10
262.99858015850288
 20
480.35563569658183
 30
0.0
 40
2.0
 50
0.0
 51
90.0
  0
ARC
  5
8173
  8
0
 62
     0
 10
262.99858015850288
 20
475.99964669658192
 30
0.0
 40
2.0
 50
0.0
 51
90.0
  0
ARC
  5
8174
  8
0
 62
     0
 10
262.99858015850288
 20
473.3620076965816
 30
0.0
 40
2.0
 50
15.7695469999999
 51
90.0
  0
ARC
  5
8175
  8
0
 62
     0
 10
262.99858015850288
 20
498.98295269658172
 30
0.0
 40
2.0
 50
0.0
 51
90.0
  0
LINE
  5
8176
  8
0
 62
     0
 10
264.99858015850288
 20
486.52808369658158
 30
0.0
 11
264.99858015850288
 21
498.98295269658172
 31
0.0
  0
ARC
  5
8177
  8
0
 62
     0
 10
266.99858015850288
 20
485.38400269658172
 30
0.0
 40
2.0
 50
180.0
 51
270.0
  0
ARC
  5
8178
  8
0
 62
     0
 10
262.99858015850288
 20
486.52808369658158
 30
0.0
 40
2.0
 50
0.0
 51
90.0
  0
LINE
  5
8179
  8
0
 62
     0
 10
264.99858015850288
 20
486.52808369658158
 30
0.0
 11
264.99858015850288
 21
485.38400269658172
 31
0.0
  0
LINE
  5
817A
  8
0
 62
     0
 10
262.99858015850288
 20
488.5280836965818
 30
0.0
 11
257.49256915850299
 21
488.5280836965818
 31
0.0
  0
LINE
  5
817B
  8
0
 62
     0
 10
266.99858015850288
 20
483.38400269658172
 30
0.0
 11
415.99020515850299
 21
483.38400269658172
 31
0.0
  0
LINE
  5
817C
  8
0
 62
     0
 10
257.49256915850299
 20
500.98295269658172
 30
0.0
 11
415.49858015850288
 21
500.98295269658172
 31
0.0
  0
LINE
  5
817D
  8
0
 62
     0
 10
266.99858015850288
 20
472.02180469658163
 30
0.0
 11
347.99858015850299
 21
472.02180469658163
 31
0.0
  0
LINE
  5
817E
  8
0
 62
     0
 10
266.84803015850309
 20
472.44908269658163
 30
0.0
 11
347.99858015850299
 21
472.44908269658163
 31
0.0
  0
LINE
  5
817F
  8
0
 62
     0
 10
266.99858015850288
 20
473.4544336965817
 30
0.0
 11
347.99858015850299
 21
473.4544336965817
 31
0.0
  0
LINE
  5
8180
  8
0
 62
     0
 10
266.99858015850288
 20
474.98783769658172
 30
0.0
 11
414.17496115850292
 21
474.98783769658172
 31
0.0
  0
LINE
  5
8181
  8
0
 62
     0
 10
262.99858015850288
 20
475.36200769658183
 30
0.0
 11
257.49256915850299
 21
475.36200769658183
 31
0.0
  0
LINE
  5
8182
  8
0
 62
     0
 10
262.99858015850288
 20
477.99964669658169
 30
0.0
 11
257.49256915850299
 21
477.99964669658169
 31
0.0
  0
LINE
  5
8183
  8
0
 62
     0
 10
262.99858015850288
 20
482.3556356965816
 30
0.0
 11
257.49256915850299
 21
482.3556356965816
 31
0.0
  0
LINE
  5
8184
  8
0
 62
     0
 10
417.99858015850288
 20
614.884002696582
 30
0.0
 11
426.99858015850288
 21
614.884002696582
 31
0.0
  0
LINE
  5
8185
  8
0
 62
     0
 10
418.99858015850288
 20
614.884002696582
 30
0.0
 11
417.92205715850292
 21
618.90164069658192
 31
0.0
  0
ARC
  5
8186
  8
0
 62
     0
 10
417.99858015850288
 20
613.88400269658177
 30
0.0
 40
1.0
 50
90.0
 51
180.0
  0
LINE
  5
8187
  8
0
 62
     0
 10
416.91102415850298
 20
624.29644669658148
 30
0.0
 11
416.99858015850288
 21
624.384002696582
 31
0.0
  0
LINE
  5
8188
  8
0
 62
     0
 10
416.99858015850288
 20
624.38899669658156
 30
0.0
 11
416.99858015850288
 21
624.384002696582
 31
0.0
  0
ARC
  5
8189
  8
0
 62
     0
 10
417.9960831585031
 20
624.3864996965815
 30
0.0
 40
0.9975059999999999
 50
89.856577999999658
 51
180.14342199999709
  0
LINE
  5
818A
  8
0
 62
     0
 10
416.99858015850288
 20
624.384002696582
 30
0.0
 11
416.99858015850288
 21
623.96968569658202
 31
0.0
  0
LINE
  5
818B
  8
0
 62
     0
 10
417.99858015850288
 20
625.384002696582
 30
0.0
 11
426.99858015850288
 21
625.384002696582
 31
0.0
  0
LINE
  5
818C
  8
0
 62
     0
 10
418.99858015850288
 20
616.50558369658188
 30
0.0
 11
416.10681315850297
 21
627.29780569658169
 31
0.0
  0
ARC
  5
818D
  8
0
 62
     0
 10
415.99020515850299
 20
618.38400269658177
 30
0.0
 40
2.0
 50
14.999999999994451
 51
90.0
  0
ARC
  5
818E
  8
0
 62
     0
 10
414.17496115850292
 20
626.78016769658177
 30
0.0
 40
2.0
 50
14.999997000001709
 51
90.0
  0
LINE
  5
818F
  8
0
 62
     0
 10
349.99858015850299
 20
629.74620069658192
 30
0.0
 11
349.99858015850299
 21
628.78016769658188
 31
0.0
  0
ARC
  5
8190
  8
0
 62
     0
 10
347.99858015850299
 20
628.31357169658168
 30
0.0
 40
2.0
 50
13.49131100000157
 51
90.0
  0
ARC
  5
8191
  8
0
 62
     0
 10
347.99858015850299
 20
629.31892269658192
 30
0.0
 40
2.0
 50
0.0
 51
90.0
  0
ARC
  5
8192
  8
0
 62
     0
 10
347.99858015850299
 20
629.74620069658192
 30
0.0
 40
2.0
 50
0.0
 51
90.0
  0
LINE
  5
8193
  8
0
 62
     0
 10
264.99858015850288
 20
617.23992169658186
 30
0.0
 11
264.99858015850288
 21
618.38400269658177
 31
0.0
  0
ARC
  5
8194
  8
0
 62
     0
 10
262.99858015850288
 20
617.23992169658186
 30
0.0
 40
2.0
 50
270.0
 51
0.0
  0
ARC
  5
8195
  8
0
 62
     0
 10
266.99858015850288
 20
618.38400269658177
 30
0.0
 40
2.0
 50
90.0
 51
180.0
  0
LINE
  5
8196
  8
0
 62
     0
 10
264.99858015850288
 20
617.23992169658186
 30
0.0
 11
264.99858015850288
 21
604.7850526965816
 31
0.0
  0
ARC
  5
8197
  8
0
 62
     0
 10
262.99858015850288
 20
604.7850526965816
 30
0.0
 40
2.0
 50
270.0
 51
0.0
  0
LINE
  5
8198
  8
0
 62
     0
 10
264.99858015850288
 20
623.41236969658155
 30
0.0
 11
264.99858015850288
 21
626.78016769658177
 31
0.0
  0
ARC
  5
8199
  8
0
 62
     0
 10
262.99858015850288
 20
623.41236969658155
 30
0.0
 40
2.0
 50
270.0
 51
0.0
  0
ARC
  5
819A
  8
0
 62
     0
 10
266.99858015850288
 20
626.78016769658177
 30
0.0
 40
2.0
 50
90.0
 51
180.0
  0
ARC
  5
819B
  8
0
 62
     0
 10
262.99858015850288
 20
627.76835869658191
 30
0.0
 40
2.0
 50
270.0
 51
0.0
  0
ARC
  5
819C
  8
0
 62
     0
 10
266.99858015850288
 20
628.31357169658168
 30
0.0
 40
2.0
 50
90.0
 51
180.0
  0
ARC
  5
819D
  8
0
 62
     0
 10
262.99858015850288
 20
630.40599769658161
 30
0.0
 40
2.0
 50
270.0
 51
344.23045300000013
  0
ARC
  5
819E
  8
0
 62
     0
 10
266.84803015850309
 20
629.31892269658192
 30
0.0
 40
2.0
 50
90.0
 51
164.2304530000001
  0
LINE
  5
819F
  8
0
 62
     0
 10
264.99858015850288
 20
627.76835869658191
 30
0.0
 11
264.99858015850288
 21
628.31357169658168
 31
0.0
  0
ARC
  5
81A0
  8
0
 62
     0
 10
266.99858015850288
 20
629.74620069658192
 30
0.0
 40
2.0
 50
90.0
 51
180.0
  0
LINE
  5
81A1
  8
0
 62
     0
 10
262.99858015850288
 20
628.40599769658149
 30
0.0
 11
257.49256915850299
 21
628.40599769658149
 31
0.0
  0
LINE
  5
81A2
  8
0
 62
     0
 10
262.99858015850288
 20
625.76835869658191
 30
0.0
 11
257.49256915850299
 21
625.76835869658191
 31
0.0
  0
LINE
  5
81A3
  8
0
 62
     0
 10
262.99858015850288
 20
621.41236969658189
 30
0.0
 11
257.49256915850299
 21
621.41236969658189
 31
0.0
  0
LINE
  5
81A4
  8
0
 62
     0
 10
262.99858015850288
 20
615.23992169658175
 30
0.0
 11
257.49256915850299
 21
615.23992169658175
 31
0.0
  0
LINE
  5
81A5
  8
0
 62
     0
 10
266.99858015850288
 20
631.7462006965817
 30
0.0
 11
347.99858015850299
 21
631.7462006965817
 31
0.0
  0
LINE
  5
81A6
  8
0
 62
     0
 10
266.84803015850309
 20
631.31892269658169
 30
0.0
 11
347.99858015850299
 21
631.31892269658169
 31
0.0
  0
LINE
  5
81A7
  8
0
 62
     0
 10
266.99858015850288
 20
630.3135716965819
 30
0.0
 11
347.99858015850299
 21
630.3135716965819
 31
0.0
  0
LINE
  5
81A8
  8
0
 62
     0
 10
266.99858015850288
 20
628.78016769658188
 30
0.0
 11
414.17496115850292
 21
628.78016769658188
 31
0.0
  0
LINE
  5
81A9
  8
0
 62
     0
 10
266.99858015850288
 20
620.384002696582
 30
0.0
 11
415.99020515850299
 21
620.384002696582
 31
0.0
  0
LINE
  5
81AA
  8
0
 62
     0
 10
257.49256915850299
 20
602.78505269658149
 30
0.0
 11
415.49858015850288
 21
602.78505269658149
 31
0.0
  0
LINE
  5
81AB
  8
0
 62
     0
 10
416.99858015850288
 20
508.05400269658168
 30
0.0
 11
416.99858015850288
 21
515.69400269658172
 31
0.0
  0
LINE
  5
81AC
  8
0
 62
     0
 10
416.99858015850288
 20
595.71394469658162
 30
0.0
 11
416.99858015850288
 21
588.0740026965816
 31
0.0
  0
ARC
  5
81AD
  8
0
 62
     0
 10
417.99794115850301
 20
504.84247169658181
 30
0.0
 40
1.0026319999999971
 50
0.0540849999984558
 51
81.243759000000978
  0
LINE
  5
81AE
  8
0
 62
     0
 10
418.15057315850288
 20
505.83341869658182
 30
0.0
 11
416.3917741585031
 21
506.10400269658197
 31
0.0
  0
LINE
  5
81AF
  8
0
 62
     0
 10
418.14057315850278
 20
507.9234186965819
 30
0.0
 11
416.537885158503
 21
507.70400269658182
 31
0.0
  0
ARC
  5
81B0
  8
0
 62
     0
 10
417.99360515850299
 20
508.91962269658171
 30
0.0
 40
1.006985999999999
 50
278.39216299999907
 51
359.6470019999947
  0
LINE
  5
81B1
  8
0
 62
     0
 10
419.00057315850302
 20
508.91341869658203
 30
0.0
 11
419.00057315850302
 21
504.84341869658198
 31
0.0
  0
ARC
  5
81B2
  8
0
 62
     0
 10
416.457217158503
 20
506.89006269658182
 30
0.0
 40
0.8033630000000001
 50
0.2393299999979177
 51
89.760669999998839
  0
ARC
  5
81B3
  8
0
 62
     0
 10
416.45551115850299
 20
506.89848069658171
 30
0.0
 40
0.8050779999999997
 50
270.3602510000016
 51
359.63974900000488
  0
ARC
  5
81B4
  8
0
 62
     0
 10
417.99360515850299
 20
594.84838269658178
 30
0.0
 40
1.006985999999999
 50
0.3529979999987895
 51
81.60783700000097
  0
LINE
  5
81B5
  8
0
 62
     0
 10
418.14057315850278
 20
595.84458669658193
 30
0.0
 11
416.537885158503
 21
596.0640026965815
 31
0.0
  0
ARC
  5
81B6
  8
0
 62
     0
 10
417.99794115850301
 20
598.92553369658174
 30
0.0
 40
1.0026319999999971
 50
278.75624099999902
 51
359.94591499999501
  0
LINE
  5
81B7
  8
0
 62
     0
 10
419.00057315850302
 20
594.85458669658192
 30
0.0
 11
419.00057315850302
 21
598.92458669658174
 31
0.0
  0
LINE
  5
81B8
  8
0
 62
     0
 10
418.15057315850288
 20
597.9345866965815
 30
0.0
 11
416.3917741585031
 21
597.66400269658175
 31
0.0
  0
ARC
  5
81B9
  8
0
 62
     0
 10
416.457217158503
 20
596.87794269658161
 30
0.0
 40
0.8033630000000001
 50
270.23933000000108
 51
359.76067000000199
  0
ARC
  5
81BA
  8
0
 62
     0
 10
416.45551115850299
 20
596.86952469658161
 30
0.0
 40
0.8050779999999997
 50
0.3602510000016315
 51
89.639748999998375
  0
LINE
  5
81BB
  8
0
 62
     0
 10
416.99858015850288
 20
589.74794769658149
 30
0.0
 11
426.99858015850288
 21
589.74794769658149
 31
0.0
  0
LINE
  5
81BC
  8
0
 62
     0
 10
416.99858015850288
 20
514.03005769658193
 30
0.0
 11
426.99858015850288
 21
514.03005769658193
 31
0.0
  0
LINE
  5
81BD
  8
0
 62
     0
 10
418.13858015850298
 20
547.91400269658175
 30
0.0
 11
416.45858015850303
 21
547.68400269658173
 31
0.0
  0
LINE
  5
81BE
  8
0
 62
     0
 10
418.14858015850302
 20
545.82400269658172
 30
0.0
 11
416.45858015850303
 21
546.08400269658193
 31
0.0
  0
LINE
  5
81BF
  8
0
 62
     0
 10
418.99858015850288
 20
548.90400269658176
 30
0.0
 11
418.99858015850288
 21
544.83400269658193
 31
0.0
  0
LINE
  5
81C0
  8
0
 62
     0
 10
418.13858015850298
 20
537.91400269658209
 30
0.0
 11
416.45858015850303
 21
537.68400269658173
 31
0.0
  0
LINE
  5
81C1
  8
0
 62
     0
 10
418.14858015850302
 20
535.82400269658172
 30
0.0
 11
416.45858015850303
 21
536.08400269658193
 31
0.0
  0
LINE
  5
81C2
  8
0
 62
     0
 10
418.99858015850288
 20
538.90400269658198
 30
0.0
 11
418.99858015850288
 21
534.83400269658193
 31
0.0
  0
LINE
  5
81C3
  8
0
 62
     0
 10
418.14858015850302
 20
525.8240026965816
 30
0.0
 11
416.45858015850303
 21
526.08400269658193
 31
0.0
  0
LINE
  5
81C4
  8
0
 62
     0
 10
418.13858015850298
 20
527.91400269658163
 30
0.0
 11
416.45858015850303
 21
527.68400269658173
 31
0.0
  0
LINE
  5
81C5
  8
0
 62
     0
 10
418.99858015850288
 20
528.90400269658164
 30
0.0
 11
418.99858015850288
 21
524.83400269658193
 31
0.0
  0
LINE
  5
81C6
  8
0
 62
     0
 10
418.99858015850288
 20
518.90400269658198
 30
0.0
 11
418.99858015850288
 21
514.90400269658198
 31
0.0
  0
LINE
  5
81C7
  8
0
 62
     0
 10
418.13858015850298
 20
517.91400269658197
 30
0.0
 11
416.45858015850303
 21
517.68400269658173
 31
0.0
  0
LINE
  5
81C8
  8
0
 62
     0
 10
418.14858015850302
 20
515.82400269658172
 30
0.0
 11
416.45858015850303
 21
516.08400269658193
 31
0.0
  0
ARC
  5
81C9
  8
0
 62
     0
 10
416.45018515850302
 20
546.88400269658177
 30
0.0
 40
0.8000439999999999
 50
270.6012089999997
 51
89.398791000000301
  0
ARC
  5
81CA
  8
0
 62
     0
 10
417.99594815850293
 20
544.83305669658193
 30
0.0
 40
1.0026319999999971
 50
0.0540849999984558
 51
81.243759000000978
  0
ARC
  5
81CB
  8
0
 62
     0
 10
417.99161315850301
 20
548.91020669658201
 30
0.0
 40
1.006985999999999
 50
278.39216299999907
 51
359.6470019999947
  0
ARC
  5
81CC
  8
0
 62
     0
 10
416.45351815850302
 20
536.88906469658173
 30
0.0
 40
0.8050779999999997
 50
270.3602510000016
 51
359.63974900000488
  0
ARC
  5
81CD
  8
0
 62
     0
 10
417.99594815850293
 20
534.83305669658193
 30
0.0
 40
1.0026319999999971
 50
0.0540849999984558
 51
81.243759000000978
  0
ARC
  5
81CE
  8
0
 62
     0
 10
417.99161315850301
 20
538.91020669658178
 30
0.0
 40
1.006985999999999
 50
278.39216299999907
 51
359.6470019999947
  0
ARC
  5
81CF
  8
0
 62
     0
 10
416.45522415850292
 20
526.88064669658172
 30
0.0
 40
0.8033630000000001
 50
0.2393299999979177
 51
89.760669999998839
  0
ARC
  5
81D0
  8
0
 62
     0
 10
416.45351815850302
 20
526.88906469658173
 30
0.0
 40
0.8050779999999997
 50
270.3602510000016
 51
359.63974900000488
  0
ARC
  5
81D1
  8
0
 62
     0
 10
417.99161315850301
 20
528.91020669658201
 30
0.0
 40
1.006985999999999
 50
278.39216299999907
 51
359.6470019999947
  0
ARC
  5
81D2
  8
0
 62
     0
 10
417.99594815850293
 20
524.83305669658193
 30
0.0
 40
1.0026319999999971
 50
0.0540849999984558
 51
81.243759000000978
  0
ARC
  5
81D3
  8
0
 62
     0
 10
417.99161315850301
 20
518.91020669658201
 30
0.0
 40
1.006985999999999
 50
278.39216299999907
 51
359.6470019999947
  0
ARC
  5
81D4
  8
0
 62
     0
 10
417.99594815850293
 20
514.83305669658193
 30
0.0
 40
1.0026319999999971
 50
0.0540849999984558
 51
81.243759000000978
  0
ARC
  5
81D5
  8
0
 62
     0
 10
416.45351815850302
 20
516.88906469658173
 30
0.0
 40
0.8050779999999997
 50
270.3602510000016
 51
359.63974900000488
  0
ARC
  5
81D6
  8
0
 62
     0
 10
416.45522415850292
 20
516.88064669658172
 30
0.0
 40
0.8033630000000001
 50
0.2393299999979177
 51
89.760669999998839
  0
ARC
  5
81D7
  8
0
 62
     0
 10
416.45522415850292
 20
536.88064669658172
 30
0.0
 40
0.8033630000000001
 50
0.2393299999979177
 51
89.760669999998839
  0
LINE
  5
81D8
  8
0
 62
     0
 10
415.39267615850292
 20
547.89400269658199
 30
0.0
 11
417.99249315850301
 21
547.89400269658199
 31
0.0
  0
LINE
  5
81D9
  8
0
 62
     0
 10
415.39267615850292
 20
545.86400269658168
 30
0.0
 11
417.88858015850292
 21
545.86400269658168
 31
0.0
  0
LINE
  5
81DA
  8
0
 62
     0
 10
415.39267615850292
 20
537.91400269658209
 30
0.0
 11
418.13858015850298
 21
537.91400269658209
 31
0.0
  0
LINE
  5
81DB
  8
0
 62
     0
 10
415.39267615850292
 20
535.83400269658193
 30
0.0
 11
418.048580158503
 21
535.83400269658193
 31
0.0
  0
LINE
  5
81DC
  8
0
 62
     0
 10
415.39267615850292
 20
527.96400269658193
 30
0.0
 11
418.503797158503
 21
527.96400269658193
 31
0.0
  0
LINE
  5
81DD
  8
0
 62
     0
 10
415.39267615850292
 20
525.78400269658164
 30
0.0
 11
418.4085801585029
 21
525.78400269658164
 31
0.0
  0
LINE
  5
81DE
  8
0
 62
     0
 10
415.39267615850292
 20
518.03400269658175
 30
0.0
 11
418.4878871585031
 21
518.03400269658175
 31
0.0
  0
LINE
  5
81DF
  8
0
 62
     0
 10
415.39267615850292
 20
515.69400269658172
 30
0.0
 11
418.50979915850291
 21
515.69400269658172
 31
0.0
  0
LINE
  5
81E0
  8
0
 62
     0
 10
415.39267615850292
 20
517.68400269658173
 30
0.0
 11
416.45858015850303
 21
517.68400269658173
 31
0.0
  0
LINE
  5
81E1
  8
0
 62
     0
 10
415.39267615850292
 20
547.68400269658173
 30
0.0
 11
416.45858015850303
 21
547.68400269658173
 31
0.0
  0
LINE
  5
81E2
  8
0
 62
     0
 10
415.39267615850292
 20
546.08400269658193
 30
0.0
 11
416.45858015850303
 21
546.08400269658193
 31
0.0
  0
LINE
  5
81E3
  8
0
 62
     0
 10
415.39267615850292
 20
537.68400269658173
 30
0.0
 11
416.45858015850303
 21
537.68400269658173
 31
0.0
  0
LINE
  5
81E4
  8
0
 62
     0
 10
415.39267615850292
 20
536.08400269658193
 30
0.0
 11
416.45858015850303
 21
536.08400269658193
 31
0.0
  0
LINE
  5
81E5
  8
0
 62
     0
 10
415.39267615850292
 20
527.68400269658173
 30
0.0
 11
416.45858015850303
 21
527.68400269658173
 31
0.0
  0
LINE
  5
81E6
  8
0
 62
     0
 10
415.39267615850292
 20
526.08400269658193
 30
0.0
 11
416.45858015850303
 21
526.08400269658193
 31
0.0
  0
LINE
  5
81E7
  8
0
 62
     0
 10
415.39267615850292
 20
516.08400269658193
 30
0.0
 11
416.45858015850303
 21
516.08400269658193
 31
0.0
  0
LINE
  5
81E8
  8
0
 62
     0
 10
418.13858015850298
 20
577.91400269658175
 30
0.0
 11
416.45858015850303
 21
577.68400269658162
 31
0.0
  0
LINE
  5
81E9
  8
0
 62
     0
 10
418.14858015850302
 20
575.8240026965816
 30
0.0
 11
416.45858015850303
 21
576.08400269658193
 31
0.0
  0
LINE
  5
81EA
  8
0
 62
     0
 10
418.99858015850288
 20
578.90400269658176
 30
0.0
 11
418.99858015850288
 21
574.83400269658193
 31
0.0
  0
LINE
  5
81EB
  8
0
 62
     0
 10
418.13858015850298
 20
567.91400269658197
 30
0.0
 11
416.45858015850303
 21
567.68400269658162
 31
0.0
  0
LINE
  5
81EC
  8
0
 62
     0
 10
418.14858015850302
 20
565.8240026965816
 30
0.0
 11
416.45858015850303
 21
566.08400269658193
 31
0.0
  0
LINE
  5
81ED
  8
0
 62
     0
 10
418.99858015850288
 20
568.90400269658198
 30
0.0
 11
418.99858015850288
 21
564.83400269658193
 31
0.0
  0
LINE
  5
81EE
  8
0
 62
     0
 10
418.13858015850298
 20
557.91400269658163
 30
0.0
 11
416.45858015850303
 21
557.68400269658173
 31
0.0
  0
LINE
  5
81EF
  8
0
 62
     0
 10
418.14858015850302
 20
555.82400269658172
 30
0.0
 11
416.45858015850303
 21
556.08400269658193
 31
0.0
  0
LINE
  5
81F0
  8
0
 62
     0
 10
418.99858015850288
 20
558.90400269658164
 30
0.0
 11
418.99858015850288
 21
554.83400269658193
 31
0.0
  0
LINE
  5
81F1
  8
0
 62
     0
 10
418.99858015850288
 20
588.90400269658198
 30
0.0
 11
418.99858015850288
 21
584.83400269658193
 31
0.0
  0
LINE
  5
81F2
  8
0
 62
     0
 10
418.13858015850298
 20
587.91400269658209
 30
0.0
 11
416.45858015850303
 21
587.6840026965815
 31
0.0
  0
LINE
  5
81F3
  8
0
 62
     0
 10
418.14858015850302
 20
585.82400269658149
 30
0.0
 11
416.45858015850303
 21
586.08400269658193
 31
0.0
  0
ARC
  5
81F4
  8
0
 62
     0
 10
416.450124158503
 20
576.88500869658185
 30
0.0
 40
0.80105
 50
270.6048560000001
 51
80.04681700000134
  0
ARC
  5
81F5
  8
0
 62
     0
 10
417.99594815850293
 20
574.83305669658193
 30
0.0
 40
1.0026319999999971
 50
0.0540849999984558
 51
81.243759000000978
  0
ARC
  5
81F6
  8
0
 62
     0
 10
417.99161315850301
 20
578.91020669658201
 30
0.0
 40
1.006985999999999
 50
278.39216299999907
 51
359.6470019999947
  0
ARC
  5
81F7
  8
0
 62
     0
 10
416.45018515850302
 20
566.884002696582
 30
0.0
 40
0.8000439999999999
 50
270.6012089999997
 51
89.398791000000301
  0
ARC
  5
81F8
  8
0
 62
     0
 10
417.99594815850293
 20
564.83305669658193
 30
0.0
 40
1.0026319999999971
 50
0.0540849999984558
 51
81.243759000000978
  0
ARC
  5
81F9
  8
0
 62
     0
 10
417.99161315850301
 20
568.91020669658201
 30
0.0
 40
1.006985999999999
 50
278.39216299999907
 51
359.6470019999947
  0
ARC
  5
81FA
  8
0
 62
     0
 10
416.45018515850302
 20
556.884002696582
 30
0.0
 40
0.8000439999999999
 50
270.6012089999997
 51
89.398791000000301
  0
ARC
  5
81FB
  8
0
 62
     0
 10
417.99594815850293
 20
554.83305669658193
 30
0.0
 40
1.0026319999999971
 50
0.0540849999984558
 51
81.243759000000978
  0
ARC
  5
81FC
  8
0
 62
     0
 10
417.99161315850301
 20
558.91020669658201
 30
0.0
 40
1.006985999999999
 50
278.39216299999907
 51
359.6470019999947
  0
ARC
  5
81FD
  8
0
 62
     0
 10
417.99594815850293
 20
584.83305669658193
 30
0.0
 40
1.0026319999999971
 50
0.0540849999984558
 51
81.243759000000978
  0
ARC
  5
81FE
  8
0
 62
     0
 10
417.99161315850301
 20
588.91020669658178
 30
0.0
 40
1.006985999999999
 50
278.39216299999907
 51
359.6470019999947
  0
ARC
  5
81FF
  8
0
 62
     0
 10
416.450125158503
 20
586.88521869658189
 30
0.0
 40
0.801261
 50
270.60461099999839
 51
94.506741999999761
  0
LINE
  5
8200
  8
0
 62
     0
 10
415.39267615850292
 20
577.98400269658168
 30
0.0
 11
418.3867941585026
 21
577.98400269658168
 31
0.0
  0
LINE
  5
8201
  8
0
 62
     0
 10
415.39267615850292
 20
575.80400269658196
 30
0.0
 11
418.24601715850292
 21
575.80400269658196
 31
0.0
  0
LINE
  5
8202
  8
0
 62
     0
 10
415.39267615850292
 20
567.92400269658174
 30
0.0
 11
418.1951401585028
 21
567.92400269658174
 31
0.0
  0
LINE
  5
8203
  8
0
 62
     0
 10
415.39267615850292
 20
565.84400269658192
 30
0.0
 11
418.01858015850303
 21
565.84400269658192
 31
0.0
  0
LINE
  5
8204
  8
0
 62
     0
 10
415.39267615850292
 20
557.90400269658176
 30
0.0
 11
418.06553715850288
 21
557.90400269658176
 31
0.0
  0
LINE
  5
8205
  8
0
 62
     0
 10
415.39267615850292
 20
555.86400269658191
 30
0.0
 11
417.88858015850292
 21
555.86400269658191
 31
0.0
  0
LINE
  5
8206
  8
0
 62
     0
 10
415.39267615850292
 20
588.0740026965816
 30
0.0
 11
418.55266915850302
 21
588.0740026965816
 31
0.0
  0
LINE
  5
8207
  8
0
 62
     0
 10
415.39267615850292
 20
585.72400269658169
 30
0.0
 11
418.45582415850311
 21
585.72400269658169
 31
0.0
  0
LINE
  5
8208
  8
0
 62
     0
 10
415.39267615850292
 20
587.6840026965815
 30
0.0
 11
416.51308515850292
 21
587.6840026965815
 31
0.0
  0
LINE
  5
8209
  8
0
 62
     0
 10
415.39267615850292
 20
586.08400269658193
 30
0.0
 11
416.45858015850303
 21
586.08400269658193
 31
0.0
  0
LINE
  5
820A
  8
0
 62
     0
 10
415.39267615850292
 20
577.68400269658162
 30
0.0
 11
416.50748515850302
 21
577.68400269658162
 31
0.0
  0
LINE
  5
820B
  8
0
 62
     0
 10
415.39267615850292
 20
576.08400269658193
 30
0.0
 11
416.45858015850303
 21
576.08400269658193
 31
0.0
  0
LINE
  5
820C
  8
0
 62
     0
 10
415.39267615850292
 20
567.68400269658162
 30
0.0
 11
416.45858015850303
 21
567.68400269658162
 31
0.0
  0
LINE
  5
820D
  8
0
 62
     0
 10
415.39267615850292
 20
566.08400269658193
 30
0.0
 11
416.45858015850303
 21
566.08400269658193
 31
0.0
  0
LINE
  5
820E
  8
0
 62
     0
 10
415.39267615850292
 20
557.68400269658173
 30
0.0
 11
416.45858015850303
 21
557.68400269658173
 31
0.0
  0
LINE
  5
820F
  8
0
 62
     0
 10
415.39267615850292
 20
556.08400269658193
 30
0.0
 11
416.45858015850303
 21
556.08400269658193
 31
0.0
  0
ARC
  5
8210
  8
0
 62
     0
 10
338.69478315850318
 20
540.58408269658185
 30
0.0
 40
2.6000000000000001
 50
137.1002180000024
 51
180.0
  0
ARC
  5
8211
  8
0
 62
     0
 10
338.69478315850318
 20
563.18392269658193
 30
0.0
 40
2.6000000000000001
 50
180.0
 51
222.8997819999976
  0
ARC
  5
8212
  8
0
 62
     0
 10
326.53452815850312
 20
551.88400269658166
 30
0.0
 40
14.0
 50
317.10021800000243
 51
42.899781999997558
  0
LINE
  5
8213
  8
0
 62
     0
 10
415.39267615850292
 20
515.153321696582
 30
0.0
 11
415.39267615850292
 21
588.61186469658162
 31
0.0
  0
LINE
  5
8214
  8
0
 62
     0
 10
410.29268615850299
 20
518.77630569658186
 30
0.0
 11
410.29268615850299
 21
584.99601969658193
 31
0.0
  0
LINE
  5
8215
  8
0
 62
     0
 10
406.97568415850299
 20
518.57950569658192
 30
0.0
 11
406.97568415850299
 21
585.18850769658161
 31
0.0
  0
LINE
  5
8216
  8
0
 62
     0
 10
332.63608515850319
 20
519.2212636965819
 30
0.0
 11
332.63608515850319
 21
538.97450669658201
 31
0.0
  0
LINE
  5
8217
  8
0
 62
     0
 10
332.63608515850319
 20
584.54260269658175
 30
0.0
 11
332.63608515850319
 21
564.79350269658198
 31
0.0
  0
LINE
  5
8218
  8
0
 62
     0
 10
327.14698315850308
 20
586.83520669658174
 30
0.0
 11
327.14698315850308
 21
516.93279869658193
 31
0.0
  0
LINE
  5
8219
  8
0
 62
     0
 10
325.08318215850301
 20
586.70040269658193
 30
0.0
 11
325.08318215850301
 21
517.06759869658185
 31
0.0
  0
LINE
  5
821B
  8
0
 62
     0
 10
336.09478315850311
 20
519.35180669658155
 30
0.0
 11
336.09478315850311
 21
540.58408269658185
 31
0.0
  0
LINE
  5
821C
  8
0
 62
     0
 10
336.09478315850311
 20
563.18392269658193
 30
0.0
 11
336.09478315850311
 21
581.46630069658192
 31
0.0
  0
ARC
  5
821D
  8
0
 62
     0
 10
407.29268615850282
 20
518.77630569658186
 30
0.0
 40
3.0
 50
273.55702099999962
 51
0.0000179999992061
  0
ARC
  5
821E
  8
0
 62
     0
 10
411.79268615850259
 20
515.16380269658191
 30
0.0
 40
3.6000059999999969
 50
273.96599900000109
 51
0.0000179999992061
  0
ARC
  5
821F
  8
0
 62
     0
 10
336.23608315850311
 20
519.22540669658201
 30
0.0
 40
3.6000009999999989
 50
180.00007799999869
 51
266.68501399999968
  0
ARC
  5
8220
  8
0
 62
     0
 10
370.49858015850288
 20
1110.733978696582
 30
0.0
 40
596.09997599999986
 50
266.68505800000048
 51
273.5570069999992
  0
ARC
  5
8221
  8
0
 62
     0
 10
332.74698515850292
 20
516.9328036965818
 30
0.0
 40
5.599998999999996
 50
180.00005699999531
 51
266.36204099999878
  0
ARC
  5
8222
  8
0
 62
     0
 10
330.68318515850308
 20
517.06760369658195
 30
0.0
 40
5.600000999999998
 50
180.00005699999531
 51
266.16303700000049
  0
ARC
  5
8223
  8
0
 62
     0
 10
370.49858015850288
 20
1110.733978696582
 30
0.0
 40
600.59997599999986
 50
266.16305400000141
 51
273.96601300000128
  0
ARC
  5
8224
  8
0
 62
     0
 10
403.97568415850287
 20
518.57950569658192
 30
0.0
 40
3.0
 50
273.23604300000147
 51
0.0000179999992061
  0
ARC
  5
8225
  8
0
 62
     0
 10
407.29268615850282
 20
584.99170669658201
 30
0.0
 40
3.0000029999999982
 50
0.0000179999992061
 51
86.4432529999997
  0
ARC
  5
8226
  8
0
 62
     0
 10
411.79268615850259
 20
588.60400369658191
 30
0.0
 40
3.5999989999999982
 50
0.0000179999992061
 51
86.033744000000837
  0
ARC
  5
8227
  8
0
 62
     0
 10
336.23608315850311
 20
584.54260269658175
 30
0.0
 40
3.5999979999999989
 50
93.315004999999786
 51
179.99998200000081
  0
ARC
  5
8228
  8
0
 62
     0
 10
370.49858015850288
 20
-6.9659733034179672
 30
0.0
 40
596.09997599999986
 50
86.44328999999945
 51
93.315088999999787
  0
ARC
  5
8229
  8
0
 62
     0
 10
332.74698515850292
 20
586.83520469658174
 30
0.0
 40
5.5999980000000003
 50
93.638056000000859
 51
179.99998200000081
  0
ARC
  5
822A
  8
0
 62
     0
 10
330.68318515850308
 20
586.70040169658193
 30
0.0
 40
5.5999980000000003
 50
93.837062000000614
 51
179.99998200000081
  0
ARC
  5
822B
  8
0
 62
     0
 10
370.49858015850288
 20
-6.9659733034179672
 30
0.0
 40
600.59997599999986
 50
86.033760000000655
 51
93.836910000000643
  0
ARC
  5
822C
  8
0
 62
     0
 10
403.97568415850287
 20
585.18850669658161
 30
0.0
 40
2.999998999999999
 50
0.0000179999992061
 51
86.764376000000055
  0
ARC
  5
822D
  8
0
 62
     0
 10
334.63608515850319
 20
564.79350269658198
 30
0.0
 40
1.999997
 50
179.99998200000081
 51
229.4100490000026
  0
ARC
  5
822E
  8
0
 62
     0
 10
334.63608515850319
 20
538.97450669658201
 30
0.0
 40
2.0
 50
130.59005899999829
 51
179.99998200000081
  0
ARC
  5
822F
  8
0
 62
     0
 10
323.57518315850308
 20
551.88400269658166
 30
0.0
 40
15.000002
 50
310.58999199999971
 51
49.409702000001012
  0
ARC
  5
8230
  8
0
 62
     0
 10
414.59858915850288
 20
606.19297669658215
 30
0.0
 40
2.2000009999999981
 50
180.00000299999761
 51
269.99997799999852
  0
ARC
  5
8231
  8
0
 62
     0
 10
414.59858915850288
 20
610.79298269658193
 30
0.0
 40
2.1999970000000002
 50
90.0
 51
179.99998200000081
  0
LINE
  5
8232
  8
0
 62
     0
 10
416.99858015850288
 20
608.44353469658165
 30
0.0
 11
415.69858015850298
 21
607.69297969658192
 31
0.0
  0
LINE
  5
8233
  8
0
 62
     0
 10
416.99858015850288
 20
609.44353469658199
 30
0.0
 11
415.69858015850298
 21
608.69297969658192
 31
0.0
  0
LINE
  5
8234
  8
0
 62
     0
 10
415.69858015850298
 20
613.09297969658201
 30
0.0
 11
416.99858015850288
 21
613.09297969658201
 31
0.0
  0
LINE
  5
8235
  8
0
 62
     0
 10
415.69858015850298
 20
603.89297969658162
 30
0.0
 11
416.99858015850288
 21
603.89297969658162
 31
0.0
  0
LINE
  5
8236
  8
0
 62
     0
 10
416.99858015850288
 20
613.09297969658201
 30
0.0
 11
416.99858015850288
 21
603.89297969658162
 31
0.0
  0
LINE
  5
8237
  8
0
 62
     0
 10
412.39857715850292
 20
610.79298269658193
 30
0.0
 11
412.39857715850292
 21
606.19297669658215
 31
0.0
  0
LINE
  5
8238
  8
0
 62
     0
 10
415.69858015850298
 20
613.09297969658201
 30
0.0
 11
415.69858015850298
 21
603.89297969658162
 31
0.0
  0
LINE
  5
8239
  8
0
 62
     0
 10
415.69858015850298
 20
603.99297969658198
 30
0.0
 11
414.59858915850288
 21
603.99297969658198
 31
0.0
  0
LINE
  5
823A
  8
0
 62
     0
 10
415.69858015850298
 20
612.99297969658198
 30
0.0
 11
414.59858915850288
 21
612.99297969658198
 31
0.0
  0
LINE
  5
823B
  8
0
 62
     0
 10
426.99858015850288
 20
478.3840026965816
 30
0.0
 11
426.99858015850288
 21
625.38394469658192
 31
0.0
  0
LINE
  5
823C
  8
0
 62
     0
 10
264.99858015850288
 20
587.68394469658165
 30
0.0
 11
325.17023415850292
 21
587.68394469658165
 31
0.0
  0
LINE
  5
823D
  8
0
 62
     0
 10
264.99858015850288
 20
586.08394469658174
 30
0.0
 11
325.08318215850301
 21
586.08394469658174
 31
0.0
  0
LINE
  5
823E
  8
0
 62
     0
 10
257.49256915850299
 20
577.68394469658165
 30
0.0
 11
325.08318215850301
 21
577.68394469658165
 31
0.0
  0
LINE
  5
823F
  8
0
 62
     0
 10
257.49256915850299
 20
576.08394469658174
 30
0.0
 11
325.08318215850301
 21
576.08394469658174
 31
0.0
  0
LINE
  5
8240
  8
0
 62
     0
 10
257.49256915850299
 20
566.08394469658197
 30
0.0
 11
325.08318215850301
 21
566.08394469658197
 31
0.0
  0
LINE
  5
8241
  8
0
 62
     0
 10
257.49256915850299
 20
567.68394469658188
 30
0.0
 11
325.08318215850301
 21
567.68394469658188
 31
0.0
  0
LINE
  5
8242
  8
0
 62
     0
 10
257.49256915850299
 20
567.93394469658165
 30
0.0
 11
325.08318215850301
 21
567.93394469658165
 31
0.0
  0
LINE
  5
8243
  8
0
 62
     0
 10
264.99858015850288
 20
585.73394469658149
 30
0.0
 11
325.08318215850301
 21
585.73394469658149
 31
0.0
  0
LINE
  5
8244
  8
0
 62
     0
 10
264.99858015850288
 20
588.07394469658198
 30
0.0
 11
325.25424715850312
 21
588.07394469658198
 31
0.0
  0
LINE
  5
8245
  8
0
 62
     0
 10
325.08318215850301
 20
577.9839446965816
 30
0.0
 11
257.49256915850299
 21
577.9839446965816
 31
0.0
  0
LINE
  5
8246
  8
0
 62
     0
 10
325.08318215850301
 20
575.80394469658199
 30
0.0
 11
257.49256915850299
 21
575.80394469658199
 31
0.0
  0
LINE
  5
8247
  8
0
 62
     0
 10
325.08318215850301
 20
565.85394469658161
 30
0.0
 11
257.49256915850299
 21
565.85394469658161
 31
0.0
  0
LINE
  5
8248
  8
0
 62
     0
 10
325.08318215850301
 20
557.90394469658168
 30
0.0
 11
257.49256915850299
 21
557.90394469658168
 31
0.0
  0
LINE
  5
8249
  8
0
 62
     0
 10
325.08318215850301
 20
555.87394469658193
 30
0.0
 11
257.49256915850299
 21
555.87394469658193
 31
0.0
  0
LINE
  5
824A
  8
0
 62
     0
 10
325.08318215850301
 20
557.68394469658165
 30
0.0
 11
257.49256915850299
 21
557.68394469658165
 31
0.0
  0
LINE
  5
824B
  8
0
 62
     0
 10
325.08318215850301
 20
556.08394469658185
 30
0.0
 11
257.49256915850299
 21
556.08394469658185
 31
0.0
  0
LINE
  5
824C
  8
0
 62
     0
 10
264.99858015850288
 20
597.66394469658189
 30
0.0
 11
416.39139615850308
 21
597.66394469658189
 31
0.0
  0
LINE
  5
824D
  8
0
 62
     0
 10
264.99858015850288
 20
596.06394469658198
 30
0.0
 11
416.53830915850301
 21
596.06394469658198
 31
0.0
  0
LINE
  5
824E
  8
0
 62
     0
 10
257.49256915850299
 20
598.05394469658199
 30
0.0
 11
418.49352515850302
 21
598.05394469658199
 31
0.0
  0
LINE
  5
824F
  8
0
 62
     0
 10
264.99858015850288
 20
595.71394469658162
 30
0.0
 11
418.50821715850299
 21
595.71394469658162
 31
0.0
  0
LINE
  5
8250
  8
0
 62
     0
 10
415.49858015850288
 20
602.78499469658198
 30
0.0
 11
415.61474015850291
 21
603.99297969658198
 31
0.0
  0
LINE
  5
8251
  8
0
 62
     0
 10
257.49256915850299
 20
581.1655016965816
 30
0.0
 11
264.99858015850288
 21
581.1655016965816
 31
0.0
  0
LINE
  5
8252
  8
0
 62
     0
 10
257.49256915850299
 20
586.88394469658192
 30
0.0
 11
264.99858015850288
 21
586.88394469658192
 31
0.0
  0
LINE
  5
8253
  8
0
 62
     0
 10
257.49256915850299
 20
597.4039446965819
 30
0.0
 11
264.99858015850288
 21
597.4039446965819
 31
0.0
  0
LINE
  5
8254
  8
0
 62
     0
 10
257.49256915850299
 20
597.81527669658192
 30
0.0
 11
264.99858015850288
 21
597.81527669658192
 31
0.0
  0
LINE
  5
8255
  8
0
 62
     0
 10
264.99858015850288
 20
597.81527669658192
 30
0.0
 11
264.99858015850288
 21
581.1655016965816
 31
0.0
  0
ARC
  5
8256
  8
0
 62
     0
 10
199.497359158503
 20
615.05284169658159
 30
0.0
 40
2.0
 50
96.369371000000385
 51
180.0
  0
ARC
  5
8257
  8
0
 62
     0
 10
198.94267115850309
 20
620.02197569658165
 30
0.0
 40
2.999997
 50
276.3693710000004
 51
350.0001740000024
  0
LINE
  5
8258
  8
0
 62
     0
 10
201.89710315850311
 20
619.50095569658185
 30
0.0
 11
202.9579651585029
 21
625.51843169658162
 31
0.0
  0
LINE
  5
8259
  8
0
 62
     0
 10
197.497359158503
 20
488.7151056965817
 30
0.0
 11
197.497359158503
 21
615.05284169658159
 31
0.0
  0
LINE
  5
825A
  8
0
 62
     0
 10
204.5515581585031
 20
625.84598069658193
 30
0.0
 11
204.5515581585031
 21
477.92196669658171
 31
0.0
  0
LINE
  5
825B
  8
0
 62
     0
 10
234.49919715850311
 20
472.13418569658171
 30
0.0
 11
234.49919715850311
 21
631.63376169658193
 31
0.0
  0
LINE
  5
825C
  8
0
 62
     0
 10
234.18657615850299
 20
631.61737869658191
 30
0.0
 11
208.3199061585029
 21
630.26187569658191
 31
0.0
  0
LINE
  5
825D
  8
0
 62
     0
 10
235.74961715850301
 20
632.63394469658169
 30
0.0
 11
257.4985801585031
 21
632.63394469658169
 31
0.0
  0
ARC
  5
825E
  8
0
 62
     0
 10
235.74961715850301
 20
631.38394469658192
 30
0.0
 40
1.25
 50
89.999982000000799
 51
154.6236390000048
  0
ARC
  5
825F
  8
0
 62
     0
 10
208.62077215850309
 20
624.51993069658192
 30
0.0
 40
5.7500059999999991
 50
92.999882999999429
 51
170.0000479999978
  0
ARC
  5
8260
  8
0
 62
     0
 10
234.160410158503
 20
632.11669369658193
 30
0.0
 40
0.5
 50
272.99975299999932
 51
335.24659000000122
  0
LINE
  5
8261
  8
0
 62
     0
 10
264.99858015850288
 20
516.08400269658193
 30
0.0
 11
325.17024215850307
 21
516.08400269658193
 31
0.0
  0
LINE
  5
8262
  8
0
 62
     0
 10
264.99858015850288
 20
517.68400269658173
 30
0.0
 11
325.08318215850301
 21
517.68400269658173
 31
0.0
  0
LINE
  5
8263
  8
0
 62
     0
 10
257.49256915850299
 20
526.08400269658193
 30
0.0
 11
325.08318215850301
 21
526.08400269658193
 31
0.0
  0
LINE
  5
8264
  8
0
 62
     0
 10
257.49256915850299
 20
527.68400269658173
 30
0.0
 11
325.08318215850301
 21
527.68400269658173
 31
0.0
  0
LINE
  5
8265
  8
0
 62
     0
 10
257.49256915850299
 20
537.68400269658173
 30
0.0
 11
325.08318215850301
 21
537.68400269658173
 31
0.0
  0
LINE
  5
8266
  8
0
 62
     0
 10
257.49256915850299
 20
536.08400269658193
 30
0.0
 11
325.08318215850301
 21
536.08400269658193
 31
0.0
  0
LINE
  5
8267
  8
0
 62
     0
 10
257.49256915850299
 20
535.83400269658193
 30
0.0
 11
325.08318215850301
 21
535.83400269658193
 31
0.0
  0
LINE
  5
8268
  8
0
 62
     0
 10
264.99858015850288
 20
518.03400269658175
 30
0.0
 11
325.08318215850301
 21
518.03400269658175
 31
0.0
  0
LINE
  5
8269
  8
0
 62
     0
 10
264.99858015850288
 20
515.69400269658172
 30
0.0
 11
325.25425915850292
 21
515.69400269658172
 31
0.0
  0
LINE
  5
826A
  8
0
 62
     0
 10
325.08318215850301
 20
525.78400269658164
 30
0.0
 11
257.49256915850299
 21
525.78400269658164
 31
0.0
  0
LINE
  5
826B
  8
0
 62
     0
 10
325.08318215850301
 20
527.96400269658193
 30
0.0
 11
257.49256915850299
 21
527.96400269658193
 31
0.0
  0
LINE
  5
826C
  8
0
 62
     0
 10
325.08318215850301
 20
537.91400269658209
 30
0.0
 11
257.49256915850299
 21
537.91400269658209
 31
0.0
  0
LINE
  5
826D
  8
0
 62
     0
 10
325.08318215850301
 20
545.86400269658168
 30
0.0
 11
257.49256915850299
 21
545.86400269658168
 31
0.0
  0
LINE
  5
826E
  8
0
 62
     0
 10
325.08318215850301
 20
547.89400269658199
 30
0.0
 11
257.49256915850299
 21
547.89400269658199
 31
0.0
  0
LINE
  5
826F
  8
0
 62
     0
 10
325.08318215850301
 20
546.08400269658193
 30
0.0
 11
257.49256915850299
 21
546.08400269658193
 31
0.0
  0
LINE
  5
8270
  8
0
 62
     0
 10
325.08318215850301
 20
547.68400269658173
 30
0.0
 11
257.49256915850299
 21
547.68400269658173
 31
0.0
  0
LINE
  5
8271
  8
0
 62
     0
 10
264.99858015850288
 20
506.10400269658197
 30
0.0
 11
416.3917741585031
 21
506.10400269658197
 31
0.0
  0
LINE
  5
8272
  8
0
 62
     0
 10
264.99858015850288
 20
507.70400269658182
 30
0.0
 11
416.537885158503
 21
507.70400269658182
 31
0.0
  0
LINE
  5
8273
  8
0
 62
     0
 10
257.49256915850299
 20
505.7140026965817
 30
0.0
 11
418.4936281585031
 21
505.7140026965817
 31
0.0
  0
LINE
  5
8274
  8
0
 62
     0
 10
264.99858015850288
 20
508.05400269658168
 30
0.0
 11
418.50811915850289
 21
508.05400269658168
 31
0.0
  0
LINE
  5
8275
  8
0
 62
     0
 10
415.49858015850288
 20
508.05400269658168
 30
0.0
 11
415.49858015850288
 21
515.69400269658172
 31
0.0
  0
LINE
  5
8276
  8
0
 62
     0
 10
415.49858015850288
 20
500.98295269658172
 30
0.0
 11
415.49858015850288
 21
505.7140026965817
 31
0.0
  0
LINE
  5
8277
  8
0
 62
     0
 10
416.99858015850288
 20
489.8840026965816
 30
0.0
 11
416.99858015850288
 21
505.7140026965817
 31
0.0
  0
LINE
  5
8278
  8
0
 62
     0
 10
415.49858015850288
 20
500.98295269658172
 30
0.0
 11
415.61473515850298
 21
499.77502669658202
 31
0.0
  0
LINE
  5
8279
  8
0
 62
     0
 10
257.49256915850299
 20
522.60244569658164
 30
0.0
 11
264.99858015850288
 21
522.60244569658164
 31
0.0
  0
LINE
  5
827A
  8
0
 62
     0
 10
257.49256915850299
 20
516.884002696582
 30
0.0
 11
264.99858015850288
 21
516.884002696582
 31
0.0
  0
LINE
  5
827B
  8
0
 62
     0
 10
257.49256915850299
 20
506.36400269658202
 30
0.0
 11
264.99858015850288
 21
506.36400269658202
 31
0.0
  0
LINE
  5
827C
  8
0
 62
     0
 10
257.49256915850299
 20
505.95267069658178
 30
0.0
 11
264.99858015850288
 21
505.95267069658178
 31
0.0
  0
LINE
  5
827D
  8
0
 62
     0
 10
264.99858015850288
 20
505.95267069658178
 30
0.0
 11
264.99858015850288
 21
522.60244569658164
 31
0.0
  0
ARC
  5
827E
  8
0
 62
     0
 10
199.497359158503
 20
488.7151056965817
 30
0.0
 40
2.0
 50
180.0
 51
263.63062899999971
  0
ARC
  5
827F
  8
0
 62
     0
 10
198.94267115850309
 20
483.74597169658182
 30
0.0
 40
2.999997
 50
9.9998259999975811
 51
83.63062899999963
  0
LINE
  5
8280
  8
0
 62
     0
 10
201.89710315850311
 20
484.26699169658161
 30
0.0
 11
202.9579651585029
 21
478.2495156965818
 31
0.0
  0
LINE
  5
8281
  8
0
 62
     0
 10
201.49735915850309
 20
617.62796369658167
 30
0.0
 11
201.49735915850309
 21
486.13998369658168
 31
0.0
  0
LINE
  5
8282
  8
0
 62
     0
 10
416.69858015850292
 20
518.03400269658175
 30
0.0
 11
416.99858015850288
 21
518.03400269658175
 31
0.0
  0
LINE
  5
8283
  8
0
 62
     0
 10
416.64788915850301
 20
515.69400269658172
 30
0.0
 11
416.99858015850288
 21
515.69400269658172
 31
0.0
  0
LINE
  5
8284
  8
0
 62
     0
 10
234.18657615850299
 20
472.15056869658167
 30
0.0
 11
208.3199061585029
 21
473.50607169658173
 31
0.0
  0
LINE
  5
8285
  8
0
 62
     0
 10
235.74961715850301
 20
471.1340026965816
 30
0.0
 11
257.4985801585031
 21
471.1340026965816
 31
0.0
  0
ARC
  5
8286
  8
0
 62
     0
 10
235.74961715850301
 20
472.38400269658172
 30
0.0
 40
1.25
 50
205.3763609999952
 51
270.00001799999922
  0
ARC
  5
8287
  8
0
 62
     0
 10
208.62077215850309
 20
479.24801669658177
 30
0.0
 40
5.7500059999999991
 50
189.99995200000211
 51
267.00011700000061
  0
ARC
  5
8288
  8
0
 62
     0
 10
234.160410158503
 20
471.65125369658182
 30
0.0
 40
0.5
 50
24.75340999999878
 51
87.000247000000712
  0
LINE
  5
8289
  8
0
 62
     0
 10
415.49858015850288
 20
602.78499469658198
 30
0.0
 11
415.49858015850288
 21
598.05400269658162
 31
0.0
  0
LINE
  5
828A
  8
0
 62
     0
 10
415.49858015850288
 20
595.71400269658193
 30
0.0
 11
415.49858015850288
 21
588.0740026965816
 31
0.0
  0
LINE
  5
828B
  8
0
 62
     0
 10
257.49256915850299
 20
471.1340026965816
 30
0.0
 11
257.49256915850299
 21
632.63394469658169
 31
0.0
  0
ARC
  5
828C
  8
0
 62
     0
 10
414.59858715850311
 20
497.57502969658162
 30
0.0
 40
2.2000009999999981
 50
90.000022000001564
 51
179.9999969999958
  0
ARC
  5
828D
  8
0
 62
     0
 10
414.59858715850311
 20
492.97502369658167
 30
0.0
 40
2.1999970000000002
 50
180.00001799999919
 51
270.0
  0
LINE
  5
828E
  8
0
 62
     0
 10
416.99857815850288
 20
495.32447169658172
 30
0.0
 11
415.6985781585031
 21
496.07502669658197
 31
0.0
  0
LINE
  5
828F
  8
0
 62
     0
 10
416.99857815850288
 20
494.32447169658201
 30
0.0
 11
415.6985781585031
 21
495.0750266965818
 31
0.0
  0
LINE
  5
8290
  8
0
 62
     0
 10
415.6985781585031
 20
490.67502669658171
 30
0.0
 11
416.99857815850288
 21
490.67502669658171
 31
0.0
  0
LINE
  5
8291
  8
0
 62
     0
 10
415.6985781585031
 20
499.87502669658198
 30
0.0
 11
416.99857815850288
 21
499.87502669658198
 31
0.0
  0
LINE
  5
8292
  8
0
 62
     0
 10
416.99857815850288
 20
490.67502669658171
 30
0.0
 11
416.99857815850288
 21
499.87502669658198
 31
0.0
  0
LINE
  5
8293
  8
0
 62
     0
 10
412.39857515850298
 20
492.97502369658167
 30
0.0
 11
412.39857515850298
 21
497.57502969658162
 31
0.0
  0
LINE
  5
8294
  8
0
 62
     0
 10
415.6985781585031
 20
490.67502669658171
 30
0.0
 11
415.6985781585031
 21
499.87502669658198
 31
0.0
  0
LINE
  5
8295
  8
0
 62
     0
 10
415.6985781585031
 20
499.77502669658202
 30
0.0
 11
414.59858715850311
 21
499.77502669658202
 31
0.0
  0
LINE
  5
8296
  8
0
 62
     0
 10
415.6985781585031
 20
490.7750266965819
 30
0.0
 11
414.59858715850311
 21
490.7750266965819
 31
0.0
  0
LINE
  5
8AB6
  8
0
  6
AM_ISO08W050
 62
     0
 10
187.5599369297274
 20
1041.4723481779811
 30
0.0
 11
841.61572015850265
 21
1041.4723481779811
 31
0.0
  0
LINE
  5
8AB7
  8
0
  6
CONTINUOUS
 62
     0
 10
742.99854015850292
 20
1071.4723481779811
 30
0.0
 11
748.99848015850284
 21
1071.4723481779811
 31
0.0
  0
LINE
  5
8AB8
  8
0
  6
CONTINUOUS
 62
     0
 10
742.99854015850292
 20
1011.472348177981
 30
0.0
 11
748.99848015850284
 21
1011.472348177981
 31
0.0
  0
LINE
  5
8AB9
  8
0
  6
CONTINUOUS
 62
     0
 10
768.99848015850284
 20
1049.4722881779801
 30
0.0
 11
768.99848015850284
 21
1033.4722881779801
 31
0.0
  0
LINE
  5
8ABA
  8
0
  6
CONTINUOUS
 62
     0
 10
748.99848015850284
 20
1013.972348177981
 30
0.0
 11
830.99848015850273
 21
1013.972348177981
 31
0.0
  0
LINE
  5
8ABB
  8
0
  6
CONTINUOUS
 62
     0
 10
830.99848015850273
 20
1068.9723481779811
 30
0.0
 11
830.99848015850273
 21
1013.972348177981
 31
0.0
  0
LINE
  5
8ABC
  8
0
  6
CONTINUOUS
 62
     0
 10
748.99848015850284
 20
1071.4723481779811
 30
0.0
 11
748.99848015850284
 21
1011.472348177981
 31
0.0
  0
LINE
  5
8ABD
  8
0
  6
CONTINUOUS
 62
     0
 10
748.99848015850284
 20
1068.9723481779811
 30
0.0
 11
830.99848015850273
 21
1068.9723481779811
 31
0.0
  0
LINE
  5
8ABE
  8
0
  6
CONTINUOUS
 62
     0
 10
677.99854015850315
 20
1198.605768177981
 30
0.0
 11
677.99854015850315
 21
1170.0605981779811
 31
0.0
  0
LINE
  5
8ABF
  8
0
  6
CONTINUOUS
 62
     0
 10
595.99854015850315
 20
1174.472288177981
 30
0.0
 11
620.99854015850315
 21
1173.5992981779809
 31
0.0
  0
LINE
  5
8AC0
  8
0
  6
CONTINUOUS
 62
     0
 10
620.99848015850296
 20
1173.5993581779801
 30
0.0
 11
625.14325015850295
 21
1169.4545881779809
 31
0.0
  0
LINE
  5
8AC1
  8
0
  6
CONTINUOUS
 62
     0
 10
625.14325015850295
 20
1169.454528177981
 30
0.0
 11
674.83850015850294
 21
1167.71916817798
 31
0.0
  0
LINE
  5
8AC2
  8
0
  6
CONTINUOUS
 62
     0
 10
689.57971015850285
 20
1158.0678681779809
 30
0.0
 11
703.27777015850256
 21
1157.589538177981
 31
0.0
  0
LINE
  5
8AC3
  8
0
  6
CONTINUOUS
 62
     0
 10
600.99854015850326
 20
1191.5308781779811
 30
0.0
 11
600.99854015850326
 21
1174.2977281779811
 31
0.0
  0
LINE
  5
8AC4
  8
0
  6
CONTINUOUS
 62
     0
 10
718.71936015850281
 20
1141.2026881779809
 30
0.0
 11
730.27771015850283
 21
1140.7990681779811
 31
0.0
  0
LINE
  5
8AC5
  8
0
  6
CENTER
 62
     0
 10
696.54871015850267
 20
1173.9723481779811
 30
0.0
 11
730.81671015850281
 21
1173.9723481779811
 31
0.0
  0
LINE
  5
8AC6
  8
0
  6
CONTINUOUS
 62
     0
 10
595.99854015850315
 20
1174.4723481779811
 30
0.0
 11
595.99854015850315
 21
1046.4723481779811
 31
0.0
  0
LINE
  5
8AC7
  8
0
  6
CONTINUOUS
 62
     0
 10
742.99854015850292
 20
1196.68511817798
 30
0.0
 11
742.99854015850292
 21
1146.2595181779809
 31
0.0
  0
LINE
  5
8AC8
  8
0
  6
CONTINUOUS
 62
     0
 10
739.92871015850255
 20
1101.579458177981
 30
0.0
 11
741.06836015850286
 21
1101.53966817798
 31
0.0
  0
LINE
  5
8AC9
  8
0
  6
CONTINUOUS
 62
     0
 10
512.99854015850303
 20
1198.5708581779811
 30
0.0
 11
512.99854015850303
 21
1156.184568177981
 31
0.0
  0
LINE
  5
8ACA
  8
0
  6
CONTINUOUS
 62
     0
 10
742.99854015850292
 20
1099.54094817798
 30
0.0
 11
742.99854015850292
 21
983.40367817798085
 31
0.0
  0
LINE
  5
8ACB
  8
0
  6
CONTINUOUS
 62
     0
 10
737.99854015850269
 20
1138.8433181779801
 30
0.0
 11
737.99854015850269
 21
944.10131817798083
 31
0.0
  0
LINE
  5
8ACC
  8
0
  6
CONTINUOUS
 62
     0
 10
517.13025015850315
 20
1151.2606181779799
 30
0.0
 11
539.99848015850318
 21
1147.228328177981
 31
0.0
  0
LINE
  5
8ACD
  8
0
  6
CONTINUOUS
 62
     0
 10
600.99854015850326
 20
1206.4723481779811
 30
0.0
 11
738.17304015850254
 21
1201.6820581779809
 31
0.0
  0
LINE
  5
8ACE
  8
0
  6
CONTINUOUS
 62
     0
 10
600.99854015850326
 20
1206.4723481779811
 30
0.0
 11
517.82398015850288
 21
1203.5678081779811
 31
0.0
  0
LINE
  5
8ACF
  8
0
  6
CENTER
 62
     0
 10
527.32135015850304
 20
1173.9723481779811
 30
0.0
 11
560.18103015850306
 21
1173.9723481779811
 31
0.0
  0
LINE
  5
8AD0
  8
0
  6
CENTER
 62
     0
 10
542.99854015850315
 20
1190.0284381779809
 30
0.0
 11
542.99854015850315
 21
1156.2299181779811
 31
0.0
  0
LINE
  5
8AD1
  8
0
  6
CENTER
 62
     0
 10
712.99854015850269
 20
1191.4367581779809
 30
0.0
 11
712.99854015850269
 21
1156.2299181779811
 31
0.0
  0
LINE
  5
8AD2
  8
0
  6
CONTINUOUS
 62
     0
 10
571.99848015850296
 20
1193.299008177981
 30
0.0
 11
598.99860015850288
 21
1183.752558177981
 31
0.0
  0
LINE
  5
8AD3
  8
0
  6
CONTINUOUS
 62
     0
 10
568.53473015850295
 20
1205.1303081779811
 30
0.0
 11
598.99854015850315
 21
1194.359248177981
 31
0.0
  0
LINE
  5
8AD4
  8
0
  6
CENTER
 62
     0
 10
712.99854015850269
 20
891.78984817798084
 30
0.0
 11
712.99854015850269
 21
925.12541817798081
 31
0.0
  0
LINE
  5
8AD5
  8
0
  6
CENTER
 62
     0
 10
542.99854015850315
 20
891.09538817798068
 30
0.0
 11
542.99854015850315
 21
925.472648177981
 31
0.0
  0
LINE
  5
8AD6
  8
0
  6
CENTER
 62
     0
 10
526.96771015850277
 20
908.97228817798077
 30
0.0
 11
560.30322015850288
 21
908.97228817798077
 31
0.0
  0
LINE
  5
8AD7
  8
0
  6
CONTINUOUS
 62
     0
 10
600.99854015850326
 20
876.472288177981
 30
0.0
 11
517.82404015850284
 21
879.37682817798066
 31
0.0
  0
LINE
  5
8AD8
  8
0
  6
CONTINUOUS
 62
     0
 10
600.99848015850296
 20
876.47234817798085
 30
0.0
 11
738.17298015850281
 21
881.26262817798079
 31
0.0
  0
LINE
  5
8AD9
  8
0
  6
CONTINUOUS
 62
     0
 10
517.13025015850315
 20
931.68407817798129
 30
0.0
 11
539.99848015850318
 21
935.71636817798071
 31
0.0
  0
LINE
  5
8ADA
  8
0
  6
CONTINUOUS
 62
     0
 10
512.99854015850303
 20
884.37377817798063
 30
0.0
 11
512.99854015850303
 21
926.76006817798066
 31
0.0
  0
LINE
  5
8ADB
  8
0
  6
CONTINUOUS
 62
     0
 10
739.92871015850255
 20
981.36516817798065
 30
0.0
 11
741.06836015850286
 21
981.40496817798078
 31
0.0
  0
LINE
  5
8ADC
  8
0
  6
CONTINUOUS
 62
     0
 10
742.99854015850292
 20
886.25951817798068
 30
0.0
 11
742.99854015850292
 21
936.68517817798067
 31
0.0
  0
LINE
  5
8ADD
  8
0
  6
CENTER
 62
     0
 10
696.42334015850281
 20
908.97228817798077
 30
0.0
 11
730.45337015850282
 21
908.97228817798077
 31
0.0
  0
LINE
  5
8ADE
  8
0
  6
CONTINUOUS
 62
     0
 10
710.99854015850315
 20
933.35021817798099
 30
0.0
 11
710.99854015850315
 21
1149.594418177981
 31
0.0
  0
LINE
  5
8ADF
  8
0
  6
CONTINUOUS
 62
     0
 10
718.71936015850281
 20
941.7419981779808
 30
0.0
 11
730.27771015850283
 21
942.14562817798105
 31
0.0
  0
LINE
  5
8AE0
  8
0
  6
CONTINUOUS
 62
     0
 10
689.57971015850285
 20
924.87682817798077
 30
0.0
 11
703.27771015850283
 21
925.3551581779808
 31
0.0
  0
LINE
  5
8AE1
  8
0
  6
CONTINUOUS
 62
     0
 10
625.14325015850295
 20
913.4901081779808
 30
0.0
 11
674.83850015850294
 21
915.22545817798095
 31
0.0
  0
LINE
  5
8AE2
  8
0
  6
CONTINUOUS
 62
     0
 10
620.99854015850315
 20
909.34532817798083
 30
0.0
 11
625.14331015850269
 21
913.4901081779808
 31
0.0
  0
LINE
  5
8AE3
  8
0
  6
CONTINUOUS
 62
     0
 10
595.99848015850296
 20
908.47234817798119
 30
0.0
 11
620.99848015850296
 21
909.34532817798083
 31
0.0
  0
LINE
  5
8AE4
  8
0
  6
CONTINUOUS
 62
     0
 10
568.53485015850276
 20
877.81432817798066
 30
0.0
 11
598.99854015850315
 21
888.58538817798069
 31
0.0
  0
LINE
  5
8AE5
  8
0
  6
CONTINUOUS
 62
     0
 10
571.99854015850326
 20
889.64562817798083
 30
0.0
 11
598.99860015850288
 21
899.19200817798082
 31
0.0
  0
LINE
  5
8AE6
  8
0
  6
CONTINUOUS
 62
     0
 10
600.99854015850326
 20
891.41381817798106
 30
0.0
 11
600.99854015850326
 21
908.64696817798153
 31
0.0
  0
LINE
  5
8AE7
  8
0
  6
CONTINUOUS
 62
     0
 10
677.99854015850315
 20
884.33885817798068
 30
0.0
 11
677.99854015850315
 21
912.88402817798101
 31
0.0
  0
LINE
  5
8AE8
  8
0
  6
CONTINUOUS
 62
     0
 10
620.99848015850296
 20
909.34532817798083
 30
0.0
 11
620.99848015850296
 21
1173.5992981779809
 31
0.0
  0
LINE
  5
8AE9
  8
0
  6
CONTINUOUS
 62
     0
 10
768.99854015850292
 20
1033.4722881779801
 30
0.0
 11
830.99848015850273
 21
1033.4722881779801
 31
0.0
  0
LINE
  5
8AEA
  8
0
  6
CONTINUOUS
 62
     0
 10
768.99854015850292
 20
1049.4722881779801
 30
0.0
 11
830.99848015850273
 21
1049.4722881779801
 31
0.0
  0
LINE
  5
8AEB
  8
0
  6
CONTINUOUS
 62
     0
 10
595.99854015850315
 20
908.47228817798066
 30
0.0
 11
570.82404015850273
 21
909.35143817798075
 31
0.0
  0
LINE
  5
8AEC
  8
0
  6
CONTINUOUS
 62
     0
 10
595.99848015850296
 20
1174.4723481779811
 30
0.0
 11
570.82391015850305
 21
1173.5931981779811
 31
0.0
  0
LINE
  5
8AED
  8
0
  6
CONTINUOUS
 62
     0
 10
561.17298015850304
 20
1153.49590817798
 30
0.0
 11
544.82398015850265
 21
1152.9249781779811
 31
0.0
  0
LINE
  5
8AEE
  8
0
  6
CONTINUOUS
 62
     0
 10
561.17298015850304
 20
929.44878817798099
 30
0.0
 11
544.82398015850265
 21
930.01970817798099
 31
0.0
  0
LINE
  5
8AEF
  8
0
  6
CONTINUOUS
 62
     0
 10
539.99848015850318
 20
935.01665817798084
 30
0.0
 11
539.99848015850318
 21
1147.927978177981
 31
0.0
  0
LINE
  5
8AF0
  8
0
  6
CENTER
 62
     0
 10
577.99854015850315
 20
1026.291988177981
 30
0.0
 11
577.99854015850315
 21
1056.0269081779811
 31
0.0
  0
LINE
  5
8AF1
  8
0
  6
CONTINUOUS
 62
     0
 10
557.99854015850303
 20
1036.4723481779811
 30
0.0
 11
597.99854015850315
 21
1036.4723481779811
 31
0.0
  0
LINE
  5
8AF2
  8
0
  6
CONTINUOUS
 62
     0
 10
557.99854015850303
 20
1046.4723481779811
 30
0.0
 11
597.99854015850315
 21
1046.4723481779811
 31
0.0
  0
LINE
  5
8AF3
  8
0
  6
CONTINUOUS
 62
     0
 10
595.99854015850315
 20
1036.4723481779811
 30
0.0
 11
595.99854015850315
 21
908.47228817798066
 31
0.0
  0
LINE
  5
8AF4
  8
0
  6
CONTINUOUS
 62
     0
 10
565.99848015850296
 20
914.34838817798129
 30
0.0
 11
565.99848015850296
 21
1030.9367581779809
 31
0.0
  0
LINE
  5
8AF5
  8
0
  6
CONTINUOUS
 62
     0
 10
565.99848015850296
 20
1052.0079281779811
 30
0.0
 11
565.99848015850296
 21
1168.5962481779809
 31
0.0
  0
LINE
  5
8AF6
  8
0
  6
CONTINUOUS
 62
     0
 10
518.99848015850307
 20
968.46611817798066
 30
0.0
 11
539.99848015850318
 21
968.46611817798066
 31
0.0
  0
LINE
  5
8AF7
  8
0
  6
CONTINUOUS
 62
     0
 10
518.99848015850307
 20
984.69652817798067
 30
0.0
 11
539.99848015850318
 21
984.69652817798067
 31
0.0
  0
LINE
  5
8AF8
  8
0
  6
CONTINUOUS
 62
     0
 10
518.99848015850307
 20
1098.2480981779811
 30
0.0
 11
539.99848015850318
 21
1098.2480981779811
 31
0.0
  0
LINE
  5
8AF9
  8
0
  6
CONTINUOUS
 62
     0
 10
518.99848015850307
 20
1124.6674781779809
 30
0.0
 11
539.99848015850318
 21
1124.6674781779809
 31
0.0
  0
LINE
  5
8AFA
  8
0
  6
CONTINUOUS
 62
     0
 10
518.99848015850307
 20
1124.6674781779809
 30
0.0
 11
518.99848015850307
 21
1098.2480981779811
 31
0.0
  0
LINE
  5
8AFB
  8
0
  6
CONTINUOUS
 62
     0
 10
518.99848015850307
 20
984.69652817798067
 30
0.0
 11
518.99848015850307
 21
958.27715817798071
 31
0.0
  0
LINE
  5
8AFC
  8
0
  6
CONTINUOUS
 62
     0
 10
518.99848015850307
 20
958.27715817798071
 30
0.0
 11
539.99848015850318
 21
958.27715817798071
 31
0.0
  0
LINE
  5
8AFD
  8
0
  6
CONTINUOUS
 62
     0
 10
516.99854015850315
 20
943.97228817798111
 30
0.0
 11
535.17304015850289
 21
943.33763817798081
 31
0.0
  0
LINE
  5
8AFE
  8
0
  6
CONTINUOUS
 62
     0
 10
518.99848015850307
 20
1114.478508177981
 30
0.0
 11
539.99848015850318
 21
1114.478508177981
 31
0.0
  0
LINE
  5
8AFF
  8
0
  6
CONTINUOUS
 62
     0
 10
516.99860015850265
 20
1138.9723481779811
 30
0.0
 11
535.17310015850285
 21
1139.6069881779811
 31
0.0
  0
LINE
  5
8B00
  8
0
  6
CONTINUOUS
 62
     0
 10
516.99860015850265
 20
1138.9723481779811
 30
0.0
 11
516.99860015850265
 21
943.9723481779813
 31
0.0
  0
LINE
  5
8B01
  8
0
  6
CONTINUOUS
 62
     0
 10
426.99854015850281
 20
1080.9470181779809
 30
0.0
 11
438.99854015850292
 21
1080.9470181779809
 31
0.0
  0
LINE
  5
8B02
  8
0
  6
CONTINUOUS
 62
     0
 10
426.99854015850281
 20
1001.997678177981
 30
0.0
 11
438.99854015850292
 21
1001.997678177981
 31
0.0
  0
LINE
  5
8B03
  8
0
  6
CONTINUOUS
 62
     0
 10
426.99854015850281
 20
1103.052368177981
 30
0.0
 11
438.99854015850292
 21
1103.052368177981
 31
0.0
  0
LINE
  5
8B04
  8
0
  6
CONTINUOUS
 62
     0
 10
426.99854015850281
 20
979.89232817798074
 30
0.0
 11
438.99854015850292
 21
979.89232817798074
 31
0.0
  0
LINE
  5
8B05
  8
0
  6
CONTINUOUS
 62
     0
 10
501.99854015850309
 20
958.77715817798105
 30
0.0
 11
516.99854015850315
 21
958.77715817798105
 31
0.0
  0
LINE
  5
8B06
  8
0
  6
CONTINUOUS
 62
     0
 10
501.99854015850309
 20
968.96611817798077
 30
0.0
 11
516.99854015850315
 21
968.96611817798077
 31
0.0
  0
LINE
  5
8B07
  8
0
  6
CONTINUOUS
 62
     0
 10
501.99854015850309
 20
985.19652817798078
 30
0.0
 11
516.99854015850315
 21
985.19652817798078
 31
0.0
  0
LINE
  5
8B08
  8
0
  6
CONTINUOUS
 62
     0
 10
501.99854015850309
 20
1098.7480981779811
 30
0.0
 11
516.99854015850315
 21
1098.7480981779811
 31
0.0
  0
LINE
  5
8B09
  8
0
  6
CONTINUOUS
 62
     0
 10
501.99854015850309
 20
1114.978508177981
 30
0.0
 11
516.99854015850315
 21
1114.978508177981
 31
0.0
  0
LINE
  5
8B0A
  8
0
  6
CONTINUOUS
 62
     0
 10
501.99854015850309
 20
1125.1674781779809
 30
0.0
 11
516.99854015850315
 21
1125.1674781779809
 31
0.0
  0
LINE
  5
8B0B
  8
0
  6
CONTINUOUS
 62
     0
 10
514.99848015850318
 20
942.47234817798085
 30
0.0
 11
516.99848015850284
 21
944.47234817798085
 31
0.0
  0
LINE
  5
8B0C
  8
0
  6
CONTINUOUS
 62
     0
 10
504.99848015850267
 20
1141.472288177981
 30
0.0
 11
514.99848015850318
 21
1141.472288177981
 31
0.0
  0
LINE
  5
8B0D
  8
0
  6
CONTINUOUS
 62
     0
 10
503.99854015850292
 20
942.47234817798085
 30
0.0
 11
514.99848015850318
 21
942.47234817798085
 31
0.0
  0
LINE
  5
8B0E
  8
0
  6
CONTINUOUS
 62
     0
 10
501.99854015850309
 20
944.47234817798085
 30
0.0
 11
501.99854015850309
 21
1138.472288177981
 31
0.0
  0
LINE
  5
8B0F
  8
0
  6
CONTINUOUS
 62
     0
 10
514.99854015850315
 20
1141.4723481779811
 30
0.0
 11
516.99848015850284
 21
1139.4724081779809
 31
0.0
  0
LINE
  5
8B10
  8
0
  6
CONTINUOUS
 62
     0
 10
486.061100158503
 20
1117.0347881779801
 30
0.0
 11
500.5341201585029
 21
1131.5078081779809
 31
0.0
  0
LINE
  5
8B11
  8
0
  6
CONTINUOUS
 62
     0
 10
438.99854015850292
 20
967.97228817798077
 30
0.0
 11
438.99854015850292
 21
1114.9723481779811
 31
0.0
  0
LINE
  5
8B12
  8
0
  6
CONTINUOUS
 62
     0
 10
451.99854015850309
 20
1028.4723481779811
 30
0.0
 11
451.99854015850309
 21
1054.4723481779811
 31
0.0
  0
LINE
  5
8B13
  8
0
  6
CONTINUOUS
 62
     0
 10
456.99854015850298
 20
1023.472348177981
 30
0.0
 11
478.99854015850292
 21
1023.472348177981
 31
0.0
  0
LINE
  5
8B14
  8
0
  6
CONTINUOUS
 62
     0
 10
456.99854015850298
 20
1059.4723481779811
 30
0.0
 11
478.99854015850292
 21
1059.4723481779811
 31
0.0
  0
LINE
  5
8B15
  8
0
  6
CONTINUOUS
 62
     0
 10
484.09277015850279
 20
1116.9661181779809
 30
0.0
 11
426.99854015850281
 21
1114.9723481779811
 31
0.0
  0
LINE
  5
8B16
  8
0
  6
CONTINUOUS
 62
     0
 10
484.09277015850279
 20
965.97850817798064
 30
0.0
 11
426.99854015850281
 21
967.97228817798077
 31
0.0
  0
LINE
  5
8B17
  8
0
  6
CONTINUOUS
 62
     0
 10
486.0611601585025
 20
965.90978817798066
 30
0.0
 11
500.53406015850311
 21
951.43688817798068
 31
0.0
  0
LINE
  5
8B18
  8
0
  6
CONTINUOUS
 62
     0
 10
483.99854015850309
 20
1023.472348177981
 30
0.0
 11
483.99854015850309
 21
1059.4723481779811
 31
0.0
  0
ARC
  5
8B19
  8
0
  6
CONTINUOUS
 62
     0
 10
702.99854015850315
 20
1149.594418177981
 30
0.0
 40
8.0
 50
0.0
 51
87.999999999996447
  0
ARC
  5
8B1A
  8
0
  6
CONTINUOUS
 62
     0
 10
718.99854015850315
 20
1149.197868177981
 30
0.0
 40
8.0
 50
180.00001000000091
 51
267.99999999999648
  0
ARC
  5
8B1B
  8
0
  6
CONTINUOUS
 62
     0
 10
570.99854015850315
 20
1190.470578177981
 30
0.0
 40
3.0
 50
70.527972999995669
 51
180.00001000000091
  0
ARC
  5
8B1C
  8
0
  6
CONTINUOUS
 62
     0
 10
729.99854015850269
 20
1132.8039481779811
 30
0.0
 40
8.0
 50
0.0
 51
87.999999999996447
  0
ARC
  5
8B1D
  8
0
  6
CONTINUOUS
 62
     0
 10
682.99854015850269
 20
1198.605768177981
 30
0.0
 40
5.0
 50
87.999999999996447
 51
180.00001000000091
  0
CIRCLE
  5
8B1E
  8
0
  6
CONTINUOUS
 62
     0
 10
542.99854015850315
 20
1173.9723481779811
 30
0.0
 40
9.5
  0
ARC
  5
8B1F
  8
0
  6
CONTINUOUS
 62
     0
 10
740.99854015850281
 20
1099.54094817798
 30
0.0
 40
2.0
 50
0.0
 51
87.999999999996447
  0
ARC
  5
8B20
  8
0
  6
CONTINUOUS
 62
     0
 10
739.99854015850292
 20
1103.578298177981
 30
0.0
 40
2.0
 50
180.00001000000091
 51
267.99999999999648
  0
ARC
  5
8B21
  8
0
  6
CONTINUOUS
 62
     0
 10
517.99854015850315
 20
1198.5708581779811
 30
0.0
 40
5.0
 50
91.999997999994306
 51
180.00001000000091
  0
ARC
  5
8B22
  8
0
  6
CONTINUOUS
 62
     0
 10
737.99854015850269
 20
1196.68511817798
 30
0.0
 40
5.0
 50
0.0
 51
87.999999999996447
  0
ARC
  5
8B23
  8
0
  6
CONTINUOUS
 62
     0
 10
737.99854015850269
 20
1146.2595181779809
 30
0.0
 40
5.0
 50
292.02431000000541
 51
0.0
  0
ARC
  5
8B24
  8
0
  6
CONTINUOUS
 62
     0
 10
517.99854015850315
 20
1156.184568177981
 30
0.0
 40
5.0
 50
180.00001000000091
 51
259.99998999999769
  0
CIRCLE
  5
8B25
  8
0
  6
CONTINUOUS
 62
     0
 10
712.99854015850269
 20
1173.9723481779811
 30
0.0
 40
9.5
  0
ARC
  5
8B26
  8
0
  6
CONTINUOUS
 62
     0
 10
597.99854015850315
 20
1180.924188177981
 30
0.0
 40
3.0
 50
0.0
 51
70.527972999995669
  0
ARC
  5
8B27
  8
0
  6
CONTINUOUS
 62
     0
 10
597.99854015850315
 20
1191.5308781779811
 30
0.0
 40
3.0
 50
0.0
 51
70.527972999995669
  0
CIRCLE
  5
8B28
  8
0
  6
CONTINUOUS
 62
     0
 10
712.99854015850269
 20
908.97228817798077
 30
0.0
 40
9.5
  0
ARC
  5
8B29
  8
0
  6
CONTINUOUS
 62
     0
 10
517.99854015850315
 20
926.76006817798066
 30
0.0
 40
5.0
 50
100.0000000000061
 51
180.00001000000091
  0
ARC
  5
8B2A
  8
0
  6
CONTINUOUS
 62
     0
 10
737.99854015850269
 20
936.68517817798067
 30
0.0
 40
5.0
 50
0.0
 51
67.975689000004877
  0
ARC
  5
8B2B
  8
0
  6
CONTINUOUS
 62
     0
 10
737.99854015850269
 20
886.25951817798068
 30
0.0
 40
5.0
 50
272.00000000000352
 51
0.0
  0
ARC
  5
8B2C
  8
0
  6
CONTINUOUS
 62
     0
 10
517.99854015850315
 20
884.37377817798063
 30
0.0
 40
5.0
 50
180.00001000000091
 51
267.99999999999648
  0
ARC
  5
8B2D
  8
0
  6
CONTINUOUS
 62
     0
 10
739.99854015850292
 20
979.36632817798079
 30
0.0
 40
2.0
 50
91.999997999994306
 51
180.00001000000091
  0
ARC
  5
8B2E
  8
0
  6
CONTINUOUS
 62
     0
 10
740.99854015850281
 20
983.40367817798085
 30
0.0
 40
2.0
 50
272.00000000000352
 51
0.0
  0
CIRCLE
  5
8B2F
  8
0
  6
CONTINUOUS
 62
     0
 10
542.99854015850315
 20
908.97228817798077
 30
0.0
 40
9.5
  0
ARC
  5
8B30
  8
0
  6
CONTINUOUS
 62
     0
 10
740.99854015850281
 20
1138.8433181779801
 30
0.0
 40
3.0
 50
112.0243100000053
 51
180.00001000000091
  0
ARC
  5
8B31
  8
0
  6
CONTINUOUS
 62
     0
 10
740.99854015850281
 20
944.10131817798083
 30
0.0
 40
3.0
 50
180.00001000000091
 51
247.9756899999947
  0
ARC
  5
8B32
  8
0
  6
CONTINUOUS
 62
     0
 10
729.99854015850269
 20
950.14073817798112
 30
0.0
 40
8.0
 50
272.00000000000352
 51
0.0
  0
ARC
  5
8B33
  8
0
  6
CONTINUOUS
 62
     0
 10
718.99854015850315
 20
933.7468181779808
 30
0.0
 40
8.0
 50
91.999997999994306
 51
180.00001000000091
  0
ARC
  5
8B34
  8
0
  6
CONTINUOUS
 62
     0
 10
702.99854015850315
 20
933.35021817798099
 30
0.0
 40
8.0
 50
272.00000000000352
 51
0.0
  0
ARC
  5
8B35
  8
0
  6
CONTINUOUS
 62
     0
 10
597.99854015850315
 20
891.41381817798106
 30
0.0
 40
3.0
 50
289.47202000000402
 51
0.0
  0
ARC
  5
8B36
  8
0
  6
CONTINUOUS
 62
     0
 10
597.99854015850315
 20
902.02043817798085
 30
0.0
 40
3.0
 50
289.47202000000402
 51
0.0
  0
ARC
  5
8B37
  8
0
  6
CONTINUOUS
 62
     0
 10
682.99854015850269
 20
884.33885817798068
 30
0.0
 40
5.0
 50
180.00001000000091
 51
271.99998999999463
  0
ARC
  5
8B38
  8
0
  6
CONTINUOUS
 62
     0
 10
570.99854015850315
 20
892.47405817798085
 30
0.0
 40
3.0
 50
180.00001000000091
 51
289.47202999999951
  0
ARC
  5
8B39
  8
0
  6
CONTINUOUS
 62
     0
 10
689.99854015850315
 20
1170.0605981779811
 30
0.0
 40
12.0
 50
180.00001000000091
 51
267.99999999999648
  0
ARC
  5
8B3A
  8
0
  6
CONTINUOUS
 62
     0
 10
674.66394015850312
 20
1162.72222817798
 30
0.0
 40
5.0
 50
25.57351699999569
 51
87.999999999996447
  0
ARC
  5
8B3B
  8
0
  6
CONTINUOUS
 62
     0
 10
689.99854015850315
 20
912.88402817798101
 30
0.0
 40
12.0
 50
91.999997999994306
 51
180.00001000000091
  0
ARC
  5
8B3C
  8
0
  6
CONTINUOUS
 62
     0
 10
674.66394015850312
 20
920.22240817798081
 30
0.0
 40
5.0
 50
272.00000000000352
 51
334.4264800000031
  0
ARC
  5
8B3D
  8
0
  6
CONTINUOUS
 62
     0
 10
768.99854015850292
 20
1041.4722881779801
 30
0.0
 40
8.0000113999999982
 50
90.00000299999769
 51
270.0
  0
ARC
  5
8B3E
  8
0
  6
CONTINUOUS
 62
     0
 10
544.99848015850296
 20
935.01665817798084
 30
0.0
 40
5.0
 50
180.00001000000091
 51
267.99999999999648
  0
ARC
  5
8B3F
  8
0
  6
CONTINUOUS
 62
     0
 10
544.99848015850296
 20
1147.927978177981
 30
0.0
 40
5.0
 50
91.999997999994306
 51
180.00001000000091
  0
ARC
  5
8B40
  8
0
  6
CONTINUOUS
 62
     0
 10
577.99854015850315
 20
1041.4723481779811
 30
0.0
 40
15.0
 50
148.2119799999972
 51
160.5287699999993
  0
ARC
  5
8B41
  8
0
  6
CONTINUOUS
 62
     0
 10
577.99854015850315
 20
1041.4723481779811
 30
0.0
 40
12.5
 50
23.578179999997541
 51
156.42182000000241
  0
ARC
  5
8B42
  8
0
  6
CONTINUOUS
 62
     0
 10
557.99854015850303
 20
1041.4723481779811
 30
0.0
 40
5.0
 50
90.00000299999769
 51
270.0
  0
ARC
  5
8B43
  8
0
  6
CONTINUOUS
 62
     0
 10
597.99854015850315
 20
1041.4723481779811
 30
0.0
 40
5.0
 50
270.0
 51
90.00000299999769
  0
ARC
  5
8B44
  8
0
  6
CONTINUOUS
 62
     0
 10
577.99854015850315
 20
1041.4723481779811
 30
0.0
 40
12.5
 50
203.57817999999739
 51
336.42183000000682
  0
ARC
  5
8B45
  8
0
  6
CONTINUOUS
 62
     0
 10
577.99854015850315
 20
1041.4723481779811
 30
0.0
 40
15.0
 50
199.4712300000007
 51
211.7880200000028
  0
ARC
  5
8B46
  8
0
  6
CONTINUOUS
 62
     0
 10
570.99848015850296
 20
914.34838817798129
 30
0.0
 40
5.0
 50
180.00001000000091
 51
267.99999999999648
  0
ARC
  5
8B47
  8
0
  6
CONTINUOUS
 62
     0
 10
570.99848015850296
 20
1168.5962481779809
 30
0.0
 40
5.0
 50
91.999997999994306
 51
180.00001000000091
  0
ARC
  5
8B48
  8
0
  6
CONTINUOUS
 62
     0
 10
560.99848015850307
 20
1030.9367581779809
 30
0.0
 40
5.0
 50
0.0
 51
31.788018000003131
  0
ARC
  5
8B49
  8
0
  6
CONTINUOUS
 62
     0
 10
560.99848015850307
 20
1052.0079281779811
 30
0.0
 40
5.0
 50
328.21197999999731
 51
0.0
  0
ARC
  5
8B4A
  8
0
  6
CONTINUOUS
 62
     0
 10
534.99854015850315
 20
1144.603938177981
 30
0.0
 40
5.0
 50
272.00000000000352
 51
0.0
  0
ARC
  5
8B4B
  8
0
  6
CONTINUOUS
 62
     0
 10
534.99854015850315
 20
938.34069817798081
 30
0.0
 40
5.0
 50
0.0
 51
87.999999999996447
  0
ARC
  5
8B4C
  8
0
  6
CONTINUOUS
 62
     0
 10
560.99848015850307
 20
924.45183817798079
 30
0.0
 40
5.0
 50
0.0
 51
87.999999999996447
  0
ARC
  5
8B4D
  8
0
  6
CONTINUOUS
 62
     0
 10
560.99848015850307
 20
1158.4928581779809
 30
0.0
 40
5.0
 50
272.00000000000352
 51
0.0
  0
ARC
  5
8B4E
  8
0
  6
CONTINUOUS
 62
     0
 10
496.99854015850292
 20
1135.0433881779809
 30
0.0
 40
5.0
 50
314.9999999999954
 51
0.0
  0
ARC
  5
8B4F
  8
0
  6
CONTINUOUS
 62
     0
 10
504.99848015850267
 20
1138.472288177981
 30
0.0
 40
3.0
 50
90.00000299999769
 51
180.00001000000091
  0
ARC
  5
8B50
  8
0
  6
CONTINUOUS
 62
     0
 10
503.99854015850292
 20
944.47234817798085
 30
0.0
 40
2.0
 50
179.999989999999
 51
270.0
  0
ARC
  5
8B51
  8
0
  6
CONTINUOUS
 62
     0
 10
496.99854015850292
 20
947.90123817798099
 30
0.0
 40
5.0
 50
0.0
 51
45.000000999994569
  0
ARC
  5
8B52
  8
0
  6
CONTINUOUS
 62
     0
 10
456.99854015850298
 20
1028.4723481779811
 30
0.0
 40
5.0
 50
180.00001000000091
 51
270.0
  0
ARC
  5
8B53
  8
0
  6
CONTINUOUS
 62
     0
 10
456.99854015850298
 20
1054.4723481779811
 30
0.0
 40
5.0
 50
90.00000299999769
 51
180.00001000000091
  0
ARC
  5
8B54
  8
0
  6
CONTINUOUS
 62
     0
 10
483.91828015850263
 20
960.98155817798067
 30
0.0
 40
5.0
 50
44.999998000001611
 51
87.999999999996447
  0
ARC
  5
8B55
  8
0
  6
CONTINUOUS
 62
     0
 10
483.91828015850263
 20
1121.9630681779811
 30
0.0
 40
5.0
 50
272.00000000000352
 51
314.9999999999954
  0
ARC
  5
8B56
  8
0
  6
CONTINUOUS
 62
     0
 10
478.99854015850292
 20
1018.472348177981
 30
0.0
 40
5.0
 50
0.0
 51
90.00000299999769
  0
ARC
  5
8B57
  8
0
  6
CONTINUOUS
 62
     0
 10
478.99854015850292
 20
1064.4723481779799
 30
0.0
 40
5.0
 50
270.0
 51
0.0
  0
POLYLINE
  5
8B58
  8
0
  6
CONTINUOUS
 62
     0
 66
     1
 10
0.0
 20
0.0
 30
0.0
  0
VERTEX
  5
8B59
  8
0
  6
CONTINUOUS
 62
     0
 10
486.0611601585025
 20
965.90978817798066
 30
0.0
 42
-0.10362759
  0
VERTEX
  5
8B5A
  8
0
  6
CONTINUOUS
 62
     0
 10
446.65280015850288
 20
1012.135478177981
 30
0.0
 42
-0.26090923
  0
VERTEX
  5
8B5B
  8
0
  6
CONTINUOUS
 62
     0
 10
446.65280015850288
 20
1070.8092281779809
 30
0.0
 42
-0.10362793
  0
VERTEX
  5
8B5C
  8
0
  6
CONTINUOUS
 62
     0
 10
486.061100158503
 20
1117.0348481779811
 30
0.0
  0
SEQEND
  5
8B5D
  8
0
 62
     0
  0
ARC
  5
8B5E
  8
0
 62
     0
 10
417.99854015850258
 20
979.43353767798112
 30
0.0
 40
1.0
 50
180.0
 51
270.0
  0
ARC
  5
8B5F
  8
0
 62
     0
 10
417.99854015850258
 20
1103.51115367798
 30
0.0
 40
1.0
 50
90.0
 51
180.0
  0
LINE
  5
8B60
  8
0
 62
     0
 10
336.59854215850282
 20
959.47234567798125
 30
0.0
 11
406.34164215850279
 21
959.47234567798125
 31
0.0
  0
LINE
  5
8B61
  8
0
 62
     0
 10
415.39666015850281
 20
957.567366677981
 30
0.0
 11
413.74866515850277
 21
961.10133067798085
 31
0.0
  0
LINE
  5
8B62
  8
0
 62
     0
 10
413.74866515850277
 20
961.10133067798085
 30
0.0
 11
324.93054615850281
 21
919.68532167798094
 31
0.0
  0
LINE
  5
8B63
  8
0
 62
     0
 10
326.57873915850291
 20
916.15035067798101
 30
0.0
 11
324.93054615850281
 21
919.68532167798094
 31
0.0
  0
LINE
  5
8B64
  8
0
 62
     0
 10
334.1317441585029
 20
916.51635467798064
 30
0.0
 11
333.81034215850281
 21
917.20534667798108
 31
0.0
  0
LINE
  5
8B65
  8
0
 62
     0
 10
410.4236421585025
 20
932.38634767798112
 30
0.0
 11
410.4236421585025
 21
952.76035567798101
 31
0.0
  0
LINE
  5
8B66
  8
0
 62
     0
 10
328.04613415850292
 20
915.62134767798068
 30
0.0
 11
414.87163915850277
 21
956.10835067798075
 31
0.0
  0
LINE
  5
8B67
  8
0
 62
     0
 10
332.99854415850291
 20
923.44735167798115
 30
0.0
 11
332.99854415850291
 21
955.87235467798109
 31
0.0
  0
LINE
  5
8B68
  8
0
  6
AM_ISO08W050
 62
     0
 10
327.82234315850292
 20
939.47234567798114
 30
0.0
 11
336.41264415850293
 21
939.47234567798114
 31
0.0
  0
LINE
  5
8B69
  8
0
 62
     0
 10
330.99854415850291
 20
951.07235167798081
 30
0.0
 11
330.99854415850291
 21
927.87235467798109
 31
0.0
  0
LINE
  5
8B6A
  8
0
 62
     0
 10
330.99854415850291
 20
951.07235167798081
 30
0.0
 11
331.99854415850291
 21
951.07235167798081
 31
0.0
  0
LINE
  5
8B6B
  8
0
 62
     0
 10
330.99854415850291
 20
927.87235467798109
 30
0.0
 11
331.99854415850291
 21
927.87235467798109
 31
0.0
  0
ARC
  5
8B6C
  8
0
 62
     0
 10
336.59854215850282
 20
955.87235467798109
 30
0.0
 40
3.5999979999999989
 50
90.000061000000898
 51
179.99998200000081
  0
ARC
  5
8B6D
  8
0
 62
     0
 10
414.39964015850268
 20
957.10235067798112
 30
0.0
 40
1.100006
 50
294.99982599999862
 51
24.999514000004648
  0
ARC
  5
8B6E
  8
0
 62
     0
 10
327.575643158503
 20
916.61535167798115
 30
0.0
 40
1.0999959999999971
 50
204.99980300000141
 51
295.00019499999559
  0
ARC
  5
8B6F
  8
0
 62
     0
 10
402.82364415850259
 20
932.38634767798112
 30
0.0
 40
7.5999979999999958
 50
288.90001599999869
 51
0.0000179999992061
  0
ARC
  5
8B70
  8
0
 62
     0
 10
337.39444515850289
 20
918.03734867798084
 30
0.0
 40
3.5999979999999989
 50
204.9991569999998
 51
269.0940209999992
  0
ARC
  5
8B71
  8
0
 62
     0
 10
340.50094315850288
 20
1114.413339677981
 30
0.0
 40
200.0
 50
269.09405200000299
 51
288.9000030000019
  0
ARC
  5
8B72
  8
0
 62
     0
 10
332.90404215850288
 20
916.78335067798093
 30
0.0
 40
0.9999979999999998
 50
24.999268000004911
 51
114.9993579999972
  0
ARC
  5
8B73
  8
0
 62
     0
 10
412.42364215850279
 20
952.76035567798101
 30
0.0
 40
2.0
 50
115.00014999999451
 51
179.99998200000081
  0
ARC
  5
8B74
  8
0
 62
     0
 10
406.34164215850279
 20
956.87235467798109
 30
0.0
 40
2.600006
 50
40.686129999995678
 51
90.0
  0
ARC
  5
8B75
  8
0
 62
     0
 10
331.99854415850291
 20
952.07235167798081
 30
0.0
 40
1.0
 50
269.99894299999522
 51
0.0000179999992061
  0
ARC
  5
8B76
  8
0
 62
     0
 10
331.99854415850291
 20
926.87235467798075
 30
0.0
 40
1.0
 50
0.0000179999992061
 51
90.0
  0
LINE
  5
8B77
  8
0
  6
AM_ISO08W050
 62
     0
 10
370.49854015850281
 20
969.5570616779811
 30
0.0
 11
370.49854015850281
 21
955.57023967798068
 31
0.0
  0
LINE
  5
8B78
  8
0
 62
     0
 10
426.99854015850281
 20
967.97234567798114
 30
0.0
 11
426.99854015850281
 21
1114.972350677981
 31
0.0
  0
ARC
  5
8B79
  8
0
 62
     0
 10
265.0174151585029
 20
962.99741567798105
 30
0.0
 40
2.0
 50
60.311696999995213
 51
90.0
  0
LINE
  5
8B7A
  8
0
 62
     0
 10
257.49854015850292
 20
964.99741567798083
 30
0.0
 11
265.0174151585029
 21
964.99741567798083
 31
0.0
  0
ARC
  5
8B7B
  8
0
 62
     0
 10
263.07316715850288
 20
965.70328767798082
 30
0.0
 40
2.0
 50
11.08497000000493
 51
90.0
  0
LINE
  5
8B7C
  8
0
 62
     0
 10
257.49854015850292
 20
967.70328767798105
 30
0.0
 11
263.07316715850288
 21
967.70328767798105
 31
0.0
  0
ARC
  5
8B7D
  8
0
 62
     0
 10
266.99854015850292
 20
966.47234567798091
 30
0.0
 40
2.0
 50
180.0
 51
270.0
  0
ARC
  5
8B7E
  8
0
 62
     0
 10
266.99854015850292
 20
974.97234967798113
 30
0.0
 40
2.0
 50
180.0
 51
270.0
  0
LINE
  5
8B7F
  8
0
 62
     0
 10
264.99854015850292
 20
988.67283267798109
 30
0.0
 11
264.99854015850292
 21
966.47234567798091
 31
0.0
  0
LINE
  5
8B80
  8
0
 62
     0
 10
257.49854015850292
 20
987.28504867798085
 30
0.0
 11
264.99854015850292
 21
987.28504867798085
 31
0.0
  0
LINE
  5
8B81
  8
0
 62
     0
 10
257.49854015850292
 20
975.70835367798111
 30
0.0
 11
264.99854015850292
 21
975.70835367798111
 31
0.0
  0
LINE
  5
8B82
  8
0
 62
     0
 10
257.49854015850292
 20
969.64819067798101
 30
0.0
 11
264.99854015850292
 21
969.64819067798101
 31
0.0
  0
ARC
  5
8B83
  8
0
 62
     0
 10
414.99853815850281
 20
974.97234167798115
 30
0.0
 40
2.0
 50
269.99999799999722
 51
359.99999799999722
  0
LINE
  5
8B84
  8
0
 62
     0
 10
266.99854015850292
 20
990.67283267798109
 30
0.0
 11
414.99853715850281
 21
990.67283267798109
 31
0.0
  0
LINE
  5
8B85
  8
0
 62
     0
 10
266.99854015850292
 20
972.97234967798113
 30
0.0
 11
415.00424115850291
 21
972.97234967798113
 31
0.0
  0
LINE
  5
8B86
  8
0
 62
     0
 10
416.99854015850258
 20
967.97234567798114
 30
0.0
 11
426.99853715850281
 21
967.97234567798114
 31
0.0
  0
LINE
  5
8B87
  8
0
 62
     0
 10
417.99854015850258
 20
978.43353767798112
 30
0.0
 11
426.99853815850281
 21
978.43353767798112
 31
0.0
  0
LINE
  5
8B89
  8
0
 62
     0
 10
264.99854015850292
 20
1116.425133677981
 30
0.0
 11
264.99854015850292
 21
1113.3863296779809
 31
0.0
  0
ARC
  5
8B8A
  8
0
 62
     0
 10
266.99854015850292
 20
1107.9723496779809
 30
0.0
 40
2.0
 50
90.0
 51
180.0
  0
LINE
  5
8B8B
  8
0
 62
     0
 10
257.49854015850292
 20
1095.746946677981
 30
0.0
 11
264.99854015850292
 21
1095.746946677981
 31
0.0
  0
LINE
  5
8B8C
  8
0
 62
     0
 10
257.49854015850292
 20
1107.3129656779811
 30
0.0
 11
264.99854015850292
 21
1107.3129656779811
 31
0.0
  0
LINE
  5
8B8D
  8
0
 62
     0
 10
257.49854015850292
 20
1113.3863296779809
 30
0.0
 11
264.99854015850292
 21
1113.3863296779809
 31
0.0
  0
LINE
  5
8B8E
  8
0
 62
     0
 10
264.99854015850292
 20
1117.950591677981
 30
0.0
 11
264.99854015850292
 21
1117.347315677981
 31
0.0
  0
ARC
  5
8B8F
  8
0
 62
     0
 10
266.99854015850292
 20
1116.425133677981
 30
0.0
 40
2.0
 50
90.0
 51
180.0
  0
LINE
  5
8B90
  8
0
 62
     0
 10
257.49854015850292
 20
1119.3654906779809
 30
0.0
 11
263.47921115850301
 21
1119.3654906779809
 31
0.0
  0
LINE
  5
8B91
  8
0
 62
     0
 10
257.49854015850292
 20
1118.050978677981
 30
0.0
 11
263.149851158503
 21
1118.050978677981
 31
0.0
  0
ARC
  5
8B92
  8
0
 62
     0
 10
263.149851158503
 20
1120.050978677981
 30
0.0
 40
2.0
 50
270.0
 51
344.1903739999978
  0
ARC
  5
8B93
  8
0
 62
     0
 10
266.99854015850292
 20
1118.9612116779811
 30
0.0
 40
2.0
 50
90.0
 51
164.19037399999769
  0
ARC
  5
8B94
  8
0
 62
     0
 10
263.47921115850301
 20
1121.3654906779809
 30
0.0
 40
2.0
 50
270.0
 51
331.62214300000397
  0
ARC
  5
8B95
  8
0
 62
     0
 10
266.99854015850292
 20
1119.4643536779811
 30
0.0
 40
2.0
 50
90.0
 51
151.6221439999978
  0
ARC
  5
8B96
  8
0
 62
     0
 10
414.99854015850281
 20
1107.9723496779809
 30
0.0
 40
2.0
 50
0.0
 51
90.0
  0
ARC
  5
8B97
  8
0
 62
     0
 10
413.8710481585029
 20
1116.425133677981
 30
0.0
 40
2.0
 50
15.00000000000702
 51
90.0
  0
LINE
  5
8B98
  8
0
 62
     0
 10
418.99854015850281
 20
1105.0164796779809
 30
0.0
 11
415.80290015850278
 21
1116.942771677981
 31
0.0
  0
ARC
  5
8B99
  8
0
 62
     0
 10
414.83556415850302
 20
1117.950591677981
 30
0.0
 40
2.0
 50
15.00000000000702
 51
90.0
  0
LINE
  5
8B9A
  8
0
 62
     0
 10
418.99854015850281
 20
1110.141562677981
 30
0.0
 11
416.76741615850273
 21
1118.468230677981
 31
0.0
  0
ARC
  5
8B9B
  8
0
 62
     0
 10
415.38325815850283
 20
1118.9612116779811
 30
0.0
 40
2.0
 50
15.00000000000702
 51
90.0
  0
LINE
  5
8B9C
  8
0
 62
     0
 10
418.99854015850281
 20
1113.196199677981
 30
0.0
 11
417.31510915850288
 21
1119.4788496779811
 31
0.0
  0
ARC
  5
8B9D
  8
0
 62
     0
 10
415.6642921585028
 20
1119.4643536779811
 30
0.0
 40
2.0
 50
15.00000000000702
 51
90.0
  0
LINE
  5
8B9E
  8
0
 62
     0
 10
418.99854015850281
 20
1114.7481776779809
 30
0.0
 11
417.59614415850291
 21
1119.981992677981
 31
0.0
  0
ARC
  5
8B9F
  8
0
 62
     0
 10
262.99854015850292
 20
1117.347315677981
 30
0.0
 40
2.0
 50
270.0
 51
0.0
  0
ARC
  5
8BA0
  8
0
 62
     0
 10
266.99854015850292
 20
1117.950591677981
 30
0.0
 40
2.0
 50
90.0
 51
180.0
  0
LINE
  5
8BA1
  8
0
 62
     0
 10
257.49854015850292
 20
1115.347315677981
 30
0.0
 11
262.99854015850292
 21
1115.347315677981
 31
0.0
  0
LINE
  5
8BA2
  8
0
 62
     0
 10
264.99854015850292
 20
1113.3863296779809
 30
0.0
 11
264.99854015850292
 21
1094.3436856779811
 31
0.0
  0
LINE
  5
8BA4
  8
0
 62
     0
 10
417.99854015850258
 20
1104.5111536779809
 30
0.0
 11
426.99854015850281
 21
1104.5111536779809
 31
0.0
  0
LINE
  5
8BA5
  8
0
 62
     0
 10
266.99854015850292
 20
1092.3436856779811
 30
0.0
 11
414.99854015850281
 21
1092.3436856779811
 31
0.0
  0
LINE
  5
8BA6
  8
0
 62
     0
 10
266.99854015850292
 20
1121.4643536779811
 30
0.0
 11
415.6642921585028
 21
1121.4643536779811
 31
0.0
  0
LINE
  5
8BA7
  8
0
 62
     0
 10
266.99854015850292
 20
1109.9723496779809
 30
0.0
 11
414.99854015850281
 21
1109.9723496779809
 31
0.0
  0
LINE
  5
8BA8
  8
0
 62
     0
 10
266.99854015850292
 20
1118.425133677981
 30
0.0
 11
413.8710481585029
 21
1118.425133677981
 31
0.0
  0
LINE
  5
8BA9
  8
0
 62
     0
 10
266.99854015850292
 20
1119.950591677981
 30
0.0
 11
414.83556415850302
 21
1119.950591677981
 31
0.0
  0
LINE
  5
8BAA
  8
0
 62
     0
 10
266.99854015850292
 20
1120.9612116779811
 30
0.0
 11
415.38325815850283
 21
1120.9612116779811
 31
0.0
  0
LINE
  5
8BAB
  8
0
 62
     0
 10
336.99854015850292
 20
962.47234567798114
 30
0.0
 11
336.99854015850292
 21
959.47234567798125
 31
0.0
  0
LINE
  5
8BAC
  8
0
 62
     0
 10
403.99854015850281
 20
962.47234567798114
 30
0.0
 11
403.99854015850281
 21
959.47234567798125
 31
0.0
  0
LINE
  5
8BAD
  8
0
 62
     0
 10
201.49854015850289
 20
980.67937567798106
 30
0.0
 11
201.49854015850289
 21
1103.587305677981
 31
0.0
  0
LINE
  5
8BAE
  8
0
 62
     0
 10
197.49891015850289
 20
978.87236567798129
 30
0.0
 11
197.49891015850289
 21
1104.072285677981
 31
0.0
  0
LINE
  5
8BAF
  8
0
 62
     0
 10
201.89850015850291
 20
1108.739345677981
 30
0.0
 11
203.02149015850301
 21
1115.1103156779809
 31
0.0
  0
LINE
  5
8BB0
  8
0
 62
     0
 10
208.3836101585029
 20
1119.8542756779809
 30
0.0
 11
234.025580158503
 21
1121.198265677981
 31
0.0
  0
LINE
  5
8BB1
  8
0
 62
     0
 10
234.49854015850289
 20
962.41704567798115
 30
0.0
 11
234.49854015850289
 21
1120.358915677981
 31
0.0
  0
LINE
  5
8BB2
  8
0
 62
     0
 10
205.3604801585029
 20
1113.4992956779811
 30
0.0
 11
205.3604801585029
 21
969.95232567798075
 31
0.0
  0
LINE
  5
8BB3
  8
0
 62
     0
 10
201.89850015850291
 20
974.20534567798074
 30
0.0
 11
203.02149015850301
 21
967.83528567798112
 31
0.0
  0
LINE
  5
8BB4
  8
0
 62
     0
 10
208.38355015850291
 20
963.09133567798085
 30
0.0
 11
234.025580158503
 21
961.74733567798069
 31
0.0
  0
LINE
  5
8BB5
  8
0
 62
     0
 10
235.59156015850289
 20
1122.222315677981
 30
0.0
 11
257.49854015850292
 21
1122.222315677981
 31
0.0
  0
LINE
  5
8BB6
  8
0
 62
     0
 10
235.59156015850289
 20
960.72234567798114
 30
0.0
 11
257.49854015850292
 21
960.72234567798114
 31
0.0
  0
LINE
  5
8BB7
  8
0
 62
     0
 10
403.99854015850281
 20
964.47234567798114
 30
0.0
 11
403.99854015850281
 21
962.47234567798114
 31
0.0
  0
LINE
  5
8BB8
  8
0
 62
     0
 10
336.99854015850292
 20
964.47234567798114
 30
0.0
 11
336.99854015850292
 21
962.47234567798114
 31
0.0
  0
LINE
  5
8BB9
  8
0
 62
     0
 10
336.99854015850292
 20
962.47234567798114
 30
0.0
 11
403.99854015850281
 21
962.47234567798114
 31
0.0
  0
LINE
  5
8BBA
  8
0
 62
     0
 10
266.99854015850292
 20
964.47234567798114
 30
0.0
 11
413.77906015850277
 21
964.47234567798114
 31
0.0
  0
LINE
  5
8BBB
  8
0
 62
     0
 10
380.49854015850281
 20
1067.4723456779809
 30
0.0
 11
257.49854015850292
 21
1067.4723456779809
 31
0.0
  0
LINE
  5
8BBC
  8
0
 62
     0
 10
380.49854015850281
 20
1015.472345677981
 30
0.0
 11
257.49854015850292
 21
1015.472345677981
 31
0.0
  0
LINE
  5
8BBD
  8
0
 62
     0
 10
396.49854015850292
 20
1068.4723456779809
 30
0.0
 11
396.49854015850292
 21
1074.4723456779809
 31
0.0
  0
LINE
  5
8BBE
  8
0
 62
     0
 10
381.49854015850292
 20
1068.4723456779809
 30
0.0
 11
381.49854015850292
 21
1074.4723456779809
 31
0.0
  0
LINE
  5
8BBF
  8
0
 62
     0
 10
396.49854015850292
 20
1014.472345677981
 30
0.0
 11
396.49854015850292
 21
1008.472345677981
 31
0.0
  0
LINE
  5
8BC0
  8
0
 62
     0
 10
381.49854015850292
 20
1014.472345677981
 30
0.0
 11
381.49854015850292
 21
1008.472345677981
 31
0.0
  0
LINE
  5
8BC1
  8
0
 62
     0
 10
352.99854015850292
 20
1061.9723456779809
 30
0.0
 11
352.99854015850292
 21
1020.972345677981
 31
0.0
  0
LINE
  5
8BC2
  8
0
 62
     0
 10
415.99854015850292
 20
1061.9723456779809
 30
0.0
 11
415.99854015850292
 21
1020.972345677981
 31
0.0
  0
LINE
  5
8BC3
  8
0
 62
     0
 10
352.99854015850292
 20
1061.9723456779809
 30
0.0
 11
415.99854015850292
 21
1061.9723456779809
 31
0.0
  0
LINE
  5
8BC4
  8
0
 62
     0
 10
352.99854015850292
 20
1020.972345677981
 30
0.0
 11
415.99854015850292
 21
1020.972345677981
 31
0.0
  0
LINE
  5
8BC5
  8
0
 62
     0
 10
352.99854015850292
 20
1054.4723456779809
 30
0.0
 11
415.99854015850292
 21
1054.4723456779809
 31
0.0
  0
LINE
  5
8BC6
  8
0
 62
     0
 10
264.99854015850292
 20
1044.4723456779809
 30
0.0
 11
264.99854015850292
 21
1038.4723456779809
 31
0.0
  0
LINE
  5
8BC7
  8
0
 62
     0
 10
415.71064015850283
 20
965.95363567798086
 30
0.0
 11
416.69855015850288
 21
969.63231567798084
 31
0.0
  0
LINE
  5
8BC8
  8
0
 62
     0
 10
415.12256015850289
 20
965.95363567798086
 30
0.0
 11
416.69855015850288
 21
971.8223556779808
 31
0.0
  0
LINE
  5
8BC9
  8
0
 62
     0
 10
416.99854015850258
 20
1004.514125677981
 30
0.0
 11
416.99854015850258
 21
967.97234567798114
 31
0.0
  0
LINE
  5
8BCA
  8
0
 62
     0
 10
415.99854015850292
 20
1017.472345677981
 30
0.0
 11
257.49854015850292
 21
1017.472345677981
 31
0.0
  0
LINE
  5
8BCB
  8
0
 62
     0
 10
415.99854015850292
 20
1015.472345677981
 30
0.0
 11
397.49854015850281
 21
1015.472345677981
 31
0.0
  0
LINE
  5
8BCC
  8
0
 62
     0
 10
348.99854015850292
 20
1025.4723456779809
 30
0.0
 11
257.49854015850292
 21
1025.4723456779809
 31
0.0
  0
LINE
  5
8BCD
  8
0
 62
     0
 10
348.99854015850292
 20
1027.4723456779809
 30
0.0
 11
257.49854015850292
 21
1027.4723456779809
 31
0.0
  0
LINE
  5
8BCE
  8
0
 62
     0
 10
348.99854015850292
 20
1035.4723456779809
 30
0.0
 11
257.49854015850292
 21
1035.4723456779809
 31
0.0
  0
LINE
  5
8BCF
  8
0
 62
     0
 10
348.99854015850292
 20
1037.4723456779809
 30
0.0
 11
265.99854015850292
 21
1037.4723456779809
 31
0.0
  0
LINE
  5
8BD0
  8
0
 62
     0
 10
415.99854015850292
 20
995.47234567798114
 30
0.0
 11
257.49854015850292
 21
995.47234567798114
 31
0.0
  0
LINE
  5
8BD1
  8
0
 62
     0
 10
415.99854015850292
 20
1007.472345677981
 30
0.0
 11
257.49854015850292
 21
1007.472345677981
 31
0.0
  0
LINE
  5
8BD2
  8
0
 62
     0
 10
415.99854015850292
 20
1005.472345677981
 30
0.0
 11
257.49854015850292
 21
1005.472345677981
 31
0.0
  0
LINE
  5
8BD3
  8
0
 62
     0
 10
415.99854015850292
 20
997.47234567798114
 30
0.0
 11
257.49854015850292
 21
997.47234567798114
 31
0.0
  0
LINE
  5
8BD4
  8
0
 62
     0
 10
415.99854015850292
 20
1085.4723456779809
 30
0.0
 11
257.49854015850292
 21
1085.4723456779809
 31
0.0
  0
LINE
  5
8BD5
  8
0
 62
     0
 10
415.99854015850292
 20
1077.4723456779809
 30
0.0
 11
257.49854015850292
 21
1077.4723456779809
 31
0.0
  0
LINE
  5
8BD6
  8
0
 62
     0
 10
415.99854015850292
 20
1075.4723456779809
 30
0.0
 11
257.49854015850292
 21
1075.4723456779809
 31
0.0
  0
LINE
  5
8BD7
  8
0
 62
     0
 10
415.99854015850292
 20
1087.4723456779809
 30
0.0
 11
257.49854015850292
 21
1087.4723456779809
 31
0.0
  0
LINE
  5
8BD8
  8
0
 62
     0
 10
348.99854015850292
 20
1045.4723456779809
 30
0.0
 11
265.99854015850292
 21
1045.4723456779809
 31
0.0
  0
LINE
  5
8BD9
  8
0
 62
     0
 10
348.99854015850292
 20
1047.4723456779809
 30
0.0
 11
257.49854015850292
 21
1047.4723456779809
 31
0.0
  0
LINE
  5
8BDA
  8
0
 62
     0
 10
348.99854015850292
 20
1055.4723456779809
 30
0.0
 11
257.49854015850292
 21
1055.4723456779809
 31
0.0
  0
LINE
  5
8BDB
  8
0
 62
     0
 10
348.99854015850292
 20
1057.4723456779809
 30
0.0
 11
257.49854015850292
 21
1057.4723456779809
 31
0.0
  0
LINE
  5
8BDC
  8
0
 62
     0
 10
415.99854015850292
 20
1067.4723456779809
 30
0.0
 11
397.49854015850281
 21
1067.4723456779809
 31
0.0
  0
LINE
  5
8BDD
  8
0
 62
     0
 10
415.99854015850292
 20
1065.4723456779809
 30
0.0
 11
257.49854015850292
 21
1065.4723456779809
 31
0.0
  0
LINE
  5
8BDE
  8
0
 62
     0
 10
416.99854015850258
 20
1078.4305656779809
 30
0.0
 11
416.99854015850258
 21
1107.9723496779809
 31
0.0
  0
LINE
  5
8BDF
  8
0
 62
     0
 10
257.49854015850292
 20
1122.222315677981
 30
0.0
 11
257.49854015850292
 21
960.72234567798114
 31
0.0
  0
ARC
  5
8BE0
  8
0
 62
     0
 10
233.99854015850289
 20
1121.697285677981
 30
0.0
 40
0.5
 50
272.99997000000388
 51
335.5439499999946
  0
ARC
  5
8BE1
  8
0
 62
     0
 10
208.68445015850281
 20
1114.1123256779811
 30
0.0
 40
5.75
 50
92.999986000002295
 51
169.9999800000015
  0
ARC
  5
8BE2
  8
0
 62
     0
 10
235.59156015850289
 20
1120.972315677981
 30
0.0
 40
1.25
 50
89.999988999997541
 51
155.54397999999961
  0
ARC
  5
8BE3
  8
0
 62
     0
 10
199.74891015850289
 20
1104.072285677981
 30
0.0
 40
2.25
 50
98.816587999996798
 51
179.99997999999781
  0
ARC
  5
8BE4
  8
0
 62
     0
 10
198.94422015850279
 20
1109.260395677981
 30
0.0
 40
3.0
 50
278.81696999999838
 51
349.99994999999677
  0
ARC
  5
8BE5
  8
0
 62
     0
 10
199.74891015850289
 20
978.87236567798129
 30
0.0
 40
2.25
 50
179.99997999999781
 51
261.1829399999977
  0
ARC
  5
8BE6
  8
0
 62
     0
 10
198.94422015850279
 20
973.68438567798103
 30
0.0
 40
3.0
 50
9.9998319999903433
 51
81.183191000000207
  0
ARC
  5
8BE7
  8
0
 62
     0
 10
233.99854015850289
 20
961.24834567798109
 30
0.0
 40
0.5
 50
24.45639900000074
 51
86.999985000000038
  0
ARC
  5
8BE8
  8
0
 62
     0
 10
208.68445015850281
 20
968.83330567798112
 30
0.0
 40
5.75
 50
189.99997999999979
 51
266.9999499999966
  0
ARC
  5
8BE9
  8
0
 62
     0
 10
235.59156015850289
 20
961.97234567798068
 30
0.0
 40
1.25
 50
204.45597000000731
 51
269.99995999999589
  0
ARC
  5
8BEA
  8
0
 62
     0
 10
413.77906015850277
 20
966.47234567798091
 30
0.0
 40
2.0
 50
269.999989999999
 51
344.96830999999543
  0
ARC
  5
8BEB
  8
0
 62
     0
 10
413.19098015850273
 20
966.47234567798091
 30
0.0
 40
2.0
 50
269.999989999999
 51
344.96830999999543
  0
ARC
  5
8BEC
  8
0
 62
     0
 10
397.49854015850281
 20
1008.472345677981
 30
0.0
 40
1.0
 50
179.999989999999
 51
270.0
  0
ARC
  5
8BED
  8
0
 62
     0
 10
380.49854015850281
 20
1008.472345677981
 30
0.0
 40
1.0
 50
269.999989999999
 51
0.0000009999948896
  0
ARC
  5
8BEE
  8
0
 62
     0
 10
380.49854015850281
 20
1074.4723456779809
 30
0.0
 40
1.0
 50
0.0
 51
90.00000299999769
  0
ARC
  5
8BEF
  8
0
 62
     0
 10
397.49854015850281
 20
1074.4723456779809
 30
0.0
 40
1.0
 50
90.00000299999769
 51
180.00001000000091
  0
ARC
  5
8BF0
  8
0
 62
     0
 10
397.49854015850281
 20
1014.472345677981
 30
0.0
 40
1.0
 50
90.00000299999769
 51
180.00001000000091
  0
ARC
  5
8BF1
  8
0
 62
     0
 10
380.49854015850281
 20
1014.472345677981
 30
0.0
 40
1.0
 50
0.0
 51
90.00000299999769
  0
ARC
  5
8BF2
  8
0
 62
     0
 10
397.49854015850281
 20
1068.4723456779809
 30
0.0
 40
1.0
 50
179.999989999999
 51
270.0
  0
ARC
  5
8BF3
  8
0
 62
     0
 10
380.49854015850281
 20
1068.4723456779809
 30
0.0
 40
1.0
 50
269.999989999999
 51
0.0000009999948896
  0
CIRCLE
  5
8BF4
  8
0
 62
     0
 10
391.49854015850281
 20
1069.9723456779809
 30
0.0
 40
1.0
  0
CIRCLE
  5
8BF5
  8
0
 62
     0
 10
386.49854015850292
 20
1069.9723456779809
 30
0.0
 40
1.149999999999999
  0
CIRCLE
  5
8BF6
  8
0
 62
     0
 10
386.49854015850292
 20
1069.9723456779809
 30
0.0
 40
1.1000000000000001
  0
CIRCLE
  5
8BF7
  8
0
 62
     0
 10
386.49854015850292
 20
1012.972345677981
 30
0.0
 40
1.1000000000000001
  0
CIRCLE
  5
8BF8
  8
0
 62
     0
 10
386.49854015850292
 20
1012.972345677981
 30
0.0
 40
1.149999999999999
  0
CIRCLE
  5
8BF9
  8
0
 62
     0
 10
391.49854015850281
 20
1012.972345677981
 30
0.0
 40
1.0
  0
ARC
  5
8BFA
  8
0
 62
     0
 10
348.99854015850292
 20
1056.4723456779809
 30
0.0
 40
1.0
 50
269.999989999999
 51
90.00000299999769
  0
ARC
  5
8BFB
  8
0
 62
     0
 10
348.99854015850292
 20
1046.4723456779809
 30
0.0
 40
1.0
 50
269.999989999999
 51
90.00000299999769
  0
ARC
  5
8BFC
  8
0
 62
     0
 10
348.99854015850292
 20
1036.4723456779809
 30
0.0
 40
1.0
 50
269.999989999999
 51
90.00000299999769
  0
ARC
  5
8BFD
  8
0
 62
     0
 10
348.99854015850292
 20
1026.4723456779809
 30
0.0
 40
1.0
 50
269.999989999999
 51
90.00000299999769
  0
ARC
  5
8BFE
  8
0
 62
     0
 10
414.04853015850279
 20
1006.472345677981
 30
0.0
 40
1.0
 50
269.999989999999
 51
90.00000299999769
  0
ARC
  5
8BFF
  8
0
 62
     0
 10
415.99854015850292
 20
1006.472345677981
 30
0.0
 40
1.0
 50
269.999989999999
 51
90.00000299999769
  0
ARC
  5
8C00
  8
0
 62
     0
 10
414.04853015850279
 20
1016.472345677981
 30
0.0
 40
1.0
 50
269.999989999999
 51
90.00000299999769
  0
ARC
  5
8C01
  8
0
 62
     0
 10
415.99854015850292
 20
1016.472345677981
 30
0.0
 40
1.0
 50
269.999989999999
 51
90.00000299999769
  0
ARC
  5
8C02
  8
0
 62
     0
 10
414.04853015850279
 20
1066.4723456779809
 30
0.0
 40
1.0
 50
269.999989999999
 51
90.00000299999769
  0
ARC
  5
8C03
  8
0
 62
     0
 10
415.99854015850292
 20
1066.4723456779809
 30
0.0
 40
1.0
 50
269.999989999999
 51
90.00000299999769
  0
ARC
  5
8C04
  8
0
 62
     0
 10
414.04853015850279
 20
1076.4723456779809
 30
0.0
 40
1.0
 50
269.999989999999
 51
90.00000299999769
  0
ARC
  5
8C05
  8
0
 62
     0
 10
415.99854015850292
 20
1076.4723456779809
 30
0.0
 40
1.0
 50
269.999989999999
 51
90.00000299999769
  0
ARC
  5
8C06
  8
0
 62
     0
 10
265.99854015850292
 20
1044.4723456779809
 30
0.0
 40
1.0
 50
90.00000299999769
 51
180.00001000000091
  0
ARC
  5
8C07
  8
0
 62
     0
 10
265.99854015850292
 20
1038.4723456779809
 30
0.0
 40
1.0
 50
179.999989999999
 51
270.0
  0
ARC
  5
8C08
  8
0
 62
     0
 10
265.99851015850288
 20
1026.4723456779809
 30
0.0
 40
1.0
 50
90.00000299999769
 51
270.0
  0
ARC
  5
8C09
  8
0
 62
     0
 10
265.99851015850288
 20
1016.472345677981
 30
0.0
 40
1.0
 50
90.00000299999769
 51
270.0
  0
ARC
  5
8C0A
  8
0
 62
     0
 10
414.04853015850279
 20
996.47234567798114
 30
0.0
 40
1.0
 50
269.999989999999
 51
90.00000299999769
  0
ARC
  5
8C0B
  8
0
 62
     0
 10
415.99854015850292
 20
996.47234567798114
 30
0.0
 40
1.0
 50
269.999989999999
 51
90.00000299999769
  0
ARC
  5
8C0C
  8
0
 62
     0
 10
265.99851015850288
 20
996.47234567798114
 30
0.0
 40
1.0
 50
90.00000299999769
 51
270.0
  0
ARC
  5
8C0D
  8
0
 62
     0
 10
265.99851015850288
 20
1006.472345677981
 30
0.0
 40
1.0
 50
90.00000299999769
 51
270.0
  0
ARC
  5
8C0E
  8
0
 62
     0
 10
418.1446001585029
 20
969.2519456779811
 30
0.0
 40
1.4952499999999991
 50
140.0376499999945
 51
165.2626000000021
  0
ARC
  5
8C0F
  8
0
 62
     0
 10
418.13953015850302
 20
971.42784567798083
 30
0.0
 40
1.494020999999998
 50
139.79258000000121
 51
164.69034000000019
  0
ARC
  5
8C10
  8
0
 62
     0
 10
418.14270015850281
 20
1115.239405677981
 30
0.0
 40
1.495147999999999
 50
195.00188999999
 51
195.00621300001109
  0
ARC
  5
8C11
  8
0
 62
     0
 10
265.99851015850288
 20
1076.4723456779809
 30
0.0
 40
1.0
 50
90.00000299999769
 51
270.0
  0
ARC
  5
8C12
  8
0
 62
     0
 10
265.99851015850288
 20
1086.4723456779809
 30
0.0
 40
1.0
 50
90.00000299999769
 51
270.0
  0
ARC
  5
8C13
  8
0
 62
     0
 10
415.99854015850292
 20
1086.4723456779809
 30
0.0
 40
1.0
 50
269.999989999999
 51
90.00000299999769
  0
ARC
  5
8C14
  8
0
 62
     0
 10
414.04853015850279
 20
1086.4723456779809
 30
0.0
 40
1.0
 50
269.999989999999
 51
90.00000299999769
  0
ARC
  5
8C15
  8
0
 62
     0
 10
265.99851015850288
 20
1066.4723456779809
 30
0.0
 40
1.0
 50
90.00000299999769
 51
270.0
  0
ARC
  5
8C16
  8
0
 62
     0
 10
265.99851015850288
 20
1056.4723456779809
 30
0.0
 40
1.0
 50
90.00000299999769
 51
270.0
  0
LINE
  5
8C17
  8
0
 62
     0
 10
426.9985461585029
 20
1114.972350677981
 30
0.0
 11
418.93847315850257
 21
1114.972350677981
 31
0.0
  0
LINE
  5
8C18
  8
0
 62
     0
 10
417.99854015850258
 20
1004.514125677981
 30
0.0
 11
426.99854015850281
 21
1004.514125677981
 31
0.0
  0
LINE
  5
8C19
  8
0
 62
     0
 10
417.99854015850258
 20
1078.4305656779809
 30
0.0
 11
426.99854015850281
 21
1078.4305656779809
 31
0.0
  0
ARC
  5
8C1A
  8
0
  6
CONTINUOUS
 62
     0
 10
414.59854715850298
 20
987.16337267798099
 30
0.0
 40
2.2000009999999981
 50
90.000022000001564
 51
179.99999700000231
  0
ARC
  5
8C1B
  8
0
  6
CONTINUOUS
 62
     0
 10
414.59854715850298
 20
982.56336667798109
 30
0.0
 40
2.1999970000000002
 50
180.00001799999919
 51
270.0
  0
LINE
  5
8C1C
  8
0
  6
CONTINUOUS
 62
     0
 10
416.99853815850281
 20
984.91281467798115
 30
0.0
 11
415.69853815850291
 21
985.66336967798111
 31
0.0
  0
LINE
  5
8C1D
  8
0
  6
CONTINUOUS
 62
     0
 10
416.99853815850281
 20
983.91281467798115
 30
0.0
 11
415.69853815850291
 21
984.66336967798111
 31
0.0
  0
LINE
  5
8C1E
  8
0
  6
CONTINUOUS
 62
     0
 10
415.69853815850291
 20
980.26336967798068
 30
0.0
 11
416.99853815850281
 21
980.26336967798068
 31
0.0
  0
LINE
  5
8C1F
  8
0
  6
CONTINUOUS
 62
     0
 10
415.69853815850291
 20
989.46336967798129
 30
0.0
 11
416.99853815850281
 21
989.46336967798129
 31
0.0
  0
LINE
  5
8C20
  8
0
  6
CONTINUOUS
 62
     0
 10
416.99853815850281
 20
980.26336967798068
 30
0.0
 11
416.99853815850281
 21
989.46336967798129
 31
0.0
  0
LINE
  5
8C21
  8
0
  6
CONTINUOUS
 62
     0
 10
412.39853515850268
 20
982.56336667798109
 30
0.0
 11
412.39853515850268
 21
987.16337267798099
 31
0.0
  0
LINE
  5
8C22
  8
0
  6
CONTINUOUS
 62
     0
 10
415.69853815850291
 20
980.26336967798068
 30
0.0
 11
415.69853815850291
 21
989.46336967798129
 31
0.0
  0
LINE
  5
8C23
  8
0
  6
CONTINUOUS
 62
     0
 10
415.69853815850291
 20
989.36336967798115
 30
0.0
 11
414.59854715850298
 21
989.36336967798115
 31
0.0
  0
LINE
  5
8C24
  8
0
  6
CONTINUOUS
 62
     0
 10
415.69853815850291
 20
980.36336967798115
 30
0.0
 11
414.59854715850298
 21
980.36336967798115
 31
0.0
  0
ARC
  5
8C2B
  8
0
  6
CONTINUOUS
 62
     0
 10
414.59854915850281
 20
1095.7813196779809
 30
0.0
 40
2.2000009999999981
 50
180.00000299999761
 51
269.99997799999852
  0
ARC
  5
8C2C
  8
0
  6
CONTINUOUS
 62
     0
 10
414.59854915850281
 20
1100.3813256779811
 30
0.0
 40
2.1999970000000002
 50
90.0
 51
179.99998200000081
  0
LINE
  5
8C2D
  8
0
  6
CONTINUOUS
 62
     0
 10
416.99854015850258
 20
1098.0318776779809
 30
0.0
 11
415.69854015850279
 21
1097.2813226779811
 31
0.0
  0
LINE
  5
8C2E
  8
0
  6
CONTINUOUS
 62
     0
 10
416.99854015850258
 20
1099.0318776779809
 30
0.0
 11
415.69854015850279
 21
1098.2813226779811
 31
0.0
  0
LINE
  5
8C2F
  8
0
  6
CONTINUOUS
 62
     0
 10
415.69854015850279
 20
1102.6813226779809
 30
0.0
 11
416.99854015850258
 21
1102.6813226779809
 31
0.0
  0
LINE
  5
8C30
  8
0
  6
CONTINUOUS
 62
     0
 10
415.69854015850279
 20
1093.4813226779811
 30
0.0
 11
416.99854015850258
 21
1093.4813226779811
 31
0.0
  0
LINE
  5
8C31
  8
0
  6
CONTINUOUS
 62
     0
 10
416.99854015850258
 20
1102.6813226779809
 30
0.0
 11
416.99854015850258
 21
1093.4813226779811
 31
0.0
  0
LINE
  5
8C32
  8
0
  6
CONTINUOUS
 62
     0
 10
412.39853715850262
 20
1100.3813256779811
 30
0.0
 11
412.39853715850262
 21
1095.7813196779809
 31
0.0
  0
LINE
  5
8C33
  8
0
  6
CONTINUOUS
 62
     0
 10
415.69854015850279
 20
1102.6813226779809
 30
0.0
 11
415.69854015850279
 21
1093.4813226779811
 31
0.0
  0
LINE
  5
8C34
  8
0
  6
CONTINUOUS
 62
     0
 10
415.69854015850279
 20
1093.581322677981
 30
0.0
 11
414.59854915850281
 21
1093.581322677981
 31
0.0
  0
LINE
  5
8C35
  8
0
  6
CONTINUOUS
 62
     0
 10
415.69854015850279
 20
1102.581322677981
 30
0.0
 11
414.59854915850281
 21
1102.581322677981
 31
0.0
  0
TEXT
  5
9061
  8
0
  6
CONTINUOUS
 62
     0
 10
956.70728609384253
 20
1040.3679959715209
 30
0.0
 40
15.0
  1
VX08-240EM~VX08-500EM
  0
ENDSEC
  0
EOF
