  0
SECTION
  2
HEADER
  9
$ACADVER
  1
AC1009
  9
$INSBASE
 10
0.0
 20
0.0
 30
0.0
  9
$EXTMIN
 10
80.237456592966268
 20
292.89469228059352
 30
-0.0000000000000053
  9
$EXTMAX
 10
949.85171409302438
 20
836.02353715852155
 30
0.0000000000000099
  9
$LIMMIN
 10
0.0481838304701796
 20
0.0541068901682138
  9
$LIMMAX
 10
1138.04818383047
 20
740.05410689016833
  9
$ORTHOMODE
 70
     0
  9
$REGENMODE
 70
     1
  9
$FILLMODE
 70
     1
  9
$QTEXTMODE
 70
     0
  9
$MIRRTEXT
 70
     0
  9
$DRAGMODE
 70
     2
  9
$LTSCALE
 40
1.0
  9
$OSMODE
 70
   551
  9
$ATTMODE
 70
     1
  9
$TEXTSIZE
 40
2.5
  9
$TRACEWID
 40
1.0
  9
$TEXTSTYLE
  7
STANDARD
  9
$CLAYER
  8
0
  9
$CELTYPE
  6
BYLAYER
  9
$CECOLOR
 62
   256
  9
$DIMSCALE
 40
1.0
  9
$DIMASZ
 40
2.0
  9
$DIMEXO
 40
1.0
  9
$DIMDLI
 40
8.0
  9
$DIMRND
 40
0.0
  9
$DIMDLE
 40
0.0
  9
$DIMEXE
 40
1.0
  9
$DIMTP
 40
-0.025
  9
$DIMTM
 40
0.043
  9
$DIMTXT
 40
2.5
  9
$DIMCEN
 40
0.0
  9
$DIMTSZ
 40
0.0
  9
$DIMTOL
 70
     0
  9
$DIMLIM
 70
     0
  9
$DIMTIH
 70
     0
  9
$DIMTOH
 70
     0
  9
$DIMSE1
 70
     0
  9
$DIMSE2
 70
     0
  9
$DIMTAD
 70
     3
  9
$DIMZIN
 70
     8
  9
$DIMBLK
  1

  9
$DIMASO
 70
     1
  9
$DIMSHO
 70
     1
  9
$DIMPOST
  1

  9
$DIMAPOST
  1
"
  9
$DIMALT
 70
     0
  9
$DIMALTD
 70
     2
  9
$DIMALTF
 40
0.0393701
  9
$DIMLFAC
 40
1.0
  9
$DIMTOFL
 70
     1
  9
$DIMTVP
 40
0.0
  9
$DIMTIX
 70
     0
  9
$DIMSOXD
 70
     0
  9
$DIMSAH
 70
     0
  9
$DIMBLK1
  1

  9
$DIMBLK2
  1

  9
$DIMSTYLE
  2
AM_JIS
  9
$DIMCLRD
 70
     2
  9
$DIMCLRE
 70
     2
  9
$DIMCLRT
 70
     4
  9
$DIMTFAC
 40
0.71
  9
$DIMGAP
 40
1.5
  9
$LUNITS
 70
     2
  9
$LUPREC
 70
     2
  9
$SKETCHINC
 40
1.0
  9
$FILLETRAD
 40
0.0
  9
$AUNITS
 70
     0
  9
$AUPREC
 70
     0
  9
$MENU
  1
.
  9
$ELEVATION
 40
0.0
  9
$PELEVATION
 40
0.0
  9
$THICKNESS
 40
0.0
  9
$LIMCHECK
 70
     0
  9
$BLIPMODE
 70
     0
  9
$CHAMFERA
 40
2.0
  9
$CHAMFERB
 40
2.0
  9
$SKPOLY
 70
     0
  9
$TDCREATE
 40
2456829.3841110538
  9
$TDUPDATE
 40
2458540.6831264929
  9
$TDINDWG
 40
1.2127274189999999
  9
$TDUSRTIMER
 40
1.2127265046
  9
$USRTIMER
 70
     1
  9
$ANGBASE
 50
0.0
  9
$ANGDIR
 70
     0
  9
$PDMODE
 70
     0
  9
$PDSIZE
 40
0.0
  9
$PLINEWID
 40
0.0
  9
$COORDS
 70
     1
  9
$SPLFRAME
 70
     0
  9
$SPLINETYPE
 70
     6
  9
$SPLINESEGS
 70
     8
  9
$ATTDIA
 70
     1
  9
$ATTREQ
 70
     1
  9
$HANDLING
 70
     1
  9
$HANDSEED
  5
6D54
  9
$SURFTAB1
 70
     6
  9
$SURFTAB2
 70
     6
  9
$SURFTYPE
 70
     6
  9
$SURFU
 70
     6
  9
$SURFV
 70
     6
  9
$UCSNAME
  2

  9
$UCSORG
 10
0.0
 20
0.0
 30
0.0
  9
$UCSXDIR
 10
1.0
 20
0.0
 30
0.0
  9
$UCSYDIR
 10
0.0
 20
1.0
 30
0.0
  9
$PUCSNAME
  2

  9
$PUCSORG
 10
0.0
 20
0.0
 30
0.0
  9
$PUCSXDIR
 10
1.0
 20
0.0
 30
0.0
  9
$PUCSYDIR
 10
0.0
 20
1.0
 30
0.0
  9
$USERI1
 70
     0
  9
$USERI2
 70
     0
  9
$USERI3
 70
     0
  9
$USERI4
 70
     0
  9
$USERI5
 70
     0
  9
$USERR1
 40
0.0
  9
$USERR2
 40
0.0
  9
$USERR3
 40
0.0
  9
$USERR4
 40
0.0
  9
$USERR5
 40
0.0
  9
$WORLDVIEW
 70
     1
  9
$SHADEDGE
 70
     3
  9
$SHADEDIF
 70
    70
  9
$TILEMODE
 70
     1
  9
$MAXACTVP
 70
    64
  9
$PLIMCHECK
 70
     0
  9
$PEXTMIN
 10
1.0000000000000000E+020
 20
1.0000000000000000E+020
 30
1.0000000000000000E+020
  9
$PEXTMAX
 10
-1.0000000000000000E+020
 20
-1.0000000000000000E+020
 30
-1.0000000000000000E+020
  9
$PLIMMIN
 10
0.0
 20
0.0
  9
$PLIMMAX
 10
420.0
 20
297.0
  9
$UNITMODE
 70
     0
  9
$VISRETAIN
 70
     1
  9
$PLINEGEN
 70
     0
  9
$PSLTSCALE
 70
     1
  0
ENDSEC
  0
SECTION
  2
TABLES
  0
TABLE
  2
VPORT
 70
     1
  0
VPORT
  2
*ACTIVE
 70
     0
 10
0.0
 20
0.0
 11
1.0
 21
1.0
 12
515.04458534299545
 22
564.45911471955753
 13
0.0
 23
0.0
 14
10.0
 24
10.0
 15
40.0
 25
40.0
 16
0.0
 26
0.0
 36
1.0
 17
0.0
 27
0.0
 37
0.0
 40
546.85741818372605
 41
1.7571592210767459
 42
50.0
 43
0.0
 44
0.0
 50
0.0
 51
0.0
 71
    16
 72
  1000
 73
     1
 74
     3
 75
     0
 76
     0
 77
     0
 78
     1
  0
ENDTAB
  0
TABLE
  2
LTYPE
 70
    24
  0
LTYPE
  2
CONTINUOUS
 70
     0
  3
Solid line
 72
    65
 73
     0
 40
0.0
  0
LTYPE
  2
CENTER
 70
     0
  3
Center ____ _ ____ _ ____ _ ____ _ ____ _ ____
 72
    65
 73
     4
 40
50.799999999999997
 49
31.75
 49
-6.349999999999997
 49
6.349999999999997
 49
-6.349999999999997
  0
LTYPE
  2
AM_ISO02W050
 70
     0
  3
__ __ __ __ __ __ __ __ __ __ __ __ __ __ __
 72
    65
 73
     2
 40
7.5
 49
6.0
 49
-1.5
  0
LTYPE
  2
AM_ISO08W050
 70
     0
  3
____ . ____ . ____ . ____ . ____ . ____ . ____
 72
    65
 73
     4
 40
18.0
 49
12.0
 49
-1.5
 49
3.0
 49
-1.5
  0
LTYPE
  2
AM_ISO09W050
 70
     0
  3
_____ . . _____ . . _____ . . ____ .. ____
 72
    65
 73
     6
 40
22.5
 49
12.0
 49
-1.5
 49
3.0
 49
-1.5
 49
3.0
 49
-1.5
  0
LTYPE
  2
AMCONSTR
 70
     0
  3
_______________________
 72
    65
 73
     2
 40
9999.0
 49
9999.0
 49
0.0
  0
LTYPE
  2
AM_ISO08W050X2
 70
     0
  3
__ . __ . __ . __ . __ . __
 72
    65
 73
     4
 40
9.0
 49
6.0
 49
-0.75
 49
1.5
 49
-0.75
  0
LTYPE
  2
AM_ISO02W050X2
 70
     0
  3
 _ _ _ _ _ _ _ _ _ _ _ _
 72
    65
 73
     2
 40
3.75
 49
3.0
 49
-0.75
  0
LTYPE
  2
AMZIGZAG
 70
     0
  3
/\/-/\/-/\/-/\/-/\/-/\/
 72
    65
 73
     2
 40
11.0001
 49
0.0001
 49
-11.0
  0
LTYPE
  2
ACANSTGBM
 70
     0
  3
__ . . __ . .
 72
    65
 73
     6
 40
9.0
 49
4.0
 49
-1.0
 49
1.0
 49
-1.0
 49
1.0
 49
-1.0
  0
LTYPE
  2
ACANSTGLM
 70
     0
  3
_ _ _ _ _
 72
    65
 73
     2
 40
3.0
 49
2.0
 49
-1.0
  0
LTYPE
  2
ACISOWELD
 70
     0
  3
_ _ _ _ _
 72
    65
 73
     2
 40
2.0
 49
2.0
 49
-1.0
  0
LTYPE
  2
ACISOTGB
 70
     0
  3
__ . . __ . .
 72
    65
 73
     6
 40
9.0
 49
4.0
 49
-1.0
 49
1.0
 49
-1.0
 49
1.0
 49
-1.0
  0
LTYPE
  2
ACISOTGL
 70
     0
  3
_ _ _ _ _
 72
    65
 73
     2
 40
3.0
 49
2.0
 49
-1.0
  0
LTYPE
  2
ACJISTGB
 70
     0
  3
__ . . __ . .
 72
    65
 73
     6
 40
9.0
 49
4.0
 49
-1.0
 49
1.0
 49
-1.0
 49
1.0
 49
-1.0
  0
LTYPE
  2
ACJISTGL
 70
     0
  3
_ _ _ _ _
 72
    65
 73
     2
 40
3.0
 49
2.0
 49
-1.0
  0
LTYPE
  2
HIDDEN
 70
     0
  3
Hidden __ __ __ __ __ __ __ __ __ __ __ __ __ _
 72
    65
 73
     2
 40
9.5249999999999968
 49
6.349999999999997
 49
-3.174999999999998
  0
LTYPE
  2
PHANTOM2
 70
     0
  3
Phantom (.5x) ___ _ _ ___ _ _ ___ _ _ ___ _ _
 72
    65
 73
     6
 40
31.75
 49
15.875
 49
-3.174999999999998
 49
3.174999999999998
 49
-3.174999999999998
 49
3.174999999999998
 49
-3.174999999999998
  0
LTYPE
  2
CENTER2
 70
     0
  3
Center (.5x) ___ _ ___ _ ___ _ ___ _ ___ _ ___
 72
    65
 73
     4
 40
1.125
 49
0.75
 49
-0.125
 49
0.125
 49
-0.125
  0
LTYPE
  2
HIDDEN2
 70
     0
  3
Hidden (.5x) _ _ _ _ _ _ _ _ _ _ _ _ _ _ _ _ _
 72
    65
 73
     2
 40
0.1875
 49
0.125
 49
-0.0625
  0
LTYPE
  2
AMZIGZAG2
 70
     0
  3
/\/-/\/-/\/-/\/-/\/-/\/
 72
    65
 73
     2
 40
0.4401
 49
0.0001
 49
-0.4400000000000001
  0
LTYPE
  2
ACANSTGB
 70
     0
  3
__ . . __ . .
 72
    65
 73
     6
 40
0.35433070866
 49
0.15748031496
 49
-0.03937007874
 49
0.03937007874
 49
-0.03937007874
 49
0.03937007874
 49
-0.03937007874
  0
LTYPE
  2
ACANSTGL
 70
     0
  3
_ _ _ _ _
 72
    65
 73
     2
 40
0.11811023622
 49
0.07874015748
 49
-0.03937007874
  0
ENDTAB
  0
TABLE
  2
LAYER
 70
     4
  0
LAYER
  2
0
 70
     0
 62
     7
  6
CONTINUOUS
  0
LAYER
  2
DEFPOINTS
 70
     0
 62
     7
  6
CONTINUOUS
  0
LAYER
  2
AM_CL
 70
     0
 62
     1
  6
AMCONSTR
  0
LAYER
  2
AM_5
 70
     0
 62
     2
  6
CONTINUOUS
  0
ENDTAB
  0
TABLE
  2
STYLE
 70
    10
  0
STYLE
  2
STANDARD
 70
     0
 40
0.0
 41
0.7400000000000003
 50
0.0
 71
     0
 42
2.5
  3
txt.shx
  4
bigfont.shx
  0
STYLE
  2
ANNOTATIVE
 70
     0
 40
0.0
 41
1.0
 50
0.0
 71
     0
 42
0.2
  3
txt
  4

  0
STYLE
  2

 70
     1
 40
0.0
 41
1.0
 50
0.0
 71
     0
 42
2.5
  3
ltypeshp.shx
  4

  0
STYLE
  2
ACANSTS
 70
     0
 40
1.0
 41
1.0
 50
0.0
 71
     0
 42
2.5
  3
romans.shx
  4
bigfont.shx
  0
STYLE
  2
ACANSGDT
 70
     0
 40
0.0
 41
1.0
 50
0.0
 71
     0
 42
2.5
  3
amgdt.shx
  4

  0
STYLE
  2
ACISOTS
 70
     0
 40
1.0
 41
1.0
 50
0.0
 71
     0
 42
2.5
  3
isocp.shx
  4
extfont.shx
  0
STYLE
  2
ACISOGDT
 70
     0
 40
0.0
 41
1.0
 50
0.0
 71
     0
 42
2.5
  3
amgdt.shx
  4

  0
STYLE
  2
ACJISGDT
 70
     0
 40
0.0
 41
1.0
 50
0.0
 71
     0
 42
2.5
  3
amgdt.shx
  4

  0
STYLE
  2
ACJISTS
 70
     0
 40
1.0
 41
1.0
 50
0.0
 71
     0
 42
2.5
  3
isocp.shx
  4
extfont.shx
  0
STYLE
  2

 70
     1
 40
0.0
 41
1.0
 50
0.0
 71
     0
 42
2.5
  3
genltshp.shx
  4

  0
ENDTAB
  0
TABLE
  2
VIEW
 70
     6
  0
VIEW
  2
AM_VIEW1
 70
     0
 40
370.00000000000023
 10
391.11579948883332
 20
555.05410689016833
 41
782.13523131672605
 11
0.0
 21
0.0
 31
1.0
 12
0.0
 22
0.0
 32
0.0
 42
50.0
 43
0.0
 44
0.0
 50
0.0
 71
    16
  0
VIEW
  2
AM_VIEW2
 70
     0
 40
370.00000000000023
 10
746.98056817210693
 20
555.05410689016833
 41
782.13523131672605
 11
0.0
 21
0.0
 31
1.0
 12
0.0
 22
0.0
 32
0.0
 42
50.0
 43
0.0
 44
0.0
 50
0.0
 71
    16
  0
VIEW
  2
AM_VIEW3
 70
     0
 40
370.00000000000023
 10
391.11579948883332
 20
185.05410689016821
 41
782.13523131672605
 11
0.0
 21
0.0
 31
1.0
 12
0.0
 22
0.0
 32
0.0
 42
50.0
 43
0.0
 44
0.0
 50
0.0
 71
    16
  0
VIEW
  2
AM_VIEW4
 70
     0
 40
370.00000000000023
 10
746.98056817210693
 20
185.05410689016821
 41
782.13523131672605
 11
0.0
 21
0.0
 31
1.0
 12
0.0
 22
0.0
 32
0.0
 42
50.0
 43
0.0
 44
0.0
 50
0.0
 71
    16
  0
VIEW
  2
AM_VIEW5
 70
     0
 40
370.00000000000023
 10
569.04818383047029
 20
370.05410689016833
 41
782.13523131672605
 11
0.0
 21
0.0
 31
1.0
 12
0.0
 22
0.0
 32
0.0
 42
50.0
 43
0.0
 44
0.0
 50
0.0
 71
    16
  0
VIEW
  2
AM_VIEW6
 70
     0
 40
739.99260000000015
 10
569.04818383047029
 20
370.05410689016833
 41
1564.254819928826
 11
0.0
 21
0.0
 31
1.0
 12
0.0
 22
0.0
 32
0.0
 42
50.0
 43
0.0
 44
0.0
 50
0.0
 71
    16
  0
ENDTAB
  0
TABLE
  2
UCS
 70
     0
  0
ENDTAB
  0
TABLE
  2
APPID
 70
   161
  0
APPID
  2
ACAD
 70
     0
  0
APPID
  2
ACADANNOTATIVE
 70
     0
  0
APPID
  2
ACAD_MLEADERVER
 70
     0
  0
APPID
  2
MCAD_NO_VIS
 70
     0
  0
APPID
  2
ACAD_TEMP_GRAPHIC
 70
     0
  0
APPID
  2
AD_DRAW
 70
     0
  0
APPID
  2
ACATTRIBSERVICES
 70
     0
  0
APPID
  2
DESIGNERASSEMBLIES
 70
     0
  0
APPID
  2
ACADM_DIM_EDIT
 70
     0
  0
APPID
  2
AMDT_DM_ADJ
 70
     0
  0
APPID
  2
GENIUS_GENDIMSH_14
 70
     0
  0
APPID
  2
GEVID1057795304
 70
     0
  0
APPID
  2
GEVDC
 70
     0
  0
APPID
  2
GEVCON
 70
     0
  0
APPID
  2
GENIUS_GENBH_13
 70
     0
  0
APPID
  2
GENIUS_GENOENT_13
 70
     0
  0
APPID
  2
GENIUS_GENOBJ-NBEHI-BHF_13
 70
     0
  0
APPID
  2
GENIUS_GENOLIS_13
 70
     0
  0
APPID
  2
GENIUS_GENODEF_13
 70
     0
  0
APPID
  2
GENIUS_GENOREF_13
 70
     0
  0
APPID
  2
GENIUS_GENOBJ-NBEHI-BHB_13
 70
     0
  0
APPID
  2
GENIUS_GENOBJ-F-SCPASSM_13
 70
     0
  0
APPID
  2
GENIUS_GENDTOL_13
 70
     0
  0
APPID
  2
GENIUS_GENTRA_14
 70
     0
  0
APPID
  2
ASURF_PCURVE_APPNAME
 70
     0
  0
APPID
  2
GENIUS_GENCFG_13
 70
     0
  0
APPID
  2
GENIUS_GE3CFG0_13
 70
     0
  0
APPID
  2
GENIUS_GENCFG0_13
 70
     0
  0
APPID
  2
GENIUS_GENCFG1_13
 70
     0
  0
APPID
  2
GENIUS_GENCFG2_13
 70
     0
  0
APPID
  2
GENIUS_GENCFG3_13
 70
     0
  0
APPID
  2
GENIUS_GENCFG4_13
 70
     0
  0
APPID
  2
GENIUS_GEVCFG0_13
 70
     0
  0
APPID
  2
GENIUS_GENOBJ-N-TIT_13
 70
     0
  0
APPID
  2
GENIUS_GENTITLE_13
 70
     0
  0
APPID
  2
GENIUS_GENSCREG_15
 70
     0
  0
APPID
  2
GENIUS_GENOBJ-N-SDF_13
 70
     0
  0
APPID
  2
GENIUS_GENFIL_13
 70
     0
  0
APPID
  2
GENIUS_GENOBJ-N-CHA_13
 70
     0
  0
APPID
  2
GENIUS_GEFSH_13
 70
     0
  0
APPID
  2
GENIUS_GENOBJ-F-SHS_13
 70
     0
  0
APPID
  2
GENIUS_GENOBJ-N-CEN_13
 70
     0
  0
APPID
  2
GENIUS_GENREC_14
 70
     0
  0
APPID
  2
GENIUS_GENOBJ-N-REC_13
 70
     0
  0
APPID
  2
GENIUS_GENOBJ-N-HTC_13
 70
     0
  0
APPID
  2
GENIUS_GENHATCH_13
 70
     0
  0
APPID
  2
ACAD_PSEXT
 70
     0
  0
APPID
  2
ACAD_EXEMPT_FROM_CAD_STANDARDS
 70
     0
  0
APPID
  2
ACAECLAYERSTANDARD
 70
     0
  0
APPID
  2
GENIUS_GENCEN_19
 70
     0
  0
APPID
  2
ACAD_DSTYLE_DIMINSPECT
 70
     0
  0
APPID
  2
ACAD_DSTYLE_DIMANGULAR_EXT
 70
     0
  0
APPID
  2
ACADANNOPO
 70
     0
  0
APPID
  2
ACAD_NAV_VCDISPLAY
 70
     0
  0
APPID
  2
GENIUS_GENOBJ-N-FIL_13
 70
     0
  0
APPID
  2
ACAUTHENVIRON
 70
     0
  0
APPID
  2
ACDBDYNAMICBLOCKTRUENAME
 70
     0
  0
APPID
  2
ACDBDYNAMICBLOCKGUID
 70
     0
  0
APPID
  2
ACDBBLOCKREPETAG
 70
     0
  0
APPID
  2
ACAD_DSTYLE_DIMBREAK
 70
     0
  0
APPID
  2
ACAD_DSTYLE_DIMJAG
 70
     0
  0
APPID
  2
DCO15
 70
     0
  0
APPID
  2
GENIUS_DUMCFG0_13
 70
     0
  0
APPID
  2
ACAD_DSTYLE_DIMTEXT_FILL
 70
     0
  0
APPID
  2
AMG_2DHIDE
 70
     0
  0
APPID
  2
GENIUS_GEFSHEP_13
 70
     0
  0
APPID
  2
GENIUS_GENOBJ-F-SHE_13
 70
     0
  0
APPID
  2
GENIUS_GEFSHE_13
 70
     0
  0
APPID
  2
ACAD_DIMASSOC_DIMLFAC
 70
     0
  0
APPID
  2
ACAD_DIMASSOC_CALC_DIMLFAC
 70
     0
  0
APPID
  2
ACAD_DIMASSOC_OVERRIDDEN_D
 70
     0
  0
APPID
  2
GENIUS_GENOBJ-F-SHSV_13
 70
     0
  0
APPID
  2
GENIUS_GEFWELD_13
 70
     0
  0
APPID
  2
GENIUS_GENOBJ-N-CRS_13
 70
     0
  0
APPID
  2
GENIUS_GENOBJ-N-RSBK_13
 70
     0
  0
APPID
  2
GENIUS_GENOBJ-N-LIB_13
 70
     0
  0
APPID
  2
GENIUS_GENSCALE_13
 70
     0
  0
APPID
  2
GENIUS_GENHINW_13
 70
     0
  0
APPID
  2
GENIUS_FIRSTVISTXT_14
 70
     0
  0
APPID
  2
GENIUS_GENOBJ-N-LEADER_13
 70
     0
  0
APPID
  2
GENIUS_GENDREL_13
 70
     0
  0
APPID
  2
GEVPT
 70
     0
  0
APPID
  2
GEVIT
 70
     0
  0
APPID
  2
VCC
 70
     0
  0
APPID
  2
GENBH
 70
     0
  0
APPID
  2
GEVMK
 70
     0
  0
APPID
  2
GENIUS_GENOBJ-F-DESC_13
 70
     0
  0
APPID
  2
GENIUS_GEFDESC_14
 70
     0
  0
APPID
  2
GENIUS_GENOBJ-F-FEAT_13
 70
     0
  0
APPID
  2
GENIUS_GEFFEAT_14
 70
     0
  0
APPID
  2
GENIUS_GEFPARTINS_13
 70
     0
  0
APPID
  2
GENIUS_GENSCREG_13
 70
     0
  0
APPID
  2
GENIUS_GEFSHP_13
 70
     0
  0
APPID
  2
GEVID1025574798
 70
     0
  0
APPID
  2
GEVID1025574769
 70
     0
  0
APPID
  2
GEVID1025757451
 70
     0
  0
APPID
  2
GEVID1240528327
 70
     0
  0
APPID
  2
AMG_2DSTRUCT_BTR
 70
     0
  0
APPID
  2
ACADM_2DVIEW_IGN_NOTIFY
 70
     0
  0
APPID
  2
GEVID1240528328
 70
     0
  0
APPID
  2
GEVID1240528329
 70
     0
  0
APPID
  2
GEVRADREF
 70
     0
  0
APPID
  2
GEVID1240528330
 70
     0
  0
APPID
  2
GEVID1240528331
 70
     0
  0
APPID
  2
GEVID1240528332
 70
     0
  0
APPID
  2
GEVID1240791080
 70
     0
  0
APPID
  2
GEVID1240791081
 70
     0
  0
APPID
  2
GEVID1240791082
 70
     0
  0
APPID
  2
GEVID1240791083
 70
     0
  0
APPID
  2
GEVID1240791084
 70
     0
  0
APPID
  2
GEVID1240791085
 70
     0
  0
APPID
  2
GEVID1240791086
 70
     0
  0
APPID
  2
GEVID1240791087
 70
     0
  0
APPID
  2
GEVID1240791088
 70
     0
  0
APPID
  2
GEVID1240791089
 70
     0
  0
APPID
  2
GEVID1240791090
 70
     0
  0
APPID
  2
GEVID1240791091
 70
     0
  0
APPID
  2
GEVID1240791092
 70
     0
  0
APPID
  2
GEVID1240791093
 70
     0
  0
APPID
  2
GEVID1240791094
 70
     0
  0
APPID
  2
GEVID1240791095
 70
     0
  0
APPID
  2
GEVID1240791096
 70
     0
  0
APPID
  2
GEVID1240791097
 70
     0
  0
APPID
  2
GEVID1240791098
 70
     0
  0
APPID
  2
GEVID1240791099
 70
     0
  0
APPID
  2
GEVID1240791100
 70
     0
  0
APPID
  2
GEVID1240791101
 70
     0
  0
APPID
  2
GEVID1240791102
 70
     0
  0
APPID
  2
GEVID1240791103
 70
     0
  0
APPID
  2
GEVID1240791104
 70
     0
  0
APPID
  2
GEVID1240791105
 70
     0
  0
APPID
  2
GEVID1240875381
 70
     0
  0
APPID
  2
GEVID1240875382
 70
     0
  0
APPID
  2
GEVID1240875383
 70
     0
  0
APPID
  2
GEVID1240875384
 70
     0
  0
APPID
  2
GEVID1240875385
 70
     0
  0
APPID
  2
GEVID1240875386
 70
     0
  0
APPID
  2
GEVID1240875387
 70
     0
  0
APPID
  2
GEVID1240875388
 70
     0
  0
APPID
  2
GEVID1240875389
 70
     0
  0
APPID
  2
GEVID1240875390
 70
     0
  0
APPID
  2
GEVID1240875391
 70
     0
  0
APPID
  2
GEVID1240875392
 70
     0
  0
APPID
  2
GEVID1240875393
 70
     0
  0
APPID
  2
GEVID1240875394
 70
     0
  0
APPID
  2
GEVID1240875395
 70
     0
  0
APPID
  2
GEVID1240875396
 70
     0
  0
APPID
  2
GEVID1240875397
 70
     0
  0
APPID
  2
GEVID1240875398
 70
     0
  0
APPID
  2
GEVID1240875399
 70
     0
  0
APPID
  2
GEVID1240908996
 70
     0
  0
APPID
  2
GEVID1240908997
 70
     0
  0
APPID
  2
GEVID1240908998
 70
     0
  0
APPID
  2
GEVID1240908999
 70
     0
  0
APPID
  2
GEVID1240909000
 70
     0
  0
APPID
  2
GENIUS_GENOBJ-N-ZOO_13
 70
     0
  0
APPID
  2
GENIUS_GENZOO_17
 70
     0
  0
APPID
  2
ACAD_DSTYLE_DIMRADIAL_EXTENSION
 70
     0
  0
APPID
  2
GENIUS_GE3SECT_13
 70
     0
  0
APPID
  2
GEV_VCCNULL_SWITCH_OFF
 70
     0
  0
APPID
  2
ACAD_DSTYLE_DIMTALN
 70
     0
  0
ENDTAB
  0
TABLE
  2
DIMSTYLE
 70
    23
  0
DIMSTYLE
  2
STANDARD
 70
     0
  3

  4

  5

  6

  7

 40
1.0
 41
0.18
 42
0.0625
 43
0.38
 44
0.18
 45
0.0
 46
0.0
 47
0.0
 48
0.0
140
0.18
141
0.09
142
0.0
143
25.399999999999999
144
1.0
145
0.0
146
1.0
147
0.09
 71
     0
 72
     0
 73
     1
 74
     1
 75
     0
 76
     0
 77
     0
 78
     0
170
     0
171
     2
172
     0
173
     0
174
     0
175
     0
176
     0
177
     0
178
     0
  0
DIMSTYLE
  2
ANNOTATIVE
 70
     0
  3

  4

  5

  6

  7

 40
1.0
 41
0.18
 42
0.0625
 43
0.38
 44
0.18
 45
0.0
 46
0.0
 47
0.0
 48
0.0
140
0.18
141
0.09
142
0.0
143
25.399999999999999
144
1.0
145
0.0
146
1.0
147
0.09
 71
     0
 72
     0
 73
     1
 74
     1
 75
     0
 76
     0
 77
     0
 78
     0
170
     0
171
     2
172
     0
173
     0
174
     0
175
     0
176
     0
177
     0
178
     0
  0
DIMSTYLE
  2
AM_ANSI
 70
     0
  3

  4
"
  5

  6

  7

 40
1.0
 41
2.5
 42
1.0
 43
10.0
 44
1.0
 45
0.0
 46
0.0
 47
0.1
 48
0.1
140
3.5
141
0.0
142
0.0
143
0.0393701
144
1.0
145
0.0
146
0.71
147
1.5
 71
     0
 72
     0
 73
     1
 74
     1
 75
     0
 76
     0
 77
     0
 78
     8
170
     0
171
     2
172
     0
173
     0
174
     0
175
     0
176
     2
177
     2
178
     4
  0
DIMSTYLE
  2
AM_ANSI$3
 70
     0
  3

  4
"
  5

  6

  7

 40
1.0
 41
2.5
 42
1.0
 43
10.0
 44
1.0
 45
0.0
 46
0.0
 47
0.1
 48
0.1
140
3.5
141
0.0
142
0.0
143
0.0393701
144
1.0
145
0.0
146
0.71
147
1.5
 71
     0
 72
     0
 73
     1
 74
     1
 75
     0
 76
     0
 77
     0
 78
     8
170
     0
171
     2
172
     0
173
     0
174
     0
175
     0
176
     2
177
     2
178
     4
  0
DIMSTYLE
  2
AM_ANSI$4
 70
     0
  3

  4
"
  5

  6

  7

 40
1.0
 41
2.5
 42
1.0
 43
10.0
 44
1.0
 45
0.0
 46
0.0
 47
0.1
 48
0.1
140
3.5
141
0.0
142
0.0
143
0.0393701
144
1.0
145
0.0
146
0.71
147
1.5
 71
     0
 72
     0
 73
     1
 74
     1
 75
     0
 76
     0
 77
     0
 78
     8
170
     0
171
     2
172
     0
173
     0
174
     0
175
     0
176
     2
177
     2
178
     4
  0
DIMSTYLE
  2
AM_ANSI$7
 70
     0
  3

  4
"
  5

  6

  7

 40
1.0
 41
2.5
 42
1.0
 43
10.0
 44
1.0
 45
0.0
 46
0.0
 47
0.1
 48
0.1
140
5.0
141
0.0
142
0.0
143
0.0393701
144
1.0
145
0.0
146
0.71
147
1.5
 71
     0
 72
     0
 73
     1
 74
     1
 75
     0
 76
     0
 77
     0
 78
     8
170
     0
171
     2
172
     0
173
     0
174
     0
175
     0
176
     2
177
     2
178
     4
  0
DIMSTYLE
  2
AM_ANSI$SF
 70
     0
  3

  4
"
  5

  6

  7

 40
1.0
 41
2.5
 42
1.0
 43
10.0
 44
1.0
 45
0.0
 46
0.0
 47
0.1
 48
0.1
140
3.5
141
0.0
142
0.0
143
0.0393701
144
1.0
145
0.0
146
0.71
147
1.5
 71
     0
 72
     0
 73
     1
 74
     1
 75
     1
 76
     1
 77
     0
 78
     8
170
     0
171
     2
172
     0
173
     0
174
     0
175
     0
176
     2
177
     2
178
     4
  0
DIMSTYLE
  2
AM_ANSI$SH
 70
     0
  3

  4
"
  5

  6

  7

 40
1.0
 41
2.5
 42
1.0
 43
10.0
 44
1.0
 45
0.0
 46
0.0
 47
0.1
 48
0.1
140
3.5
141
0.0
142
0.0
143
0.0393701
144
1.0
145
0.0
146
0.71
147
1.5
 71
     0
 72
     0
 73
     1
 74
     1
 75
     1
 76
     1
 77
     0
 78
     8
170
     0
171
     2
172
     0
173
     1
174
     0
175
     0
176
     2
177
     2
178
     4
  0
DIMSTYLE
  2
AM_ISO
 70
     0
  3

  4
"
  5

  6

  7

 40
1.0
 41
2.5
 42
1.0
 43
10.0
 44
1.0
 45
0.0
 46
0.0
 47
0.1
 48
0.1
140
3.5
141
0.0
142
0.0
143
0.0393701
144
1.0
145
0.0
146
0.71
147
1.5
 71
     0
 72
     0
 73
     0
 74
     0
 75
     0
 76
     0
 77
     1
 78
     8
170
     0
171
     2
172
     1
173
     0
174
     0
175
     0
176
   256
177
   256
178
     2
  0
DIMSTYLE
  2
AM_ISO$3
 70
     0
  3

  4
"
  5

  6

  7

 40
1.0
 41
2.5
 42
1.0
 43
10.0
 44
1.0
 45
0.0
 46
0.0
 47
0.1
 48
0.1
140
3.5
141
0.0
142
0.0
143
0.0393701
144
1.0
145
0.0
146
0.71
147
1.5
 71
     0
 72
     0
 73
     0
 74
     1
 75
     0
 76
     0
 77
     1
 78
     8
170
     0
171
     2
172
     0
173
     0
174
     0
175
     0
176
   256
177
   256
178
     2
  0
DIMSTYLE
  2
AM_ISO$4
 70
     0
  3

  4
"
  5

  6

  7

 40
1.0
 41
2.5
 42
1.0
 43
10.0
 44
1.0
 45
0.0
 46
0.0
 47
0.1
 48
0.1
140
3.5
141
0.0
142
0.0
143
0.0393701
144
1.0
145
0.0
146
0.71
147
1.5
 71
     0
 72
     0
 73
     0
 74
     1
 75
     0
 76
     0
 77
     1
 78
     8
170
     0
171
     2
172
     0
173
     0
174
     0
175
     0
176
   256
177
   256
178
     2
  0
DIMSTYLE
  2
AM_ISO$6
 70
     0
  3

  4
"
  5

  6

  7

 40
1.0
 41
2.5
 42
1.0
 43
10.0
 44
1.0
 45
0.0
 46
0.0
 47
0.1
 48
0.1
140
3.5
141
0.0
142
0.0
143
0.0393701
144
1.0
145
0.0
146
0.71
147
1.5
 71
     0
 72
     0
 73
     0
 74
     0
 75
     0
 76
     0
 77
     0
 78
     8
170
     0
171
     2
172
     1
173
     0
174
     0
175
     0
176
   256
177
   256
178
     2
  0
DIMSTYLE
  2
AM_ISO$7
 70
     0
  3

  4
"
  5

  6

  7

 40
1.0
 41
2.5
 42
1.0
 43
10.0
 44
1.0
 45
0.0
 46
0.0
 47
0.1
 48
0.1
140
5.0
141
0.0
142
0.0
143
0.0393701
144
1.0
145
0.0
146
0.71
147
1.5
 71
     0
 72
     0
 73
     0
 74
     0
 75
     0
 76
     0
 77
     1
 78
     8
170
     0
171
     2
172
     1
173
     0
174
     0
175
     0
176
   256
177
   256
178
     2
  0
DIMSTYLE
  2
AM_ISO$SF
 70
     0
  3

  4
"
  5

  6

  7

 40
1.0
 41
2.5
 42
1.0
 43
10.0
 44
1.0
 45
0.0
 46
0.0
 47
0.1
 48
0.1
140
3.5
141
0.0
142
0.0
143
0.0393701
144
1.0
145
0.0
146
0.71
147
1.5
 71
     0
 72
     0
 73
     0
 74
     0
 75
     1
 76
     1
 77
     1
 78
     8
170
     0
171
     2
172
     1
173
     0
174
     0
175
     0
176
   256
177
   256
178
     2
  0
DIMSTYLE
  2
AM_ISO$SH
 70
     0
  3

  4
"
  5

  6

  7

 40
1.0
 41
2.5
 42
1.0
 43
10.0
 44
1.0
 45
0.0
 46
0.0
 47
0.1
 48
0.1
140
3.5
141
0.0
142
0.0
143
0.0393701
144
2.0
145
0.0
146
0.71
147
1.5
 71
     0
 72
     0
 73
     0
 74
     0
 75
     1
 76
     1
 77
     1
 78
     8
170
     0
171
     2
172
     1
173
     1
174
     0
175
     0
176
   256
177
   256
178
     2
  0
DIMSTYLE
  2
AM_JIS
 70
     0
  3

  4
"
  5

  6

  7

 40
1.0
 41
2.0
 42
1.0
 43
8.0
 44
1.0
 45
0.0
 46
0.0
 47
0.1
 48
0.1
140
2.5
141
0.0
142
0.0
143
0.0393701
144
1.0
145
0.0
146
0.71
147
1.5
 71
     0
 72
     0
 73
     0
 74
     0
 75
     0
 76
     0
 77
     3
 78
     8
170
     0
171
     2
172
     1
173
     0
174
     0
175
     0
176
     2
177
     2
178
     4
  0
DIMSTYLE
  2
AM_JIS$3
 70
     0
  3

  4
"
  5

  6

  7

 40
1.0
 41
2.0
 42
1.0
 43
10.0
 44
1.0
 45
0.0
 46
0.0
 47
0.1
 48
0.1
140
2.5
141
0.0
142
0.0
143
0.0393701
144
1.0
145
0.0
146
0.71
147
1.5
 71
     0
 72
     0
 73
     0
 74
     1
 75
     0
 76
     0
 77
     3
 78
     8
170
     0
171
     2
172
     0
173
     0
174
     0
175
     0
176
     2
177
     2
178
     4
  0
DIMSTYLE
  2
AM_JIS$4
 70
     0
  3

  4
"
  5

  6

  7

 40
1.0
 41
2.0
 42
1.0
 43
10.0
 44
1.0
 45
0.0
 46
0.0
 47
0.1
 48
0.1
140
2.5
141
0.0
142
0.0
143
0.0393701
144
1.0
145
0.0
146
0.71
147
1.5
 71
     0
 72
     0
 73
     0
 74
     0
 75
     0
 76
     0
 77
     3
 78
     8
170
     0
171
     2
172
     0
173
     0
174
     0
175
     0
176
     2
177
     2
178
     4
  0
DIMSTYLE
  2
AM_JIS$6
 70
     0
  3

  4
"
  5

  6

  7

 40
1.0
 41
2.0
 42
1.0
 43
10.0
 44
1.0
 45
0.0
 46
0.0
 47
0.1
 48
0.1
140
2.5
141
0.0
142
0.0
143
0.0393701
144
1.0
145
0.0
146
0.71
147
1.5
 71
     0
 72
     0
 73
     0
 74
     0
 75
     0
 76
     0
 77
     0
 78
     8
170
     0
171
     2
172
     1
173
     0
174
     0
175
     0
176
     2
177
     2
178
     4
  0
DIMSTYLE
  2
AM_JIS$7
 70
     0
  3

  4
"
  5

  6

  7

 40
1.0
 41
2.0
 42
1.0
 43
10.0
 44
1.0
 45
0.0
 46
0.0
 47
0.1
 48
0.1
140
2.5
141
0.0
142
0.0
143
0.0393701
144
1.0
145
0.0
146
0.71
147
1.5
 71
     0
 72
     0
 73
     0
 74
     0
 75
     0
 76
     0
 77
     3
 78
     8
170
     0
171
     2
172
     1
173
     0
174
     0
175
     0
176
     2
177
     2
178
     4
  0
DIMSTYLE
  2
AM_JIS$SF
 70
     0
  3

  4
"
  5

  6

  7

 40
1.0
 41
2.0
 42
1.0
 43
10.0
 44
1.0
 45
0.0
 46
0.0
 47
0.1
 48
0.1
140
2.5
141
0.0
142
0.0
143
0.0393701
144
1.0
145
0.0
146
0.71
147
1.5
 71
     0
 72
     0
 73
     0
 74
     0
 75
     1
 76
     1
 77
     3
 78
     8
170
     0
171
     2
172
     1
173
     0
174
     0
175
     0
176
     2
177
     2
178
     4
  0
DIMSTYLE
  2
AM_JIS$SH
 70
     0
  3

  4
"
  5

  6

  7

 40
1.0
 41
2.0
 42
1.0
 43
10.0
 44
1.0
 45
0.0
 46
0.0
 47
0.1
 48
0.1
140
2.5
141
0.0
142
0.0
143
0.0393701
144
2.0
145
0.0
146
0.71
147
1.5
 71
     0
 72
     0
 73
     0
 74
     0
 75
     1
 76
     1
 77
     3
 78
     8
170
     0
171
     2
172
     1
173
     1
174
     0
175
     0
176
     2
177
     2
178
     4
  0
DIMSTYLE
  2
AM_JIS$0
 70
     0
  3

  4
"
  5

  6

  7

 40
1.0
 41
2.0
 42
1.0
 43
8.0
 44
1.0
 45
0.0
 46
0.0
 47
0.1
 48
0.1
140
2.5
141
0.0
142
0.0
143
0.0393701
144
1.0
145
0.0
146
0.71
147
1.5
 71
     0
 72
     0
 73
     0
 74
     0
 75
     0
 76
     0
 77
     3
 78
     8
170
     0
171
     2
172
     1
173
     0
174
     0
175
     0
176
     2
177
     2
178
     4
  0
ENDTAB
  0
ENDSEC
  0
SECTION
  2
BLOCKS
  0
BLOCK
  8
0
  2
$MODEL_SPACE
 70
     0
 10
0.0
 20
0.0
 30
0.0
  3
$MODEL_SPACE
  1

  0
ENDBLK
  5
6B98
  8
0
  0
BLOCK
 67
     1
  8
0
  2
$PAPER_SPACE
 70
     0
 10
0.0
 20
0.0
 30
0.0
  3
$PAPER_SPACE
  1

  0
ENDBLK
  5
6B94
 67
     1
  8
0
  0
BLOCK
  8
0
  2
GENAXEH
 70
     0
 10
0.0
 20
0.0
 30
0.0
  3
GENAXEH
  1

  0
LINE
  5
67A8
  8
0
 10
-1.0
 20
0.0
 30
0.0
 11
1.0
 21
0.0
 31
0.0
  0
ENDBLK
  5
67A9
  8
0
  0
BLOCK
  8
0
  2
_OPEN30
 70
     0
 10
0.0
 20
0.0
 30
0.0
  3
_OPEN30
  1

  0
LINE
  5
67EF
  8
0
  6
BYBLOCK
 62
     0
 10
-1.0
 20
0.26794919
 30
0.0
 11
0.0
 21
0.0
 31
0.0
  0
LINE
  5
67F0
  8
0
  6
BYBLOCK
 62
     0
 10
0.0
 20
0.0
 30
0.0
 11
-1.0
 21
-0.26794919
 31
0.0
  0
LINE
  5
67F1
  8
0
  6
BYBLOCK
 62
     0
 10
0.0
 20
0.0
 30
0.0
 11
-1.0
 21
0.0
 31
0.0
  0
ENDBLK
  5
67F2
  8
0
  0
BLOCK
  8
0
  2
A$C31F27B92
 70
     0
 10
0.0
 20
0.0
 30
0.0
  3
A$C31F27B92
  1

  0
LINE
  5
6522
  8
0
 62
     0
 10
0.0
 20
85.0
 30
0.0
 11
15.17451000000017
 21
85.529889999998886
 31
0.0
  0
LINE
  5
6523
  8
0
 62
     0
 10
0.0
 20
-85.000000000000057
 30
0.0
 11
14.85936000000015
 21
-85.518906999999629
 31
0.0
  0
ENDBLK
  5
6527
  8
0
  0
BLOCK
  8
0
  2
A$C30B81D37
 70
     0
 10
0.0
 20
0.0
 30
0.0
  3
A$C30B81D37
  1

  0
LINE
  5
6531
  8
0
  6
AM_ISO08W050
 62
     0
 10
-79.999979999999184
 20
-143.33130600000001
 30
0.0
 11
-79.999979999999184
 21
-118.47157800000009
 31
0.0
  0
LINE
  5
6532
  8
0
  6
ACISOTGL
 62
     0
 10
-72.499979999999582
 20
-121.9999889999999
 30
0.0
 11
-72.499979999999582
 21
-139.9999889999998
 31
0.0
  0
LINE
  5
6533
  8
0
  6
ACISOTGL
 62
     0
 10
-87.499979999999354
 20
-121.9999889999999
 30
0.0
 11
-87.499979999999354
 21
-139.9999889999998
 31
0.0
  0
LINE
  5
6534
  8
0
 62
     0
 10
-94.999979999999184
 20
-121.9999889999999
 30
0.0
 11
-64.00001999999904
 21
-121.9999889999999
 31
0.0
  0
LINE
  5
6535
  8
0
 62
     0
 10
-184.99997999999951
 20
-137.99999100000011
 30
0.0
 11
-100.0000199999993
 21
-137.99999100000011
 31
0.0
  0
LINE
  5
6536
  8
0
 62
     0
 10
-68.999999999999091
 20
-114.4605900000001
 30
0.0
 11
-68.999999999999091
 21
44.000024999999837
 31
0.0
  0
LINE
  5
6537
  8
0
 62
     0
 10
-109.9999799999996
 20
-106.9999739999998
 30
0.0
 11
-109.9999799999996
 21
31.442744999999771
 31
0.0
  0
LINE
  5
6538
  8
0
 62
     0
 10
-61.999979999999262
 20
-139.9999889999998
 30
0.0
 11
-61.999979999999262
 21
-123.9999899999987
 31
0.0
  0
LINE
  5
6539
  8
0
 62
     0
 10
-104.9249999999995
 20
-107.5422419999999
 30
0.0
 11
-97.999979999999383
 21
-107.5422419999999
 31
0.0
  0
LINE
  5
653A
  8
0
 62
     0
 10
-97.999979999999383
 20
-139.9999889999998
 30
0.0
 11
-61.999979999999262
 21
-139.9999889999998
 31
0.0
  0
LINE
  5
653B
  8
0
 62
     0
 10
-97.999979999999383
 20
-139.9999889999998
 30
0.0
 11
-97.999979999999383
 21
-139.9999889999998
 31
0.0
  0
ARC
  5
653C
  8
0
 62
     0
 10
-94.999979999999184
 20
-106.9999739999998
 30
0.0
 40
15.000000299999989
 50
179.999989999999
 51
270.0
  0
ARC
  5
653D
  8
0
 62
     0
 10
-64.00001999999904
 20
-123.9999899999987
 30
0.0
 40
2.00000007
 50
0.0
 51
90.000002999984659
  0
ARC
  5
653E
  8
0
 62
     0
 10
-97.999979999999383
 20
-99.54225600000008
 30
0.0
 40
8.0000000999999976
 50
270.0
 51
0.0
  0
ARC
  5
653F
  8
0
 62
     0
 10
-61.00001999999904
 20
-114.4605900000001
 30
0.0
 40
8.0000000999999976
 50
179.999989999999
 51
252.54239000001269
  0
ARC
  5
6540
  8
0
 62
     0
 10
-100.0000199999993
 20
-139.9999889999998
 30
0.0
 40
2.00000007
 50
0.0
 51
90.000002999984659
  0
ENDBLK
  5
6544
  8
0
  0
BLOCK
  8
0
  2
*U6
 70
     1
 10
0.0
 20
0.0
 30
0.0
  3
*U6
  1

  0
TEXT
  5
6B21
  8
0
 62
     0
 10
5.1211371559201639
 20
5.9826223594979648
 30
0.0
 40
15.0
  1
ＶＸ０８－００３ＥＭ～ＶＸ０８－０３０ＥＭ
 41
0.7400000000000003
  0
ENDBLK
  5
6B23
  8
0
  0
BLOCK
  8
0
  2
*U7
 70
     1
 10
0.0
 20
0.0
 30
0.0
  3
*U7
  1

  0
TEXT
  5
6B25
  8
0
 62
     0
 10
672.56612583385674
 20
641.65647118745505
 30
0.0
 40
15.0
  1
ＶＸ１５－００３ＥＭ～ＶＸ１５－０３０ＥＭ
 41
0.7400000000000003
  0
ENDBLK
  5
6B27
  8
0
  0
BLOCK
  8
0
  2
_ACMFILLEDHALF
 70
     0
 10
0.0
 20
0.0
 30
0.0
  3
_ACMFILLEDHALF
  1

  0
TRACE
  5
6CD9
  8
0
 62
     0
 10
-0.8
 20
0.0
 30
0.0
 11
-1.0
 21
0.166666666
 31
0.0
 12
0.0
 22
0.0
 32
0.0
 13
0.0
 23
0.0
 33
0.0
  0
LINE
  5
6CDA
  8
0
 62
     0
 10
-1.0
 20
0.0
 30
0.0
 11
-0.8
 21
0.0
 31
0.0
  0
ENDBLK
  5
6CD8
  8
0
  0
ENDSEC
  0
SECTION
  2
ENTITIES
  0
LINE
  5
4419
  8
0
  6
AM_ISO08W050
 62
     0
 10
508.28384824823451
 20
295.78609191022792
 30
0.0
 11
508.28384824823451
 21
320.64581991022771
 31
0.0
  0
LINE
  5
441A
  8
0
  6
AM_ISO08W050
 62
     0
 10
383.28383824823402
 20
295.78609191022792
 30
0.0
 11
383.28383824823402
 21
320.64581991022771
 31
0.0
  0
LINE
  5
441B
  8
0
  6
AM_ISO08W050
 62
     0
 10
392.9252093746681
 20
439.11739791022791
 30
0.0
 11
595.54615583061275
 21
439.11739791022791
 31
0.0
  0
LINE
  5
441C
  8
0
  6
AM_ISO08W050
 62
     0
 10
927.56544488610518
 20
321.36673791022781
 30
0.0
 11
927.56544488610518
 21
295.78609191022792
 31
0.0
  0
LINE
  5
441D
  8
0
  6
AM_ISO08W050
 62
     0
 10
737.5654458861045
 20
322.12929591022822
 30
0.0
 11
737.5654458861045
 21
295.78609191022792
 31
0.0
  0
LINE
  5
441E
  8
0
 62
     0
 10
837.56543288610521
 20
450.11742291022767
 30
0.0
 11
837.56543288610521
 21
458.11743291022799
 31
0.0
  0
LINE
  5
441F
  8
0
 62
     0
 10
827.56543388610521
 20
450.11742291022767
 30
0.0
 11
837.56543288610521
 21
450.11742291022767
 31
0.0
  0
LINE
  5
4420
  8
0
 62
     0
 10
827.56543388610521
 20
450.11742291022767
 30
0.0
 11
827.56543388610521
 21
458.11743291022799
 31
0.0
  0
LINE
  5
4421
  8
0
 62
     0
 10
588.2838282482337
 20
423.11742591022789
 30
0.0
 11
530.28380824823455
 21
423.11742591022789
 31
0.0
  0
LINE
  5
4422
  8
0
 62
     0
 10
530.28380824823455
 20
456.61743291022782
 30
0.0
 11
526.28384824823445
 21
456.61743291022782
 31
0.0
  0
LINE
  5
4423
  8
0
 62
     0
 10
588.2838282482337
 20
458.11743291022799
 30
0.0
 11
543.28382824823404
 21
458.11743291022799
 31
0.0
  0
LINE
  5
4424
  8
0
 62
     0
 10
588.2838282482337
 20
455.11743291022799
 30
0.0
 11
530.28380824823455
 21
455.11743291022799
 31
0.0
  0
LINE
  5
4425
  8
0
 62
     0
 10
530.28380824823455
 20
421.61742591022772
 30
0.0
 11
526.28384824823445
 21
421.61742591022772
 31
0.0
  0
LINE
  5
4426
  8
0
 62
     0
 10
530.28380824823455
 20
421.61742591022772
 30
0.0
 11
530.28380824823455
 21
456.61743291022782
 31
0.0
  0
LINE
  5
4427
  8
0
 62
     0
 10
588.2838282482337
 20
423.11742591022789
 30
0.0
 11
588.2838282482337
 21
458.11743291022799
 31
0.0
  0
LINE
  5
4428
  8
0
 62
     0
 10
543.28382824823404
 20
455.11743291022799
 30
0.0
 11
543.28382824823404
 21
458.11743291022799
 31
0.0
  0
LINE
  5
4429
  8
0
  6
AM_ISO08W050
 62
     0
 10
832.56544988610517
 20
292.94141570153101
 30
0.0
 11
832.56544988610517
 21
548.27393790919757
 31
0.0
  0
LINE
  5
442A
  8
0
 62
     0
 10
827.56543388610521
 20
458.11743291022799
 30
0.0
 11
837.56543288610521
 21
458.11743291022799
 31
0.0
  0
LINE
  5
442B
  8
0
  6
AM_ISO08W050
 62
     0
 10
730.75093088610515
 20
439.11739791022791
 30
0.0
 11
937.65503588610522
 21
439.11739791022791
 31
0.0
  0
LINE
  5
4432
  8
0
 62
     0
 10
767.56543088610522
 20
313.1173919102277
 30
0.0
 11
767.56543088610522
 21
299.11740891022811
 31
0.0
  0
LINE
  5
4433
  8
0
  6
ACISOTGL
 62
     0
 10
920.06544488610507
 20
317.11740891022799
 30
0.0
 11
920.06544488610507
 21
299.11740891022811
 31
0.0
  0
LINE
  5
4434
  8
0
  6
ACISOTGL
 62
     0
 10
935.06544488610496
 20
317.11740891022799
 30
0.0
 11
935.06544488610496
 21
299.11740891022811
 31
0.0
  0
LINE
  5
4435
  8
0
 62
     0
 10
717.56544488610518
 20
299.11740891022811
 30
0.0
 11
767.56543088610522
 21
299.11740891022811
 31
0.0
  0
LINE
  5
4436
  8
0
 62
     0
 10
717.56544488610518
 20
314.11740891022811
 30
0.0
 11
717.56544488610518
 21
299.11740891022811
 31
0.0
  0
LINE
  5
4437
  8
0
 62
     0
 10
897.56544188610519
 20
299.11740891022811
 30
0.0
 11
947.56544588610518
 21
299.11740891022811
 31
0.0
  0
LINE
  5
4438
  8
0
 62
     0
 10
897.56544188610519
 20
313.1173919102277
 30
0.0
 11
897.56544188610519
 21
299.11740891022811
 31
0.0
  0
LINE
  5
4439
  8
0
 62
     0
 10
947.56544588610518
 20
314.11740891022811
 30
0.0
 11
947.56544588610518
 21
299.11740891022811
 31
0.0
  0
LINE
  5
443A
  8
0
 62
     0
 10
763.5654318861051
 20
317.11740891022799
 30
0.0
 11
720.56544488610496
 21
317.11740891022799
 31
0.0
  0
LINE
  5
443B
  8
0
 62
     0
 10
901.56544388610553
 20
317.11740891022799
 30
0.0
 11
944.56544288610564
 21
317.11740891022799
 31
0.0
  0
LINE
  5
443C
  8
0
 62
     0
 10
526.28384824823445
 20
439.11739791022791
 30
0.0
 11
526.28384824823445
 21
466.38537291022823
 31
0.0
  0
LINE
  5
443D
  8
0
 62
     0
 10
526.28384824823445
 20
411.84948291022789
 30
0.0
 11
526.28384824823445
 21
439.11739791022791
 31
0.0
  0
LINE
  5
443E
  8
0
 62
     0
 10
520.78379824823412
 20
406.94201091022802
 30
0.0
 11
524.78381824823407
 21
409.25139891022758
 31
0.0
  0
LINE
  5
443F
  8
0
 62
     0
 10
520.78382824823461
 20
471.29283291022801
 30
0.0
 11
524.78384824823399
 21
468.98346291022892
 31
0.0
  0
LINE
  5
4440
  8
0
 62
     0
 10
750.85145588610453
 20
482.43936291022811
 30
0.0
 11
737.75462288610515
 21
441.30272991022798
 31
0.0
  0
LINE
  5
4441
  8
0
  6
ACISOTGL
 62
     0
 10
515.78384824823411
 20
317.11740891022799
 30
0.0
 11
515.78384824823411
 21
299.11740891022811
 31
0.0
  0
LINE
  5
4442
  8
0
  6
ACISOTGL
 62
     0
 10
500.78384824823428
 20
317.11740891022799
 30
0.0
 11
500.78384824823428
 21
299.11740891022811
 31
0.0
  0
LINE
  5
4443
  8
0
 62
     0
 10
493.28384824823451
 20
317.11740891022799
 30
0.0
 11
524.28380824823466
 21
317.11740891022799
 31
0.0
  0
LINE
  5
4444
  8
0
 62
     0
 10
403.28384824823411
 20
301.11740691022783
 30
0.0
 11
488.28380824823438
 21
301.11740691022783
 31
0.0
  0
LINE
  5
4445
  8
0
  6
ACISOTGL
 62
     0
 10
745.06544588610461
 20
317.11740891022799
 30
0.0
 11
745.06544588610461
 21
299.11740891022811
 31
0.0
  0
LINE
  5
4446
  8
0
 62
     0
 10
519.28382824823461
 20
324.65680791022783
 30
0.0
 11
519.28382824823461
 21
483.11742291022767
 31
0.0
  0
LINE
  5
4447
  8
0
 62
     0
 10
478.28384824823411
 20
332.11742391022813
 30
0.0
 11
478.28384824823411
 21
470.56014291022763
 31
0.0
  0
LINE
  5
4448
  8
0
 62
     0
 10
367.28384824823439
 20
317.11740891022799
 30
0.0
 11
398.36402824823409
 21
317.11740891022799
 31
0.0
  0
LINE
  5
4449
  8
0
 62
     0
 10
365.28383824823408
 20
299.11740891022811
 30
0.0
 11
401.28383824823408
 21
299.11740891022811
 31
0.0
  0
LINE
  5
444A
  8
0
 62
     0
 10
526.28384824823445
 20
299.11740891022811
 30
0.0
 11
526.28384824823445
 21
315.11740791022908
 31
0.0
  0
LINE
  5
444B
  8
0
 62
     0
 10
365.28383824823408
 20
299.11740891022811
 30
0.0
 11
365.28383824823408
 21
315.11740791022908
 31
0.0
  0
LINE
  5
444C
  8
0
 62
     0
 10
402.17372824823411
 20
319.89829191022801
 30
0.0
 11
417.09353824823449
 21
366.52269891022769
 31
0.0
  0
LINE
  5
444D
  8
0
  6
ACISOTGL
 62
     0
 10
730.06544588610461
 20
317.11740891022799
 30
0.0
 11
730.06544588610461
 21
299.11740891022811
 31
0.0
  0
LINE
  5
444E
  8
0
 62
     0
 10
498.28382824823461
 20
339.57514191022773
 30
0.0
 11
498.28382824823461
 21
500.5983629102281
 31
0.0
  0
LINE
  5
444F
  8
0
 62
     0
 10
506.28380824823449
 20
487.1174429102291
 30
0.0
 11
515.28380824823455
 21
487.1174429102291
 31
0.0
  0
LINE
  5
4450
  8
0
 62
     0
 10
767.56543088610522
 20
422.11742691022761
 30
0.0
 11
767.56543088610522
 21
332.11742391022813
 31
0.0
  0
LINE
  5
4451
  8
0
 62
     0
 10
761.24347088610523
 20
492.83145291022782
 30
0.0
 11
802.3800978861052
 21
505.92831291022759
 31
0.0
  0
LINE
  5
4452
  8
0
 62
     0
 10
417.28382824823422
 20
367.74182991022809
 30
0.0
 11
417.28382824823422
 21
425.76516291022892
 31
0.0
  0
LINE
  5
4453
  8
0
 62
     0
 10
914.68141088610503
 20
482.6381429102276
 30
0.0
 11
927.67733588610508
 21
440.34032691022787
 31
0.0
  0
LINE
  5
4454
  8
0
 62
     0
 10
904.08618788610522
 20
493.23336291022781
 30
0.0
 11
861.78836588610511
 21
506.22927291022802
 31
0.0
  0
LINE
  5
4455
  8
0
 62
     0
 10
897.56544188610519
 20
422.11742691022761
 30
0.0
 11
897.56544188610519
 21
332.11742391022813
 31
0.0
  0
LINE
  5
4456
  8
0
 62
     0
 10
909.56544188610553
 20
471.21111291022788
 30
0.0
 11
909.56544188610553
 21
372.854684910228
 31
0.0
  0
LINE
  5
4457
  8
0
 62
     0
 10
755.5654308861051
 20
471.21111291022788
 30
0.0
 11
755.5654308861051
 21
372.854684910228
 31
0.0
  0
LINE
  5
4458
  8
0
 62
     0
 10
413.2838982482341
 20
510.61743291022782
 30
0.0
 11
490.49327824823399
 21
508.59561291022783
 31
0.0
  0
LINE
  5
4459
  8
0
 62
     0
 10
947.53276088610517
 20
314.55904191022802
 30
0.0
 11
930.98135888610523
 21
425.76516291022892
 31
0.0
  0
LINE
  5
445A
  8
0
 62
     0
 10
717.59809988610505
 20
314.55905691022798
 30
0.0
 11
734.14948988610524
 21
425.76516291022892
 31
0.0
  0
LINE
  5
445B
  8
0
 62
     0
 10
413.28383824823402
 20
425.76516291022892
 30
0.0
 11
417.28382824823422
 21
425.76516291022892
 31
0.0
  0
LINE
  5
445C
  8
0
 62
     0
 10
483.3588282482342
 20
331.57515591022798
 30
0.0
 11
490.28384824823428
 21
331.57515591022798
 31
0.0
  0
LINE
  5
445D
  8
0
 62
     0
 10
490.28384824823428
 20
299.11740891022811
 30
0.0
 11
526.28384824823445
 21
299.11740891022811
 31
0.0
  0
LINE
  5
445E
  8
0
 62
     0
 10
490.28384824823428
 20
299.11740891022811
 30
0.0
 11
490.28384824823428
 21
299.11740891022811
 31
0.0
  0
LINE
  5
445F
  8
0
 62
     0
 10
769.56543188610453
 20
301.11740691022783
 30
0.0
 11
895.56544388610507
 21
301.11740691022783
 31
0.0
  0
LINE
  5
4460
  8
0
 62
     0
 10
486.2838282482345
 20
478.56015291022788
 30
0.0
 11
494.68331824823412
 21
478.56015291022788
 31
0.0
  0
LINE
  5
4461
  8
0
 62
     0
 10
413.2838982482341
 20
441.30272991022798
 30
0.0
 11
413.2854282482345
 21
441.30272991022798
 31
0.0
  0
LINE
  5
4462
  8
0
 62
     0
 10
413.28383824823402
 20
441.30272991022798
 30
0.0
 11
441.05249824823431
 21
466.58919291022772
 31
0.0
  0
LINE
  5
4463
  8
0
  6
ACISOTGL
 62
     0
 10
390.78383824823408
 20
317.11740891022799
 30
0.0
 11
390.78383824823408
 21
299.11740891022811
 31
0.0
  0
LINE
  5
4464
  8
0
  6
ACISOTGL
 62
     0
 10
375.78383824823408
 20
317.11740891022799
 30
0.0
 11
375.78383824823408
 21
299.11740891022811
 31
0.0
  0
LINE
  5
4465
  8
0
 62
     0
 10
404.46359824823412
 20
489.25272291022912
 30
0.0
 11
413.28383824823402
 21
489.25272291022912
 31
0.0
  0
LINE
  5
446C
  8
0
 62
     0
 10
413.28383824823402
 20
354.61742391022813
 30
0.0
 11
413.28383824823402
 21
510.61743291022782
 31
0.0
  0
LINE
  5
446D
  8
0
 62
     0
 10
403.28384824823411
 20
330.69963891022797
 30
0.0
 11
405.63014824823398
 21
330.69963891022797
 31
0.0
  0
LINE
  5
446E
  8
0
 62
     0
 10
383.28383824823402
 20
495.95229340269782
 30
0.0
 11
398.45834824823419
 21
496.48218340269682
 31
0.0
  0
LINE
  5
446F
  8
0
 62
     0
 10
403.28384824823411
 20
323.36742291022767
 30
0.0
 11
403.28384824823411
 21
508.33683291022771
 31
0.0
  0
LINE
  5
4470
  8
0
 62
     0
 10
383.28383824823402
 20
325.95229340269788
 30
0.0
 11
398.14319824823423
 21
325.43338640269832
 31
0.0
  0
LINE
  5
4471
  8
0
 62
     0
 10
383.28383824823402
 20
494.61741291022798
 30
0.0
 11
383.28383824823402
 21
460.81414547664889
 31
0.0
  0
LINE
  5
4472
  8
0
 62
     0
 10
405.2140182482338
 20
510.33561291022772
 30
0.0
 11
413.28383824823402
 21
510.61740291022772
 31
0.0
  0
LINE
  5
4473
  8
0
 62
     0
 10
403.28384824823411
 20
347.25804891022813
 30
0.0
 11
410.92886824823421
 21
347.25804891022813
 31
0.0
  0
CIRCLE
  5
4474
  8
0
 62
     0
 10
832.56544988610517
 20
439.11739791022791
 30
0.0
 40
2.75000007
  0
CIRCLE
  5
4475
  8
0
 62
     0
 10
832.56544988610517
 20
439.11739791022791
 30
0.0
 40
4.000000199999997
  0
ARC
  5
4476
  8
0
 62
     0
 10
832.56544988610517
 20
439.11739791022791
 30
0.0
 40
16.000000499999999
 50
108.2099599999993
 51
71.790052000001097
  0
ARC
  5
4477
  8
0
 62
     0
 10
403.28384824823411
 20
299.11740891022811
 30
0.0
 40
2.00000007
 50
90.000002999984659
 51
180.00001000000091
  0
ARC
  5
4478
  8
0
 62
     0
 10
763.5654318861051
 20
313.1173919102277
 30
0.0
 40
4.000000199999997
 50
0.0
 51
90.000002999984659
  0
ARC
  5
4479
  8
0
 62
     0
 10
398.36402824823409
 20
321.11740791022822
 30
0.0
 40
4.000000199999997
 50
270.0
 51
342.25533000000797
  0
ARC
  5
447A
  8
0
 62
     0
 10
413.28383824823402
 20
367.74182991022809
 30
0.0
 40
4.000000199999997
 50
342.25533000000797
 51
0.0
  0
ARC
  5
447B
  8
0
 62
     0
 10
493.28384824823451
 20
332.11742391022813
 30
0.0
 40
15.000000299999989
 50
179.999989999999
 51
270.0
  0
ARC
  5
447C
  8
0
 62
     0
 10
486.2838282482345
 20
470.56014291022763
 30
0.0
 40
8.0000000999999976
 50
90.000002999984659
 51
180.00001000000091
  0
ARC
  5
447D
  8
0
 62
     0
 10
720.56544488610496
 20
314.11740891022811
 30
0.0
 40
3.0
 50
90.000002999984659
 51
180.00001000000091
  0
ARC
  5
447E
  8
0
 62
     0
 10
944.56544288610564
 20
314.11740891022811
 30
0.0
 40
3.0
 50
0.0
 51
90.000002999984659
  0
ARC
  5
447F
  8
0
 62
     0
 10
901.56544388610553
 20
313.1173919102277
 30
0.0
 40
4.000000199999997
 50
90.000002999984659
 51
180.00001000000091
  0
ARC
  5
4480
  8
0
 62
     0
 10
832.56544988610517
 20
372.854684910228
 30
0.0
 40
77.000000999999983
 50
179.999989999999
 51
212.418390000009
  0
ARC
  5
4481
  8
0
 62
     0
 10
522.28382824823461
 20
404.34392691022799
 30
0.0
 40
3.0
 50
119.9999999999921
 51
180.00001000000091
  0
ARC
  5
4482
  8
0
 62
     0
 10
522.28382824823461
 20
473.89092291022968
 30
0.0
 40
3.0
 50
179.999989999999
 51
240.00001000000171
  0
ARC
  5
4483
  8
0
 62
     0
 10
523.28384824823445
 20
466.38537291022823
 30
0.0
 40
3.0
 50
0.0
 51
60.000001999997842
  0
ARC
  5
4484
  8
0
 62
     0
 10
523.28384824823445
 20
411.84948291022789
 30
0.0
 40
3.0
 50
299.99999999999199
 51
0.0
  0
ARC
  5
4485
  8
0
 62
     0
 10
490.28384824823428
 20
500.5983629102281
 30
0.0
 40
8.0000000999999976
 50
0.0
 51
88.499996999987545
  0
ARC
  5
4486
  8
0
 62
     0
 10
752.56543088610488
 20
332.11742391022813
 30
0.0
 40
15.000000299999989
 50
270.0
 51
0.0
  0
ARC
  5
4487
  8
0
 62
     0
 10
367.28384824823439
 20
315.11740791022908
 30
0.0
 40
2.00000007
 50
90.000002999984659
 51
180.00001000000091
  0
ARC
  5
4488
  8
0
 62
     0
 10
524.28380824823466
 20
315.11740791022908
 30
0.0
 40
2.00000007
 50
0.0
 51
90.000002999984659
  0
ARC
  5
4489
  8
0
 62
     0
 10
490.28384824823428
 20
339.57514191022773
 30
0.0
 40
8.0000000999999976
 50
270.0
 51
0.0
  0
ARC
  5
448A
  8
0
 62
     0
 10
895.56544388610507
 20
299.11740891022811
 30
0.0
 40
2.00000007
 50
0.0
 51
90.000002999984659
  0
ARC
  5
448B
  8
0
 62
     0
 10
769.56543188610453
 20
299.11740891022811
 30
0.0
 40
2.00000007
 50
90.000002999984659
 51
180.00001000000091
  0
ARC
  5
448C
  8
0
 62
     0
 10
506.28380824823449
 20
495.11742291022972
 30
0.0
 40
8.0000000999999976
 50
179.999989999999
 51
270.0
  0
ARC
  5
448D
  8
0
 62
     0
 10
832.56544988610517
 20
422.11742691022761
 30
0.0
 40
65.000000999999997
 50
0.0
 51
180.00001000000091
  0
ARC
  5
448E
  8
0
 62
     0
 10
832.56544988610517
 20
411.11742591022789
 30
0.0
 40
99.500004000000004
 50
8.4654901000032652
 51
171.53449999999989
  0
ARC
  5
448F
  8
0
 62
     0
 10
527.28380824823455
 20
324.65680791022783
 30
0.0
 40
8.0000000999999976
 50
179.999989999999
 51
252.54239000001229
  0
ARC
  5
4490
  8
0
 62
     0
 10
899.3870358861052
 20
477.93903291022758
 30
0.0
 40
16.000000499999999
 50
17.079463000014581
 51
72.920534000004693
  0
ARC
  5
4491
  8
0
 62
     0
 10
912.56544188610508
 20
332.11742391022813
 30
0.0
 40
15.000000299999989
 50
179.999989999999
 51
270.0
  0
ARC
  5
4492
  8
0
 62
     0
 10
832.56544988610517
 20
372.854684910228
 30
0.0
 40
77.000000999999983
 50
327.58160000001169
 51
0.0
  0
ARC
  5
4493
  8
0
 62
     0
 10
766.09738388610504
 20
477.58548291022788
 30
0.0
 40
16.000000499999999
 50
107.0794600000024
 51
162.9205300000115
  0
ARC
  5
4494
  8
0
 62
     0
 10
488.28380824823438
 20
299.11740891022811
 30
0.0
 40
2.00000007
 50
0.0
 51
90.000002999984659
  0
ARC
  5
4495
  8
0
 62
     0
 10
901.56544388610553
 20
471.21111291022788
 30
0.0
 40
8.0000000999999976
 50
0.0
 51
41.053351000015923
  0
ARC
  5
4496
  8
0
 62
     0
 10
763.5654318861051
 20
471.21111291022788
 30
0.0
 40
8.0000000999999976
 50
138.9466500000033
 51
180.00001000000091
  0
ARC
  5
4497
  8
0
 62
     0
 10
515.28380824823455
 20
483.11742291022767
 30
0.0
 40
4.000000199999997
 50
0.0
 51
90.000002999984659
  0
CIRCLE
  5
4498
  8
0
 62
     0
 10
832.56544988610517
 20
439.11739791022791
 30
0.0
 40
29.000001000000001
  0
ARC
  5
4499
  8
0
 62
     0
 10
397.9687182482345
 20
320.43643940269823
 30
0.0
 40
5.0000000999999967
 50
15.764915886639431
 51
87.999999999995993
  0
ARC
  5
449A
  8
0
 62
     0
 10
405.2838282482345
 20
508.33683291022771
 30
0.0
 40
2.00000007
 50
91.999997999994264
 51
109.0653999999879
  0
ARC
  5
449B
  8
0
 62
     0
 10
405.2838282482345
 20
508.33683291022771
 30
0.0
 40
2.00000007
 50
109.0653999999879
 51
180.00001000000091
  0
ARC
  5
449C
  8
0
 62
     0
 10
398.28383824823408
 20
501.47913340269793
 30
0.0
 40
5.0000000999999967
 50
272.00000000000398
 51
0.0
  0
POLYLINE
  5
449D
  8
0
 62
     0
 66
     1
 10
0.0
 20
0.0
 30
0.0
  0
VERTEX
  5
449E
  8
0
 62
     0
 10
441.0530382482346
 20
466.58973291022772
 30
0.0
 42
0.038759412
  0
VERTEX
  5
449F
  8
0
 62
     0
 10
443.80085824823402
 20
469.50060291022788
 30
0.0
 42
0.04530642
  0
VERTEX
  5
44A0
  8
0
 62
     0
 10
446.02304824823432
 20
472.82832291022783
 30
0.0
 42
0.052171517
  0
VERTEX
  5
44A1
  8
0
 62
     0
 10
447.55973824823428
 20
476.52612291022911
 30
0.0
 42
0.057266797
  0
VERTEX
  5
44A2
  8
0
 62
     0
 10
448.25399824823472
 20
480.4648829102282
 30
0.0
 42
0.058402473
  0
VERTEX
  5
44A3
  8
0
 62
     0
 10
448.02323824823401
 20
484.45308291022792
 30
0.0
 42
0.055045428
  0
VERTEX
  5
44A4
  8
0
 62
     0
 10
446.8977282482341
 20
488.28825291022758
 30
0.0
 42
0.048778207
  0
VERTEX
  5
44A5
  8
0
 62
     0
 10
445.004848248234
 20
491.80875291022789
 30
0.0
 42
0.041944178
  0
VERTEX
  5
44A6
  8
0
 62
     0
 10
442.50734824823439
 20
494.93178291022792
 30
0.0
 42
0.035908203
  0
VERTEX
  5
44A7
  8
0
 62
     0
 10
439.55474824823472
 20
497.63256291022759
 30
0.0
 42
0.031063143
  0
VERTEX
  5
44A8
  8
0
 62
     0
 10
436.26806824823399
 20
499.91652291022791
 30
0.0
 42
0.027381807
  0
VERTEX
  5
44A9
  8
0
 62
     0
 10
432.73613824823462
 20
501.80364291022772
 30
0.0
 42
0.024647351
  0
VERTEX
  5
44AA
  8
0
 62
     0
 10
429.02711824823399
 20
503.31477291022662
 30
0.0
 42
0.022677519
  0
VERTEX
  5
44AB
  8
0
 62
     0
 10
425.19173824823412
 20
504.46944291022771
 30
0.0
 42
0.021321472
  0
VERTEX
  5
44AC
  8
0
 62
     0
 10
421.2693282482341
 20
505.2832529102281
 30
0.0
 42
0.020471059
  0
VERTEX
  5
44AD
  8
0
 62
     0
 10
417.29243824823402
 20
505.76733291022788
 30
0.0
 42
0.020088491
  0
VERTEX
  5
44AE
  8
0
 62
     0
 10
413.28380824823438
 20
505.92825291022803
 30
0.0
  0
SEQEND
  5
44AF
  8
0
 62
     0
  0
POLYLINE
  5
44B0
  8
0
 62
     0
 66
     1
 10
0.0
 20
0.0
 30
0.0
  0
VERTEX
  5
44B1
  8
0
 62
     0
 10
446.74049824823447
 20
483.75882291022759
 30
0.0
 42
0.046333928
  0
VERTEX
  5
44B2
  8
0
 62
     0
 10
444.8886882482343
 20
484.81644291022758
 30
0.0
 42
0.024113287
  0
VERTEX
  5
44B3
  8
0
 62
     0
 10
442.90919824823402
 20
485.61630291022789
 30
0.0
 42
0.015482173
  0
VERTEX
  5
44B4
  8
0
 62
     0
 10
440.87225824823412
 20
486.26097291022768
 30
0.0
 42
0.01117072
  0
VERTEX
  5
44B5
  8
0
 62
     0
 10
438.80453824823383
 20
486.79746291022781
 30
0.0
 42
0.0086851636
  0
VERTEX
  5
44B6
  8
0
 62
     0
 10
436.71695824823411
 20
487.2521429102278
 30
0.0
 42
0.0071112813
  0
VERTEX
  5
44B7
  8
0
 62
     0
 10
434.61527824823418
 20
487.64115291022802
 30
0.0
 42
0.0060487741
  0
VERTEX
  5
44B8
  8
0
 62
     0
 10
432.50255824823461
 20
487.97517291022791
 30
0.0
 42
0.0052886701
  0
VERTEX
  5
44B9
  8
0
 62
     0
 10
430.3851882482341
 20
488.26101291022758
 30
0.0
 42
0.0047450804
  0
VERTEX
  5
44BA
  8
0
 62
     0
 10
428.26007824823398
 20
488.50470291022782
 30
0.0
 42
0.004337472
  0
VERTEX
  5
44BB
  8
0
 62
     0
 10
426.13037824823402
 20
488.70984291022791
 30
0.0
 42
0.0040309329
  0
VERTEX
  5
44BC
  8
0
 62
     0
 10
423.99758824823391
 20
488.8793429102281
 30
0.0
 42
0.0038017188
  0
VERTEX
  5
44BD
  8
0
 62
     0
 10
421.8623682482343
 20
489.01545291022802
 30
0.0
 42
0.0036333127
  0
VERTEX
  5
44BE
  8
0
 62
     0
 10
419.72528824823422
 20
489.11985291022762
 30
0.0
 42
0.0035147917
  0
VERTEX
  5
44BF
  8
0
 62
     0
 10
417.586888248234
 20
489.19371291022759
 30
0.0
 42
0.0034390753
  0
VERTEX
  5
44C0
  8
0
 62
     0
 10
415.44764824823409
 20
489.23784291022781
 30
0.0
 42
0.0034021186
  0
VERTEX
  5
44C1
  8
0
 62
     0
 10
413.307958248234
 20
489.25272291022912
 30
0.0
  0
SEQEND
  5
44C2
  8
0
 62
     0
  0
LINE
  5
44D8
  8
0
  6
AM_ISO08W050
 62
     0
 10
91.138628926443772
 20
410.95229340269782
 30
0.0
 11
409.15629952425371
 21
410.95229340269782
 31
0.0
  0
LINE
  5
4556
  8
0
 62
     0
 10
383.28383824823402
 20
325.95229340269788
 30
0.0
 11
383.28383824823402
 21
495.95229340269782
 31
0.0
  0
LINE
  5
45BD
  8
0
 62
     0
 10
392.28383824823408
 20
507.95228040269791
 30
0.0
 11
403.2838482482357
 21
507.95228040269791
 31
0.0
  0
LINE
  5
45BE
  8
0
 62
     0
 10
392.28383824823408
 20
496.26657416879891
 30
0.0
 11
392.28383824823408
 21
507.95228040269791
 31
0.0
  0
LINE
  5
45BF
  8
0
 62
     0
 10
393.28382824823518
 20
508.3174311102282
 30
0.0
 11
394.47926824823662
 21
512.77885111022817
 31
0.0
  0
LINE
  5
45C0
  8
0
 62
     0
 10
408.71034808790358
 20
510.4577012325841
 30
0.0
 11
408.04775824823503
 21
512.93041111022785
 31
0.0
  0
LINE
  5
45C1
  8
0
 62
     0
 10
395.15762824823548
 20
513.47782111022821
 30
0.0
 11
401.28383824823578
 21
515.31745111022644
 31
0.0
  0
LINE
  5
45C2
  8
0
 62
     0
 10
401.28383824823578
 20
515.31745111022644
 30
0.0
 11
407.34908824823481
 21
513.63526111022793
 31
0.0
  0
CIRCLE
  5
45C3
  8
0
 62
     0
 10
401.28383824823578
 20
525.31741111022825
 30
0.0
 40
9.9999992999999971
  0
ARC
  5
45C4
  8
0
 62
     0
 10
401.28383824823578
 20
525.31741111022825
 30
0.0
 40
16.299997799999989
 50
304.10956999998649
 51
235.89041999998841
  0
ARC
  5
45C5
  8
0
 62
     0
 10
390.45284824823563
 20
509.34307111022781
 30
0.0
 40
3.0
 50
332.38054627351448
 51
55.861737000009889
  0
ARC
  5
45C6
  8
0
 62
     0
 10
395.44520824823559
 20
512.52004111022802
 30
0.0
 40
1.0000000199999941
 50
106.71441999999681
 51
164.99999000001139
  0
ARC
  5
45C7
  8
0
 62
     0
 10
407.08187824823523
 20
512.67163111022785
 30
0.0
 40
1.0000000199999941
 50
14.99999999999446
 51
74.498793000027931
  0
ARC
  5
45C8
  8
0
 62
     0
 10
412.11482824823622
 20
509.34307111022781
 30
0.0
 40
3.0
 50
124.1382629999901
 51
157.73726171935499
  0
LINE
  5
45C9
  8
0
 62
     0
 10
829.4154403363251
 20
538.46740861022784
 30
0.0
 11
829.4154403363251
 21
512.31745861022694
 31
0.0
  0
LINE
  5
45CA
  8
0
 62
     0
 10
835.71544333632642
 20
538.46740861022784
 30
0.0
 11
835.71544333632642
 21
512.31745861022694
 31
0.0
  0
LINE
  5
45CB
  8
0
 62
     0
 10
825.16140626584013
 20
510.54158906603311
 30
0.0
 11
825.76088533632617
 21
512.77888861022825
 31
0.0
  0
LINE
  5
45CC
  8
0
 62
     0
 10
839.96948103198702
 20
510.54158991481449
 30
0.0
 11
839.370001336325
 21
512.77888861022825
 31
0.0
  0
LINE
  5
45CD
  8
0
 62
     0
 10
826.43920033632503
 20
513.47779861022832
 30
0.0
 11
829.4154403363251
 21
514.37152861022787
 31
0.0
  0
LINE
  5
45CE
  8
0
 62
     0
 10
835.71544333632642
 20
514.37152861022787
 30
0.0
 11
838.69168633632501
 21
513.47779861022832
 31
0.0
  0
ARC
  5
45CF
  8
0
 62
     0
 10
832.56544933632631
 20
538.46740861022784
 30
0.0
 40
3.1500002999999981
 50
359.999989999999
 51
179.999989999999
  0
ARC
  5
45D0
  8
0
 62
     0
 10
827.41544233632533
 20
512.31745861022694
 30
0.0
 40
2.00000007
 50
307.94188207110471
 51
0.0
  0
ARC
  5
45D1
  8
0
 62
     0
 10
837.71544433632505
 20
512.31745861022694
 30
0.0
 40
2.00000007
 50
179.999989999999
 51
232.0580947086726
  0
ARC
  5
45D2
  8
0
 62
     0
 10
826.72681333632625
 20
512.5200486102284
 30
0.0
 40
1.0000000199999941
 50
106.71441999999649
 51
164.99999000001139
  0
ARC
  5
45D3
  8
0
 62
     0
 10
838.40408833632512
 20
512.5200486102284
 30
0.0
 40
1.0000000199999941
 50
14.99999999999446
 51
73.285573000003694
  0
LINE
  5
45D7
  8
0
 62
     0
 10
730.32253988610523
 20
444.45229340269782
 30
0.0
 11
730.56544988610494
 21
444.45229340269782
 31
0.0
  0
LINE
  5
45D8
  8
0
 62
     0
 10
688.36465988610519
 20
450.98937340269799
 30
0.0
 11
692.33784988610478
 21
451.60772340269762
 31
0.0
  0
LINE
  5
45D9
  8
0
 62
     0
 10
688.34550988610522
 20
370.9312334026979
 30
0.0
 11
692.33782988610506
 21
370.29668340269768
 31
0.0
  0
LINE
  5
45DA
  8
0
 62
     0
 10
725.33784988610523
 20
376.70388340269818
 30
0.0
 11
725.33784988610523
 21
445.20073340269818
 31
0.0
  0
LINE
  5
45DB
  8
0
 62
     0
 10
720.29700988610523
 20
370.78106340269801
 30
0.0
 11
717.36784988610498
 21
370.30669340269759
 31
0.0
  0
LINE
  5
45DC
  8
0
 62
     0
 10
724.66138988610521
 20
370.72753340269782
 30
0.0
 11
717.3978398861052
 21
370.31667340269792
 31
0.0
  0
LINE
  5
45DD
  8
0
 62
     0
 10
730.32253988610523
 20
399.88737380063799
 30
0.0
 11
730.32253988610523
 21
445.18663340269791
 31
0.0
  0
LINE
  5
45DE
  8
0
 62
     0
 10
722.80474988610524
 20
378.75554340269792
 30
0.0
 11
722.80474988610524
 21
443.14882340269781
 31
0.0
  0
LINE
  5
45DF
  8
0
 62
     0
 10
724.66140988610505
 20
451.17705340269799
 30
0.0
 11
717.3978398861052
 21
451.58791340269772
 31
0.0
  0
LINE
  5
45E0
  8
0
 62
     0
 10
720.29702988610518
 20
451.12355340269801
 30
0.0
 11
717.36784988610498
 21
451.59792340269769
 31
0.0
  0
LINE
  5
45E1
  8
0
 62
     0
 10
697.5292798861052
 20
378.0878834026982
 30
0.0
 11
697.5292798861052
 21
443.81765340269749
 31
0.0
  0
LINE
  5
45E2
  8
0
 62
     0
 10
682.56544988610528
 20
378.85955340269783
 30
0.0
 11
682.56544988610528
 21
443.04622340269782
 31
0.0
  0
ARC
  5
45E3
  8
0
 62
     0
 10
704.8246198861051
 20
440.9854934026975
 30
0.0
 40
71.783180000000002
 50
259.98238000000219
 51
280.06341000000128
  0
ARC
  5
45E4
  8
0
 62
     0
 10
703.06284988610514
 20
495.93050340269798
 30
0.0
 40
122.22763
 50
261.9788100000024
 51
277.6516100000041
  0
ARC
  5
45E5
  8
0
 62
     0
 10
704.8246198861051
 20
380.93157340269789
 30
0.0
 40
71.770743999999979
 50
79.871153000001541
 51
100.01937999999841
  0
ARC
  5
45E6
  8
0
 62
     0
 10
703.05784988610515
 20
325.98690340269798
 30
0.0
 40
122.21539
 50
82.345156999997343
 51
98.019573000000534
  0
ARC
  5
45E7
  8
0
 62
     0
 10
718.80474988610524
 20
443.14882340269781
 30
0.0
 40
4.0
 50
0.0
 51
82.345156999997343
  0
ARC
  5
45E8
  8
0
 62
     0
 10
718.80474988610524
 20
378.75554340269792
 30
0.0
 40
4.0
 50
277.6516100000041
 51
0.0
  0
ARC
  5
45E9
  8
0
 62
     0
 10
724.32253988610523
 20
376.7179834026976
 30
0.0
 40
6.0
 50
273.23752000000201
 51
286.408853959559
  0
ARC
  5
45EA
  8
0
 62
     0
 10
719.337849886105
 20
376.70388340269818
 30
0.0
 40
6.0
 50
279.19880999999992
 51
0.0
  0
ARC
  5
45EB
  8
0
 62
     0
 10
719.337849886105
 20
445.20073340269818
 30
0.0
 40
6.0
 50
0.0
 51
80.801192999999813
  0
ARC
  5
45EC
  8
0
 62
     0
 10
724.32253988610523
 20
445.18663340269791
 30
0.0
 40
6.0
 50
0.0
 51
86.762478999996915
  0
ARC
  5
45ED
  8
0
 62
     0
 10
693.5292798861052
 20
378.0878834026982
 30
0.0
 40
4.0
 50
265.37478999999797
 51
0.0
  0
ARC
  5
45EE
  8
0
 62
     0
 10
693.5292798861052
 20
443.81765340269749
 30
0.0
 40
4.0
 50
0.0
 51
94.623254999999347
  0
ARC
  5
45EF
  8
0
 62
     0
 10
686.56544988610528
 20
443.04622340269782
 30
0.0
 40
4.0
 50
98.019573000000534
 51
180.00001000000091
  0
ARC
  5
45F0
  8
0
 62
     0
 10
689.2873398861052
 20
445.0607534026978
 30
0.0
 40
6.0
 50
98.845930999996497
 51
177.25420999998229
  0
ARC
  5
45F1
  8
0
 62
     0
 10
686.56544988610528
 20
378.85955340269783
 30
0.0
 40
4.0
 50
179.999989999999
 51
261.978819999998
  0
ARC
  5
45F2
  8
0
 62
     0
 10
689.2873398861052
 20
376.85686340269808
 30
0.0
 40
6.0
 50
182.86755000001421
 51
260.96893000000063
  0
LINE
  5
45F3
  8
0
 62
     0
 10
730.56544988610494
 20
448.45229444020492
 30
0.0
 11
740.19107807562943
 21
448.79040651711472
 31
0.0
  0
LINE
  5
45F4
  8
0
 62
     0
 10
730.56544988610494
 20
448.45229444020492
 30
0.0
 11
730.56544988610494
 21
401.51944670862002
 31
0.0
  0
ARC
  5
57C0
  8
0
 62
     0
 10
104.78383824823401
 20
311.75229340269789
 30
0.0
 40
2.0
 50
180.0
 51
270.0
  0
LINE
  5
57C2
  8
0
 62
     0
 10
175.78383824823399
 20
511.75229340269772
 30
0.0
 11
175.78383824823399
 21
309.75229340269789
 31
0.0
  0
ARC
  5
57C3
  8
0
 62
     0
 10
105.183838248234
 20
496.72910840269782
 30
0.0
 40
2.399999999999999
 50
159.9999999999998
 51
180.0
  0
ARC
  5
57C4
  8
0
 62
     0
 10
109.778302248234
 20
509.35229340269791
 30
0.0
 40
2.399999999999999
 50
90.0
 51
159.9999999999998
  0
LINE
  5
57C5
  8
0
 62
     0
 10
107.523039248234
 20
510.17314140269781
 30
0.0
 11
102.9285762482339
 21
497.54995740269783
 31
0.0
  0
LINE
  5
57C6
  8
0
 62
     0
 10
108.0978032482341
 20
511.06574740269792
 30
0.0
 11
108.0978032482341
 21
309.75229340269789
 31
0.0
  0
LINE
  5
57C7
  8
0
 62
     0
 10
102.78383824823401
 20
496.72910840269782
 30
0.0
 11
102.78383824823401
 21
311.75229340269789
 31
0.0
  0
LINE
  5
57C8
  8
0
 62
     0
 10
175.78383824823399
 20
511.75229340269772
 30
0.0
 11
109.778302248234
 21
511.75229340269772
 31
0.0
  0
ARC
  5
57C9
  8
0
 62
     0
 10
276.28383824823391
 20
-147.89768259730201
 30
0.0
 40
600.59997599999986
 50
86.033759999997272
 51
93.836910000000515
  0
ARC
  5
57CA
  8
0
 62
     0
 10
236.46844324823411
 20
445.76869240269792
 30
0.0
 40
5.5999980000000003
 50
93.837062000000572
 51
179.99998200000081
  0
ARC
  5
57CB
  8
0
 62
     0
 10
238.53224324823401
 20
445.9034954026979
 30
0.0
 40
5.5999980000000003
 50
93.63805599999759
 51
179.99998200000081
  0
ARC
  5
57CC
  8
0
 62
     0
 10
229.360441248234
 20
410.95229340269782
 30
0.0
 40
15.000002
 50
310.58999199999818
 51
49.409701999999101
  0
ARC
  5
57CD
  8
0
 62
     0
 10
276.28383824823391
 20
-147.89768259730201
 30
0.0
 40
596.09997599999986
 50
86.44328999999945
 51
93.315089000002914
  0
ARC
  5
57CE
  8
0
 62
     0
 10
232.3197862482341
 20
410.95229340269782
 30
0.0
 40
14.0
 50
317.10021800000243
 51
42.899781999997629
  0
ARC
  5
57CF
  8
0
 62
     0
 10
244.4800412482341
 20
422.25221340269792
 30
0.0
 40
2.6000000000000001
 50
180.0
 51
222.8997819999976
  0
LINE
  5
57D0
  8
0
 62
     0
 10
238.421343248234
 20
443.61089340269791
 30
0.0
 11
238.421343248234
 21
423.8617934026978
 31
0.0
  0
LINE
  5
57D1
  8
0
 62
     0
 10
241.88004124823411
 20
422.25221340269792
 30
0.0
 11
241.88004124823411
 21
440.53459140269791
 31
0.0
  0
ARC
  5
57D2
  8
0
 62
     0
 10
242.02134124823411
 20
443.61089340269791
 30
0.0
 40
3.5999979999999989
 50
93.315005000002898
 51
179.99998200000081
  0
ARC
  5
57D3
  8
0
 62
     0
 10
240.421343248234
 20
423.8617934026978
 30
0.0
 40
1.999997
 50
179.99998200000081
 51
229.41004899999919
  0
LINE
  5
57D4
  8
0
 62
     0
 10
230.8684402482339
 20
445.76869340269792
 30
0.0
 11
230.8684402482339
 21
376.1358894026979
 31
0.0
  0
LINE
  5
57D5
  8
0
 62
     0
 10
232.93224124823411
 20
445.90349740269778
 30
0.0
 11
232.93224124823411
 21
376.00108940269791
 31
0.0
  0
LINE
  5
57D6
  8
0
 62
     0
 10
241.88004124823411
 20
378.42009740269782
 30
0.0
 11
241.88004124823411
 21
399.65237340269789
 31
0.0
  0
LINE
  5
57D7
  8
0
 62
     0
 10
238.421343248234
 20
378.28955440269777
 30
0.0
 11
238.421343248234
 21
398.042797402698
 31
0.0
  0
ARC
  5
57D8
  8
0
 62
     0
 10
244.4800412482341
 20
399.65237340269789
 30
0.0
 40
2.6000000000000001
 50
137.1002180000024
 51
180.0
  0
ARC
  5
57D9
  8
0
 62
     0
 10
240.421343248234
 20
398.042797402698
 30
0.0
 40
2.0
 50
130.5900589999992
 51
179.99998200000081
  0
ARC
  5
57DA
  8
0
 62
     0
 10
276.28383824823391
 20
969.8022694026979
 30
0.0
 40
596.09997599999986
 50
266.6850579999973
 51
273.55700699999937
  0
ARC
  5
57DB
  8
0
 62
     0
 10
242.02134124823411
 20
378.29369740269777
 30
0.0
 40
3.6000009999999989
 50
180.00007799999869
 51
266.68501400000292
  0
ARC
  5
57DC
  8
0
 62
     0
 10
276.28383824823391
 20
969.8022694026979
 30
0.0
 40
600.59997599999986
 50
266.16305400000141
 51
273.96601299999787
  0
ARC
  5
57DD
  8
0
 62
     0
 10
236.46844324823411
 20
376.135894402698
 30
0.0
 40
5.600000999999998
 50
180.00005699999841
 51
266.1630369999973
  0
ARC
  5
57DE
  8
0
 62
     0
 10
238.53224324823401
 20
376.0010944026979
 30
0.0
 40
5.599998999999996
 50
180.00005699999841
 51
266.36204099999878
  0
ARC
  5
57DF
  8
0
 62
     0
 10
317.57794424823402
 20
447.67229440269767
 30
0.0
 40
3.5999989999999982
 50
0.0000179999992061
 51
86.033744000000937
  0
LINE
  5
57E0
  8
0
 62
     0
 10
312.76094224823407
 20
377.64779640269802
 30
0.0
 11
312.76094224823407
 21
444.25679840269771
 31
0.0
  0
LINE
  5
57E1
  8
0
 62
     0
 10
316.07794424823402
 20
377.8445964026979
 30
0.0
 11
316.07794424823402
 21
444.06431040269791
 31
0.0
  0
ARC
  5
57E2
  8
0
 62
     0
 10
313.07794424823402
 20
444.05999740269772
 30
0.0
 40
3.0000029999999982
 50
0.0000179999992061
 51
86.443252999999871
  0
ARC
  5
57E3
  8
0
 62
     0
 10
309.76094224823407
 20
444.25679740269771
 30
0.0
 40
2.999998999999999
 50
0.0000179999992061
 51
86.764375999999984
  0
LINE
  5
57E4
  8
0
 62
     0
 10
321.17793424823401
 20
374.22161240269782
 30
0.0
 11
321.17793424823401
 21
447.68015540269778
 31
0.0
  0
ARC
  5
57E5
  8
0
 62
     0
 10
309.76094224823407
 20
377.64779640269802
 30
0.0
 40
3.0
 50
273.23604299999789
 51
0.0000179999992061
  0
ARC
  5
57E6
  8
0
 62
     0
 10
317.57794424823402
 20
374.23209340269801
 30
0.0
 40
3.6000059999999969
 50
273.96599899999802
 51
0.0000179999992061
  0
ARC
  5
57E7
  8
0
 62
     0
 10
313.07794424823402
 20
377.8445964026979
 30
0.0
 40
3.0
 50
273.55702100000281
 51
0.0000179999992061
  0
LINE
  5
57E8
  8
0
 62
     0
 10
328.24071424823399
 20
460.13729340269782
 30
0.0
 11
328.24071424823399
 21
439.77229340269793
 31
0.0
  0
LINE
  5
57E9
  8
0
 62
     0
 10
344.28383724823402
 20
460.13729340269782
 30
0.0
 11
344.28383724823402
 21
439.77229340269793
 31
0.0
  0
LINE
  5
57EA
  8
0
 62
     0
 10
358.83323324823402
 20
354.93149740269791
 30
0.0
 11
344.28383724823402
 21
354.93149740269791
 31
0.0
  0
LINE
  5
57EB
  8
0
 62
     0
 10
363.78383824823402
 20
366.34384740269792
 30
0.0
 11
344.28383724823402
 21
366.34384740269792
 31
0.0
  0
LINE
  5
57EC
  8
0
 62
     0
 10
328.98923524823402
 20
359.64658740269789
 30
0.0
 11
344.28383824823402
 21
354.93149740269791
 31
0.0
  0
LINE
  5
57ED
  8
0
 62
     0
 10
344.28383824823402
 20
366.34384740269792
 30
0.0
 11
329.24789724823398
 21
365.80309640269792
 31
0.0
  0
ARC
  5
57EE
  8
0
 62
     0
 10
329.28383824823402
 20
364.80374240269782
 30
0.0
 40
1.0
 50
92.059690999997201
 51
180.0
  0
ARC
  5
57EF
  8
0
 62
     0
 10
329.28383824823402
 20
360.6022074026979
 30
0.0
 40
1.0
 50
180.0
 51
252.86627500000199
  0
LINE
  5
57F0
  8
0
 62
     0
 10
344.28383824823402
 20
486.80508040269791
 30
0.0
 11
328.98337924823409
 21
481.98521440269792
 31
0.0
  0
ARC
  5
57F1
  8
0
 62
     0
 10
329.28383824823402
 20
481.03141940269791
 30
0.0
 40
1.0
 50
107.485179
 51
180.0
  0
ARC
  5
57F2
  8
0
 62
     0
 10
329.28383824823402
 20
478.68035440269767
 30
0.0
 40
1.0
 50
180.0
 51
270.0
  0
LINE
  5
57F3
  8
0
 62
     0
 10
329.33239324823398
 20
477.68153340269771
 30
0.0
 11
344.28383824823402
 21
478.4083534026978
 31
0.0
  0
LINE
  5
57F4
  8
0
 62
     0
 10
363.78383824823402
 20
478.4083534026978
 30
0.0
 11
344.28383824823402
 21
478.4083534026978
 31
0.0
  0
LINE
  5
57F5
  8
0
 62
     0
 10
287.28383824823402
 20
509.23878640269783
 30
0.0
 11
374.73102324823401
 21
509.23878640269783
 31
0.0
  0
ARC
  5
57F6
  8
0
 62
     0
 10
198.54808324823409
 20
507.23878640269771
 30
0.0
 40
2.0
 50
90.0
 51
156.10179999999991
  0
ARC
  5
57F7
  8
0
 62
     0
 10
374.73102324823401
 20
507.23878640269771
 30
0.0
 40
2.0
 50
10.00000199999911
 51
90.0
  0
LINE
  5
57F8
  8
0
 62
     0
 10
378.28383824823402
 20
498.60731040269792
 30
0.0
 11
376.70063824823399
 21
507.58608340269791
 31
0.0
  0
LINE
  5
57F9
  8
0
 62
     0
 10
378.02303024823402
 20
498.60731040269792
 30
0.0
 11
378.28383824823402
 21
498.60731040269792
 31
0.0
  0
ARC
  5
57FA
  8
0
 62
     0
 10
183.61505324823381
 20
506.04901240269771
 30
0.0
 40
2.0
 50
90.0
 51
169.99999800000089
  0
LINE
  5
57FB
  8
0
 62
     0
 10
179.28383824823399
 20
493.0030094026979
 30
0.0
 11
181.645438248234
 21
506.39630940269802
 31
0.0
  0
ARC
  5
57FC
  8
0
 62
     0
 10
374.68000424823401
 20
506.04901240269771
 30
0.0
 40
2.0
 50
10.00000199999911
 51
90.0
  0
LINE
  5
57FD
  8
0
 62
     0
 10
378.28383824823402
 20
497.12819240269772
 30
0.0
 11
376.64961924823399
 21
506.39630940269802
 31
0.0
  0
LINE
  5
57FE
  8
0
 62
     0
 10
179.28383824823399
 20
493.0030094026979
 30
0.0
 11
179.85174424823401
 21
493.0030094026979
 31
0.0
  0
LINE
  5
57FF
  8
0
 62
     0
 10
377.747867248234
 20
497.12819240269772
 30
0.0
 11
378.28383824823402
 21
497.12819240269772
 31
0.0
  0
ARC
  5
5800
  8
0
 62
     0
 10
374.59414924823398
 20
503.4962784026979
 30
0.0
 40
2.0
 50
10.000001000002101
 51
90.0
  0
ARC
  5
5801
  8
0
 62
     0
 10
183.7328442482339
 20
503.4962784026979
 30
0.0
 40
2.0
 50
90.0
 51
169.9999989999979
  0
LINE
  5
5802
  8
0
 62
     0
 10
179.28383824823399
 20
489.78225340269768
 30
0.0
 11
181.7632282482341
 21
503.84357440269793
 31
0.0
  0
ARC
  5
5803
  8
0
 62
     0
 10
183.91398524823401
 20
499.53109340269782
 30
0.0
 40
2.0
 50
90.0
 51
169.9999999999981
  0
LINE
  5
5804
  8
0
 62
     0
 10
179.28383824823399
 20
484.78976840269792
 30
0.0
 11
181.9443692482339
 21
499.87838940269791
 31
0.0
  0
ARC
  5
5805
  8
0
 62
     0
 10
184.1952132482339
 20
493.95366540269771
 30
0.0
 40
2.0
 50
90.0
 51
169.9999999999981
  0
LINE
  5
5806
  8
0
 62
     0
 10
179.28383824823399
 20
477.61741640269793
 30
0.0
 11
182.2255972482339
 21
494.30096240269791
 31
0.0
  0
ARC
  5
5807
  8
0
 62
     0
 10
184.290477248234
 20
487.95299840269792
 30
0.0
 40
2.0
 50
90.0
 51
169.9999989999979
  0
LINE
  5
5808
  8
0
 62
     0
 10
179.28383824823399
 20
471.07648040269771
 30
0.0
 11
182.32086124823411
 21
488.30029440269772
 31
0.0
  0
LINE
  5
5809
  8
0
 62
     0
 10
378.15557924823412
 20
494.81594240269777
 30
0.0
 11
376.56376424823401
 21
503.84357440269793
 31
0.0
  0
LINE
  5
580A
  8
0
 62
     0
 10
179.28383824823399
 20
489.78225340269768
 30
0.0
 11
180.164148248234
 21
489.78225340269768
 31
0.0
  0
ARC
  5
580B
  8
0
 62
     0
 10
374.464771248234
 20
499.53109340269782
 30
0.0
 40
2.0
 50
10.00000000000181
 51
90.0
  0
LINE
  5
580C
  8
0
 62
     0
 10
377.32703324823399
 20
494.81594240269777
 30
0.0
 11
376.43438724823397
 21
499.87838940269791
 31
0.0
  0
ARC
  5
580D
  8
0
 62
     0
 10
309.67285624823398
 20
493.95366540269771
 30
0.0
 40
2.0
 50
5.5986529999988397
 51
90.0
  0
ARC
  5
580E
  8
0
 62
     0
 10
309.67090124823397
 20
487.95299840269792
 30
0.0
 40
2.0
 50
5.42901900000194
 51
90.0
  0
LINE
  5
580F
  8
0
 62
     0
 10
380.28383824823402
 20
371.22958740269792
 30
0.0
 11
380.28383824823402
 21
473.01822640269791
 31
0.0
  0
LINE
  5
5810
  8
0
 62
     0
 10
380.28383824823402
 20
494.81594240269777
 30
0.0
 11
380.28383824823402
 21
498.95229340269782
 31
0.0
  0
LINE
  5
5811
  8
0
 62
     0
 10
328.24071424823399
 20
484.78976840269792
 30
0.0
 11
344.28383724823402
 21
489.38963040269778
 31
0.0
  0
LINE
  5
5812
  8
0
 62
     0
 10
312.58075324823398
 20
484.78976840269792
 30
0.0
 11
328.24071424823399
 21
484.78976840269792
 31
0.0
  0
LINE
  5
5813
  8
0
 62
     0
 10
344.28383724823402
 20
489.38963040269778
 30
0.0
 11
358.97712124823408
 21
489.38963040269778
 31
0.0
  0
ARC
  5
5814
  8
0
 62
     0
 10
360.983637248234
 20
482.43555940269778
 30
0.0
 40
2.600398999999999
 50
179.99998199999749
 51
269.99997799999852
  0
ARC
  5
5815
  8
0
 62
     0
 10
360.983637248234
 20
487.73554740269782
 30
0.0
 40
2.600403
 50
90.0
 51
179.99998199999749
  0
LINE
  5
5816
  8
0
 62
     0
 10
363.78383824823402
 20
485.15157840269791
 30
0.0
 11
362.28383824823402
 21
484.28555340269781
 31
0.0
  0
LINE
  5
5817
  8
0
 62
     0
 10
363.78383824823402
 20
486.15157840269802
 30
0.0
 11
362.28383824823402
 21
485.28555340269781
 31
0.0
  0
LINE
  5
5818
  8
0
 62
     0
 10
363.78383824823391
 20
491.18555340269802
 30
0.0
 11
363.78383824823402
 21
478.98555340269797
 31
0.0
  0
LINE
  5
5819
  8
0
 62
     0
 10
362.28383824823402
 20
491.18555340269802
 30
0.0
 11
363.78383824823391
 21
491.18555340269802
 31
0.0
  0
LINE
  5
581A
  8
0
 62
     0
 10
362.28383824823402
 20
478.98555340269797
 30
0.0
 11
363.78383824823402
 21
478.98555340269797
 31
0.0
  0
LINE
  5
581B
  8
0
 62
     0
 10
358.38384424823408
 20
487.73554740269782
 30
0.0
 11
358.38384424823408
 21
482.43555940269778
 31
0.0
  0
LINE
  5
581C
  8
0
 62
     0
 10
362.28383824823402
 20
491.18555340269802
 30
0.0
 11
362.28383824823402
 21
478.98555340269797
 31
0.0
  0
LINE
  5
581D
  8
0
 62
     0
 10
362.28383824823402
 20
479.83555340269783
 30
0.0
 11
360.983637248234
 21
479.83555340269783
 31
0.0
  0
LINE
  5
581E
  8
0
 62
     0
 10
362.28383824823402
 20
490.335553402698
 30
0.0
 11
360.983637248234
 21
490.335553402698
 31
0.0
  0
ARC
  5
581F
  8
0
 62
     0
 10
360.983637248234
 20
356.3936324026979
 30
0.0
 40
2.600398999999999
 50
179.99998199999749
 51
269.99997799999852
  0
ARC
  5
5820
  8
0
 62
     0
 10
360.983637248234
 20
361.693620402698
 30
0.0
 40
2.600403
 50
90.0
 51
179.99998199999749
  0
LINE
  5
5821
  8
0
 62
     0
 10
363.78383824823402
 20
359.10965140269792
 30
0.0
 11
362.28383824823402
 21
358.24362640269788
 31
0.0
  0
LINE
  5
5822
  8
0
 62
     0
 10
363.78383824823402
 20
360.10965140269792
 30
0.0
 11
362.28383824823402
 21
359.24362640269788
 31
0.0
  0
LINE
  5
5823
  8
0
 62
     0
 10
363.78383824823391
 20
365.14362640269798
 30
0.0
 11
363.78383824823402
 21
352.94362640269787
 31
0.0
  0
LINE
  5
5824
  8
0
 62
     0
 10
362.28383824823402
 20
365.14362640269798
 30
0.0
 11
363.78383824823391
 21
365.14362640269798
 31
0.0
  0
LINE
  5
5825
  8
0
 62
     0
 10
362.28383824823402
 20
352.94362640269787
 30
0.0
 11
363.78383824823402
 21
352.94362640269787
 31
0.0
  0
LINE
  5
5826
  8
0
 62
     0
 10
358.38384424823408
 20
361.693620402698
 30
0.0
 11
358.38384424823408
 21
356.3936324026979
 31
0.0
  0
LINE
  5
5827
  8
0
 62
     0
 10
362.28383824823402
 20
365.14362640269798
 30
0.0
 11
362.28383824823402
 21
352.94362640269787
 31
0.0
  0
LINE
  5
5828
  8
0
 62
     0
 10
362.28383824823402
 20
353.7936264026979
 30
0.0
 11
360.983637248234
 21
353.7936264026979
 31
0.0
  0
LINE
  5
5829
  8
0
 62
     0
 10
362.28383824823402
 20
364.29362640269801
 30
0.0
 11
360.983637248234
 21
364.29362640269801
 31
0.0
  0
LINE
  5
582A
  8
0
 62
     0
 10
378.22300824823412
 20
498.95229340269782
 30
0.0
 11
380.28383824823402
 21
498.95229340269782
 31
0.0
  0
LINE
  5
582B
  8
0
 62
     0
 10
183.91398524823401
 20
501.53109340269771
 30
0.0
 11
374.464771248234
 21
501.53109340269771
 31
0.0
  0
LINE
  5
582C
  8
0
 62
     0
 10
183.7328442482339
 20
505.4962784026979
 30
0.0
 11
374.59414924823398
 21
505.4962784026979
 31
0.0
  0
LINE
  5
582D
  8
0
 62
     0
 10
183.61505324823381
 20
508.04901240269783
 30
0.0
 11
374.68000424823401
 21
508.04901240269783
 31
0.0
  0
LINE
  5
582E
  8
0
 62
     0
 10
175.78383824823399
 20
504.45229340269782
 30
0.0
 11
181.302656248234
 21
504.45229340269782
 31
0.0
  0
LINE
  5
582F
  8
0
 62
     0
 10
198.54808324823409
 20
509.23878640269783
 30
0.0
 11
265.28383824823402
 21
509.23878640269783
 31
0.0
  0
LINE
  5
5830
  8
0
 62
     0
 10
344.28383724823402
 20
468.1122934026979
 30
0.0
 11
344.28383724823402
 21
462.7672934026977
 31
0.0
  0
LINE
  5
5831
  8
0
 62
     0
 10
328.24071424823399
 20
468.1122934026979
 30
0.0
 11
328.24071424823399
 21
462.7672934026977
 31
0.0
  0
LINE
  5
5832
  8
0
 62
     0
 10
344.28383724823402
 20
478.4083534026978
 30
0.0
 11
344.28383724823402
 21
470.81229340269772
 31
0.0
  0
LINE
  5
5833
  8
0
 62
     0
 10
344.28383724823402
 20
486.80508040269791
 30
0.0
 11
358.38384424823408
 21
486.80508040269791
 31
0.0
  0
LINE
  5
5834
  8
0
 62
     0
 10
179.28383824823399
 20
471.07648040269771
 30
0.0
 11
313.28383824823402
 21
471.07648040269771
 31
0.0
  0
LINE
  5
5835
  8
0
 62
     0
 10
312.60621124823427
 20
477.61741640269793
 30
0.0
 11
313.28383824823402
 21
477.61741640269793
 31
0.0
  0
LINE
  5
5836
  8
0
 62
     0
 10
184.290477248234
 20
489.95299840269792
 30
0.0
 11
309.67090124823397
 21
489.95299840269792
 31
0.0
  0
LINE
  5
5837
  8
0
 62
     0
 10
179.28383824823399
 20
477.61741640269793
 30
0.0
 11
180.43718124823391
 21
477.61741640269793
 31
0.0
  0
LINE
  5
5838
  8
0
 62
     0
 10
184.1952132482339
 20
495.95366540269799
 30
0.0
 11
309.67285624823398
 21
495.95366540269799
 31
0.0
  0
LINE
  5
5839
  8
0
 62
     0
 10
380.28383824823402
 20
473.01822640269791
 30
0.0
 11
383.28383824823402
 21
471.28617540269772
 31
0.0
  0
ARC
  5
583A
  8
0
 62
     0
 10
362.78383824823402
 20
474.01822640269768
 30
0.0
 40
1.0
 50
270.0
 51
0.0
  0
ARC
  5
583B
  8
0
 62
     0
 10
365.78383824823402
 20
492.81594240269771
 30
0.0
 40
2.0
 50
90.0
 51
180.0
  0
ARC
  5
583C
  8
0
 62
     0
 10
365.78383824823402
 20
488.69193740269782
 30
0.0
 40
2.0
 50
180.0
 51
270.0
  0
ARC
  5
583D
  8
0
 62
     0
 10
365.78383824823402
 20
484.69193740269782
 30
0.0
 40
2.0
 50
90.0
 51
180.0
  0
LINE
  5
583E
  8
0
 62
     0
 10
365.78383824823402
 20
494.81594240269777
 30
0.0
 11
383.28383824823402
 21
494.81594240269777
 31
0.0
  0
LINE
  5
583F
  8
0
 62
     0
 10
363.78383824823402
 20
473.01822640269791
 30
0.0
 11
380.28383824823402
 21
473.01822640269791
 31
0.0
  0
LINE
  5
5840
  8
0
 62
     0
 10
365.78383824823402
 20
486.69193740269782
 30
0.0
 11
383.28383824823402
 21
486.69193740269782
 31
0.0
  0
LINE
  5
5841
  8
0
 62
     0
 10
363.78383824823402
 20
474.01822640269768
 30
0.0
 11
363.78383824823402
 21
492.81594240269771
 31
0.0
  0
LINE
  5
5842
  8
0
 62
     0
 10
179.28383824823399
 20
326.95229340269799
 30
0.0
 11
175.78383824823399
 21
326.95229340269799
 31
0.0
  0
LINE
  5
5843
  8
0
 62
     0
 10
179.28383824823399
 20
376.59350440269782
 30
0.0
 11
183.89121424823389
 21
370.16189840269777
 31
0.0
  0
LINE
  5
5844
  8
0
 62
     0
 10
183.89121424823389
 20
370.16189840269777
 30
0.0
 11
184.747014248234
 21
372.78881840269793
 31
0.0
  0
LINE
  5
5845
  8
0
 62
     0
 10
179.28383824823399
 20
376.59350440269782
 30
0.0
 11
184.747014248234
 21
372.78881840269793
 31
0.0
  0
LINE
  5
5846
  8
0
 62
     0
 10
184.747014248234
 20
372.78881840269793
 30
0.0
 11
185.95894424823391
 21
372.23285840269801
 31
0.0
  0
LINE
  5
5847
  8
0
 62
     0
 10
175.78383824823399
 20
370.16189840269777
 30
0.0
 11
183.89121424823389
 21
370.16189840269777
 31
0.0
  0
LINE
  5
5848
  8
0
 62
     0
 10
175.78383824823399
 20
376.59350440269782
 30
0.0
 11
179.28383824823399
 21
376.59350440269782
 31
0.0
  0
LINE
  5
5849
  8
0
 62
     0
 10
179.28383824823399
 20
354.0201184026979
 30
0.0
 11
179.28383824823399
 21
350.82722440269788
 31
0.0
  0
LINE
  5
584A
  8
0
 62
     0
 10
181.04383824823401
 20
353.45168440269788
 30
0.0
 11
181.04383824823401
 21
351.45290240269787
 31
0.0
  0
LINE
  5
584B
  8
0
 62
     0
 10
196.04383824823401
 20
362.45229340269799
 30
0.0
 11
196.04383824823401
 21
360.45290240269782
 31
0.0
  0
LINE
  5
584C
  8
0
 62
     0
 10
194.28383824823399
 20
362.91383540269783
 30
0.0
 11
194.28383824823399
 21
359.84610040269791
 31
0.0
  0
LINE
  5
584D
  8
0
 62
     0
 10
194.28383824823399
 20
362.91383540269783
 30
0.0
 11
276.28383824823391
 21
362.91383540269783
 31
0.0
  0
LINE
  5
584E
  8
0
 62
     0
 10
194.28383824823399
 20
359.84610040269791
 30
0.0
 11
276.28383824823391
 21
359.84610040269791
 31
0.0
  0
LINE
  5
584F
  8
0
 62
     0
 10
179.28383824823399
 20
350.82722440269788
 30
0.0
 11
276.28383824823391
 21
350.82722440269788
 31
0.0
  0
LINE
  5
5850
  8
0
 62
     0
 10
179.28383824823399
 20
354.0201184026979
 30
0.0
 11
276.28383824823391
 21
354.0201184026979
 31
0.0
  0
LINE
  5
5851
  8
0
 62
     0
 10
181.04383824823401
 20
353.45168440269788
 30
0.0
 11
276.28383824823391
 21
353.45168440269788
 31
0.0
  0
LINE
  5
5852
  8
0
 62
     0
 10
181.04383824823401
 20
351.45290240269787
 30
0.0
 11
276.28383824823391
 21
351.45290240269787
 31
0.0
  0
LINE
  5
5853
  8
0
 62
     0
 10
181.04383824823401
 20
353.45168440269788
 30
0.0
 11
179.28383824823399
 21
354.0201184026979
 31
0.0
  0
LINE
  5
5854
  8
0
 62
     0
 10
181.04383824823401
 20
351.45290240269787
 30
0.0
 11
179.28383824823399
 21
350.82722440269788
 31
0.0
  0
LINE
  5
5855
  8
0
 62
     0
 10
184.2271042482339
 20
360.19421440269792
 30
0.0
 11
185.40819524823399
 21
359.95680540269791
 31
0.0
  0
LINE
  5
5856
  8
0
 62
     0
 10
196.04383824823401
 20
362.45229340269799
 30
0.0
 11
276.28383824823391
 21
362.45229340269799
 31
0.0
  0
LINE
  5
5857
  8
0
 62
     0
 10
196.04383824823401
 20
360.45290240269782
 30
0.0
 11
276.28383824823391
 21
360.45290240269782
 31
0.0
  0
LINE
  5
5858
  8
0
 62
     0
 10
196.04383824823401
 20
362.45229340269799
 30
0.0
 11
194.28383824823399
 21
362.91383540269783
 31
0.0
  0
LINE
  5
5859
  8
0
 62
     0
 10
196.04383824823401
 20
360.45290240269782
 30
0.0
 11
194.28383824823399
 21
359.84610040269791
 31
0.0
  0
LINE
  5
585A
  8
0
 62
     0
 10
313.28383824823402
 20
362.91383540269783
 30
0.0
 11
276.28383824823391
 21
362.91383540269783
 31
0.0
  0
LINE
  5
585B
  8
0
 62
     0
 10
313.28383824823402
 20
359.84610040269791
 30
0.0
 11
276.28383824823391
 21
359.84610040269791
 31
0.0
  0
LINE
  5
585C
  8
0
 62
     0
 10
311.52383824823397
 20
362.45229340269799
 30
0.0
 11
276.28383824823391
 21
362.45229340269799
 31
0.0
  0
LINE
  5
585D
  8
0
 62
     0
 10
311.52383824823397
 20
360.45290240269782
 30
0.0
 11
276.28383824823391
 21
360.45290240269782
 31
0.0
  0
LINE
  5
585E
  8
0
 62
     0
 10
311.52383824823397
 20
360.45290240269782
 30
0.0
 11
313.28383824823402
 21
359.84610040269791
 31
0.0
  0
LINE
  5
585F
  8
0
 62
     0
 10
311.52383824823397
 20
362.45229340269799
 30
0.0
 11
313.28383824823402
 21
362.91383540269783
 31
0.0
  0
LINE
  5
5860
  8
0
 62
     0
 10
313.28383824823402
 20
362.91383540269783
 30
0.0
 11
313.28383824823402
 21
359.84610040269791
 31
0.0
  0
LINE
  5
5861
  8
0
 62
     0
 10
311.52383824823397
 20
362.45229340269799
 30
0.0
 11
311.52383824823397
 21
360.45290240269782
 31
0.0
  0
LINE
  5
5862
  8
0
 62
     0
 10
313.28383824823402
 20
354.0201184026979
 30
0.0
 11
276.28383824823391
 21
354.0201184026979
 31
0.0
  0
LINE
  5
5863
  8
0
 62
     0
 10
311.52383824823397
 20
353.45168440269788
 30
0.0
 11
276.28383824823391
 21
353.45168440269788
 31
0.0
  0
LINE
  5
5864
  8
0
 62
     0
 10
311.52383824823397
 20
351.45290240269787
 30
0.0
 11
276.28383824823391
 21
351.45290240269787
 31
0.0
  0
LINE
  5
5865
  8
0
 62
     0
 10
311.52383824823397
 20
351.45290240269787
 30
0.0
 11
313.28383824823402
 21
350.82722440269788
 31
0.0
  0
LINE
  5
5866
  8
0
 62
     0
 10
311.52383824823397
 20
353.45168440269788
 30
0.0
 11
313.28383824823402
 21
354.0201184026979
 31
0.0
  0
LINE
  5
5867
  8
0
 62
     0
 10
311.52383824823397
 20
353.45168440269788
 30
0.0
 11
311.52383824823397
 21
351.45290240269787
 31
0.0
  0
LINE
  5
5868
  8
0
 62
     0
 10
313.28383824823402
 20
354.0201184026979
 30
0.0
 11
313.28383824823402
 21
350.82722440269788
 31
0.0
  0
LINE
  5
5869
  8
0
 62
     0
 10
179.28383824823399
 20
350.82722440269788
 30
0.0
 11
180.87658024823409
 21
333.52803740269792
 31
0.0
  0
LINE
  5
586A
  8
0
 62
     0
 10
179.28383824823399
 20
344.287170402698
 30
0.0
 11
179.88598324823411
 21
344.287170402698
 31
0.0
  0
LINE
  5
586B
  8
0
 62
     0
 10
179.28383824823399
 20
337.11481840269801
 30
0.0
 11
179.96661524823401
 21
337.11481840269801
 31
0.0
  0
LINE
  5
586C
  8
0
 62
     0
 10
179.28383824823399
 20
332.12233340269768
 30
0.0
 11
179.808351248234
 21
332.12233340269768
 31
0.0
  0
LINE
  5
586D
  8
0
 62
     0
 10
179.28383824823399
 20
328.9015774026978
 30
0.0
 11
179.64378024823401
 21
328.9015774026978
 31
0.0
  0
LINE
  5
586E
  8
0
 62
     0
 10
179.23706124823411
 20
327.33199640269788
 30
0.0
 11
179.46745224823391
 21
327.33199640269788
 31
0.0
  0
LINE
  5
586F
  8
0
 62
     0
 10
179.28383824823399
 20
344.287170402698
 30
0.0
 11
180.8714902482339
 21
327.60939640269788
 31
0.0
  0
LINE
  5
5870
  8
0
 62
     0
 10
179.28383824823399
 20
337.11481840269801
 30
0.0
 11
180.85567124823399
 21
322.15360740269801
 31
0.0
  0
LINE
  5
5871
  8
0
 62
     0
 10
179.28383824823399
 20
332.12233340269768
 30
0.0
 11
180.84514924823401
 21
318.15174240269801
 31
0.0
  0
LINE
  5
5872
  8
0
 62
     0
 10
179.28383824823399
 20
328.9015774026978
 30
0.0
 11
180.8370572482338
 21
315.6242494026979
 31
0.0
  0
LINE
  5
5873
  8
0
 62
     0
 10
179.23706124823411
 20
327.33199640269788
 30
0.0
 11
180.82757724823381
 21
314.42126240269789
 31
0.0
  0
ARC
  5
5874
  8
0
 62
     0
 10
182.8681562482339
 20
333.71140240269767
 30
0.0
 40
2.0
 50
185.2604110000014
 51
270.0
  0
ARC
  5
5875
  8
0
 62
     0
 10
182.8624882482338
 20
327.7989314026978
 30
0.0
 40
2.0
 50
185.4379219999999
 51
270.0
  0
ARC
  5
5876
  8
0
 62
     0
 10
182.8447242482338
 20
322.36257840269792
 30
0.0
 40
2.0
 50
185.99752600000011
 51
270.0
  0
ARC
  5
5877
  8
0
 62
     0
 10
182.83277524823399
 20
318.373873402698
 30
0.0
 40
2.0
 50
186.37674199999771
 51
270.0
  0
ARC
  5
5878
  8
0
 62
     0
 10
182.82351124823401
 20
315.85663040269799
 30
0.0
 40
2.0
 50
186.67229399999829
 51
270.0
  0
ARC
  5
5879
  8
0
 62
     0
 10
182.81257124823381
 20
314.66580040269793
 30
0.0
 40
2.0
 50
187.02306899999991
 51
270.0
  0
LINE
  5
587A
  8
0
 62
     0
 10
185.95894424823391
 20
372.23285840269801
 30
0.0
 11
185.95894424823391
 21
359.84610040269791
 31
0.0
  0
LINE
  5
587B
  8
0
 62
     0
 10
183.89121424823389
 20
370.16189840269777
 30
0.0
 11
183.89121424823389
 21
360.26173140269788
 31
0.0
  0
LINE
  5
587C
  8
0
 62
     0
 10
175.78383824823399
 20
359.84610040269791
 30
0.0
 11
185.95894424823391
 21
359.84610040269791
 31
0.0
  0
LINE
  5
587D
  8
0
 62
     0
 10
175.78383824823399
 20
360.26173140269788
 30
0.0
 11
183.89121424823389
 21
360.26173140269788
 31
0.0
  0
LINE
  5
587E
  8
0
 62
     0
 10
378.28383824823402
 20
426.13229340269783
 30
0.0
 11
376.52383824823397
 21
426.68229340269772
 31
0.0
  0
LINE
  5
587F
  8
0
 62
     0
 10
378.28383824823402
 20
428.77229340269793
 30
0.0
 11
378.28383824823402
 21
426.13229340269783
 31
0.0
  0
LINE
  5
5880
  8
0
 62
     0
 10
376.52383824823397
 20
428.28229340269792
 30
0.0
 11
378.28383824823402
 21
428.77229340269793
 31
0.0
  0
LINE
  5
5881
  8
0
 62
     0
 10
376.52383824823397
 20
428.28229340269792
 30
0.0
 11
376.52383824823397
 21
426.68229340269772
 31
0.0
  0
LINE
  5
5882
  8
0
 62
     0
 10
378.28383824823402
 20
415.13229340269771
 30
0.0
 11
376.52383824823397
 21
415.68229340269778
 31
0.0
  0
LINE
  5
5883
  8
0
 62
     0
 10
378.28383824823402
 20
417.77229340269793
 30
0.0
 11
378.28383824823402
 21
415.13229340269771
 31
0.0
  0
LINE
  5
5884
  8
0
 62
     0
 10
376.52383824823397
 20
417.28229340269797
 30
0.0
 11
378.28383824823402
 21
417.77229340269793
 31
0.0
  0
LINE
  5
5885
  8
0
 62
     0
 10
376.52383824823397
 20
417.28229340269797
 30
0.0
 11
376.52383824823397
 21
415.68229340269778
 31
0.0
  0
LINE
  5
5886
  8
0
 62
     0
 10
378.28383824823402
 20
404.13229340269771
 30
0.0
 11
376.52383824823397
 21
404.68229340269778
 31
0.0
  0
LINE
  5
5887
  8
0
 62
     0
 10
378.28383824823402
 20
406.77229340269793
 30
0.0
 11
378.28383824823402
 21
404.13229340269771
 31
0.0
  0
LINE
  5
5888
  8
0
 62
     0
 10
376.52383824823397
 20
406.28229340269792
 30
0.0
 11
378.28383824823402
 21
406.77229340269793
 31
0.0
  0
LINE
  5
5889
  8
0
 62
     0
 10
376.52383824823397
 20
406.28229340269792
 30
0.0
 11
376.52383824823397
 21
404.68229340269778
 31
0.0
  0
LINE
  5
588A
  8
0
 62
     0
 10
378.28383824823402
 20
393.13229340269783
 30
0.0
 11
376.52383824823397
 21
393.68229340269778
 31
0.0
  0
LINE
  5
588B
  8
0
 62
     0
 10
378.28383824823402
 20
395.77229340269793
 30
0.0
 11
378.28383824823402
 21
393.13229340269783
 31
0.0
  0
LINE
  5
588C
  8
0
 62
     0
 10
376.52383824823397
 20
395.28229340269797
 30
0.0
 11
378.28383824823402
 21
395.77229340269793
 31
0.0
  0
LINE
  5
588D
  8
0
 62
     0
 10
376.52383824823397
 20
395.28229340269797
 30
0.0
 11
376.52383824823397
 21
393.68229340269778
 31
0.0
  0
LINE
  5
588E
  8
0
 62
     0
 10
377.69550724823409
 20
324.443013402698
 30
0.0
 11
376.83854944691012
 21
317.11740891022811
 31
0.0
  0
LINE
  5
588F
  8
0
 62
     0
 10
376.62862124823403
 20
318.1514464026979
 30
0.0
 11
377.68357824823408
 21
327.57843340269801
 31
0.0
  0
LINE
  5
5890
  8
0
 62
     0
 10
376.65569124823412
 20
322.15230240269773
 30
0.0
 11
377.75460324823399
 21
332.54647640269792
 31
0.0
  0
LINE
  5
5891
  8
0
 62
     0
 10
377.80554424823401
 20
339.08309640269789
 30
0.0
 11
376.68026324823398
 21
327.603812402698
 31
0.0
  0
LINE
  5
5892
  8
0
 62
     0
 10
377.84671124823399
 20
346.492838402698
 30
0.0
 11
376.61399424823401
 21
333.52217740269799
 31
0.0
  0
LINE
  5
5893
  8
0
 62
     0
 10
377.75563024823401
 20
323.30668540269801
 30
0.0
 11
377.00848196058291
 21
317.11740891022811
 31
0.0
  0
LINE
  5
5894
  8
0
 62
     0
 10
376.52383824823397
 20
384.28229340269792
 30
0.0
 11
376.52383824823397
 21
382.68229340269801
 31
0.0
  0
LINE
  5
5895
  8
0
 62
     0
 10
376.52383824823397
 20
384.28229340269792
 30
0.0
 11
378.28383824823402
 21
384.77229340269793
 31
0.0
  0
LINE
  5
5896
  8
0
 62
     0
 10
378.28383824823402
 20
384.77229340269793
 30
0.0
 11
378.28383824823402
 21
382.132293402698
 31
0.0
  0
LINE
  5
5897
  8
0
 62
     0
 10
378.28383824823402
 20
382.132293402698
 30
0.0
 11
376.52383824823397
 21
382.68229340269801
 31
0.0
  0
LINE
  5
5898
  8
0
 62
     0
 10
376.52383824823397
 20
439.28229340269792
 30
0.0
 11
376.52383824823397
 21
437.68229340269778
 31
0.0
  0
LINE
  5
5899
  8
0
 62
     0
 10
376.52383824823397
 20
439.28229340269792
 30
0.0
 11
378.28383824823402
 21
439.77229340269793
 31
0.0
  0
LINE
  5
589A
  8
0
 62
     0
 10
378.28383824823402
 20
439.77229340269793
 30
0.0
 11
378.28383824823402
 21
437.13229340269771
 31
0.0
  0
LINE
  5
589B
  8
0
 62
     0
 10
378.28383824823402
 20
437.13229340269771
 30
0.0
 11
376.52383824823397
 21
437.68229340269778
 31
0.0
  0
LINE
  5
589C
  8
0
 62
     0
 10
328.24071424823399
 20
437.13229340269771
 30
0.0
 11
328.24071424823399
 21
428.77229340269793
 31
0.0
  0
LINE
  5
589D
  8
0
 62
     0
 10
344.28383724823402
 20
437.13229340269771
 30
0.0
 11
344.28383724823402
 21
428.77229340269793
 31
0.0
  0
LINE
  5
589E
  8
0
 62
     0
 10
344.28383724823402
 20
426.13229340269783
 30
0.0
 11
344.28383724823402
 21
417.77229340269793
 31
0.0
  0
LINE
  5
589F
  8
0
 62
     0
 10
328.24071424823399
 20
426.13229340269783
 30
0.0
 11
328.24071424823399
 21
417.77229340269793
 31
0.0
  0
LINE
  5
58A0
  8
0
 62
     0
 10
328.24071424823399
 20
415.13229340269771
 30
0.0
 11
328.24071424823399
 21
406.77229340269793
 31
0.0
  0
LINE
  5
58A1
  8
0
 62
     0
 10
344.28383724823402
 20
415.13229340269771
 30
0.0
 11
344.28383724823402
 21
406.77229340269793
 31
0.0
  0
LINE
  5
58A2
  8
0
 62
     0
 10
344.28383724823402
 20
404.13229340269771
 30
0.0
 11
344.28383724823402
 21
395.77229340269793
 31
0.0
  0
LINE
  5
58A3
  8
0
 62
     0
 10
328.24071424823399
 20
404.13229340269771
 30
0.0
 11
328.24071424823399
 21
395.77229340269793
 31
0.0
  0
LINE
  5
58A4
  8
0
 62
     0
 10
328.24071424823399
 20
393.13229340269783
 30
0.0
 11
328.24071424823399
 21
384.77229340269793
 31
0.0
  0
LINE
  5
58A5
  8
0
 62
     0
 10
344.28383724823402
 20
393.13229340269783
 30
0.0
 11
344.28383724823402
 21
384.77229340269793
 31
0.0
  0
LINE
  5
58A6
  8
0
 62
     0
 10
344.28383724823402
 20
382.132293402698
 30
0.0
 11
344.28383724823402
 21
366.34384740269792
 31
0.0
  0
LINE
  5
58A7
  8
0
 62
     0
 10
328.24071424823399
 20
382.132293402698
 30
0.0
 11
328.24071424823399
 21
350.82722440269788
 31
0.0
  0
LINE
  5
58A8
  8
0
 62
     0
 10
377.84671124823399
 20
346.492838402698
 30
0.0
 11
344.28383724823402
 21
346.492838402698
 31
0.0
  0
LINE
  5
58A9
  8
0
 62
     0
 10
377.80554424823401
 20
339.08309640269789
 30
0.0
 11
377.14249824823401
 21
339.08309640269789
 31
0.0
  0
ARC
  5
58AA
  8
0
 62
     0
 10
374.62296624823409
 20
333.71140240269767
 30
0.0
 40
2.0
 50
270.0
 51
354.57098099999808
  0
ARC
  5
58AB
  8
0
 62
     0
 10
374.68980424823411
 20
327.7989314026978
 30
0.0
 40
2.0
 50
270.0
 51
354.40134700000118
  0
ARC
  5
58AC
  8
0
 62
     0
 10
374.66677624823399
 20
322.36257840269792
 30
0.0
 40
2.0
 50
270.0
 51
353.9648860000006
  0
ARC
  5
58AD
  8
0
 62
     0
 10
374.64102824823408
 20
318.373873402698
 30
0.0
 40
2.0
 50
321.08017904414731
 51
353.61470099999968
  0
LINE
  5
58B0
  8
0
 62
     0
 10
377.75460324823399
 20
332.54647640269792
 30
0.0
 11
377.16477824823397
 21
332.54647640269792
 31
0.0
  0
LINE
  5
58B1
  8
0
 62
     0
 10
377.68357824823408
 20
327.57843340269801
 30
0.0
 11
377.22936324823411
 21
327.57843340269801
 31
0.0
  0
LINE
  5
58B2
  8
0
 62
     0
 10
377.69550724823409
 20
324.443013402698
 30
0.0
 11
377.33269924823412
 21
324.443013402698
 31
0.0
  0
LINE
  5
58B3
  8
0
 62
     0
 10
377.75563024823401
 20
323.30668540269801
 30
0.0
 11
377.56257824823399
 21
323.30668540269801
 31
0.0
  0
LINE
  5
58B4
  8
0
 62
     0
 10
380.28383824823402
 20
371.22958740269792
 30
0.0
 11
363.78383824823402
 21
371.22958740269792
 31
0.0
  0
LINE
  5
58B5
  8
0
 62
     0
 10
383.28383824823402
 20
361.05029540269783
 30
0.0
 11
365.78383824823402
 21
361.05029540269783
 31
0.0
  0
LINE
  5
58B6
  8
0
 62
     0
 10
383.28383824823402
 20
348.76301440269788
 30
0.0
 11
365.78383824823402
 21
348.76301440269788
 31
0.0
  0
LINE
  5
58B7
  8
0
 62
     0
 10
363.78383824823402
 20
370.22958740269792
 30
0.0
 11
363.78383824823402
 21
350.76301440269788
 31
0.0
  0
LINE
  5
58B8
  8
0
 62
     0
 10
380.28383824823402
 20
371.22958740269792
 30
0.0
 11
383.28383824823402
 21
372.96163840269782
 31
0.0
  0
ARC
  5
58B9
  8
0
 62
     0
 10
365.78383824823402
 20
363.05029540269783
 30
0.0
 40
2.0
 50
180.0
 51
270.0
  0
ARC
  5
58BA
  8
0
 62
     0
 10
365.78383824823402
 20
350.76301440269788
 30
0.0
 40
2.0
 50
180.0
 51
270.0
  0
ARC
  5
58BB
  8
0
 62
     0
 10
365.78383824823402
 20
359.05029540269788
 30
0.0
 40
2.0
 50
90.0
 51
180.0
  0
LINE
  5
58BC
  8
0
 62
     0
 10
344.28383724823402
 20
354.93149740269791
 30
0.0
 11
344.28383724823402
 21
346.492838402698
 31
0.0
  0
LINE
  5
58BD
  8
0
 62
     0
 10
328.24071424823399
 20
350.82722440269788
 30
0.0
 11
344.28383724823402
 21
346.492838402698
 31
0.0
  0
ARC
  5
58BE
  8
0
 62
     0
 10
362.78383824823402
 20
370.22958740269792
 30
0.0
 40
1.0
 50
0.0
 51
90.0
  0
LINE
  5
58BF
  8
0
 62
     0
 10
328.24071424823399
 20
350.82722440269788
 30
0.0
 11
276.28383824823391
 21
350.82722440269788
 31
0.0
  0
LINE
  5
58C0
  8
0
 62
     0
 10
365.28383824823408
 20
312.66580040269793
 30
0.0
 11
182.81257124823381
 21
312.66580040269793
 31
0.0
  0
LINE
  5
58C1
  8
0
 62
     0
 10
365.28383824823408
 20
313.85663040269799
 30
0.0
 11
182.82351124823401
 21
313.85663040269799
 31
0.0
  0
LINE
  5
58C2
  8
0
 62
     0
 10
365.72779723806963
 20
316.373873402698
 30
0.0
 11
182.83277524823399
 21
316.373873402698
 31
0.0
  0
LINE
  5
58C3
  8
0
 62
     0
 10
374.66677624823399
 20
320.36257840269792
 30
0.0
 11
182.8447242482338
 21
320.36257840269792
 31
0.0
  0
LINE
  5
58C4
  8
0
 62
     0
 10
374.68980424823411
 20
325.79893140269792
 30
0.0
 11
182.8624882482338
 21
325.79893140269792
 31
0.0
  0
LINE
  5
58C5
  8
0
 62
     0
 10
374.62296624823409
 20
331.71140240269767
 30
0.0
 11
182.8681562482339
 21
331.71140240269767
 31
0.0
  0
LINE
  5
58C6
  8
0
 62
     0
 10
328.24071424823399
 20
484.78976840269792
 30
0.0
 11
328.24071424823399
 21
470.81229340269772
 31
0.0
  0
LINE
  5
58C7
  8
0
 62
     0
 10
344.28383724823402
 20
489.38963040269778
 30
0.0
 11
344.28383724823402
 21
486.80508040269791
 31
0.0
  0
LINE
  5
58C8
  8
0
 62
     0
 10
321.17793424823401
 20
439.77229340269793
 30
0.0
 11
378.28383824823402
 21
439.77229340269793
 31
0.0
  0
LINE
  5
58C9
  8
0
 62
     0
 10
321.17793424823401
 20
439.28229340269792
 30
0.0
 11
376.52383824823397
 21
439.28229340269792
 31
0.0
  0
LINE
  5
58CA
  8
0
 62
     0
 10
321.17793424823401
 20
437.68229340269778
 30
0.0
 11
376.52383824823397
 21
437.68229340269778
 31
0.0
  0
LINE
  5
58CB
  8
0
 62
     0
 10
321.17793424823401
 20
437.13229340269771
 30
0.0
 11
378.28383824823402
 21
437.13229340269771
 31
0.0
  0
LINE
  5
58CC
  8
0
 62
     0
 10
321.17793424823401
 20
384.77229340269793
 30
0.0
 11
378.28383824823402
 21
384.77229340269793
 31
0.0
  0
LINE
  5
58CD
  8
0
 62
     0
 10
321.17793424823401
 20
384.28229340269792
 30
0.0
 11
376.52383824823397
 21
384.28229340269792
 31
0.0
  0
LINE
  5
58CE
  8
0
 62
     0
 10
321.17793424823401
 20
382.68229340269801
 30
0.0
 11
376.52383824823397
 21
382.68229340269801
 31
0.0
  0
LINE
  5
58CF
  8
0
 62
     0
 10
321.17793424823401
 20
382.132293402698
 30
0.0
 11
378.28383824823402
 21
382.132293402698
 31
0.0
  0
LINE
  5
58D0
  8
0
 62
     0
 10
321.17793424823401
 20
415.13229340269771
 30
0.0
 11
378.28383824823402
 21
415.13229340269771
 31
0.0
  0
LINE
  5
58D1
  8
0
 62
     0
 10
321.17793424823401
 20
415.68229340269778
 30
0.0
 11
376.52383824823397
 21
415.68229340269778
 31
0.0
  0
LINE
  5
58D2
  8
0
 62
     0
 10
321.17793424823401
 20
395.77229340269793
 30
0.0
 11
378.28383824823402
 21
395.77229340269793
 31
0.0
  0
LINE
  5
58D3
  8
0
 62
     0
 10
321.17793424823401
 20
395.28229340269797
 30
0.0
 11
376.52383824823397
 21
395.28229340269797
 31
0.0
  0
LINE
  5
58D4
  8
0
 62
     0
 10
321.17793424823401
 20
393.68229340269778
 30
0.0
 11
376.52383824823397
 21
393.68229340269778
 31
0.0
  0
LINE
  5
58D5
  8
0
 62
     0
 10
321.17793424823401
 20
393.13229340269783
 30
0.0
 11
378.28383824823402
 21
393.13229340269783
 31
0.0
  0
LINE
  5
58D6
  8
0
 62
     0
 10
321.17793424823401
 20
406.77229340269793
 30
0.0
 11
378.28383824823402
 21
406.77229340269793
 31
0.0
  0
LINE
  5
58D7
  8
0
 62
     0
 10
321.17793424823401
 20
406.28229340269792
 30
0.0
 11
376.52383824823397
 21
406.28229340269792
 31
0.0
  0
LINE
  5
58D8
  8
0
 62
     0
 10
321.17793424823401
 20
404.68229340269778
 30
0.0
 11
376.52383824823397
 21
404.68229340269778
 31
0.0
  0
LINE
  5
58D9
  8
0
 62
     0
 10
321.17793424823401
 20
404.13229340269771
 30
0.0
 11
378.28383824823402
 21
404.13229340269771
 31
0.0
  0
LINE
  5
58DA
  8
0
 62
     0
 10
321.17793424823401
 20
428.77229340269793
 30
0.0
 11
378.28383824823402
 21
428.77229340269793
 31
0.0
  0
LINE
  5
58DB
  8
0
 62
     0
 10
321.17793424823401
 20
428.28229340269792
 30
0.0
 11
376.52383824823397
 21
428.28229340269792
 31
0.0
  0
LINE
  5
58DC
  8
0
 62
     0
 10
321.17793424823401
 20
426.68229340269772
 30
0.0
 11
376.52383824823397
 21
426.68229340269772
 31
0.0
  0
LINE
  5
58DD
  8
0
 62
     0
 10
321.17793424823401
 20
426.13229340269783
 30
0.0
 11
378.28383824823402
 21
426.13229340269783
 31
0.0
  0
LINE
  5
58DE
  8
0
 62
     0
 10
321.17793424823401
 20
417.77229340269793
 30
0.0
 11
378.28383824823402
 21
417.77229340269793
 31
0.0
  0
LINE
  5
58DF
  8
0
 62
     0
 10
321.17793424823401
 20
417.28229340269797
 30
0.0
 11
376.52383824823397
 21
417.28229340269797
 31
0.0
  0
LINE
  5
58E0
  8
0
 62
     0
 10
380.28383824823402
 20
322.95229340269788
 30
0.0
 11
380.28383824823402
 21
348.76301440269788
 31
0.0
  0
LINE
  5
58E1
  8
0
 62
     0
 10
377.71284924823408
 20
322.95229340269788
 30
0.0
 11
380.28383824823402
 21
322.95229340269788
 31
0.0
  0
LINE
  5
58E2
  8
0
 62
     0
 10
378.28383824823402
 20
470.81229340269772
 30
0.0
 11
376.52383824823397
 21
470.25229340269777
 31
0.0
  0
LINE
  5
58E3
  8
0
 62
     0
 10
376.52383824823397
 20
468.65229340269792
 30
0.0
 11
378.28383824823402
 21
468.1122934026979
 31
0.0
  0
LINE
  5
58E4
  8
0
 62
     0
 10
378.28383824823402
 20
468.1122934026979
 30
0.0
 11
378.28383824823402
 21
470.81229340269772
 31
0.0
  0
LINE
  5
58E5
  8
0
 62
     0
 10
376.52383824823397
 20
468.65229340269792
 30
0.0
 11
376.52383824823397
 21
470.25229340269777
 31
0.0
  0
LINE
  5
58E6
  8
0
 62
     0
 10
378.28383824823402
 20
462.7672934026977
 30
0.0
 11
376.52383824823397
 21
462.22729340269791
 31
0.0
  0
LINE
  5
58E7
  8
0
 62
     0
 10
376.52383824823397
 20
460.62729340269777
 30
0.0
 11
378.28383824823402
 21
460.13729340269782
 31
0.0
  0
LINE
  5
58E8
  8
0
 62
     0
 10
376.52383824823397
 20
460.62729340269777
 30
0.0
 11
376.52383824823397
 21
462.22729340269791
 31
0.0
  0
LINE
  5
58E9
  8
0
 62
     0
 10
378.28383824823402
 20
460.13729340269782
 30
0.0
 11
378.28383824823402
 21
462.7672934026977
 31
0.0
  0
LINE
  5
58EA
  8
0
 62
     0
 10
313.28383824823402
 20
471.07648040269771
 30
0.0
 11
311.66192924823412
 21
488.14222340269771
 31
0.0
  0
LINE
  5
58EB
  8
0
 62
     0
 10
313.28383824823402
 20
477.61741640269793
 30
0.0
 11
311.66331524823408
 21
494.14878440269791
 31
0.0
  0
LINE
  5
58EC
  8
0
 62
     0
 10
180.54851724823399
 20
484.78976840269792
 30
0.0
 11
179.28383824823399
 21
484.78976840269792
 31
0.0
  0
LINE
  5
58ED
  8
0
 62
     0
 10
179.28383824823399
 20
470.81229340269772
 30
0.0
 11
181.04383824823401
 21
470.25229340269777
 31
0.0
  0
LINE
  5
58EE
  8
0
 62
     0
 10
181.04383824823401
 20
468.65229340269792
 30
0.0
 11
179.28383824823399
 21
468.1122934026979
 31
0.0
  0
LINE
  5
58EF
  8
0
 62
     0
 10
179.28383824823399
 20
462.7672934026977
 30
0.0
 11
181.04383824823401
 21
462.22729340269791
 31
0.0
  0
LINE
  5
58F0
  8
0
 62
     0
 10
181.04383824823401
 20
460.62729340269777
 30
0.0
 11
179.28383824823399
 21
460.13729340269782
 31
0.0
  0
LINE
  5
58F1
  8
0
 62
     0
 10
179.28383824823399
 20
468.1122934026979
 30
0.0
 11
179.28383824823399
 21
470.81229340269772
 31
0.0
  0
LINE
  5
58F2
  8
0
 62
     0
 10
181.04383824823401
 20
468.65229340269792
 30
0.0
 11
181.04383824823401
 21
470.25229340269777
 31
0.0
  0
LINE
  5
58F3
  8
0
 62
     0
 10
181.04383824823401
 20
460.62729340269777
 30
0.0
 11
181.04383824823401
 21
462.22729340269791
 31
0.0
  0
LINE
  5
58F4
  8
0
 62
     0
 10
179.28383824823399
 20
460.13729340269782
 30
0.0
 11
179.28383824823399
 21
462.7672934026977
 31
0.0
  0
LINE
  5
58F5
  8
0
 62
     0
 10
179.28383824823399
 20
449.67172840269791
 30
0.0
 11
232.4526872482341
 21
449.67172840269791
 31
0.0
  0
LINE
  5
58F6
  8
0
 62
     0
 10
187.653838248234
 20
448.8199554026977
 30
0.0
 11
231.772724248234
 21
448.8199554026977
 31
0.0
  0
LINE
  5
58F7
  8
0
 62
     0
 10
179.28383824823399
 20
449.67172840269791
 30
0.0
 11
187.653838248234
 21
448.8199554026977
 31
0.0
  0
LINE
  5
58F8
  8
0
 62
     0
 10
185.95894424823391
 20
372.23285840269801
 30
0.0
 11
232.45268424823399
 21
372.23285840269801
 31
0.0
  0
LINE
  5
58F9
  8
0
 62
     0
 10
187.653838248234
 20
373.08463140269799
 30
0.0
 11
231.77272124823401
 21
373.08463140269799
 31
0.0
  0
LINE
  5
58FA
  8
0
 62
     0
 10
179.28383824823399
 20
376.59350440269782
 30
0.0
 11
179.28383824823399
 21
449.67172840269791
 31
0.0
  0
LINE
  5
58FB
  8
0
 62
     0
 10
184.747014248234
 20
372.78881840269793
 30
0.0
 11
187.653838248234
 21
373.08463140269799
 31
0.0
  0
LINE
  5
58FC
  8
0
 62
     0
 10
187.653838248234
 20
373.08463140269799
 30
0.0
 11
187.653838248234
 21
448.8199554026977
 31
0.0
  0
LINE
  5
58FD
  8
0
 62
     0
 10
175.78383824823399
 20
494.57259040269781
 30
0.0
 11
179.56059724823399
 21
494.57259040269781
 31
0.0
  0
LINE
  5
58FE
  8
0
 62
     0
 10
265.28383824823402
 20
511.95229340269782
 30
0.0
 11
287.28383824823402
 21
511.95229340269782
 31
0.0
  0
LINE
  5
58FF
  8
0
 62
     0
 10
265.28383824823402
 20
511.95229340269782
 30
0.0
 11
265.28383824823402
 21
508.04901240269783
 31
0.0
  0
LINE
  5
5900
  8
0
 62
     0
 10
287.28383824823402
 20
511.95229340269782
 30
0.0
 11
287.28383824823402
 21
508.04901240269783
 31
0.0
  0
LINE
  5
5901
  8
0
 62
     0
 10
181.04383824823401
 20
468.65229340269792
 30
0.0
 11
376.52383824823397
 21
468.65229340269792
 31
0.0
  0
LINE
  5
5902
  8
0
 62
     0
 10
181.04383824823401
 20
470.25229340269777
 30
0.0
 11
376.52383824823397
 21
470.25229340269777
 31
0.0
  0
LINE
  5
5903
  8
0
 62
     0
 10
179.28383824823399
 20
468.1122934026979
 30
0.0
 11
378.28383824823402
 21
468.1122934026979
 31
0.0
  0
LINE
  5
5904
  8
0
 62
     0
 10
179.28383824823399
 20
470.81229340269772
 30
0.0
 11
378.28383824823402
 21
470.81229340269772
 31
0.0
  0
LINE
  5
5905
  8
0
 62
     0
 10
179.28383824823399
 20
460.13729340269782
 30
0.0
 11
378.28383824823402
 21
460.13729340269782
 31
0.0
  0
LINE
  5
5906
  8
0
 62
     0
 10
179.28383824823399
 20
462.7672934026977
 30
0.0
 11
378.28383824823402
 21
462.7672934026977
 31
0.0
  0
LINE
  5
5907
  8
0
 62
     0
 10
181.04383824823401
 20
460.62729340269777
 30
0.0
 11
376.52383824823397
 21
460.62729340269777
 31
0.0
  0
LINE
  5
5908
  8
0
 62
     0
 10
181.04383824823401
 20
462.22729340269791
 30
0.0
 11
376.52383824823397
 21
462.22729340269791
 31
0.0
  0
LINE
  5
5909
  8
0
 62
     0
 10
383.28383824823402
 20
325.95229340269788
 30
0.0
 11
380.28383824823402
 21
322.95229340269788
 31
0.0
  0
LINE
  5
590A
  8
0
 62
     0
 10
383.28383824823402
 20
325.95229340269788
 30
0.0
 11
383.28383824823402
 21
495.95229340269782
 31
0.0
  0
LINE
  5
590B
  8
0
 62
     0
 10
383.28383824823402
 20
495.95229340269782
 30
0.0
 11
380.28383824823402
 21
498.95229340269782
 31
0.0
  0
LINE
  5
5C3D
  8
0
 62
     0
 10
104.78383824823401
 20
309.75229340269789
 30
0.0
 11
175.78383824823399
 21
309.75229340269789
 31
0.0
  0
LINE
  5
61D7
  8
0
  6
AM_ISO08W050
 62
     0
 10
80.25873465277914
 20
720.96626216968411
 30
0.0
 11
596.19666824823389
 21
720.96626216968411
 31
0.0
  0
LINE
  5
61D8
  8
0
  6
CONTINUOUS
 62
     0
 10
526.28385824823374
 20
789.96626216968389
 30
0.0
 11
526.28385824823374
 21
828.36695216968405
 31
0.0
  0
LINE
  5
61D9
  8
0
  6
CONTINUOUS
 62
     0
 10
413.2838282482337
 20
621.46626216968411
 30
0.0
 11
413.2838282482337
 21
820.466262169684
 31
0.0
  0
LINE
  5
61DA
  8
0
  6
CONTINUOUS
 62
     0
 10
368.93519824823369
 20
831.56129216968395
 30
0.0
 11
419.2838882482335
 21
835.96626216968411
 31
0.0
  0
LINE
  5
61DB
  8
0
  6
CENTER
 62
     0
 10
383.2838282482337
 20
802.466262169684
 30
0.0
 11
383.2838282482337
 21
829.466262169684
 31
0.0
  0
LINE
  5
61DC
  8
0
  6
CONTINUOUS
 62
     0
 10
519.28385824823363
 20
659.86289216968419
 30
0.0
 11
519.28385824823363
 21
782.06965216968399
 31
0.0
  0
LINE
  5
61DD
  8
0
  6
CENTER
 62
     0
 10
508.28385824823363
 20
802.466262169684
 30
0.0
 11
508.28385824823363
 21
829.466262169684
 31
0.0
  0
LINE
  5
61DE
  8
0
  6
CENTER
 62
     0
 10
369.7838282482337
 20
815.966262169684
 30
0.0
 11
396.7838282482337
 21
815.966262169684
 31
0.0
  0
LINE
  5
61DF
  8
0
  6
CENTER
 62
     0
 10
494.78385824823363
 20
815.966262169684
 30
0.0
 11
521.78385824823374
 21
815.966262169684
 31
0.0
  0
LINE
  5
61E0
  8
0
  6
CONTINUOUS
 62
     0
 10
419.2838282482337
 20
835.96626216968411
 30
0.0
 11
522.42344824823363
 21
832.36451216968385
 31
0.0
  0
LINE
  5
61E2
  8
0
  6
CONTINUOUS
 62
     0
 10
404.5453682482339
 20
828.65388216968415
 30
0.0
 11
412.93525824823359
 21
829.38789216968405
 31
0.0
  0
LINE
  5
61E3
  8
0
  6
CONTINUOUS
 62
     0
 10
419.2838282482337
 20
605.96623216968396
 30
0.0
 11
522.42344824823363
 21
609.5679421696841
 31
0.0
  0
LINE
  5
61E4
  8
0
  6
CENTER
 62
     0
 10
494.78385824823363
 20
625.96626216968411
 30
0.0
 11
521.78385824823374
 21
625.96626216968411
 31
0.0
  0
LINE
  5
61E5
  8
0
  6
CENTER
 62
     0
 10
369.7838282482337
 20
625.96626216968411
 30
0.0
 11
396.7838282482337
 21
625.96626216968411
 31
0.0
  0
LINE
  5
61E6
  8
0
  6
CENTER
 62
     0
 10
508.28385824823363
 20
639.466262169684
 30
0.0
 11
508.28385824823363
 21
612.46626216968411
 31
0.0
  0
LINE
  5
61E7
  8
0
  6
CENTER
 62
     0
 10
383.2838282482337
 20
639.466262169684
 30
0.0
 11
383.2838282482337
 21
612.46626216968411
 31
0.0
  0
LINE
  5
61E8
  8
0
  6
CONTINUOUS
 62
     0
 10
368.94227392636162
 20
610.37058126724924
 30
0.0
 11
419.2838282482337
 21
605.96626216968411
 31
0.0
  0
LINE
  5
61E9
  8
0
  6
CONTINUOUS
 62
     0
 10
526.28385824823374
 20
651.966262169684
 30
0.0
 11
526.28385824823374
 21
613.56553216968359
 31
0.0
  0
LINE
  5
61EA
  8
0
  6
CONTINUOUS
 62
     0
 10
588.2838282482337
 20
736.96626216968411
 30
0.0
 11
530.28385824823374
 21
736.96626216968411
 31
0.0
  0
LINE
  5
61EB
  8
0
  6
CONTINUOUS
 62
     0
 10
520.78385824823363
 20
753.14173216968413
 30
0.0
 11
524.78382824823348
 21
750.83235216968399
 31
0.0
  0
LINE
  5
61EC
  8
0
  6
CONTINUOUS
 62
     0
 10
520.78379824823321
 20
688.79087216968435
 30
0.0
 11
524.78379824823355
 21
691.10026216968356
 31
0.0
  0
LINE
  5
61ED
  8
0
  6
CONTINUOUS
 62
     0
 10
526.2838282482337
 20
693.69831216968373
 30
0.0
 11
526.2838282482337
 21
720.96626216968411
 31
0.0
  0
LINE
  5
61EE
  8
0
  6
CONTINUOUS
 62
     0
 10
526.2838282482337
 20
720.96626216968411
 30
0.0
 11
526.2838282482337
 21
748.23420216968373
 31
0.0
  0
LINE
  5
61EF
  8
0
  6
CONTINUOUS
 62
     0
 10
530.28385824823374
 20
738.46626216968411
 30
0.0
 11
526.2838282482337
 21
738.46626216968411
 31
0.0
  0
LINE
  5
61F0
  8
0
  6
CONTINUOUS
 62
     0
 10
588.2838282482337
 20
704.96626216968411
 30
0.0
 11
588.2838282482337
 21
736.96626216968411
 31
0.0
  0
LINE
  5
61F1
  8
0
  6
CONTINUOUS
 62
     0
 10
530.28385824823374
 20
703.46626216968411
 30
0.0
 11
530.28385824823374
 21
738.46626216968411
 31
0.0
  0
LINE
  5
61F2
  8
0
  6
CONTINUOUS
 62
     0
 10
543.28385824823374
 20
715.96626216968411
 30
0.0
 11
543.28385824823374
 21
725.96626216968411
 31
0.0
  0
LINE
  5
61F3
  8
0
  6
CONTINUOUS
 62
     0
 10
588.2838282482337
 20
704.96626216968411
 30
0.0
 11
530.28385824823374
 21
704.96626216968411
 31
0.0
  0
LINE
  5
61F4
  8
0
  6
CONTINUOUS
 62
     0
 10
530.28385824823374
 20
703.46626216968411
 30
0.0
 11
526.2838282482337
 21
703.46626216968411
 31
0.0
  0
LINE
  5
61F5
  8
0
  6
CONTINUOUS
 62
     0
 10
543.2838282482337
 20
715.96626216968411
 30
0.0
 11
588.2838282482337
 21
715.96626216968411
 31
0.0
  0
LINE
  5
61F6
  8
0
  6
CONTINUOUS
 62
     0
 10
543.2838282482337
 20
725.96626216968411
 30
0.0
 11
588.2838282482337
 21
725.96626216968411
 31
0.0
  0
LINE
  5
61F7
  8
0
  6
CONTINUOUS
 62
     0
 10
515.3885682482337
 20
786.068252169684
 30
0.0
 11
505.52665824823367
 21
786.32649216968412
 31
0.0
  0
LINE
  5
61F8
  8
0
  6
CONTINUOUS
 62
     0
 10
515.38853824823377
 20
655.86427216968411
 30
0.0
 11
505.52665824823367
 21
655.60603216968411
 31
0.0
  0
LINE
  5
61F9
  8
0
  6
CONTINUOUS
 62
     0
 10
498.2838582482338
 20
651.75953216968412
 30
0.0
 11
498.2838582482338
 21
790.17298216968413
 31
0.0
  0
LINE
  5
61FA
  8
0
  6
CONTINUOUS
 62
     0
 10
478.2838282482337
 20
616.31083216968398
 30
0.0
 11
478.2838282482337
 21
631.75266216968362
 31
0.0
  0
LINE
  5
61FB
  8
0
  6
CONTINUOUS
 62
     0
 10
490.49326824823368
 20
798.17024216968412
 30
0.0
 11
489.9697482482336
 21
798.18397216968413
 31
0.0
  0
LINE
  5
61FC
  8
0
  6
CONTINUOUS
 62
     0
 10
490.49326824823368
 20
643.76228216968411
 30
0.0
 11
489.96967824823372
 21
643.74858216968414
 31
0.0
  0
LINE
  5
61FD
  8
0
  6
CONTINUOUS
 62
     0
 10
478.2838282482337
 20
810.17988216968388
 30
0.0
 11
478.2838282482337
 21
825.62171216968375
 31
0.0
  0
LINE
  5
61FE
  8
0
  6
CONTINUOUS
 62
     0
 10
413.2838282482337
 20
621.46626216968411
 30
0.0
 11
417.28382824823359
 21
621.46626216968411
 31
0.0
  0
LINE
  5
61FF
  8
0
  6
CONTINUOUS
 62
     0
 10
413.2838282482337
 20
820.466262169684
 30
0.0
 11
417.28382824823359
 21
820.466262169684
 31
0.0
  0
LINE
  5
6200
  8
0
  6
CONTINUOUS
 62
     0
 10
417.28382824823359
 20
820.466262169684
 30
0.0
 11
417.28382824823359
 21
830.33473216968434
 31
0.0
  0
LINE
  5
6201
  8
0
  6
CONTINUOUS
 62
     0
 10
404.54530824823371
 20
613.27864216968419
 30
0.0
 11
412.93525824823359
 21
612.54460216968414
 31
0.0
  0
LINE
  5
6202
  8
0
  6
CONTINUOUS
 62
     0
 10
417.28382824823359
 20
621.46626216968411
 30
0.0
 11
417.28382824823359
 21
611.59779216968411
 31
0.0
  0
LINE
  5
6203
  8
0
  6
CONTINUOUS
 62
     0
 10
406.17915824823319
 20
621.71437216968411
 30
0.0
 11
413.28376824823368
 21
621.46626216968411
 31
0.0
  0
LINE
  5
6204
  8
0
  6
CONTINUOUS
 62
     0
 10
413.2838282482337
 20
626.17607216968406
 30
0.0
 11
403.2838282482337
 21
626.17607216968406
 31
0.0
  0
LINE
  5
6205
  8
0
  6
CONTINUOUS
 62
     0
 10
413.2838282482337
 20
643.54945216968406
 30
0.0
 11
403.2838282482337
 21
643.54945216968406
 31
0.0
  0
LINE
  5
6206
  8
0
  6
CONTINUOUS
 62
     0
 10
413.2838282482337
 20
690.68983216968411
 30
0.0
 11
403.2838282482337
 21
690.68983216968411
 31
0.0
  0
LINE
  5
6207
  8
0
  6
CONTINUOUS
 62
     0
 10
413.2838282482337
 20
751.24269216968401
 30
0.0
 11
403.2838282482337
 21
751.24269216968401
 31
0.0
  0
LINE
  5
6208
  8
0
  6
CONTINUOUS
 62
     0
 10
413.2838282482337
 20
798.38307216968417
 30
0.0
 11
403.2838282482337
 21
798.38307216968417
 31
0.0
  0
LINE
  5
6209
  8
0
  6
CONTINUOUS
 62
     0
 10
403.2838282482337
 20
624.7125321696841
 30
0.0
 11
403.2838282482337
 21
708.94100216968445
 31
0.0
  0
LINE
  5
620A
  8
0
  6
CONTINUOUS
 62
     0
 10
406.17909824823357
 20
820.21815216968412
 30
0.0
 11
413.28376824823368
 21
820.466262169684
 31
0.0
  0
LINE
  5
620B
  8
0
  6
CONTINUOUS
 62
     0
 10
413.2838282482337
 20
815.75642216968413
 30
0.0
 11
403.2838282482337
 21
815.75642216968413
 31
0.0
  0
ARC
  5
6213
  8
0
  6
CONTINUOUS
 62
     0
 10
522.28385824823374
 20
828.36695216968405
 30
0.0
 40
4.0
 50
0.0
 51
87.999999999996248
  0
ARC
  5
6214
  8
0
  6
CONTINUOUS
 62
     0
 10
383.2838282482337
 20
815.966262169684
 30
0.0
 40
7.5
 50
224.4361247245605
 51
158.75188206080421
  0
CIRCLE
  5
6215
  8
0
  6
CONTINUOUS
 62
     0
 10
508.28385824823363
 20
815.966262169684
 30
0.0
 40
7.5
  0
ARC
  5
6216
  8
0
  6
CONTINUOUS
 62
     0
 10
369.2838282482337
 20
827.57655216968385
 30
0.0
 40
4.0
 50
95.00000199999208
 51
180.00001000000091
  0
ARC
  5
6217
  8
0
  6
CONTINUOUS
 62
     0
 10
523.28385824823374
 20
782.02900216968374
 30
0.0
 40
4.0
 50
97.180758000007273
 51
180.00001000000091
  0
ARC
  5
6218
  8
0
  6
CONTINUOUS
 62
     0
 10
522.28385824823374
 20
789.96626216968389
 30
0.0
 40
4.0
 50
277.18075000000363
 51
0.0
  0
ARC
  5
6219
  8
0
  6
CONTINUOUS
 62
     0
 10
404.28382824823359
 20
831.64247216968442
 30
0.0
 40
3.0
 50
95.00000199999208
 51
275.0
  0
ARC
  5
621A
  8
0
  6
CONTINUOUS
 62
     0
 10
413.2838282482337
 20
825.40315216968395
 30
0.0
 40
4.0
 50
0.0
 51
95.00000199999208
  0
ARC
  5
621B
  8
0
  6
CONTINUOUS
 62
     0
 10
522.28385824823374
 20
651.966262169684
 30
0.0
 40
4.0
 50
0.0
 51
82.819246999996963
  0
ARC
  5
621C
  8
0
  6
CONTINUOUS
 62
     0
 10
523.28385824823374
 20
659.90351216968361
 30
0.0
 40
4.0
 50
180.00001000000091
 51
262.81924999999637
  0
CIRCLE
  5
621D
  8
0
  6
CONTINUOUS
 62
     0
 10
508.28385824823363
 20
625.96626216968411
 30
0.0
 40
7.5
  0
ARC
  5
621E
  8
0
  6
CONTINUOUS
 62
     0
 10
383.51259883867988
 20
626.25943495955664
 30
0.0
 40
7.6500256972343417
 50
167.10800546465671
 51
111.68858928288221
  0
ARC
  5
621F
  8
0
  6
CONTINUOUS
 62
     0
 10
522.28385824823374
 20
613.56553216968359
 30
0.0
 40
4.0
 50
272.00000000000369
 51
0.0
  0
ARC
  5
6220
  8
0
  6
CONTINUOUS
 62
     0
 10
523.2838282482337
 20
693.69831216968373
 30
0.0
 40
3.0
 50
300.00001000000651
 51
0.0
  0
ARC
  5
6221
  8
0
  6
CONTINUOUS
 62
     0
 10
523.2838282482337
 20
748.23420216968373
 30
0.0
 40
3.0
 50
0.0
 51
60.000002000001302
  0
ARC
  5
6222
  8
0
  6
CONTINUOUS
 62
     0
 10
522.28385824823374
 20
755.73976216968413
 30
0.0
 40
3.0
 50
179.999989999999
 51
240.0000100000054
  0
ARC
  5
6223
  8
0
  6
CONTINUOUS
 62
     0
 10
522.28385824823374
 20
686.1927621696841
 30
0.0
 40
3.0
 50
120.0000000000005
 51
180.00001000000091
  0
ARC
  5
6224
  8
0
  6
CONTINUOUS
 62
     0
 10
543.2838282482337
 20
720.96626216968411
 30
0.0
 40
4.9999924
 50
90.00000299999769
 51
270.0
  0
ARC
  5
6225
  8
0
  6
CONTINUOUS
 62
     0
 10
515.28385824823363
 20
659.86289216968419
 30
0.0
 40
4.0
 50
271.50000000000267
 51
0.0
  0
ARC
  5
6226
  8
0
  6
CONTINUOUS
 62
     0
 10
515.28385824823363
 20
782.06965216968399
 30
0.0
 40
4.0
 50
0.0
 51
88.499997000000647
  0
ARC
  5
6227
  8
0
  6
CONTINUOUS
 62
     0
 10
490.28385824823363
 20
790.17298216968413
 30
0.0
 40
8.0
 50
0.0
 51
88.499997000000647
  0
ARC
  5
6228
  8
0
  6
CONTINUOUS
 62
     0
 10
490.28385824823363
 20
651.75953216968412
 30
0.0
 40
8.0
 50
271.50000000000267
 51
0.0
  0
ARC
  5
6229
  8
0
  6
CONTINUOUS
 62
     0
 10
505.73606824823372
 20
647.60877216968413
 30
0.0
 40
8.0
 50
91.500001000001546
 51
164.96420000000299
  0
ARC
  5
622A
  8
0
  6
CONTINUOUS
 62
     0
 10
505.73606824823372
 20
794.32374216968412
 30
0.0
 40
8.0
 50
195.0357999999969
 51
268.49999999999733
  0
ARC
  5
622B
  8
0
  6
CONTINUOUS
 62
     0
 10
490.2838282482337
 20
810.17988216968388
 30
0.0
 40
12.0
 50
180.00001000000091
 51
268.49999999999733
  0
ARC
  5
622C
  8
0
  6
CONTINUOUS
 62
     0
 10
490.2838282482337
 20
631.75266216968362
 30
0.0
 40
12.0
 50
91.500001000001546
 51
180.00001000000091
  0
ARC
  5
622D
  8
0
  6
CONTINUOUS
 62
     0
 10
486.2838282482337
 20
825.62171216968375
 30
0.0
 40
8.0
 50
87.999999999996248
 51
180.00001000000091
  0
ARC
  5
622E
  8
0
  6
CONTINUOUS
 62
     0
 10
486.2838282482337
 20
616.31083216968398
 30
0.0
 40
8.0
 50
180.00001000000091
 51
271.99999000000798
  0
ARC
  5
622F
  8
0
  6
CONTINUOUS
 62
     0
 10
413.2838282482337
 20
616.52937216968405
 30
0.0
 40
4.0
 50
265.00001000000037
 51
0.0000006832429909
  0
ARC
  5
6230
  8
0
  6
CONTINUOUS
 62
     0
 10
404.28382824823359
 20
610.29005216968403
 30
0.0
 40
3.0
 50
85.000003999997659
 51
264.99999999999989
  0
ARC
  5
6231
  8
0
  6
CONTINUOUS
 62
     0
 10
412.28382824823359
 20
830.33473216968434
 30
0.0
 40
5.0
 50
0.0
 51
95.00000199999208
  0
ARC
  5
6232
  8
0
  6
CONTINUOUS
 62
     0
 10
412.28382824823359
 20
611.59779216968411
 30
0.0
 40
5.0
 50
265.00001000000037
 51
0.0000006832429909
  0
ARC
  5
6233
  8
0
  6
CONTINUOUS
 62
     0
 10
406.2838282482337
 20
624.7125321696841
 30
0.0
 40
3.0
 50
180.00001000000091
 51
267.99999999999608
  0
ARC
  5
6234
  8
0
  6
CONTINUOUS
 62
     0
 10
406.2838282482337
 20
817.21998216968404
 30
0.0
 40
3.0
 50
91.999997999994051
 51
180.00001000000091
  0
POLYLINE
  5
6237
  8
0
  6
CONTINUOUS
 62
     0
 66
     1
 10
0.0
 20
0.0
 30
0.0
  0
VERTEX
  5
6238
  8
0
  6
CONTINUOUS
 62
     0
 10
413.2838282482337
 20
690.68983216968411
 30
0.0
 42
-0.07005559
  0
VERTEX
  5
6239
  8
0
  6
CONTINUOUS
 62
     0
 10
439.64448824823359
 20
670.4924921696836
 30
0.0
 42
-0.27110578
  0
VERTEX
  5
623A
  8
0
  6
CONTINUOUS
 62
     0
 10
448.2838282482337
 20
650.60914216968411
 30
0.0
 42
-0.21303172
  0
VERTEX
  5
623B
  8
0
  6
CONTINUOUS
 62
     0
 10
428.6933882482337
 20
632.47433216968409
 30
0.0
  0
VERTEX
  5
623C
  8
0
  6
CONTINUOUS
 62
     0
 10
413.2838282482337
 20
626.17607216968406
 30
0.0
 42
-1.0
  0
SEQEND
  5
623D
  8
0
 62
     0
  0
POLYLINE
  5
623E
  8
0
  6
CONTINUOUS
 62
     0
 66
     1
 10
0.0
 20
0.0
 30
0.0
  0
VERTEX
  5
623F
  8
0
  6
CONTINUOUS
 62
     0
 10
413.2838282482337
 20
643.54945216968406
 30
0.0
 42
0.040443759
  0
VERTEX
  5
6240
  8
0
  6
CONTINUOUS
 62
     0
 10
424.81200824823333
 20
643.7728221696841
 30
0.0
 42
0.042469384
  0
VERTEX
  5
6241
  8
0
  6
CONTINUOUS
 62
     0
 10
436.1456982482336
 20
645.88633216968412
 30
0.0
 42
0.022671411
  0
VERTEX
  5
6242
  8
0
  6
CONTINUOUS
 62
     0
 10
441.63018824823359
 20
647.6772721696841
 30
0.0
  0
VERTEX
  5
6243
  8
0
  6
CONTINUOUS
 62
     0
 10
446.9358082482338
 20
649.94611216968349
 30
0.0
 42
-1.0
  0
SEQEND
  5
6244
  8
0
 62
     0
  0
POLYLINE
  5
6245
  8
0
  6
CONTINUOUS
 62
     0
 66
     1
 10
0.0
 20
0.0
 30
0.0
  0
VERTEX
  5
6246
  8
0
  6
CONTINUOUS
 62
     0
 10
413.2838282482337
 20
798.38307216968417
 30
0.0
 42
-0.040443759
  0
VERTEX
  5
6247
  8
0
  6
CONTINUOUS
 62
     0
 10
424.81200824823333
 20
798.15970216968412
 30
0.0
 42
-0.042469384
  0
VERTEX
  5
6248
  8
0
  6
CONTINUOUS
 62
     0
 10
436.1456982482336
 20
796.04618216968413
 30
0.0
 42
-0.022671411
  0
VERTEX
  5
6249
  8
0
  6
CONTINUOUS
 62
     0
 10
441.63018824823359
 20
794.2552421696837
 30
0.0
  0
VERTEX
  5
624A
  8
0
  6
CONTINUOUS
 62
     0
 10
446.9358082482338
 20
791.98641216968372
 30
0.0
 42
-1.0
  0
SEQEND
  5
624B
  8
0
 62
     0
  0
POLYLINE
  5
624C
  8
0
  6
CONTINUOUS
 62
     0
 66
     1
 10
0.0
 20
0.0
 30
0.0
  0
VERTEX
  5
624D
  8
0
  6
CONTINUOUS
 62
     0
 10
413.2838282482337
 20
751.24269216968401
 30
0.0
 42
0.070055609
  0
VERTEX
  5
624E
  8
0
  6
CONTINUOUS
 62
     0
 10
439.64448824823359
 20
771.44003216968395
 30
0.0
 42
0.27110581
  0
VERTEX
  5
624F
  8
0
  6
CONTINUOUS
 62
     0
 10
448.2838282482337
 20
791.32337216968415
 30
0.0
 42
0.21303143
  0
VERTEX
  5
6250
  8
0
  6
CONTINUOUS
 62
     0
 10
428.6933882482337
 20
809.45821216968341
 30
0.0
  0
VERTEX
  5
6251
  8
0
  6
CONTINUOUS
 62
     0
 10
413.2838282482337
 20
815.75648216968386
 30
0.0
 42
-1.0
  0
SEQEND
  5
6252
  8
0
 62
     0
  0
ARC
  5
6253
  8
0
 62
     0
 10
105.1838182482346
 20
635.46888816968419
 30
0.0
 40
2.399999999999999
 50
180.0
 51
199.9999999999975
  0
ARC
  5
6254
  8
0
 62
     0
 10
109.7782822482346
 20
622.84570316968416
 30
0.0
 40
2.399999999999999
 50
199.9999999999975
 51
270.0
  0
LINE
  5
6255
  8
0
 62
     0
 10
107.5230192482346
 20
622.02485516968386
 30
0.0
 11
102.9285562482346
 21
634.64804016968378
 31
0.0
  0
LINE
  5
6256
  8
0
 62
     0
 10
175.78381824823461
 20
620.4457031696835
 30
0.0
 11
109.7782822482346
 21
620.4457031696835
 31
0.0
  0
LINE
  5
6257
  8
0
 62
     0
 10
175.78381824823461
 20
821.48682116968371
 30
0.0
 11
175.78381824823461
 21
620.4457031696835
 31
0.0
  0
LINE
  5
6258
  8
0
 62
     0
 10
107.5230192482346
 20
819.90766916968414
 30
0.0
 11
102.9285562482346
 21
807.28448416968399
 31
0.0
  0
ARC
  5
6259
  8
0
 62
     0
 10
109.7782822482346
 20
819.08682116968384
 30
0.0
 40
2.399999999999999
 50
90.0
 51
160.00000000000239
  0
ARC
  5
625A
  8
0
 62
     0
 10
105.1838182482346
 20
806.46363616968415
 30
0.0
 40
2.399999999999999
 50
160.00000000000239
 51
180.0
  0
LINE
  5
625B
  8
0
 62
     0
 10
108.09778324823471
 20
820.80027516968403
 30
0.0
 11
108.09778324823471
 21
620.4457031696835
 31
0.0
  0
LINE
  5
625C
  8
0
 62
     0
 10
102.7838182482346
 20
806.46363616968415
 30
0.0
 11
102.7838182482346
 21
635.68682116968398
 31
0.0
  0
LINE
  5
625D
  8
0
 62
     0
 10
175.78381824823461
 20
821.48682116968371
 30
0.0
 11
109.7782822482346
 21
821.48682116968371
 31
0.0
  0
LINE
  5
625E
  8
0
 62
     0
 10
309.78381824823458
 20
618.966262169684
 30
0.0
 11
309.78381824823458
 21
615.96626216968411
 31
0.0
  0
LINE
  5
625F
  8
0
 62
     0
 10
242.78381824823461
 20
618.966262169684
 30
0.0
 11
242.78381824823461
 21
615.96626216968411
 31
0.0
  0
LINE
  5
6260
  8
0
 62
     0
 10
319.53394324823461
 20
617.59524716968349
 30
0.0
 11
230.71582424823461
 21
576.17923816968403
 31
0.0
  0
LINE
  5
6261
  8
0
 62
     0
 10
321.1819382482347
 20
614.06128216968409
 30
0.0
 11
319.53394324823461
 21
617.59524716968349
 31
0.0
  0
LINE
  5
6262
  8
0
 62
     0
 10
242.38382024823451
 20
615.96626216968411
 30
0.0
 11
312.12692024823468
 21
615.96626216968411
 31
0.0
  0
LINE
  5
6263
  8
0
 62
     0
 10
232.3640172482346
 20
572.64426616968399
 30
0.0
 11
230.71582424823461
 21
576.17923816968403
 31
0.0
  0
LINE
  5
6264
  8
0
 62
     0
 10
239.91702224823459
 20
573.01027116968362
 30
0.0
 11
239.59562024823461
 21
573.6992631696836
 31
0.0
  0
LINE
  5
6265
  8
0
 62
     0
 10
316.20892024823451
 20
588.88026316968376
 30
0.0
 11
316.20892024823451
 21
609.25427216968387
 31
0.0
  0
LINE
  5
6266
  8
0
 62
     0
 10
233.8314122482345
 20
572.11526416968366
 30
0.0
 11
320.65691724823478
 21
612.60226716968361
 31
0.0
  0
LINE
  5
6267
  8
0
 62
     0
 10
238.7838222482346
 20
579.94126816968401
 30
0.0
 11
238.7838222482346
 21
612.36627116968361
 31
0.0
  0
LINE
  5
6268
  8
0
  6
AM_ISO08W050
 62
     0
 10
233.60762124823461
 20
595.96626216968411
 30
0.0
 11
242.19792224823459
 21
595.96626216968411
 31
0.0
  0
LINE
  5
6269
  8
0
 62
     0
 10
236.7838222482346
 20
607.56626816968401
 30
0.0
 11
236.7838222482346
 21
584.36627116968418
 31
0.0
  0
LINE
  5
626A
  8
0
 62
     0
 10
236.7838222482346
 20
607.56626816968401
 30
0.0
 11
237.7838222482346
 21
607.56626816968401
 31
0.0
  0
LINE
  5
626B
  8
0
 62
     0
 10
236.7838222482346
 20
584.36627116968418
 30
0.0
 11
237.7838222482346
 21
584.36627116968418
 31
0.0
  0
ARC
  5
626C
  8
0
 62
     0
 10
242.38382024823451
 20
612.36627116968361
 30
0.0
 40
3.5999979999999989
 50
90.000061000000898
 51
179.99998200000081
  0
ARC
  5
626D
  8
0
 62
     0
 10
320.18491824823468
 20
613.5962671696841
 30
0.0
 40
1.100006
 50
294.99982600000448
 51
24.99951399999285
  0
ARC
  5
626E
  8
0
 62
     0
 10
233.36092124823469
 20
573.10926716968402
 30
0.0
 40
1.0999959999999971
 50
204.99980300000141
 51
295.00019499999559
  0
ARC
  5
626F
  8
0
 62
     0
 10
308.60892224823471
 20
588.88026316968376
 30
0.0
 40
7.5999979999999958
 50
288.90001599999658
 51
0.0000179999992061
  0
ARC
  5
6270
  8
0
 62
     0
 10
243.17972324823469
 20
574.5312641696836
 30
0.0
 40
3.5999979999999989
 50
204.9991569999998
 51
269.09402099999909
  0
ARC
  5
6271
  8
0
 62
     0
 10
246.2862212482348
 20
770.90725616968405
 30
0.0
 40
200.0
 50
269.09405200000299
 51
288.9000030000019
  0
ARC
  5
6272
  8
0
 62
     0
 10
238.68932024823451
 20
573.27726716968402
 30
0.0
 40
0.9999979999999998
 50
24.999268000004911
 51
114.9993579999945
  0
ARC
  5
6273
  8
0
 62
     0
 10
318.20892024823451
 20
609.25427216968387
 30
0.0
 40
2.0
 50
115.00014999999451
 51
179.99998200000081
  0
ARC
  5
6274
  8
0
 62
     0
 10
312.12692024823468
 20
613.36627116968418
 30
0.0
 40
2.600006
 50
40.686130000000617
 51
90.0
  0
ARC
  5
6275
  8
0
 62
     0
 10
237.7838222482346
 20
608.56626816968401
 30
0.0
 40
1.0
 50
269.99894299999522
 51
0.0000179999992061
  0
ARC
  5
6276
  8
0
 62
     0
 10
237.7838222482346
 20
583.36627116968361
 30
0.0
 40
1.0
 50
0.0000179999992061
 51
90.0
  0
ARC
  5
6277
  8
0
 62
     0
 10
184.22746224823479
 20
638.56558216968415
 30
0.0
 40
2.0
 50
189.99999999999861
 51
270.0
  0
LINE
  5
6278
  8
0
 62
     0
 10
182.25784724823461
 20
638.21828616968401
 30
0.0
 11
179.28381824823461
 21
655.08484016968362
 31
0.0
  0
LINE
  5
6279
  8
0
 62
     0
 10
179.28381824823461
 20
655.08484016968362
 30
0.0
 11
180.3455572482346
 21
655.08484016968362
 31
0.0
  0
LINE
  5
627A
  8
0
 62
     0
 10
377.74795924823479
 20
807.13856916968405
 30
0.0
 11
378.28381824823458
 21
807.13856916968405
 31
0.0
  0
LINE
  5
627B
  8
0
 62
     0
 10
378.00828024823431
 20
808.70082616968386
 30
0.0
 11
378.28374824823442
 21
808.70082616968386
 31
0.0
  0
LINE
  5
627C
  8
0
 62
     0
 10
379.9620172482347
 20
632.96641316968419
 30
0.0
 11
380.28381824823458
 21
632.96641316968419
 31
0.0
  0
LINE
  5
627D
  8
0
 62
     0
 10
376.10442324823481
 20
637.81427616968404
 30
0.0
 11
378.28381824823458
 21
637.81427616968404
 31
0.0
  0
LINE
  5
627E
  8
0
 62
     0
 10
377.11050624823451
 20
649.91984616968375
 30
0.0
 11
378.28381824823458
 21
649.91984616968375
 31
0.0
  0
LINE
  5
627F
  8
0
  6
AM_ISO08W050
 62
     0
 10
276.28381824823458
 20
613.31029716968419
 30
0.0
 11
276.28381824823458
 21
622.49201316968401
 31
0.0
  0
ARC
  5
6280
  8
0
 62
     0
 10
374.52669824823482
 20
809.97451016968409
 30
0.0
 40
2.0
 50
9.9999999999986073
 51
90.0
  0
ARC
  5
6281
  8
0
 62
     0
 10
374.59271524823481
 20
813.51530916968409
 30
0.0
 40
2.0
 50
9.9999999999986073
 51
90.0
  0
ARC
  5
6282
  8
0
 62
     0
 10
374.6786332482348
 20
816.06704616968375
 30
0.0
 40
2.0
 50
9.9999999999986073
 51
90.0
  0
ARC
  5
6283
  8
0
 62
     0
 10
374.70738224823458
 20
817.46626216968411
 30
0.0
 40
2.0
 50
9.9999999999986073
 51
90.0
  0
LINE
  5
6284
  8
0
 62
     0
 10
383.28382124823469
 20
805.96626216968411
 30
0.0
 11
380.2838212482348
 21
808.96626216968434
 31
0.0
  0
LINE
  5
6285
  8
0
 62
     0
 10
378.23701424823457
 20
808.96626216968434
 30
0.0
 11
380.28381824823458
 21
808.96626216968434
 31
0.0
  0
LINE
  5
6286
  8
0
 62
     0
 10
383.28381824823458
 20
635.96626216968411
 30
0.0
 11
380.28381824823458
 21
632.96626216968411
 31
0.0
  0
LINE
  5
6287
  8
0
 62
     0
 10
380.28381824823458
 20
632.96626216968411
 30
0.0
 11
380.28381824823458
 21
658.5866481696836
 31
0.0
  0
LINE
  5
6288
  8
0
 62
     0
 10
383.28381824823458
 20
635.96626216968411
 30
0.0
 11
383.28381824823458
 21
805.96626216968411
 31
0.0
  0
CIRCLE
  5
6289
  8
0
 62
     0
 10
276.28381824823458
 20
720.96626216968411
 30
0.0
 40
11.0
  0
LINE
  5
628A
  8
0
 62
     0
 10
183.56993824823459
 20
819.466262169684
 30
0.0
 11
235.28381824823461
 21
819.466262169684
 31
0.0
  0
LINE
  5
628B
  8
0
 62
     0
 10
315.2838182482347
 20
811.97451016968409
 30
0.0
 11
315.2838182482347
 21
817.46626216968411
 31
0.0
  0
LINE
  5
628C
  8
0
 62
     0
 10
237.28381824823461
 20
811.97451016968409
 30
0.0
 11
237.28381824823461
 21
817.46626216968411
 31
0.0
  0
ARC
  5
628D
  8
0
 62
     0
 10
235.28381824823461
 20
817.46626216968411
 30
0.0
 40
2.0
 50
0.0
 51
90.0
  0
ARC
  5
628E
  8
0
 62
     0
 10
317.2838182482347
 20
817.46626216968411
 30
0.0
 40
2.0
 50
90.0
 51
180.0
  0
LINE
  5
628F
  8
0
 62
     0
 10
317.2838182482347
 20
819.466262169684
 30
0.0
 11
374.70738224823458
 21
819.466262169684
 31
0.0
  0
LINE
  5
6290
  8
0
 62
     0
 10
374.6786332482348
 20
818.06704616968409
 30
0.0
 11
317.2838182482347
 21
818.06704616968409
 31
0.0
  0
LINE
  5
6291
  8
0
 62
     0
 10
378.28381824823458
 20
807.13856916968405
 30
0.0
 11
376.64824924823449
 21
816.41434216968401
 31
0.0
  0
LINE
  5
6292
  8
0
 62
     0
 10
378.28381824823458
 20
808.70082616968386
 30
0.0
 11
376.67699724823461
 21
817.81355816968414
 31
0.0
  0
LINE
  5
6293
  8
0
 62
     0
 10
179.28381824823461
 20
804.67600816968434
 30
0.0
 11
181.6003232482345
 21
817.81355816968414
 31
0.0
  0
ARC
  5
6294
  8
0
 62
     0
 10
183.56993824823459
 20
817.46626216968411
 30
0.0
 40
2.0
 50
90.0
 51
170.00000000000139
  0
LINE
  5
6295
  8
0
 62
     0
 10
179.28381824823461
 20
803.01694716968404
 30
0.0
 11
181.6461402482345
 21
816.41434216968401
 31
0.0
  0
ARC
  5
6296
  8
0
 62
     0
 10
183.6157562482345
 20
816.06704616968375
 30
0.0
 40
2.0
 50
90.0
 51
170.00000000000139
  0
ARC
  5
6297
  8
0
 62
     0
 10
235.28381824823461
 20
816.06704616968375
 30
0.0
 40
2.0
 50
0.0
 51
90.0
  0
ARC
  5
6298
  8
0
 62
     0
 10
317.2838182482347
 20
816.06704616968375
 30
0.0
 40
2.0
 50
90.0
 51
180.0
  0
LINE
  5
6299
  8
0
 62
     0
 10
235.28381824823461
 20
818.06704616968409
 30
0.0
 11
183.6157562482345
 21
818.06704616968409
 31
0.0
  0
LINE
  5
629A
  8
0
 62
     0
 10
374.59271524823481
 20
815.51530916968375
 30
0.0
 11
317.2838182482347
 21
815.51530916968375
 31
0.0
  0
LINE
  5
629B
  8
0
 62
     0
 10
378.15503824823458
 20
804.82991116968401
 30
0.0
 11
376.56233024823462
 21
813.86260616968411
 31
0.0
  0
LINE
  5
629C
  8
0
 62
     0
 10
179.28381824823461
 20
799.7961561696842
 30
0.0
 11
181.76411324823471
 21
813.86260616968411
 31
0.0
  0
ARC
  5
629D
  8
0
 62
     0
 10
183.7337282482346
 20
813.51530916968409
 30
0.0
 40
2.0
 50
90.0
 51
170.00000000000139
  0
ARC
  5
629E
  8
0
 62
     0
 10
235.28381824823461
 20
813.51530916968409
 30
0.0
 40
2.0
 50
0.0
 51
90.0
  0
ARC
  5
629F
  8
0
 62
     0
 10
317.2838182482347
 20
813.51530916968409
 30
0.0
 40
2.0
 50
90.0
 51
180.0
  0
LINE
  5
62A0
  8
0
 62
     0
 10
235.28381824823461
 20
815.51530916968375
 30
0.0
 11
183.7337282482346
 21
815.51530916968375
 31
0.0
  0
LINE
  5
62A1
  8
0
 62
     0
 10
374.52669824823482
 20
811.97451016968409
 30
0.0
 11
183.89523724823471
 21
811.97451016968409
 31
0.0
  0
LINE
  5
62A2
  8
0
 62
     0
 10
377.46468324823462
 20
804.82991116968401
 30
0.0
 11
376.4963142482344
 21
810.32180616968412
 31
0.0
  0
LINE
  5
62A3
  8
0
 62
     0
 10
179.28381824823461
 20
795.3393961696836
 30
0.0
 11
181.92562124823451
 21
810.32180616968412
 31
0.0
  0
ARC
  5
62A4
  8
0
 62
     0
 10
183.89523724823471
 20
809.97451016968409
 30
0.0
 40
2.0
 50
90.0
 51
170.00000000000139
  0
LINE
  5
62A5
  8
0
 62
     0
 10
308.34017424823452
 20
805.36694216968385
 30
0.0
 11
184.22746224823479
 21
805.36694216968385
 31
0.0
  0
LINE
  5
62A6
  8
0
 62
     0
 10
313.2838182482347
 20
786.84768416968404
 30
0.0
 11
310.30978924823472
 21
803.71423816968399
 31
0.0
  0
ARC
  5
62A7
  8
0
 62
     0
 10
308.34017424823452
 20
803.36694216968374
 30
0.0
 40
2.0
 50
9.9999999999986073
 51
90.0
  0
LINE
  5
62A8
  8
0
 62
     0
 10
179.28381824823461
 20
786.84768416968404
 30
0.0
 11
182.25784724823461
 21
803.71423816968399
 31
0.0
  0
ARC
  5
62A9
  8
0
 62
     0
 10
184.22746224823479
 20
803.36694216968374
 30
0.0
 40
2.0
 50
90.0
 51
170.00000000000139
  0
LINE
  5
62AA
  8
0
 62
     0
 10
308.0099102482348
 20
799.96489816968415
 30
0.0
 11
184.55772624823439
 21
799.96489816968415
 31
0.0
  0
LINE
  5
62AB
  8
0
 62
     0
 10
313.06276724823482
 20
780.82626216968401
 30
0.0
 11
309.97952624823461
 21
798.31219516968395
 31
0.0
  0
ARC
  5
62AC
  8
0
 62
     0
 10
308.0099102482348
 20
797.96489816968415
 30
0.0
 40
2.0
 50
9.9999999999986073
 51
90.0
  0
LINE
  5
62AD
  8
0
 62
     0
 10
179.5608122482347
 20
781.14353016968403
 30
0.0
 11
182.58811024823461
 21
798.31219516968395
 31
0.0
  0
ARC
  5
62AE
  8
0
 62
     0
 10
184.55772624823439
 20
797.96489816968415
 30
0.0
 40
2.0
 50
90.0
 51
170.00000000000139
  0
LINE
  5
62AF
  8
0
 62
     0
 10
383.28375824823331
 20
725.99641416968404
 30
0.0
 11
383.28375824823331
 21
728.94410616968412
 31
0.0
  0
LINE
  5
62B0
  8
0
 62
     0
 10
383.28375824823331
 20
735.99589016968412
 30
0.0
 11
383.28375824823331
 21
738.95736916968394
 31
0.0
  0
LINE
  5
62B1
  8
0
 62
     0
 10
383.28375824823331
 20
746.98807016968385
 30
0.0
 11
383.28375824823331
 21
749.98069716968371
 31
0.0
  0
LINE
  5
62B2
  8
0
 62
     0
 10
383.28375824823331
 20
757.97086516968443
 30
0.0
 11
383.28375824823331
 21
761.01657116968431
 31
0.0
  0
LINE
  5
62B3
  8
0
 62
     0
 10
383.28375824823331
 20
768.94074416968408
 30
0.0
 11
383.28375824823331
 21
772.07165716968404
 31
0.0
  0
LINE
  5
62B4
  8
0
 62
     0
 10
383.28375824823331
 20
777.8992201696841
 30
0.0
 11
383.28375824823331
 21
781.14353016968403
 31
0.0
  0
LINE
  5
62B5
  8
0
 62
     0
 10
328.28381824823458
 20
795.3393961696836
 30
0.0
 11
311.78650024823469
 21
795.3393961696836
 31
0.0
  0
LINE
  5
62B6
  8
0
 62
     0
 10
360.07059524823478
 20
800.1843641696837
 30
0.0
 11
344.2838182482347
 21
800.1843641696837
 31
0.0
  0
LINE
  5
62B7
  8
0
 62
     0
 10
328.28381824823458
 20
795.3393961696836
 30
0.0
 11
344.2838182482347
 21
800.1843641696837
 31
0.0
  0
LINE
  5
62B8
  8
0
 62
     0
 10
344.2838182482347
 20
800.1843641696837
 30
0.0
 11
344.2838182482347
 21
796.81904916968415
 31
0.0
  0
LINE
  5
62B9
  8
0
 62
     0
 10
328.28381824823458
 20
795.3393961696836
 30
0.0
 11
328.28381824823458
 21
781.14353016968403
 31
0.0
  0
LINE
  5
62BA
  8
0
 62
     0
 10
363.78381824823458
 20
784.03222416968345
 30
0.0
 11
363.78381824823458
 21
802.82991116968401
 31
0.0
  0
ARC
  5
62BB
  8
0
 62
     0
 10
365.78381824823458
 20
802.82991116968401
 30
0.0
 40
2.0
 50
90.0
 51
180.0
  0
LINE
  5
62BC
  8
0
 62
     0
 10
363.78381824823458
 20
788.42232216968387
 30
0.0
 11
344.2838182482347
 21
788.42232216968387
 31
0.0
  0
LINE
  5
62BD
  8
0
 62
     0
 10
358.38382424823448
 20
796.81904916968415
 30
0.0
 11
344.2838182482347
 21
796.81904916968415
 31
0.0
  0
LINE
  5
62BE
  8
0
 62
     0
 10
344.2838182482347
 20
788.42232216968387
 30
0.0
 11
344.2838182482347
 21
781.14353016968403
 31
0.0
  0
ARC
  5
62BF
  8
0
  6
CONTINUOUS
 62
     0
 10
360.98361724823462
 20
792.4495281696843
 30
0.0
 40
2.600398999999999
 50
179.99998200000081
 51
269.99997799999522
  0
ARC
  5
62C0
  8
0
  6
CONTINUOUS
 62
     0
 10
360.98361724823462
 20
797.74951616968394
 30
0.0
 40
2.600403
 50
90.0
 51
179.99998200000081
  0
LINE
  5
62C1
  8
0
  6
CONTINUOUS
 62
     0
 10
363.78381824823458
 20
795.16554716968403
 30
0.0
 11
362.28381824823458
 21
794.299522169684
 31
0.0
  0
LINE
  5
62C2
  8
0
  6
CONTINUOUS
 62
     0
 10
363.78381824823458
 20
796.16554716968403
 30
0.0
 11
362.28381824823458
 21
795.299522169684
 31
0.0
  0
LINE
  5
62C3
  8
0
  6
CONTINUOUS
 62
     0
 10
363.78381824823458
 20
801.19952216968386
 30
0.0
 11
363.78381824823458
 21
788.99952216968404
 31
0.0
  0
LINE
  5
62C4
  8
0
  6
CONTINUOUS
 62
     0
 10
362.28381824823458
 20
801.19952216968386
 30
0.0
 11
363.78381824823458
 21
801.19952216968386
 31
0.0
  0
LINE
  5
62C5
  8
0
  6
CONTINUOUS
 62
     0
 10
362.28381824823458
 20
788.99952216968404
 30
0.0
 11
363.78381824823458
 21
788.99952216968404
 31
0.0
  0
LINE
  5
62C6
  8
0
  6
CONTINUOUS
 62
     0
 10
358.38382424823448
 20
797.74951616968394
 30
0.0
 11
358.38382424823448
 21
792.4495281696843
 31
0.0
  0
LINE
  5
62C7
  8
0
  6
CONTINUOUS
 62
     0
 10
362.28381824823458
 20
801.19952216968386
 30
0.0
 11
362.28381824823458
 21
788.99952216968404
 31
0.0
  0
LINE
  5
62C8
  8
0
  6
CONTINUOUS
 62
     0
 10
362.28381824823458
 20
789.84952216968384
 30
0.0
 11
360.98361724823462
 21
789.84952216968384
 31
0.0
  0
LINE
  5
62C9
  8
0
  6
CONTINUOUS
 62
     0
 10
362.28381824823458
 20
800.34952216968372
 30
0.0
 11
360.98361724823462
 21
800.34952216968372
 31
0.0
  0
LINE
  5
62CA
  8
0
 62
     0
 10
383.28381824823458
 20
804.82991116968401
 30
0.0
 11
365.78381824823458
 21
804.82991116968401
 31
0.0
  0
LINE
  5
62CB
  8
0
 62
     0
 10
383.28381824823458
 20
783.03222416968401
 30
0.0
 11
362.78381824823458
 21
783.03222416968401
 31
0.0
  0
ARC
  5
62CC
  8
0
 62
     0
 10
362.78381824823458
 20
784.03222416968345
 30
0.0
 40
1.0
 50
270.0
 51
0.0
  0
LINE
  5
62CD
  8
0
 62
     0
 10
383.28381824823458
 20
796.70590616968411
 30
0.0
 11
365.78381824823458
 21
796.70590616968411
 31
0.0
  0
LINE
  5
62CE
  8
0
 62
     0
 10
175.78381824823461
 20
804.96626216968411
 30
0.0
 11
179.28381824823461
 21
804.96626216968411
 31
0.0
  0
ARC
  5
62CF
  8
0
 62
     0
 10
379.9620172482347
 20
630.96626216968411
 30
0.0
 40
2.0
 50
90.0
 51
170.00000000000139
  0
ARC
  5
62D0
  8
0
 62
     0
 10
316.02646024823463
 20
625.97260516968413
 30
0.0
 40
1.9936590000000001
 50
90.075931000003493
 51
178.17025399999861
  0
LINE
  5
62D1
  8
0
 62
     0
 10
316.0238182482347
 20
627.96626216968411
 30
0.0
 11
375.72398424823461
 21
627.96626216968411
 31
0.0
  0
LINE
  5
62D2
  8
0
 62
     0
 10
313.78381824823458
 20
618.966262169684
 30
0.0
 11
314.39984724823472
 21
636.56558216968415
 31
0.0
  0
LINE
  5
62D3
  8
0
 62
     0
 10
377.99240224823461
 20
631.31355816968403
 30
0.0
 11
377.6935992482347
 21
629.6189661696842
 31
0.0
  0
ARC
  5
62D4
  8
0
 62
     0
 10
375.72398424823461
 20
629.96626216968411
 30
0.0
 40
2.0
 50
270.0
 51
350.00000000000148
  0
LINE
  5
62D5
  8
0
 62
     0
 10
179.86116824823461
 20
635.96626216968411
 30
0.0
 11
187.07804724823441
 21
623.46626216968411
 31
0.0
  0
LINE
  5
62D6
  8
0
 62
     0
 10
188.81009724823451
 20
622.46626216968411
 30
0.0
 11
236.72878924823479
 21
622.46626216968411
 31
0.0
  0
LINE
  5
62D7
  8
0
 62
     0
 10
238.78381824823461
 20
618.966262169684
 30
0.0
 11
238.7275062482347
 21
620.53787716968418
 31
0.0
  0
ARC
  5
62D8
  8
0
 62
     0
 10
178.12911724823471
 20
634.96626216968411
 30
0.0
 40
2.0
 50
29.999999999994898
 51
90.0
  0
ARC
  5
62D9
  8
0
 62
     0
 10
188.81009724823451
 20
624.46626216968411
 30
0.0
 40
2.0
 50
209.99999999999491
 51
270.0
  0
ARC
  5
62DA
  8
0
 62
     0
 10
236.72878924823479
 20
620.46626216968411
 30
0.0
 40
2.0
 50
2.052064999998533
 51
90.0
  0
LINE
  5
62DB
  8
0
 62
     0
 10
238.78381824823461
 20
618.966262169684
 30
0.0
 11
313.78381824823458
 21
618.966262169684
 31
0.0
  0
LINE
  5
62DC
  8
0
 62
     0
 10
187.81009724823451
 20
622.73421116968427
 30
0.0
 11
187.81009724823451
 21
636.56558216968415
 31
0.0
  0
LINE
  5
62DD
  8
0
 62
     0
 10
374.25090224823481
 20
636.56558216968415
 30
0.0
 11
184.22746224823479
 21
636.56558216968415
 31
0.0
  0
LINE
  5
62DE
  8
0
 62
     0
 10
374.03011624823478
 20
641.96762616968408
 30
0.0
 11
184.33667524823451
 21
641.96762616968408
 31
0.0
  0
LINE
  5
62DF
  8
0
 62
     0
 10
378.28381824823458
 20
656.57402816968386
 30
0.0
 11
344.2838182482347
 21
656.57402816968386
 31
0.0
  0
LINE
  5
62E0
  8
0
 62
     0
 10
378.28381824823458
 20
656.57402816968386
 30
0.0
 11
375.99973124823458
 21
643.6203291696836
 31
0.0
  0
ARC
  5
62E1
  8
0
 62
     0
 10
374.03011624823478
 20
643.96762616968363
 30
0.0
 40
2.0
 50
270.0
 51
350.00000000000148
  0
LINE
  5
62E2
  8
0
 62
     0
 10
378.28381824823458
 20
649.91984616968375
 30
0.0
 11
376.22051724823478
 21
638.21828616968401
 31
0.0
  0
ARC
  5
62E3
  8
0
 62
     0
 10
374.25090224823481
 20
638.56558216968415
 30
0.0
 40
2.0
 50
270.0
 51
350.00000000000148
  0
LINE
  5
62E4
  8
0
 62
     0
 10
183.02655624823461
 20
636.96626216968411
 30
0.0
 11
175.78381824823461
 21
636.96626216968411
 31
0.0
  0
LINE
  5
62E5
  8
0
 62
     0
 10
378.28381824823458
 20
637.81427616968404
 30
0.0
 11
376.83876424823461
 21
629.6189661696842
 31
0.0
  0
ARC
  5
62E6
  8
0
 62
     0
 10
374.86914824823458
 20
629.96626216968411
 30
0.0
 40
2.0
 50
270.0
 51
350.00000000000148
  0
LINE
  5
62E7
  8
0
 62
     0
 10
313.2838182482347
 20
672.80626216968403
 30
0.0
 11
313.2838182482347
 21
670.10626216968399
 31
0.0
  0
LINE
  5
62E8
  8
0
 62
     0
 10
383.28381824823458
 20
658.75662516968396
 30
0.0
 11
365.78381824823458
 21
658.75662516968396
 31
0.0
  0
LINE
  5
62E9
  8
0
 62
     0
 10
383.28381824823458
 20
671.06426416968361
 30
0.0
 11
365.78381824823458
 21
671.06426416968361
 31
0.0
  0
LINE
  5
62EB
  8
0
 62
     0
 10
363.78381824823458
 20
680.2435561696841
 30
0.0
 11
363.78381824823458
 21
660.75662516968362
 31
0.0
  0
ARC
  5
62EC
  8
0
 62
     0
 10
362.78381824823458
 20
680.2435561696841
 30
0.0
 40
1.0
 50
0.0
 51
42.252324000004279
  0
ARC
  5
62ED
  8
0
 62
     0
 10
365.78381824823458
 20
660.75662516968362
 30
0.0
 40
2.0
 50
180.0
 51
270.0
  0
LINE
  5
62EE
  8
0
 62
     0
 10
328.28381824823458
 20
777.89922016968399
 30
0.0
 11
328.28381824823458
 21
772.07165716968404
 31
0.0
  0
LINE
  5
62EF
  8
0
 62
     0
 10
344.2838182482347
 20
777.89922016968399
 30
0.0
 11
344.2838182482347
 21
772.07165716968404
 31
0.0
  0
LINE
  5
62F0
  8
0
 62
     0
 10
328.28381824823458
 20
768.94074416968385
 30
0.0
 11
328.28381824823458
 21
761.01657116968431
 31
0.0
  0
LINE
  5
62F1
  8
0
 62
     0
 10
328.28381824823458
 20
757.97086516968352
 30
0.0
 11
328.28381824823458
 21
749.98069716968371
 31
0.0
  0
LINE
  5
62F2
  8
0
 62
     0
 10
328.28381824823458
 20
746.98807016968385
 30
0.0
 11
328.28381824823458
 21
738.95736916968394
 31
0.0
  0
LINE
  5
62F3
  8
0
 62
     0
 10
328.28381824823458
 20
735.99589016968412
 30
0.0
 11
328.28381824823458
 21
728.94410616968412
 31
0.0
  0
LINE
  5
62F4
  8
0
 62
     0
 10
328.28381824823458
 20
726.12626216968408
 30
0.0
 11
328.28381824823458
 21
715.93611016968373
 31
0.0
  0
LINE
  5
62F5
  8
0
 62
     0
 10
344.2838182482347
 20
726.12626216968408
 30
0.0
 11
344.2838182482347
 21
715.93611016968373
 31
0.0
  0
LINE
  5
62F6
  8
0
 62
     0
 10
344.2838182482347
 20
735.99589016968412
 30
0.0
 11
344.2838182482347
 21
728.94410616968412
 31
0.0
  0
LINE
  5
62F7
  8
0
 62
     0
 10
344.2838182482347
 20
746.98807016968385
 30
0.0
 11
344.2838182482347
 21
738.95736916968394
 31
0.0
  0
LINE
  5
62F8
  8
0
 62
     0
 10
344.2838182482347
 20
757.97086516968352
 30
0.0
 11
344.2838182482347
 21
749.98069716968371
 31
0.0
  0
LINE
  5
62F9
  8
0
 62
     0
 10
344.2838182482347
 20
768.94074416968385
 30
0.0
 11
344.2838182482347
 21
761.01657116968431
 31
0.0
  0
LINE
  5
62FA
  8
0
 62
     0
 10
328.28381824823458
 20
712.988418169684
 30
0.0
 11
328.28381824823458
 21
705.93663416968411
 31
0.0
  0
LINE
  5
62FB
  8
0
 62
     0
 10
344.2838182482347
 20
712.988418169684
 30
0.0
 11
344.2838182482347
 21
705.93663416968411
 31
0.0
  0
LINE
  5
62FC
  8
0
 62
     0
 10
344.2838182482347
 20
702.97515516968372
 30
0.0
 11
344.2838182482347
 21
694.94445416968404
 31
0.0
  0
LINE
  5
62FD
  8
0
 62
     0
 10
328.28381824823458
 20
702.97515516968372
 30
0.0
 11
328.28381824823458
 21
694.94445416968404
 31
0.0
  0
LINE
  5
62FE
  8
0
 62
     0
 10
328.28381824823458
 20
691.95182716968407
 30
0.0
 11
328.28381824823458
 21
683.96165916968403
 31
0.0
  0
LINE
  5
62FF
  8
0
 62
     0
 10
344.2838182482347
 20
691.95182716968407
 30
0.0
 11
344.2838182482347
 21
683.96165916968403
 31
0.0
  0
LINE
  5
6300
  8
0
 62
     0
 10
358.83321324823459
 20
664.94546616968387
 30
0.0
 11
344.28381724823453
 21
664.94546616968387
 31
0.0
  0
LINE
  5
6301
  8
0
 62
     0
 10
363.78381824823458
 20
676.35781616968404
 30
0.0
 11
344.28381724823453
 21
676.35781616968404
 31
0.0
  0
LINE
  5
6302
  8
0
 62
     0
 10
328.28381824823458
 20
680.91595316968414
 30
0.0
 11
328.28381824823458
 21
660.91595316968414
 31
0.0
  0
LINE
  5
6303
  8
0
 62
     0
 10
380.28381824823458
 20
804.82991116968401
 30
0.0
 11
380.28381824823458
 21
808.96626216968434
 31
0.0
  0
LINE
  5
6304
  8
0
 62
     0
 10
378.28381824823458
 20
634.76451816968404
 30
0.0
 11
377.37651824823462
 21
629.6189661696842
 31
0.0
  0
ARC
  5
6305
  8
0
 62
     0
 10
375.40690324823458
 20
629.96626216968411
 30
0.0
 40
2.0
 50
270.0
 51
350.00000000000148
  0
LINE
  5
6306
  8
0
 62
     0
 10
344.2838182482347
 20
680.91595316968414
 30
0.0
 11
344.2838182482347
 21
676.35781616968404
 31
0.0
  0
LINE
  5
6308
  8
0
 62
     0
 10
179.28381824823461
 20
661.10626216968399
 30
0.0
 11
182.3670602482344
 21
643.6203291696836
 31
0.0
  0
ARC
  5
6309
  8
0
 62
     0
 10
184.33667524823451
 20
643.96762616968363
 30
0.0
 40
2.0
 50
189.99999999999861
 51
270.0
  0
LINE
  5
630A
  8
0
 62
     0
 10
328.98921524823459
 20
669.66055616968401
 30
0.0
 11
344.2838182482347
 21
664.94546616968387
 31
0.0
  0
LINE
  5
630B
  8
0
 62
     0
 10
344.2838182482347
 20
676.35781616968404
 30
0.0
 11
329.24787724823477
 21
675.81706516968404
 31
0.0
  0
LINE
  5
630C
  8
0
 62
     0
 10
344.2838182482347
 20
664.94546616968387
 30
0.0
 11
344.2838182482347
 21
656.57402816968386
 31
0.0
  0
ARC
  5
630D
  8
0
 62
     0
 10
329.28381824823458
 20
674.81771116968412
 30
0.0
 40
1.0
 50
92.059691000003568
 51
180.0
  0
ARC
  5
630E
  8
0
 62
     0
 10
329.28381824823458
 20
670.61617616968363
 30
0.0
 40
1.0
 50
180.0
 51
252.8662750000021
  0
LINE
  5
630F
  8
0
 62
     0
 10
344.2838182482347
 20
796.81904916968415
 30
0.0
 11
328.98335924823482
 21
791.9991831696841
 31
0.0
  0
LINE
  5
6310
  8
0
 62
     0
 10
329.33237324823477
 20
787.695502169684
 30
0.0
 11
344.2838182482347
 21
788.42232216968387
 31
0.0
  0
ARC
  5
6311
  8
0
 62
     0
 10
329.28381824823458
 20
791.04538816968352
 30
0.0
 40
1.0
 50
107.485179
 51
180.0
  0
ARC
  5
6312
  8
0
 62
     0
 10
329.28381824823458
 20
788.69432316968414
 30
0.0
 40
1.0
 50
180.0
 51
270.0
  0
ARC
  5
6313
  8
0
  6
CONTINUOUS
 62
     0
 10
360.98361724823462
 20
666.4076011696842
 30
0.0
 40
2.600398999999999
 50
179.99998200000081
 51
269.99997799999522
  0
ARC
  5
6314
  8
0
  6
CONTINUOUS
 62
     0
 10
360.98361724823462
 20
671.70758916968418
 30
0.0
 40
2.600403
 50
90.0
 51
179.99998200000081
  0
LINE
  5
6315
  8
0
  6
CONTINUOUS
 62
     0
 10
363.78381824823458
 20
669.12362016968405
 30
0.0
 11
362.28381824823458
 21
668.25759516968412
 31
0.0
  0
LINE
  5
6316
  8
0
  6
CONTINUOUS
 62
     0
 10
363.78381824823458
 20
670.12362016968416
 30
0.0
 11
362.28381824823458
 21
669.25759516968412
 31
0.0
  0
LINE
  5
6317
  8
0
  6
CONTINUOUS
 62
     0
 10
363.78381824823458
 20
675.1575951696841
 30
0.0
 11
363.78381824823458
 21
662.9575951696836
 31
0.0
  0
LINE
  5
6318
  8
0
  6
CONTINUOUS
 62
     0
 10
362.28381824823458
 20
675.1575951696841
 30
0.0
 11
363.78381824823458
 21
675.1575951696841
 31
0.0
  0
LINE
  5
6319
  8
0
  6
CONTINUOUS
 62
     0
 10
362.28381824823458
 20
662.9575951696836
 30
0.0
 11
363.78381824823458
 21
662.9575951696836
 31
0.0
  0
LINE
  5
631A
  8
0
  6
CONTINUOUS
 62
     0
 10
358.38382424823448
 20
671.70758916968418
 30
0.0
 11
358.38382424823448
 21
666.4076011696842
 31
0.0
  0
LINE
  5
631B
  8
0
  6
CONTINUOUS
 62
     0
 10
362.28381824823458
 20
675.1575951696841
 30
0.0
 11
362.28381824823458
 21
662.9575951696836
 31
0.0
  0
LINE
  5
631C
  8
0
  6
CONTINUOUS
 62
     0
 10
362.28381824823458
 20
663.80759516968408
 30
0.0
 11
360.98361724823462
 21
663.80759516968408
 31
0.0
  0
LINE
  5
631D
  8
0
  6
CONTINUOUS
 62
     0
 10
362.28381824823458
 20
674.30759516968362
 30
0.0
 11
360.98361724823462
 21
674.30759516968362
 31
0.0
  0
LINE
  5
631E
  8
0
 62
     0
 10
378.28381824823458
 20
781.14353016968403
 30
0.0
 11
179.28381824823461
 21
781.14353016968403
 31
0.0
  0
LINE
  5
631F
  8
0
 62
     0
 10
378.28381824823458
 20
777.89922016968399
 30
0.0
 11
179.28381824823461
 21
777.89922016968399
 31
0.0
  0
LINE
  5
6320
  8
0
 62
     0
 10
378.28381824823458
 20
772.07165716968404
 30
0.0
 11
179.28381824823461
 21
772.07165716968404
 31
0.0
  0
LINE
  5
6321
  8
0
 62
     0
 10
378.28381824823458
 20
768.94074416968385
 30
0.0
 11
179.28381824823461
 21
768.94074416968385
 31
0.0
  0
LINE
  5
6322
  8
0
 62
     0
 10
378.28381824823458
 20
761.01657116968431
 30
0.0
 11
179.28381824823461
 21
761.01657116968431
 31
0.0
  0
LINE
  5
6323
  8
0
 62
     0
 10
378.28381824823458
 20
757.97086516968352
 30
0.0
 11
179.28381824823461
 21
757.97086516968352
 31
0.0
  0
LINE
  5
6324
  8
0
 62
     0
 10
378.28381824823458
 20
749.98069716968371
 30
0.0
 11
179.28381824823461
 21
749.98069716968371
 31
0.0
  0
LINE
  5
6325
  8
0
 62
     0
 10
378.28381824823458
 20
746.98807016968385
 30
0.0
 11
179.28381824823461
 21
746.98807016968385
 31
0.0
  0
LINE
  5
6326
  8
0
 62
     0
 10
378.28381824823458
 20
738.95736916968394
 30
0.0
 11
179.28381824823461
 21
738.95736916968394
 31
0.0
  0
LINE
  5
6327
  8
0
 62
     0
 10
378.28381824823458
 20
735.99589016968412
 30
0.0
 11
179.28381824823461
 21
735.99589016968412
 31
0.0
  0
LINE
  5
6328
  8
0
 62
     0
 10
378.28381824823458
 20
728.94410616968412
 30
0.0
 11
283.85706124823469
 21
728.94410616968412
 31
0.0
  0
LINE
  5
6329
  8
0
 62
     0
 10
378.28381824823458
 20
725.9964141696837
 30
0.0
 11
290.66946524823447
 21
725.9964141696837
 31
0.0
  0
LINE
  5
632A
  8
0
 62
     0
 10
376.20489724823477
 20
780.46626216968411
 30
0.0
 11
376.20489724823477
 21
778.46626216968411
 31
0.0
  0
LINE
  5
632B
  8
0
 62
     0
 10
181.3627392482347
 20
778.46626216968411
 30
0.0
 11
376.20489724823477
 21
778.46626216968411
 31
0.0
  0
LINE
  5
632C
  8
0
 62
     0
 10
181.3627392482347
 20
780.46626216968411
 30
0.0
 11
376.20489724823477
 21
780.46626216968411
 31
0.0
  0
LINE
  5
632D
  8
0
 62
     0
 10
181.3627392482347
 20
769.46626216968411
 30
0.0
 11
376.20489724823477
 21
769.46626216968411
 31
0.0
  0
LINE
  5
632E
  8
0
 62
     0
 10
181.3627392482347
 20
771.46626216968411
 30
0.0
 11
376.20489724823477
 21
771.46626216968411
 31
0.0
  0
LINE
  5
632F
  8
0
 62
     0
 10
181.3627392482347
 20
758.46626216968411
 30
0.0
 11
376.20489724823477
 21
758.46626216968411
 31
0.0
  0
LINE
  5
6330
  8
0
 62
     0
 10
181.3627392482347
 20
760.466262169684
 30
0.0
 11
376.20489724823477
 21
760.466262169684
 31
0.0
  0
LINE
  5
6331
  8
0
 62
     0
 10
181.3627392482347
 20
747.46626216968411
 30
0.0
 11
376.20489724823477
 21
747.46626216968411
 31
0.0
  0
LINE
  5
6332
  8
0
 62
     0
 10
181.3627392482347
 20
749.46626216968411
 30
0.0
 11
376.20489724823477
 21
749.46626216968411
 31
0.0
  0
LINE
  5
6333
  8
0
 62
     0
 10
181.3627392482347
 20
736.46626216968411
 30
0.0
 11
376.20489724823477
 21
736.46626216968411
 31
0.0
  0
LINE
  5
6334
  8
0
 62
     0
 10
181.3627392482347
 20
738.46626216968411
 30
0.0
 11
376.20489724823477
 21
738.46626216968411
 31
0.0
  0
LINE
  5
6335
  8
0
 62
     0
 10
290.05879524823439
 20
726.46626216968411
 30
0.0
 11
376.20489724823477
 21
726.46626216968411
 31
0.0
  0
LINE
  5
6336
  8
0
 62
     0
 10
284.33055624823459
 20
728.46626216968411
 30
0.0
 11
376.20489724823477
 21
728.46626216968411
 31
0.0
  0
LINE
  5
6337
  8
0
 62
     0
 10
376.20489724823477
 20
780.46626216968411
 30
0.0
 11
378.28381824823458
 21
781.14353016968403
 31
0.0
  0
LINE
  5
6338
  8
0
 62
     0
 10
376.20489724823477
 20
778.46626216968411
 30
0.0
 11
378.28381824823458
 21
777.89922016968399
 31
0.0
  0
LINE
  5
6339
  8
0
 62
     0
 10
376.20489724823477
 20
771.46626216968411
 30
0.0
 11
378.28381824823458
 21
772.07165716968404
 31
0.0
  0
LINE
  5
633A
  8
0
 62
     0
 10
376.20489724823477
 20
769.46626216968411
 30
0.0
 11
378.28381824823458
 21
768.94074416968385
 31
0.0
  0
LINE
  5
633B
  8
0
 62
     0
 10
376.20489724823477
 20
760.466262169684
 30
0.0
 11
378.28381824823458
 21
761.01657116968431
 31
0.0
  0
LINE
  5
633C
  8
0
 62
     0
 10
376.20489724823477
 20
758.46626216968411
 30
0.0
 11
378.28381824823458
 21
757.97086516968352
 31
0.0
  0
LINE
  5
633D
  8
0
 62
     0
 10
376.20489724823477
 20
749.46626216968411
 30
0.0
 11
378.28381824823458
 21
749.98069716968371
 31
0.0
  0
LINE
  5
633E
  8
0
 62
     0
 10
376.20489724823477
 20
747.46626216968411
 30
0.0
 11
378.28381824823458
 21
746.98807016968385
 31
0.0
  0
LINE
  5
633F
  8
0
 62
     0
 10
376.20489724823477
 20
738.46626216968411
 30
0.0
 11
378.28381824823458
 21
738.95736916968394
 31
0.0
  0
LINE
  5
6340
  8
0
 62
     0
 10
376.20489724823477
 20
736.46626216968411
 30
0.0
 11
378.28381824823458
 21
735.99589016968412
 31
0.0
  0
LINE
  5
6341
  8
0
 62
     0
 10
376.20489724823477
 20
728.46626216968411
 30
0.0
 11
378.28381824823458
 21
728.94410616968412
 31
0.0
  0
LINE
  5
6342
  8
0
 62
     0
 10
376.20489724823477
 20
726.46626216968411
 30
0.0
 11
378.28381824823458
 21
725.9964141696837
 31
0.0
  0
LINE
  5
6343
  8
0
 62
     0
 10
376.20489724823477
 20
771.46626216968411
 30
0.0
 11
376.20489724823477
 21
769.46626216968411
 31
0.0
  0
LINE
  5
6344
  8
0
 62
     0
 10
376.20489724823477
 20
760.466262169684
 30
0.0
 11
376.20489724823477
 21
758.46626216968411
 31
0.0
  0
LINE
  5
6345
  8
0
 62
     0
 10
376.20489724823477
 20
749.46626216968411
 30
0.0
 11
376.20489724823477
 21
747.46626216968411
 31
0.0
  0
LINE
  5
6346
  8
0
 62
     0
 10
376.20489724823477
 20
738.46626216968411
 30
0.0
 11
376.20489724823477
 21
736.46626216968411
 31
0.0
  0
LINE
  5
6347
  8
0
 62
     0
 10
376.20489724823477
 20
728.46626216968411
 30
0.0
 11
376.20489724823477
 21
726.46626216968411
 31
0.0
  0
ARC
  5
6348
  8
0
 62
     0
 10
290.05879524823439
 20
723.46626216968411
 30
0.0
 40
3.0
 50
90.0
 51
190.2865610000006
  0
ARC
  5
6349
  8
0
 62
     0
 10
290.66946524823447
 20
722.52641416968402
 30
0.0
 40
3.4700000000000002
 50
90.0
 51
186.1896490000004
  0
LINE
  5
634A
  8
0
 62
     0
 10
196.3627392482347
 20
728.46626216968411
 30
0.0
 11
196.3627392482347
 21
726.46626216968411
 31
0.0
  0
LINE
  5
634B
  8
0
 62
     0
 10
181.3627392482347
 20
738.46626216968411
 30
0.0
 11
181.3627392482347
 21
736.46626216968411
 31
0.0
  0
LINE
  5
634C
  8
0
 62
     0
 10
181.3627392482347
 20
749.46626216968411
 30
0.0
 11
181.3627392482347
 21
747.46626216968411
 31
0.0
  0
LINE
  5
634D
  8
0
 62
     0
 10
181.3627392482347
 20
760.466262169684
 30
0.0
 11
181.3627392482347
 21
758.46626216968411
 31
0.0
  0
LINE
  5
634E
  8
0
 62
     0
 10
181.3627392482347
 20
771.46626216968411
 30
0.0
 11
181.3627392482347
 21
769.46626216968411
 31
0.0
  0
LINE
  5
634F
  8
0
 62
     0
 10
196.3627392482347
 20
726.46626216968411
 30
0.0
 11
194.28381824823461
 21
725.9964141696837
 31
0.0
  0
LINE
  5
6350
  8
0
 62
     0
 10
196.3627392482347
 20
728.46626216968411
 30
0.0
 11
194.28381824823461
 21
728.94410616968412
 31
0.0
  0
LINE
  5
6351
  8
0
 62
     0
 10
181.3627392482347
 20
736.46626216968411
 30
0.0
 11
179.28381824823461
 21
735.99589016968412
 31
0.0
  0
LINE
  5
6352
  8
0
 62
     0
 10
181.3627392482347
 20
738.46626216968411
 30
0.0
 11
179.28381824823461
 21
738.95736916968394
 31
0.0
  0
LINE
  5
6353
  8
0
 62
     0
 10
181.3627392482347
 20
747.46626216968411
 30
0.0
 11
179.28381824823461
 21
746.98807016968385
 31
0.0
  0
LINE
  5
6354
  8
0
 62
     0
 10
181.3627392482347
 20
749.46626216968411
 30
0.0
 11
179.28381824823461
 21
749.98069716968371
 31
0.0
  0
LINE
  5
6355
  8
0
 62
     0
 10
181.3627392482347
 20
758.46626216968411
 30
0.0
 11
179.28381824823461
 21
757.97086516968352
 31
0.0
  0
LINE
  5
6356
  8
0
 62
     0
 10
181.3627392482347
 20
760.466262169684
 30
0.0
 11
179.28381824823461
 21
761.01657116968431
 31
0.0
  0
LINE
  5
6357
  8
0
 62
     0
 10
181.3627392482347
 20
769.46626216968411
 30
0.0
 11
179.28381824823461
 21
768.94074416968385
 31
0.0
  0
LINE
  5
6358
  8
0
 62
     0
 10
181.3627392482347
 20
771.46626216968411
 30
0.0
 11
179.28381824823461
 21
772.07165716968404
 31
0.0
  0
LINE
  5
6359
  8
0
 62
     0
 10
181.3627392482347
 20
778.46626216968411
 30
0.0
 11
179.28381824823461
 21
777.89922016968399
 31
0.0
  0
LINE
  5
635A
  8
0
 62
     0
 10
181.3627392482347
 20
780.46626216968411
 30
0.0
 11
179.28381824823461
 21
781.14353016968403
 31
0.0
  0
LINE
  5
635B
  8
0
 62
     0
 10
181.3627392482347
 20
780.46626216968411
 30
0.0
 11
181.3627392482347
 21
778.46626216968411
 31
0.0
  0
LINE
  5
635C
  8
0
 62
     0
 10
179.28381824823461
 20
777.89922016968399
 30
0.0
 11
179.28381824823461
 21
781.14353016968403
 31
0.0
  0
LINE
  5
635D
  8
0
 62
     0
 10
179.28381824823461
 20
768.94074416968385
 30
0.0
 11
179.28381824823461
 21
772.07165716968404
 31
0.0
  0
LINE
  5
635E
  8
0
 62
     0
 10
179.28381824823461
 20
757.97086516968352
 30
0.0
 11
179.28381824823461
 21
761.01657116968431
 31
0.0
  0
LINE
  5
635F
  8
0
 62
     0
 10
179.28381824823461
 20
746.98807016968385
 30
0.0
 11
179.28381824823461
 21
749.98069716968371
 31
0.0
  0
LINE
  5
6360
  8
0
 62
     0
 10
179.28381824823461
 20
735.99589016968412
 30
0.0
 11
179.28381824823461
 21
738.95736916968394
 31
0.0
  0
LINE
  5
6361
  8
0
 62
     0
 10
194.28381824823461
 20
725.9964141696837
 30
0.0
 11
194.28381824823461
 21
728.94410616968412
 31
0.0
  0
LINE
  5
6362
  8
0
 62
     0
 10
194.28381824823461
 20
728.94410616968412
 30
0.0
 11
268.71057524823448
 21
728.94410616968412
 31
0.0
  0
LINE
  5
6363
  8
0
 62
     0
 10
194.28381824823461
 20
725.9964141696837
 30
0.0
 11
261.8981712482348
 21
725.9964141696837
 31
0.0
  0
LINE
  5
6364
  8
0
 62
     0
 10
262.50884124823477
 20
726.46626216968411
 30
0.0
 11
196.3627392482347
 21
726.46626216968411
 31
0.0
  0
LINE
  5
6365
  8
0
 62
     0
 10
268.23708024823458
 20
728.46626216968411
 30
0.0
 11
196.3627392482347
 21
728.46626216968411
 31
0.0
  0
ARC
  5
6366
  8
0
 62
     0
 10
262.50884124823477
 20
723.46626216968411
 30
0.0
 40
3.0
 50
349.71343899999948
 51
90.0
  0
ARC
  5
6367
  8
0
 62
     0
 10
261.8981712482348
 20
722.52641416968402
 30
0.0
 40
3.4700000000000002
 50
353.81035099999951
 51
90.0
  0
LINE
  5
6368
  8
0
 62
     0
 10
378.28381824823458
 20
680.91595316968414
 30
0.0
 11
179.28381824823461
 21
680.91595316968414
 31
0.0
  0
LINE
  5
6369
  8
0
 62
     0
 10
378.28381824823458
 20
683.96165916968403
 30
0.0
 11
179.28381824823461
 21
683.96165916968403
 31
0.0
  0
LINE
  5
636A
  8
0
 62
     0
 10
378.28381824823458
 20
691.95182716968407
 30
0.0
 11
179.28381824823461
 21
691.95182716968407
 31
0.0
  0
LINE
  5
636B
  8
0
 62
     0
 10
378.28381824823458
 20
694.94445416968404
 30
0.0
 11
179.28381824823461
 21
694.94445416968404
 31
0.0
  0
LINE
  5
636C
  8
0
 62
     0
 10
378.28381824823458
 20
702.97515516968372
 30
0.0
 11
179.28381824823461
 21
702.97515516968372
 31
0.0
  0
LINE
  5
636D
  8
0
 62
     0
 10
378.28381824823458
 20
705.93663416968411
 30
0.0
 11
179.28381824823461
 21
705.93663416968411
 31
0.0
  0
LINE
  5
636E
  8
0
 62
     0
 10
181.3627392482347
 20
683.46626216968411
 30
0.0
 11
376.20489724823477
 21
683.46626216968411
 31
0.0
  0
LINE
  5
636F
  8
0
 62
     0
 10
181.3627392482347
 20
681.466262169684
 30
0.0
 11
376.20489724823477
 21
681.466262169684
 31
0.0
  0
LINE
  5
6370
  8
0
 62
     0
 10
181.3627392482347
 20
694.46626216968411
 30
0.0
 11
376.20489724823477
 21
694.46626216968411
 31
0.0
  0
LINE
  5
6371
  8
0
 62
     0
 10
181.3627392482347
 20
692.46626216968411
 30
0.0
 11
376.20489724823477
 21
692.46626216968411
 31
0.0
  0
LINE
  5
6372
  8
0
 62
     0
 10
181.3627392482347
 20
705.46626216968411
 30
0.0
 11
376.20489724823477
 21
705.46626216968411
 31
0.0
  0
LINE
  5
6373
  8
0
 62
     0
 10
181.3627392482347
 20
703.46626216968411
 30
0.0
 11
376.20489724823477
 21
703.46626216968411
 31
0.0
  0
LINE
  5
6374
  8
0
 62
     0
 10
194.28381824823461
 20
712.988418169684
 30
0.0
 11
268.71057524823448
 21
712.988418169684
 31
0.0
  0
LINE
  5
6375
  8
0
 62
     0
 10
194.28381824823461
 20
715.93611016968373
 30
0.0
 11
261.8981712482348
 21
715.93611016968373
 31
0.0
  0
LINE
  5
6376
  8
0
 62
     0
 10
262.50884124823477
 20
715.46626216968411
 30
0.0
 11
196.3627392482347
 21
715.46626216968411
 31
0.0
  0
LINE
  5
6377
  8
0
 62
     0
 10
268.23708024823458
 20
713.46626216968411
 30
0.0
 11
196.3627392482347
 21
713.46626216968411
 31
0.0
  0
LINE
  5
6378
  8
0
 62
     0
 10
194.28381824823461
 20
715.93611016968373
 30
0.0
 11
194.28381824823461
 21
712.988418169684
 31
0.0
  0
LINE
  5
6379
  8
0
 62
     0
 10
179.28381824823461
 20
705.93663416968411
 30
0.0
 11
179.28381824823461
 21
702.97515516968372
 31
0.0
  0
LINE
  5
637A
  8
0
 62
     0
 10
179.28381824823461
 20
694.94445416968404
 30
0.0
 11
179.28381824823461
 21
691.95182716968407
 31
0.0
  0
LINE
  5
637B
  8
0
 62
     0
 10
179.28381824823461
 20
683.96165916968403
 30
0.0
 11
179.28381824823461
 21
680.91595316968414
 31
0.0
  0
LINE
  5
637C
  8
0
 62
     0
 10
181.3627392482347
 20
681.466262169684
 30
0.0
 11
179.28381824823461
 21
680.91595316968414
 31
0.0
  0
LINE
  5
637D
  8
0
 62
     0
 10
181.3627392482347
 20
683.46626216968411
 30
0.0
 11
179.28381824823461
 21
683.96165916968403
 31
0.0
  0
LINE
  5
637E
  8
0
 62
     0
 10
181.3627392482347
 20
692.46626216968411
 30
0.0
 11
179.28381824823461
 21
691.95182716968407
 31
0.0
  0
LINE
  5
637F
  8
0
 62
     0
 10
181.3627392482347
 20
694.46626216968411
 30
0.0
 11
179.28381824823461
 21
694.94445416968404
 31
0.0
  0
LINE
  5
6380
  8
0
 62
     0
 10
181.3627392482347
 20
703.46626216968411
 30
0.0
 11
179.28381824823461
 21
702.97515516968372
 31
0.0
  0
LINE
  5
6381
  8
0
 62
     0
 10
181.3627392482347
 20
705.46626216968411
 30
0.0
 11
179.28381824823461
 21
705.93663416968411
 31
0.0
  0
LINE
  5
6382
  8
0
 62
     0
 10
196.3627392482347
 20
713.46626216968411
 30
0.0
 11
194.28381824823461
 21
712.988418169684
 31
0.0
  0
LINE
  5
6383
  8
0
 62
     0
 10
196.3627392482347
 20
715.46626216968411
 30
0.0
 11
194.28381824823461
 21
715.93611016968373
 31
0.0
  0
LINE
  5
6384
  8
0
 62
     0
 10
181.3627392482347
 20
681.466262169684
 30
0.0
 11
181.3627392482347
 21
683.46626216968411
 31
0.0
  0
LINE
  5
6385
  8
0
 62
     0
 10
181.3627392482347
 20
692.46626216968411
 30
0.0
 11
181.3627392482347
 21
694.46626216968411
 31
0.0
  0
LINE
  5
6386
  8
0
 62
     0
 10
181.3627392482347
 20
703.46626216968411
 30
0.0
 11
181.3627392482347
 21
705.46626216968411
 31
0.0
  0
LINE
  5
6387
  8
0
 62
     0
 10
196.3627392482347
 20
713.46626216968411
 30
0.0
 11
196.3627392482347
 21
715.46626216968411
 31
0.0
  0
ARC
  5
6388
  8
0
 62
     0
 10
262.50884124823477
 20
718.46626216968411
 30
0.0
 40
3.0
 50
270.0
 51
10.286561000000651
  0
ARC
  5
6389
  8
0
 62
     0
 10
261.8981712482348
 20
719.40611016968364
 30
0.0
 40
3.4700000000000002
 50
270.0
 51
6.1896490000005366
  0
LINE
  5
638A
  8
0
 62
     0
 10
378.28381824823458
 20
712.988418169684
 30
0.0
 11
283.85706124823469
 21
712.988418169684
 31
0.0
  0
LINE
  5
638B
  8
0
 62
     0
 10
378.28381824823458
 20
715.93611016968373
 30
0.0
 11
290.66946524823447
 21
715.93611016968373
 31
0.0
  0
LINE
  5
638C
  8
0
 62
     0
 10
290.05879524823439
 20
715.46626216968411
 30
0.0
 11
376.20489724823477
 21
715.46626216968411
 31
0.0
  0
LINE
  5
638D
  8
0
 62
     0
 10
284.33055624823459
 20
713.46626216968411
 30
0.0
 11
376.20489724823477
 21
713.46626216968411
 31
0.0
  0
ARC
  5
638E
  8
0
 62
     0
 10
290.05879524823439
 20
718.46626216968411
 30
0.0
 40
3.0
 50
169.71343899999931
 51
270.0
  0
ARC
  5
638F
  8
0
 62
     0
 10
290.66946524823447
 20
719.40611016968364
 30
0.0
 40
3.4700000000000002
 50
173.8103509999994
 51
270.0
  0
LINE
  5
6390
  8
0
 62
     0
 10
376.20489724823477
 20
713.46626216968411
 30
0.0
 11
376.20489724823477
 21
715.46626216968411
 31
0.0
  0
LINE
  5
6391
  8
0
 62
     0
 10
376.20489724823477
 20
703.46626216968411
 30
0.0
 11
376.20489724823477
 21
705.46626216968411
 31
0.0
  0
LINE
  5
6392
  8
0
 62
     0
 10
376.20489724823477
 20
692.46626216968411
 30
0.0
 11
376.20489724823477
 21
694.46626216968411
 31
0.0
  0
LINE
  5
6393
  8
0
 62
     0
 10
376.20489724823477
 20
681.466262169684
 30
0.0
 11
376.20489724823477
 21
683.46626216968411
 31
0.0
  0
LINE
  5
6394
  8
0
 62
     0
 10
376.20489724823477
 20
715.46626216968411
 30
0.0
 11
378.28381824823458
 21
715.93611016968373
 31
0.0
  0
LINE
  5
6395
  8
0
 62
     0
 10
376.20489724823477
 20
713.46626216968411
 30
0.0
 11
378.28381824823458
 21
712.988418169684
 31
0.0
  0
LINE
  5
6396
  8
0
 62
     0
 10
376.20489724823477
 20
705.46626216968411
 30
0.0
 11
378.28381824823458
 21
705.93663416968411
 31
0.0
  0
LINE
  5
6397
  8
0
 62
     0
 10
376.20489724823477
 20
703.46626216968411
 30
0.0
 11
378.28381824823458
 21
702.97515516968372
 31
0.0
  0
LINE
  5
6398
  8
0
 62
     0
 10
376.20489724823477
 20
694.46626216968411
 30
0.0
 11
378.28381824823458
 21
694.94445416968404
 31
0.0
  0
LINE
  5
6399
  8
0
 62
     0
 10
376.20489724823477
 20
692.46626216968411
 30
0.0
 11
378.28381824823458
 21
691.95182716968407
 31
0.0
  0
LINE
  5
639A
  8
0
 62
     0
 10
376.20489724823477
 20
683.46626216968411
 30
0.0
 11
378.28381824823458
 21
683.96165916968403
 31
0.0
  0
LINE
  5
639B
  8
0
 62
     0
 10
376.20489724823477
 20
681.466262169684
 30
0.0
 11
378.28381824823458
 21
680.91595316968414
 31
0.0
  0
LINE
  5
639C
  8
0
 62
     0
 10
383.28375824823331
 20
683.96165916968414
 30
0.0
 11
383.28375824823331
 21
680.91595316968414
 31
0.0
  0
LINE
  5
639D
  8
0
 62
     0
 10
383.28375824823331
 20
694.94445416968415
 30
0.0
 11
383.28375824823331
 21
691.95182716968407
 31
0.0
  0
LINE
  5
639E
  8
0
 62
     0
 10
383.28375824823331
 20
705.93663416968411
 30
0.0
 11
383.28375824823331
 21
702.97515516968372
 31
0.0
  0
LINE
  5
639F
  8
0
 62
     0
 10
383.28375824823331
 20
715.93611016968407
 30
0.0
 11
383.28375824823331
 21
712.98841816968411
 31
0.0
  0
LINE
  5
63A0
  8
0
 62
     0
 10
311.20489724823477
 20
672.46626216968411
 30
0.0
 11
313.2838182482347
 21
672.96165916968403
 31
0.0
  0
LINE
  5
63A1
  8
0
 62
     0
 10
313.2838182482347
 20
672.96165916968403
 30
0.0
 11
179.28381824823461
 21
672.96165916968403
 31
0.0
  0
LINE
  5
63A2
  8
0
 62
     0
 10
181.3627392482347
 20
672.46626216968411
 30
0.0
 11
311.20489724823477
 21
672.46626216968411
 31
0.0
  0
LINE
  5
63A3
  8
0
 62
     0
 10
311.20489724823477
 20
670.46626216968411
 30
0.0
 11
311.20489724823477
 21
672.46626216968411
 31
0.0
  0
LINE
  5
63A4
  8
0
 62
     0
 10
313.2838182482347
 20
669.91595316968414
 30
0.0
 11
179.28381824823461
 21
669.91595316968414
 31
0.0
  0
LINE
  5
63A5
  8
0
 62
     0
 10
181.3627392482347
 20
670.46626216968411
 30
0.0
 11
311.20489724823477
 21
670.46626216968411
 31
0.0
  0
LINE
  5
63A6
  8
0
 62
     0
 10
311.20489724823477
 20
670.46626216968411
 30
0.0
 11
313.2838182482347
 21
669.91595316968414
 31
0.0
  0
LINE
  5
63A7
  8
0
 62
     0
 10
313.2838182482347
 20
663.96165916968403
 30
0.0
 11
179.28381824823461
 21
663.96165916968403
 31
0.0
  0
LINE
  5
63A8
  8
0
 62
     0
 10
181.3627392482347
 20
663.46626216968411
 30
0.0
 11
311.20489724823477
 21
663.46626216968411
 31
0.0
  0
LINE
  5
63A9
  8
0
 62
     0
 10
313.2838182482347
 20
660.91595316968414
 30
0.0
 11
179.31737524823461
 21
660.91595316968414
 31
0.0
  0
LINE
  5
63AA
  8
0
 62
     0
 10
181.3627392482347
 20
661.46626216968411
 30
0.0
 11
311.20489724823477
 21
661.46626216968411
 31
0.0
  0
LINE
  5
63AB
  8
0
 62
     0
 10
311.20489724823477
 20
661.46626216968411
 30
0.0
 11
313.2838182482347
 21
660.91595316968414
 31
0.0
  0
LINE
  5
63AC
  8
0
 62
     0
 10
313.2838182482347
 20
663.96165916968403
 30
0.0
 11
313.2838182482347
 21
660.91595316968414
 31
0.0
  0
LINE
  5
63AD
  8
0
 62
     0
 10
311.20489724823477
 20
661.46626216968411
 30
0.0
 11
311.20489724823477
 21
663.46626216968411
 31
0.0
  0
LINE
  5
63AE
  8
0
 62
     0
 10
311.20489724823477
 20
663.46626216968411
 30
0.0
 11
313.2838182482347
 21
663.96165916968403
 31
0.0
  0
LINE
  5
63AF
  8
0
 62
     0
 10
313.2838182482347
 20
660.91595316968414
 30
0.0
 11
328.28381824823458
 21
660.91595316968414
 31
0.0
  0
LINE
  5
63B0
  8
0
 62
     0
 10
328.28381824823458
 20
660.91595316968414
 30
0.0
 11
344.2838182482347
 21
656.57402816968386
 31
0.0
  0
LINE
  5
63B1
  8
0
 62
     0
 10
179.28381824823461
 20
672.96165916968403
 30
0.0
 11
179.28381824823461
 21
669.91595316968414
 31
0.0
  0
LINE
  5
63B2
  8
0
 62
     0
 10
179.28381824823461
 20
663.96165916968403
 30
0.0
 11
179.28381824823461
 21
660.91595316968414
 31
0.0
  0
LINE
  5
63B3
  8
0
 62
     0
 10
181.3627392482347
 20
670.46626216968411
 30
0.0
 11
181.3627392482347
 21
672.46626216968411
 31
0.0
  0
LINE
  5
63B4
  8
0
 62
     0
 10
181.3627392482347
 20
672.46626216968411
 30
0.0
 11
179.28381824823461
 21
672.96165916968403
 31
0.0
  0
LINE
  5
63B5
  8
0
 62
     0
 10
181.3627392482347
 20
670.46626216968411
 30
0.0
 11
179.28381824823461
 21
669.91595316968414
 31
0.0
  0
LINE
  5
63B6
  8
0
 62
     0
 10
181.3627392482347
 20
663.46626216968411
 30
0.0
 11
179.28381824823461
 21
663.96165916968403
 31
0.0
  0
LINE
  5
63B7
  8
0
 62
     0
 10
181.3627392482347
 20
661.46626216968411
 30
0.0
 11
181.3627392482347
 21
663.46626216968411
 31
0.0
  0
LINE
  5
63B8
  8
0
 62
     0
 10
181.3627392482347
 20
661.46626216968411
 30
0.0
 11
179.28381824823461
 21
660.91595316968414
 31
0.0
  0
LINE
  5
63B9
  8
0
 62
     0
 10
175.78381824823461
 20
728.61003316968413
 30
0.0
 11
182.28381824823461
 21
728.61003316968413
 31
0.0
  0
LINE
  5
63BA
  8
0
 62
     0
 10
175.78381824823461
 20
728.94411116968411
 30
0.0
 11
182.9638182482345
 21
728.94411116968411
 31
0.0
  0
LINE
  5
63BB
  8
0
 62
     0
 10
184.28381824823461
 20
726.61003316968413
 30
0.0
 11
184.28381824823461
 21
720.9662661696841
 31
0.0
  0
LINE
  5
63BC
  8
0
 62
     0
 10
185.9638182482345
 20
731.94411116968411
 30
0.0
 11
185.9638182482345
 21
720.9662661696841
 31
0.0
  0
ARC
  5
63BD
  8
0
 62
     0
 10
182.9638182482345
 20
731.94411116968411
 30
0.0
 40
3.0
 50
270.0
 51
0.0
  0
LINE
  5
63BE
  8
0
 62
     0
 10
175.78381824823461
 20
713.32249816968442
 30
0.0
 11
182.28381824823461
 21
713.32249816968442
 31
0.0
  0
LINE
  5
63BF
  8
0
 62
     0
 10
175.78381824823461
 20
712.9884201696841
 30
0.0
 11
182.9638182482345
 21
712.9884201696841
 31
0.0
  0
LINE
  5
63C0
  8
0
 62
     0
 10
184.28381824823461
 20
715.32249816968397
 30
0.0
 11
184.28381824823461
 21
720.9662661696841
 31
0.0
  0
LINE
  5
63C1
  8
0
 62
     0
 10
185.9638182482345
 20
709.98842016968388
 30
0.0
 11
185.9638182482345
 21
720.9662661696841
 31
0.0
  0
ARC
  5
63C2
  8
0
 62
     0
 10
182.9638182482345
 20
709.98842016968388
 30
0.0
 40
3.0
 50
359.99999799999722
 51
89.999997999997177
  0
ARC
  5
63C3
  8
0
  6
CONTINUOUS
 62
     0
 10
369.2838282482337
 20
614.35597216968415
 30
0.0
 40
4.0
 50
179.999989999999
 51
265.10162987005282
  0
LINE
  5
63C4
  8
0
 62
     0
 10
365.2838282482337
 20
827.57655147155185
 30
0.0
 11
365.2838282482337
 21
819.466262169684
 31
0.0
  0
LINE
  5
63C5
  8
0
 62
     0
 10
365.2838282482337
 20
614.35597286781604
 30
0.0
 11
365.2838282482337
 21
627.96626216968411
 31
0.0
  0
LINE
  5
63C6
  8
0
 62
     0
 10
378.28381824823492
 20
634.76451816968404
 30
0.0
 11
377.74606372803521
 21
634.76451816968404
 31
0.0
1001
GENIUS_GENODEF_13
1002
{
1000
HIER
1070
     0
1002
}
1002
{
1000
MANEDIT
1070
     0
1002
}
1002
{
1000
NOSEL
1070
     0
1002
}
1002
{
1000
BEHIND
1070
     0
1002
}
1002
{
1000
OTHER
1070
     0
1002
}
1002
{
1000
REACTOR
1002
}
1001
GENIUS_GENOBJ-N-CEN_13
1002
{
1000
OWNER
1000
GEN
1002
}
1001
GENIUS_GENCEN_19
1002
{
1040
2.7939999999999969
1002
}
  0
LINE
  5
652B
  8
0
 62
     0
 10
383.28381824823458
 20
805.96626216968411
 30
0.0
 11
398.45832061216322
 21
806.49615190303314
 31
0.0
  0
LINE
  5
652C
  8
0
 62
     0
 10
383.28381824823458
 20
635.96626216968411
 30
0.0
 11
398.45832798701872
 21
635.43634975589123
 31
0.0
  0
ARC
  5
652D
  8
0
 62
     0
 10
398.2838282482337
 20
630.43939569955216
 30
0.0
 40
5.0
 50
0.0
 51
87.999974140728824
1001
GENIUS_GENOBJ-N-FIL_13
1002
{
1000
OWNER
1000
GEN
1002
}
1001
GENIUS_GENODEF_13
1002
{
1000
HIER
1070
     0
1002
}
1002
{
1000
MANEDIT
1070
     0
1002
}
1002
{
1000
NOSEL
1070
     0
1002
}
1002
{
1000
BEHIND
1070
     0
1002
}
1002
{
1000
OTHER
1070
     0
1002
}
1002
{
1000
REACTOR
1002
}
  0
ARC
  5
652E
  8
0
 62
     0
 10
398.2838282482337
 20
811.49310621690586
 30
0.0
 40
5.0
 50
271.99994129814212
 51
0.0
1001
GENIUS_GENODEF_13
1002
{
1000
HIER
1070
     0
1002
}
1002
{
1000
MANEDIT
1070
     0
1002
}
1002
{
1000
NOSEL
1070
     0
1002
}
1002
{
1000
BEHIND
1070
     0
1002
}
1002
{
1000
OTHER
1070
     0
1002
}
1002
{
1000
REACTOR
1002
}
1001
GENIUS_GENOBJ-N-FIL_13
1002
{
1000
OWNER
1000
GEN
1002
}
  0
LINE
  5
663C
  8
0
  6
CENTER
 62
     0
 10
401.2838282482337
 20
730.3260021696841
 30
0.0
 11
401.2838282482337
 21
711.60652216968413
 31
0.0
  0
LINE
  5
663D
  8
0
  6
CONTINUOUS
 62
     0
 10
388.13380824823372
 20
717.74922216968412
 30
0.0
 11
414.4337982482333
 21
717.74922216968412
 31
0.0
  0
LINE
  5
663E
  8
0
  6
CONTINUOUS
 62
     0
 10
388.13380824823372
 20
724.0492721696844
 30
0.0
 11
414.4337982482333
 21
724.0492721696844
 31
0.0
  0
ARC
  5
663F
  8
0
  6
CONTINUOUS
 62
     0
 10
400.28382824823359
 20
732.85750216968449
 30
0.0
 40
3.0
 50
274.78019999998969
 51
0.0
  0
ARC
  5
6640
  8
0
  6
CONTINUOUS
 62
     0
 10
400.28382824823359
 20
708.94100216968445
 30
0.0
 40
3.0
 50
0.0
 51
85.219806000004908
  0
ARC
  5
6641
  8
0
  6
CONTINUOUS
 62
     0
 10
401.2838282482337
 20
720.89925216968413
 30
0.0
 40
9.0
 50
94.780192000005314
 51
159.51270000000099
  0
ARC
  5
6642
  8
0
  6
CONTINUOUS
 62
     0
 10
401.2838282482337
 20
720.89925216968413
 30
0.0
 40
8.0
 50
23.18801900000453
 51
156.811979999995
  0
ARC
  5
6643
  8
0
  6
CONTINUOUS
 62
     0
 10
388.13380824823372
 20
720.89925216968413
 30
0.0
 40
3.1499977000000001
 50
90.000002999984659
 51
270.0
  0
ARC
  5
6644
  8
0
  6
CONTINUOUS
 62
     0
 10
414.4337982482333
 20
720.89925216968413
 30
0.0
 40
3.1499977000000001
 50
270.0
 51
90.000002999984659
  0
ARC
  5
6645
  8
0
  6
CONTINUOUS
 62
     0
 10
401.2838282482337
 20
720.89925216968413
 30
0.0
 40
8.0
 50
203.188020000005
 51
336.81196999999668
  0
ARC
  5
6646
  8
0
  6
CONTINUOUS
 62
     0
 10
401.2838282482337
 20
720.89925216968413
 30
0.0
 40
9.0
 50
200.48729999999901
 51
265.2198000000102
  0
LINE
  5
6647
  8
0
  6
CONTINUOUS
 62
     0
 10
403.2838282482337
 20
732.85750216968449
 30
0.0
 11
403.2838282482337
 21
817.21998216968404
 31
0.0
  0
LINE
  5
672A
  8
0
 62
     0
 10
383.28383824823402
 20
361.05029540269783
 30
0.0
 11
403.28384824823411
 21
361.05029540269783
 31
0.0
  0
LINE
  5
672B
  8
0
 62
     0
 10
383.28383824823402
 20
348.76301440269788
 30
0.0
 11
403.28384824823411
 21
348.76301440269788
 31
0.0
  0
LINE
  5
672C
  8
0
 62
     0
 10
383.28383824823402
 20
371.22958740269792
 30
0.0
 11
403.28384824823411
 21
371.22958740269792
 31
0.0
  0
LINE
  5
672D
  8
0
 62
     0
 10
383.28383824823402
 20
473.01822640269791
 30
0.0
 11
403.28384824823411
 21
473.01822640269791
 31
0.0
  0
LINE
  5
672E
  8
0
 62
     0
 10
383.28383824823402
 20
486.69193740269782
 30
0.0
 11
403.28384824823411
 21
486.69193740269782
 31
0.0
  0
LINE
  5
672F
  8
0
 62
     0
 10
383.28383824823402
 20
494.81594240269777
 30
0.0
 11
403.28384824823411
 21
494.81594240269777
 31
0.0
  0
TEXT
  5
6CFE
  8
0
  6
CONTINUOUS
 62
     0
 10
649.77239974467761
 20
718.06552475531987
 30
0.0
 40
15.0
  1
VX15-003EM~VX15-030EM
  0
ENDSEC
  0
EOF
