  0
SECTION
  2
HEADER
  9
$ACADVER
  1
AC1009
  9
$INSBASE
 10
0.0
 20
0.0
 30
0.0
  9
$EXTMIN
 10
144.2935584482247
 20
392.51570147991652
 30
-0.000000000000013
  9
$EXTMAX
 10
1056.2554948045631
 20
922.5106656196798
 30
0.0000000000000023
  9
$LIMMIN
 10
-2.7186596955807518
 20
0.0935949875579354
  9
$LIMMAX
 10
1419.781340304419
 20
925.09359498755805
  9
$ORTHOMODE
 70
     0
  9
$REGENMODE
 70
     1
  9
$FILLMODE
 70
     1
  9
$QTEXTMODE
 70
     0
  9
$MIRRTEXT
 70
     0
  9
$DRAGMODE
 70
     2
  9
$LTSCALE
 40
1.0
  9
$OSMODE
 70
   551
  9
$ATTMODE
 70
     1
  9
$TEXTSIZE
 40
2.5
  9
$TRACEWID
 40
1.0
  9
$TEXTSTYLE
  7
STANDARD
  9
$CLAYER
  8
0
  9
$CELTYPE
  6
BYLAYER
  9
$CECOLOR
 62
   256
  9
$DIMSCALE
 40
1.0
  9
$DIMASZ
 40
2.0
  9
$DIMEXO
 40
1.0
  9
$DIMDLI
 40
8.0
  9
$DIMRND
 40
0.0
  9
$DIMDLE
 40
0.0
  9
$DIMEXE
 40
1.0
  9
$DIMTP
 40
-0.025
  9
$DIMTM
 40
0.043
  9
$DIMTXT
 40
2.5
  9
$DIMCEN
 40
0.0
  9
$DIMTSZ
 40
0.0
  9
$DIMTOL
 70
     0
  9
$DIMLIM
 70
     0
  9
$DIMTIH
 70
     0
  9
$DIMTOH
 70
     0
  9
$DIMSE1
 70
     0
  9
$DIMSE2
 70
     0
  9
$DIMTAD
 70
     3
  9
$DIMZIN
 70
     8
  9
$DIMBLK
  1

  9
$DIMASO
 70
     1
  9
$DIMSHO
 70
     1
  9
$DIMPOST
  1

  9
$DIMAPOST
  1
"
  9
$DIMALT
 70
     0
  9
$DIMALTD
 70
     2
  9
$DIMALTF
 40
0.0393701
  9
$DIMLFAC
 40
1.0
  9
$DIMTOFL
 70
     1
  9
$DIMTVP
 40
0.0
  9
$DIMTIX
 70
     0
  9
$DIMSOXD
 70
     0
  9
$DIMSAH
 70
     0
  9
$DIMBLK1
  1

  9
$DIMBLK2
  1

  9
$DIMSTYLE
  2
AM_JIS
  9
$DIMCLRD
 70
     2
  9
$DIMCLRE
 70
     2
  9
$DIMCLRT
 70
     4
  9
$DIMTFAC
 40
0.71
  9
$DIMGAP
 40
1.5
  9
$LUNITS
 70
     2
  9
$LUPREC
 70
     2
  9
$SKETCHINC
 40
1.0
  9
$FILLETRAD
 40
0.0
  9
$AUNITS
 70
     0
  9
$AUPREC
 70
     0
  9
$MENU
  1
.
  9
$ELEVATION
 40
0.0
  9
$PELEVATION
 40
0.0
  9
$THICKNESS
 40
0.0
  9
$LIMCHECK
 70
     0
  9
$BLIPMODE
 70
     0
  9
$CHAMFERA
 40
2.5
  9
$CHAMFERB
 40
2.5
  9
$SKPOLY
 70
     0
  9
$TDCREATE
 40
2456829.3841110538
  9
$TDUPDATE
 40
2458540.6835568049
  9
$TDINDWG
 40
0.2962480324
  9
$TDUSRTIMER
 40
0.2962474653
  9
$USRTIMER
 70
     1
  9
$ANGBASE
 50
0.0
  9
$ANGDIR
 70
     0
  9
$PDMODE
 70
     0
  9
$PDSIZE
 40
0.0
  9
$PLINEWID
 40
0.0
  9
$COORDS
 70
     1
  9
$SPLFRAME
 70
     0
  9
$SPLINETYPE
 70
     6
  9
$SPLINESEGS
 70
     8
  9
$ATTDIA
 70
     1
  9
$ATTREQ
 70
     1
  9
$HANDLING
 70
     1
  9
$HANDSEED
  5
7DA4
  9
$SURFTAB1
 70
     6
  9
$SURFTAB2
 70
     6
  9
$SURFTYPE
 70
     6
  9
$SURFU
 70
     6
  9
$SURFV
 70
     6
  9
$UCSNAME
  2

  9
$UCSORG
 10
0.0
 20
0.0
 30
0.0
  9
$UCSXDIR
 10
1.0
 20
0.0
 30
0.0
  9
$UCSYDIR
 10
0.0
 20
1.0
 30
0.0
  9
$PUCSNAME
  2

  9
$PUCSORG
 10
0.0
 20
0.0
 30
0.0
  9
$PUCSXDIR
 10
1.0
 20
0.0
 30
0.0
  9
$PUCSYDIR
 10
0.0
 20
1.0
 30
0.0
  9
$USERI1
 70
     0
  9
$USERI2
 70
     0
  9
$USERI3
 70
     0
  9
$USERI4
 70
     0
  9
$USERI5
 70
     0
  9
$USERR1
 40
0.0
  9
$USERR2
 40
0.0
  9
$USERR3
 40
0.0
  9
$USERR4
 40
0.0
  9
$USERR5
 40
0.0
  9
$WORLDVIEW
 70
     1
  9
$SHADEDGE
 70
     3
  9
$SHADEDIF
 70
    70
  9
$TILEMODE
 70
     1
  9
$MAXACTVP
 70
    64
  9
$PLIMCHECK
 70
     0
  9
$PEXTMIN
 10
1.0000000000000000E+020
 20
1.0000000000000000E+020
 30
1.0000000000000000E+020
  9
$PEXTMAX
 10
-1.0000000000000000E+020
 20
-1.0000000000000000E+020
 30
-1.0000000000000000E+020
  9
$PLIMMIN
 10
0.0
 20
0.0
  9
$PLIMMAX
 10
420.0
 20
297.0
  9
$UNITMODE
 70
     0
  9
$VISRETAIN
 70
     1
  9
$PLINEGEN
 70
     0
  9
$PSLTSCALE
 70
     1
  0
ENDSEC
  0
SECTION
  2
TABLES
  0
TABLE
  2
VPORT
 70
     1
  0
VPORT
  2
*ACTIVE
 70
     0
 10
0.0
 20
0.0
 11
1.0
 21
1.0
 12
600.27452662639405
 22
657.51318354979821
 13
0.0
 23
0.0
 14
12.5
 24
12.5
 15
50.0
 25
50.0
 16
0.0
 26
0.0
 36
1.0
 17
0.0
 27
0.0
 37
0.0
 40
533.6333735045672
 41
1.7571592210767459
 42
50.0
 43
0.0
 44
0.0
 50
0.0
 51
0.0
 71
    16
 72
  1000
 73
     1
 74
     3
 75
     0
 76
     0
 77
     0
 78
     0
  0
ENDTAB
  0
TABLE
  2
LTYPE
 70
    24
  0
LTYPE
  2
CONTINUOUS
 70
     0
  3
Solid line
 72
    65
 73
     0
 40
0.0
  0
LTYPE
  2
CENTER
 70
     0
  3
Center ____ _ ____ _ ____ _ ____ _ ____ _ ____
 72
    65
 73
     4
 40
50.799999999999997
 49
31.75
 49
-6.349999999999997
 49
6.349999999999997
 49
-6.349999999999997
  0
LTYPE
  2
AM_ISO02W050
 70
     0
  3
__ __ __ __ __ __ __ __ __ __ __ __ __ __ __
 72
    65
 73
     2
 40
7.5
 49
6.0
 49
-1.5
  0
LTYPE
  2
AM_ISO08W050
 70
     0
  3
____ . ____ . ____ . ____ . ____ . ____ . ____
 72
    65
 73
     4
 40
18.0
 49
12.0
 49
-1.5
 49
3.0
 49
-1.5
  0
LTYPE
  2
AM_ISO09W050
 70
     0
  3
_____ . . _____ . . _____ . . ____ .. ____
 72
    65
 73
     6
 40
22.5
 49
12.0
 49
-1.5
 49
3.0
 49
-1.5
 49
3.0
 49
-1.5
  0
LTYPE
  2
AMCONSTR
 70
     0
  3
_______________________
 72
    65
 73
     2
 40
9999.0
 49
9999.0
 49
0.0
  0
LTYPE
  2
AM_ISO08W050X2
 70
     0
  3
__ . __ . __ . __ . __ . __
 72
    65
 73
     4
 40
9.0
 49
6.0
 49
-0.75
 49
1.5
 49
-0.75
  0
LTYPE
  2
AM_ISO02W050X2
 70
     0
  3
 _ _ _ _ _ _ _ _ _ _ _ _
 72
    65
 73
     2
 40
3.75
 49
3.0
 49
-0.75
  0
LTYPE
  2
AMZIGZAG
 70
     0
  3
/\/-/\/-/\/-/\/-/\/-/\/
 72
    65
 73
     2
 40
11.0001
 49
0.0001
 49
-11.0
  0
LTYPE
  2
ACANSTGBM
 70
     0
  3
__ . . __ . .
 72
    65
 73
     6
 40
9.0
 49
4.0
 49
-1.0
 49
1.0
 49
-1.0
 49
1.0
 49
-1.0
  0
LTYPE
  2
ACANSTGLM
 70
     0
  3
_ _ _ _ _
 72
    65
 73
     2
 40
3.0
 49
2.0
 49
-1.0
  0
LTYPE
  2
ACISOWELD
 70
     0
  3
_ _ _ _ _
 72
    65
 73
     2
 40
2.0
 49
2.0
 49
-1.0
  0
LTYPE
  2
ACISOTGB
 70
     0
  3
__ . . __ . .
 72
    65
 73
     6
 40
9.0
 49
4.0
 49
-1.0
 49
1.0
 49
-1.0
 49
1.0
 49
-1.0
  0
LTYPE
  2
ACISOTGL
 70
     0
  3
_ _ _ _ _
 72
    65
 73
     2
 40
3.0
 49
2.0
 49
-1.0
  0
LTYPE
  2
ACJISTGB
 70
     0
  3
__ . . __ . .
 72
    65
 73
     6
 40
9.0
 49
4.0
 49
-1.0
 49
1.0
 49
-1.0
 49
1.0
 49
-1.0
  0
LTYPE
  2
ACJISTGL
 70
     0
  3
_ _ _ _ _
 72
    65
 73
     2
 40
3.0
 49
2.0
 49
-1.0
  0
LTYPE
  2
HIDDEN
 70
     0
  3
Hidden __ __ __ __ __ __ __ __ __ __ __ __ __ _
 72
    65
 73
     2
 40
9.5249999999999968
 49
6.349999999999997
 49
-3.174999999999998
  0
LTYPE
  2
PHANTOM2
 70
     0
  3
Phantom (.5x) ___ _ _ ___ _ _ ___ _ _ ___ _ _
 72
    65
 73
     6
 40
31.75
 49
15.875
 49
-3.174999999999998
 49
3.174999999999998
 49
-3.174999999999998
 49
3.174999999999998
 49
-3.174999999999998
  0
LTYPE
  2
CENTER2
 70
     0
  3
Center (.5x) ___ _ ___ _ ___ _ ___ _ ___ _ ___
 72
    65
 73
     4
 40
1.125
 49
0.75
 49
-0.125
 49
0.125
 49
-0.125
  0
LTYPE
  2
HIDDEN2
 70
     0
  3
Hidden (.5x) _ _ _ _ _ _ _ _ _ _ _ _ _ _ _ _ _
 72
    65
 73
     2
 40
0.1875
 49
0.125
 49
-0.0625
  0
LTYPE
  2
AMZIGZAG2
 70
     0
  3
/\/-/\/-/\/-/\/-/\/-/\/
 72
    65
 73
     2
 40
0.4401
 49
0.0001
 49
-0.4400000000000001
  0
LTYPE
  2
ACANSTGB
 70
     0
  3
__ . . __ . .
 72
    65
 73
     6
 40
0.35433070866
 49
0.15748031496
 49
-0.03937007874
 49
0.03937007874
 49
-0.03937007874
 49
0.03937007874
 49
-0.03937007874
  0
LTYPE
  2
ACANSTGL
 70
     0
  3
_ _ _ _ _
 72
    65
 73
     2
 40
0.11811023622
 49
0.07874015748
 49
-0.03937007874
  0
ENDTAB
  0
TABLE
  2
LAYER
 70
     4
  0
LAYER
  2
0
 70
     0
 62
     7
  6
CONTINUOUS
  0
LAYER
  2
DEFPOINTS
 70
     0
 62
     7
  6
CONTINUOUS
  0
LAYER
  2
AM_CL
 70
     0
 62
     1
  6
AMCONSTR
  0
LAYER
  2
AM_5
 70
     0
 62
     2
  6
CONTINUOUS
  0
ENDTAB
  0
TABLE
  2
STYLE
 70
    10
  0
STYLE
  2
STANDARD
 70
     0
 40
0.0
 41
0.7400000000000003
 50
0.0
 71
     0
 42
2.5
  3
txt.shx
  4
bigfont.shx
  0
STYLE
  2
ANNOTATIVE
 70
     0
 40
0.0
 41
1.0
 50
0.0
 71
     0
 42
0.2
  3
txt
  4

  0
STYLE
  2

 70
     1
 40
0.0
 41
1.0
 50
0.0
 71
     0
 42
2.5
  3
ltypeshp.shx
  4

  0
STYLE
  2
ACANSTS
 70
     0
 40
1.0
 41
1.0
 50
0.0
 71
     0
 42
2.5
  3
romans.shx
  4
bigfont.shx
  0
STYLE
  2
ACANSGDT
 70
     0
 40
0.0
 41
1.0
 50
0.0
 71
     0
 42
2.5
  3
amgdt.shx
  4

  0
STYLE
  2
ACISOTS
 70
     0
 40
1.0
 41
1.0
 50
0.0
 71
     0
 42
2.5
  3
isocp.shx
  4
extfont.shx
  0
STYLE
  2
ACISOGDT
 70
     0
 40
0.0
 41
1.0
 50
0.0
 71
     0
 42
2.5
  3
amgdt.shx
  4

  0
STYLE
  2
ACJISGDT
 70
     0
 40
0.0
 41
1.0
 50
0.0
 71
     0
 42
2.5
  3
amgdt.shx
  4

  0
STYLE
  2
ACJISTS
 70
     0
 40
1.0
 41
1.0
 50
0.0
 71
     0
 42
2.5
  3
isocp.shx
  4
extfont.shx
  0
STYLE
  2

 70
     1
 40
0.0
 41
1.0
 50
0.0
 71
     0
 42
2.5
  3
genltshp.shx
  4

  0
ENDTAB
  0
TABLE
  2
VIEW
 70
     6
  0
VIEW
  2
AM_VIEW1
 70
     0
 40
462.5
 10
486.11585987737283
 20
693.84359498755771
 41
977.66903914590728
 11
0.0
 21
0.0
 31
1.0
 12
0.0
 22
0.0
 32
0.0
 42
50.0
 43
0.0
 44
0.0
 50
0.0
 71
    16
  0
VIEW
  2
AM_VIEW2
 70
     0
 40
462.5
 10
930.94682073146555
 20
693.84359498755771
 41
977.66903914590728
 11
0.0
 21
0.0
 31
1.0
 12
0.0
 22
0.0
 32
0.0
 42
50.0
 43
0.0
 44
0.0
 50
0.0
 71
    16
  0
VIEW
  2
AM_VIEW3
 70
     0
 40
462.5
 10
486.11585987737283
 20
231.34359498755799
 41
977.66903914590728
 11
0.0
 21
0.0
 31
1.0
 12
0.0
 22
0.0
 32
0.0
 42
50.0
 43
0.0
 44
0.0
 50
0.0
 71
    16
  0
VIEW
  2
AM_VIEW4
 70
     0
 40
462.5
 10
930.94682073146555
 20
231.34359498755799
 41
977.66903914590728
 11
0.0
 21
0.0
 31
1.0
 12
0.0
 22
0.0
 32
0.0
 42
50.0
 43
0.0
 44
0.0
 50
0.0
 71
    16
  0
VIEW
  2
AM_VIEW5
 70
     0
 40
462.5
 10
708.53134030441925
 20
462.59359498755799
 41
977.66903914590728
 11
0.0
 21
0.0
 31
1.0
 12
0.0
 22
0.0
 32
0.0
 42
50.0
 43
0.0
 44
0.0
 50
0.0
 71
    16
  0
VIEW
  2
AM_VIEW6
 70
     0
 40
924.99075000000005
 10
708.53134030441925
 20
462.59359498755799
 41
1955.318524911032
 11
0.0
 21
0.0
 31
1.0
 12
0.0
 22
0.0
 32
0.0
 42
50.0
 43
0.0
 44
0.0
 50
0.0
 71
    16
  0
ENDTAB
  0
TABLE
  2
UCS
 70
     0
  0
ENDTAB
  0
TABLE
  2
APPID
 70
   161
  0
APPID
  2
ACAD
 70
     0
  0
APPID
  2
ACADANNOTATIVE
 70
     0
  0
APPID
  2
ACAD_MLEADERVER
 70
     0
  0
APPID
  2
MCAD_NO_VIS
 70
     0
  0
APPID
  2
ACAD_TEMP_GRAPHIC
 70
     0
  0
APPID
  2
AD_DRAW
 70
     0
  0
APPID
  2
ACATTRIBSERVICES
 70
     0
  0
APPID
  2
DESIGNERASSEMBLIES
 70
     0
  0
APPID
  2
ACADM_DIM_EDIT
 70
     0
  0
APPID
  2
AMDT_DM_ADJ
 70
     0
  0
APPID
  2
GENIUS_GENDIMSH_14
 70
     0
  0
APPID
  2
GEVID1057795304
 70
     0
  0
APPID
  2
GEVDC
 70
     0
  0
APPID
  2
GEVCON
 70
     0
  0
APPID
  2
GENIUS_GENBH_13
 70
     0
  0
APPID
  2
GENIUS_GENOENT_13
 70
     0
  0
APPID
  2
GENIUS_GENOBJ-NBEHI-BHF_13
 70
     0
  0
APPID
  2
GENIUS_GENOLIS_13
 70
     0
  0
APPID
  2
GENIUS_GENODEF_13
 70
     0
  0
APPID
  2
GENIUS_GENOREF_13
 70
     0
  0
APPID
  2
GENIUS_GENOBJ-NBEHI-BHB_13
 70
     0
  0
APPID
  2
GENIUS_GENOBJ-F-SCPASSM_13
 70
     0
  0
APPID
  2
GENIUS_GENDTOL_13
 70
     0
  0
APPID
  2
GENIUS_GENTRA_14
 70
     0
  0
APPID
  2
ASURF_PCURVE_APPNAME
 70
     0
  0
APPID
  2
GENIUS_GENCFG_13
 70
     0
  0
APPID
  2
GENIUS_GE3CFG0_13
 70
     0
  0
APPID
  2
GENIUS_GENCFG0_13
 70
     0
  0
APPID
  2
GENIUS_GENCFG1_13
 70
     0
  0
APPID
  2
GENIUS_GENCFG2_13
 70
     0
  0
APPID
  2
GENIUS_GENCFG3_13
 70
     0
  0
APPID
  2
GENIUS_GENCFG4_13
 70
     0
  0
APPID
  2
GENIUS_GEVCFG0_13
 70
     0
  0
APPID
  2
GENIUS_GENOBJ-N-TIT_13
 70
     0
  0
APPID
  2
GENIUS_GENTITLE_13
 70
     0
  0
APPID
  2
GENIUS_GENSCREG_15
 70
     0
  0
APPID
  2
GENIUS_GENOBJ-N-SDF_13
 70
     0
  0
APPID
  2
GENIUS_GENFIL_13
 70
     0
  0
APPID
  2
GENIUS_GENOBJ-N-CHA_13
 70
     0
  0
APPID
  2
GENIUS_GEFSH_13
 70
     0
  0
APPID
  2
GENIUS_GENOBJ-F-SHS_13
 70
     0
  0
APPID
  2
GENIUS_GENOBJ-N-CEN_13
 70
     0
  0
APPID
  2
GENIUS_GENREC_14
 70
     0
  0
APPID
  2
GENIUS_GENOBJ-N-REC_13
 70
     0
  0
APPID
  2
GENIUS_GENOBJ-N-HTC_13
 70
     0
  0
APPID
  2
GENIUS_GENHATCH_13
 70
     0
  0
APPID
  2
ACAD_PSEXT
 70
     0
  0
APPID
  2
ACAD_EXEMPT_FROM_CAD_STANDARDS
 70
     0
  0
APPID
  2
ACAECLAYERSTANDARD
 70
     0
  0
APPID
  2
GENIUS_GENCEN_19
 70
     0
  0
APPID
  2
ACAD_DSTYLE_DIMINSPECT
 70
     0
  0
APPID
  2
ACAD_DSTYLE_DIMANGULAR_EXT
 70
     0
  0
APPID
  2
ACADANNOPO
 70
     0
  0
APPID
  2
ACAD_NAV_VCDISPLAY
 70
     0
  0
APPID
  2
GENIUS_GENOBJ-N-FIL_13
 70
     0
  0
APPID
  2
ACAUTHENVIRON
 70
     0
  0
APPID
  2
ACDBDYNAMICBLOCKTRUENAME
 70
     0
  0
APPID
  2
ACDBDYNAMICBLOCKGUID
 70
     0
  0
APPID
  2
ACDBBLOCKREPETAG
 70
     0
  0
APPID
  2
ACAD_DSTYLE_DIMBREAK
 70
     0
  0
APPID
  2
ACAD_DSTYLE_DIMJAG
 70
     0
  0
APPID
  2
GENIUS_GENHINW_13
 70
     0
  0
APPID
  2
GENIUS_FIRSTVISTXT_14
 70
     0
  0
APPID
  2
GENIUS_GENOBJ-N-LEADER_13
 70
     0
  0
APPID
  2
DCO15
 70
     0
  0
APPID
  2
GENIUS_DUMCFG0_13
 70
     0
  0
APPID
  2
ACAD_DSTYLE_DIMTEXT_FILL
 70
     0
  0
APPID
  2
AMG_2DHIDE
 70
     0
  0
APPID
  2
GENIUS_GEFSHEP_13
 70
     0
  0
APPID
  2
GENIUS_GENOBJ-F-SHE_13
 70
     0
  0
APPID
  2
GENIUS_GEFSHE_13
 70
     0
  0
APPID
  2
ACAD_DIMASSOC_DIMLFAC
 70
     0
  0
APPID
  2
ACAD_DIMASSOC_CALC_DIMLFAC
 70
     0
  0
APPID
  2
ACAD_DIMASSOC_OVERRIDDEN_D
 70
     0
  0
APPID
  2
GENIUS_GENOBJ-F-SHSV_13
 70
     0
  0
APPID
  2
GENIUS_GEFWELD_13
 70
     0
  0
APPID
  2
GENIUS_GENOBJ-N-CRS_13
 70
     0
  0
APPID
  2
GENIUS_GENOBJ-N-RSBK_13
 70
     0
  0
APPID
  2
GENIUS_GENOBJ-N-LIB_13
 70
     0
  0
APPID
  2
GENIUS_GENSCALE_13
 70
     0
  0
APPID
  2
GENIUS_GENDREL_13
 70
     0
  0
APPID
  2
GEVPT
 70
     0
  0
APPID
  2
GEVIT
 70
     0
  0
APPID
  2
VCC
 70
     0
  0
APPID
  2
GENBH
 70
     0
  0
APPID
  2
GEVMK
 70
     0
  0
APPID
  2
GENIUS_GENOBJ-F-DESC_13
 70
     0
  0
APPID
  2
GENIUS_GEFDESC_14
 70
     0
  0
APPID
  2
GENIUS_GENOBJ-F-FEAT_13
 70
     0
  0
APPID
  2
GENIUS_GEFFEAT_14
 70
     0
  0
APPID
  2
GENIUS_GEFPARTINS_13
 70
     0
  0
APPID
  2
GENIUS_GENSCREG_13
 70
     0
  0
APPID
  2
GENIUS_GEFSHP_13
 70
     0
  0
APPID
  2
GEVID1025574798
 70
     0
  0
APPID
  2
GEVID1025574769
 70
     0
  0
APPID
  2
GEVID1025757451
 70
     0
  0
APPID
  2
GEVID1240528327
 70
     0
  0
APPID
  2
AMG_2DSTRUCT_BTR
 70
     0
  0
APPID
  2
ACADM_2DVIEW_IGN_NOTIFY
 70
     0
  0
APPID
  2
GEVID1240528328
 70
     0
  0
APPID
  2
GEVID1240528329
 70
     0
  0
APPID
  2
GEVRADREF
 70
     0
  0
APPID
  2
GEVID1240528330
 70
     0
  0
APPID
  2
GEVID1240528331
 70
     0
  0
APPID
  2
GEVID1240528332
 70
     0
  0
APPID
  2
GEVID1240791080
 70
     0
  0
APPID
  2
GEVID1240791081
 70
     0
  0
APPID
  2
GEVID1240791082
 70
     0
  0
APPID
  2
GEVID1240791083
 70
     0
  0
APPID
  2
GEVID1240791084
 70
     0
  0
APPID
  2
GEVID1240791085
 70
     0
  0
APPID
  2
GEVID1240791086
 70
     0
  0
APPID
  2
GEVID1240791087
 70
     0
  0
APPID
  2
GEVID1240791088
 70
     0
  0
APPID
  2
GEVID1240791089
 70
     0
  0
APPID
  2
GEVID1240791090
 70
     0
  0
APPID
  2
GEVID1240791091
 70
     0
  0
APPID
  2
GEVID1240791092
 70
     0
  0
APPID
  2
GEVID1240791093
 70
     0
  0
APPID
  2
GEVID1240791094
 70
     0
  0
APPID
  2
GEVID1240791095
 70
     0
  0
APPID
  2
GEVID1240791096
 70
     0
  0
APPID
  2
GEVID1240791097
 70
     0
  0
APPID
  2
GEVID1240791098
 70
     0
  0
APPID
  2
GEVID1240791099
 70
     0
  0
APPID
  2
GEVID1240791100
 70
     0
  0
APPID
  2
GEVID1240791101
 70
     0
  0
APPID
  2
GEVID1240791102
 70
     0
  0
APPID
  2
GEVID1240791103
 70
     0
  0
APPID
  2
GEVID1240791104
 70
     0
  0
APPID
  2
GEVID1240791105
 70
     0
  0
APPID
  2
GEVID1240875381
 70
     0
  0
APPID
  2
GEVID1240875382
 70
     0
  0
APPID
  2
GEVID1240875383
 70
     0
  0
APPID
  2
GEVID1240875384
 70
     0
  0
APPID
  2
GEVID1240875385
 70
     0
  0
APPID
  2
GEVID1240875386
 70
     0
  0
APPID
  2
GEVID1240875387
 70
     0
  0
APPID
  2
GEVID1240875388
 70
     0
  0
APPID
  2
GEVID1240875389
 70
     0
  0
APPID
  2
GEVID1240875390
 70
     0
  0
APPID
  2
GEVID1240875391
 70
     0
  0
APPID
  2
GEVID1240875392
 70
     0
  0
APPID
  2
GEVID1240875393
 70
     0
  0
APPID
  2
GEVID1240875394
 70
     0
  0
APPID
  2
GEVID1240875395
 70
     0
  0
APPID
  2
GEVID1240875396
 70
     0
  0
APPID
  2
GEVID1240875397
 70
     0
  0
APPID
  2
GEVID1240875398
 70
     0
  0
APPID
  2
GEVID1240875399
 70
     0
  0
APPID
  2
GEVID1240908996
 70
     0
  0
APPID
  2
GEVID1240908997
 70
     0
  0
APPID
  2
GEVID1240908998
 70
     0
  0
APPID
  2
GEVID1240908999
 70
     0
  0
APPID
  2
GEVID1240909000
 70
     0
  0
APPID
  2
GENIUS_GENOBJ-N-ZOO_13
 70
     0
  0
APPID
  2
GENIUS_GENZOO_17
 70
     0
  0
APPID
  2
ACAD_DSTYLE_DIMRADIAL_EXTENSION
 70
     0
  0
APPID
  2
GENIUS_GE3SECT_13
 70
     0
  0
APPID
  2
GEV_VCCNULL_SWITCH_OFF
 70
     0
  0
APPID
  2
ACAD_DSTYLE_DIMTALN
 70
     0
  0
ENDTAB
  0
TABLE
  2
DIMSTYLE
 70
    23
  0
DIMSTYLE
  2
STANDARD
 70
     0
  3

  4

  5

  6

  7

 40
1.0
 41
0.18
 42
0.0625
 43
0.38
 44
0.18
 45
0.0
 46
0.0
 47
0.0
 48
0.0
140
0.18
141
0.09
142
0.0
143
25.399999999999999
144
1.0
145
0.0
146
1.0
147
0.09
 71
     0
 72
     0
 73
     1
 74
     1
 75
     0
 76
     0
 77
     0
 78
     0
170
     0
171
     2
172
     0
173
     0
174
     0
175
     0
176
     0
177
     0
178
     0
  0
DIMSTYLE
  2
ANNOTATIVE
 70
     0
  3

  4

  5

  6

  7

 40
1.0
 41
0.18
 42
0.0625
 43
0.38
 44
0.18
 45
0.0
 46
0.0
 47
0.0
 48
0.0
140
0.18
141
0.09
142
0.0
143
25.399999999999999
144
1.0
145
0.0
146
1.0
147
0.09
 71
     0
 72
     0
 73
     1
 74
     1
 75
     0
 76
     0
 77
     0
 78
     0
170
     0
171
     2
172
     0
173
     0
174
     0
175
     0
176
     0
177
     0
178
     0
  0
DIMSTYLE
  2
AM_ANSI
 70
     0
  3

  4
"
  5

  6

  7

 40
1.0
 41
2.5
 42
1.0
 43
10.0
 44
1.0
 45
0.0
 46
0.0
 47
0.1
 48
0.1
140
3.5
141
0.0
142
0.0
143
0.0393701
144
1.0
145
0.0
146
0.71
147
1.5
 71
     0
 72
     0
 73
     1
 74
     1
 75
     0
 76
     0
 77
     0
 78
     8
170
     0
171
     2
172
     0
173
     0
174
     0
175
     0
176
     2
177
     2
178
     4
  0
DIMSTYLE
  2
AM_ANSI$3
 70
     0
  3

  4
"
  5

  6

  7

 40
1.0
 41
2.5
 42
1.0
 43
10.0
 44
1.0
 45
0.0
 46
0.0
 47
0.1
 48
0.1
140
3.5
141
0.0
142
0.0
143
0.0393701
144
1.0
145
0.0
146
0.71
147
1.5
 71
     0
 72
     0
 73
     1
 74
     1
 75
     0
 76
     0
 77
     0
 78
     8
170
     0
171
     2
172
     0
173
     0
174
     0
175
     0
176
     2
177
     2
178
     4
  0
DIMSTYLE
  2
AM_ANSI$4
 70
     0
  3

  4
"
  5

  6

  7

 40
1.0
 41
2.5
 42
1.0
 43
10.0
 44
1.0
 45
0.0
 46
0.0
 47
0.1
 48
0.1
140
3.5
141
0.0
142
0.0
143
0.0393701
144
1.0
145
0.0
146
0.71
147
1.5
 71
     0
 72
     0
 73
     1
 74
     1
 75
     0
 76
     0
 77
     0
 78
     8
170
     0
171
     2
172
     0
173
     0
174
     0
175
     0
176
     2
177
     2
178
     4
  0
DIMSTYLE
  2
AM_ANSI$7
 70
     0
  3

  4
"
  5

  6

  7

 40
1.0
 41
2.5
 42
1.0
 43
10.0
 44
1.0
 45
0.0
 46
0.0
 47
0.1
 48
0.1
140
5.0
141
0.0
142
0.0
143
0.0393701
144
1.0
145
0.0
146
0.71
147
1.5
 71
     0
 72
     0
 73
     1
 74
     1
 75
     0
 76
     0
 77
     0
 78
     8
170
     0
171
     2
172
     0
173
     0
174
     0
175
     0
176
     2
177
     2
178
     4
  0
DIMSTYLE
  2
AM_ANSI$SF
 70
     0
  3

  4
"
  5

  6

  7

 40
1.0
 41
2.5
 42
1.0
 43
10.0
 44
1.0
 45
0.0
 46
0.0
 47
0.1
 48
0.1
140
3.5
141
0.0
142
0.0
143
0.0393701
144
1.0
145
0.0
146
0.71
147
1.5
 71
     0
 72
     0
 73
     1
 74
     1
 75
     1
 76
     1
 77
     0
 78
     8
170
     0
171
     2
172
     0
173
     0
174
     0
175
     0
176
     2
177
     2
178
     4
  0
DIMSTYLE
  2
AM_ANSI$SH
 70
     0
  3

  4
"
  5

  6

  7

 40
1.0
 41
2.5
 42
1.0
 43
10.0
 44
1.0
 45
0.0
 46
0.0
 47
0.1
 48
0.1
140
3.5
141
0.0
142
0.0
143
0.0393701
144
1.0
145
0.0
146
0.71
147
1.5
 71
     0
 72
     0
 73
     1
 74
     1
 75
     1
 76
     1
 77
     0
 78
     8
170
     0
171
     2
172
     0
173
     1
174
     0
175
     0
176
     2
177
     2
178
     4
  0
DIMSTYLE
  2
AM_ISO
 70
     0
  3

  4
"
  5

  6

  7

 40
1.0
 41
2.5
 42
1.0
 43
10.0
 44
1.0
 45
0.0
 46
0.0
 47
0.1
 48
0.1
140
3.5
141
0.0
142
0.0
143
0.0393701
144
1.0
145
0.0
146
0.71
147
1.5
 71
     0
 72
     0
 73
     0
 74
     0
 75
     0
 76
     0
 77
     1
 78
     8
170
     0
171
     2
172
     1
173
     0
174
     0
175
     0
176
   256
177
   256
178
     2
  0
DIMSTYLE
  2
AM_ISO$3
 70
     0
  3

  4
"
  5

  6

  7

 40
1.0
 41
2.5
 42
1.0
 43
10.0
 44
1.0
 45
0.0
 46
0.0
 47
0.1
 48
0.1
140
3.5
141
0.0
142
0.0
143
0.0393701
144
1.0
145
0.0
146
0.71
147
1.5
 71
     0
 72
     0
 73
     0
 74
     1
 75
     0
 76
     0
 77
     1
 78
     8
170
     0
171
     2
172
     0
173
     0
174
     0
175
     0
176
   256
177
   256
178
     2
  0
DIMSTYLE
  2
AM_ISO$4
 70
     0
  3

  4
"
  5

  6

  7

 40
1.0
 41
2.5
 42
1.0
 43
10.0
 44
1.0
 45
0.0
 46
0.0
 47
0.1
 48
0.1
140
3.5
141
0.0
142
0.0
143
0.0393701
144
1.0
145
0.0
146
0.71
147
1.5
 71
     0
 72
     0
 73
     0
 74
     1
 75
     0
 76
     0
 77
     1
 78
     8
170
     0
171
     2
172
     0
173
     0
174
     0
175
     0
176
   256
177
   256
178
     2
  0
DIMSTYLE
  2
AM_ISO$6
 70
     0
  3

  4
"
  5

  6

  7

 40
1.0
 41
2.5
 42
1.0
 43
10.0
 44
1.0
 45
0.0
 46
0.0
 47
0.1
 48
0.1
140
3.5
141
0.0
142
0.0
143
0.0393701
144
1.0
145
0.0
146
0.71
147
1.5
 71
     0
 72
     0
 73
     0
 74
     0
 75
     0
 76
     0
 77
     0
 78
     8
170
     0
171
     2
172
     1
173
     0
174
     0
175
     0
176
   256
177
   256
178
     2
  0
DIMSTYLE
  2
AM_ISO$7
 70
     0
  3

  4
"
  5

  6

  7

 40
1.0
 41
2.5
 42
1.0
 43
10.0
 44
1.0
 45
0.0
 46
0.0
 47
0.1
 48
0.1
140
5.0
141
0.0
142
0.0
143
0.0393701
144
1.0
145
0.0
146
0.71
147
1.5
 71
     0
 72
     0
 73
     0
 74
     0
 75
     0
 76
     0
 77
     1
 78
     8
170
     0
171
     2
172
     1
173
     0
174
     0
175
     0
176
   256
177
   256
178
     2
  0
DIMSTYLE
  2
AM_ISO$SF
 70
     0
  3

  4
"
  5

  6

  7

 40
1.0
 41
2.5
 42
1.0
 43
10.0
 44
1.0
 45
0.0
 46
0.0
 47
0.1
 48
0.1
140
3.5
141
0.0
142
0.0
143
0.0393701
144
1.0
145
0.0
146
0.71
147
1.5
 71
     0
 72
     0
 73
     0
 74
     0
 75
     1
 76
     1
 77
     1
 78
     8
170
     0
171
     2
172
     1
173
     0
174
     0
175
     0
176
   256
177
   256
178
     2
  0
DIMSTYLE
  2
AM_ISO$SH
 70
     0
  3

  4
"
  5

  6

  7

 40
1.0
 41
2.5
 42
1.0
 43
10.0
 44
1.0
 45
0.0
 46
0.0
 47
0.1
 48
0.1
140
3.5
141
0.0
142
0.0
143
0.0393701
144
2.0
145
0.0
146
0.71
147
1.5
 71
     0
 72
     0
 73
     0
 74
     0
 75
     1
 76
     1
 77
     1
 78
     8
170
     0
171
     2
172
     1
173
     1
174
     0
175
     0
176
   256
177
   256
178
     2
  0
DIMSTYLE
  2
AM_JIS
 70
     0
  3

  4
"
  5

  6

  7

 40
1.0
 41
2.0
 42
1.0
 43
8.0
 44
1.0
 45
0.0
 46
0.0
 47
0.1
 48
0.1
140
2.5
141
0.0
142
0.0
143
0.0393701
144
1.0
145
0.0
146
0.71
147
1.5
 71
     0
 72
     0
 73
     0
 74
     0
 75
     0
 76
     0
 77
     3
 78
     8
170
     0
171
     2
172
     1
173
     0
174
     0
175
     0
176
     2
177
     2
178
     4
  0
DIMSTYLE
  2
AM_JIS$3
 70
     0
  3

  4
"
  5

  6

  7

 40
1.0
 41
2.0
 42
1.0
 43
10.0
 44
1.0
 45
0.0
 46
0.0
 47
0.1
 48
0.1
140
2.5
141
0.0
142
0.0
143
0.0393701
144
1.0
145
0.0
146
0.71
147
1.5
 71
     0
 72
     0
 73
     0
 74
     1
 75
     0
 76
     0
 77
     3
 78
     8
170
     0
171
     2
172
     0
173
     0
174
     0
175
     0
176
     2
177
     2
178
     4
  0
DIMSTYLE
  2
AM_JIS$4
 70
     0
  3

  4
"
  5

  6

  7

 40
1.0
 41
2.0
 42
1.0
 43
10.0
 44
1.0
 45
0.0
 46
0.0
 47
0.1
 48
0.1
140
2.5
141
0.0
142
0.0
143
0.0393701
144
1.0
145
0.0
146
0.71
147
1.5
 71
     0
 72
     0
 73
     0
 74
     0
 75
     0
 76
     0
 77
     3
 78
     8
170
     0
171
     2
172
     0
173
     0
174
     0
175
     0
176
     2
177
     2
178
     4
  0
DIMSTYLE
  2
AM_JIS$6
 70
     0
  3

  4
"
  5

  6

  7

 40
1.0
 41
2.0
 42
1.0
 43
10.0
 44
1.0
 45
0.0
 46
0.0
 47
0.1
 48
0.1
140
2.5
141
0.0
142
0.0
143
0.0393701
144
1.0
145
0.0
146
0.71
147
1.5
 71
     0
 72
     0
 73
     0
 74
     0
 75
     0
 76
     0
 77
     0
 78
     8
170
     0
171
     2
172
     1
173
     0
174
     0
175
     0
176
     2
177
     2
178
     4
  0
DIMSTYLE
  2
AM_JIS$7
 70
     0
  3

  4
"
  5

  6

  7

 40
1.0
 41
2.0
 42
1.0
 43
10.0
 44
1.0
 45
0.0
 46
0.0
 47
0.1
 48
0.1
140
2.5
141
0.0
142
0.0
143
0.0393701
144
1.0
145
0.0
146
0.71
147
1.5
 71
     0
 72
     0
 73
     0
 74
     0
 75
     0
 76
     0
 77
     3
 78
     8
170
     0
171
     2
172
     1
173
     0
174
     0
175
     0
176
     2
177
     2
178
     4
  0
DIMSTYLE
  2
AM_JIS$SF
 70
     0
  3

  4
"
  5

  6

  7

 40
1.0
 41
2.0
 42
1.0
 43
10.0
 44
1.0
 45
0.0
 46
0.0
 47
0.1
 48
0.1
140
2.5
141
0.0
142
0.0
143
0.0393701
144
1.0
145
0.0
146
0.71
147
1.5
 71
     0
 72
     0
 73
     0
 74
     0
 75
     1
 76
     1
 77
     3
 78
     8
170
     0
171
     2
172
     1
173
     0
174
     0
175
     0
176
     2
177
     2
178
     4
  0
DIMSTYLE
  2
AM_JIS$SH
 70
     0
  3

  4
"
  5

  6

  7

 40
1.0
 41
2.0
 42
1.0
 43
10.0
 44
1.0
 45
0.0
 46
0.0
 47
0.1
 48
0.1
140
2.5
141
0.0
142
0.0
143
0.0393701
144
2.0
145
0.0
146
0.71
147
1.5
 71
     0
 72
     0
 73
     0
 74
     0
 75
     1
 76
     1
 77
     3
 78
     8
170
     0
171
     2
172
     1
173
     1
174
     0
175
     0
176
     2
177
     2
178
     4
  0
DIMSTYLE
  2
AM_JIS$0
 70
     0
  3

  4
"
  5

  6

  7

 40
1.0
 41
2.0
 42
1.0
 43
8.0
 44
1.0
 45
0.0
 46
0.0
 47
0.1
 48
0.1
140
2.5
141
0.0
142
0.0
143
0.0393701
144
1.0
145
0.0
146
0.71
147
1.5
 71
     0
 72
     0
 73
     0
 74
     0
 75
     0
 76
     0
 77
     3
 78
     8
170
     0
171
     2
172
     1
173
     0
174
     0
175
     0
176
     2
177
     2
178
     4
  0
ENDTAB
  0
ENDSEC
  0
SECTION
  2
BLOCKS
  0
BLOCK
  8
0
  2
$MODEL_SPACE
 70
     0
 10
0.0
 20
0.0
 30
0.0
  3
$MODEL_SPACE
  1

  0
ENDBLK
  5
7BEC
  8
0
  0
BLOCK
 67
     1
  8
0
  2
$PAPER_SPACE
 70
     0
 10
0.0
 20
0.0
 30
0.0
  3
$PAPER_SPACE
  1

  0
ENDBLK
  5
7BE8
 67
     1
  8
0
  0
BLOCK
  8
0
  2
GENAXEH
 70
     0
 10
0.0
 20
0.0
 30
0.0
  3
GENAXEH
  1

  0
LINE
  5
77A6
  8
0
 10
-1.0
 20
0.0
 30
0.0
 11
1.0
 21
0.0
 31
0.0
  0
ENDBLK
  5
77A7
  8
0
  0
BLOCK
  8
0
  2
_OPEN30
 70
     0
 10
0.0
 20
0.0
 30
0.0
  3
_OPEN30
  1

  0
LINE
  5
77ED
  8
0
  6
BYBLOCK
 62
     0
 10
-1.0
 20
0.26794919
 30
0.0
 11
0.0
 21
0.0
 31
0.0
  0
LINE
  5
77EE
  8
0
  6
BYBLOCK
 62
     0
 10
0.0
 20
0.0
 30
0.0
 11
-1.0
 21
-0.26794919
 31
0.0
  0
LINE
  5
77EF
  8
0
  6
BYBLOCK
 62
     0
 10
0.0
 20
0.0
 30
0.0
 11
-1.0
 21
0.0
 31
0.0
  0
ENDBLK
  5
77F0
  8
0
  0
BLOCK
  8
0
  2
*U4
 70
     1
 10
0.0
 20
0.0
 30
0.0
  3
*U4
  1

  0
TEXT
  5
7B75
  8
0
 62
     0
 10
5.1211371559201639
 20
5.9826223594979648
 30
0.0
 40
15.0
  1
ＶＸ０８－００３ＥＭ～ＶＸ０８－０３０ＥＭ
 41
0.7400000000000003
  0
ENDBLK
  5
7B77
  8
0
  0
BLOCK
  8
0
  2
*U5
 70
     1
 10
0.0
 20
0.0
 30
0.0
  3
*U5
  1

  0
TEXT
  5
7B79
  8
0
 62
     0
 10
733.60224261809412
 20
735.9275041776117
 30
0.0
 40
15.0
  1
ＶＸ１５－０４０ＥＭ～ＶＸ１５－０５０ＥＭ
 41
0.7400000000000003
  0
ENDBLK
  5
7B7B
  8
0
  0
BLOCK
  8
0
  2
_ACMFILLEDHALF
 70
     0
 10
0.0
 20
0.0
 30
0.0
  3
_ACMFILLEDHALF
  1

  0
TRACE
  5
7D29
  8
0
 62
     0
 10
-0.8
 20
0.0
 30
0.0
 11
-1.0
 21
0.166666666
 31
0.0
 12
0.0
 22
0.0
 32
0.0
 13
0.0
 23
0.0
 33
0.0
  0
LINE
  5
7D2A
  8
0
 62
     0
 10
-1.0
 20
0.0
 30
0.0
 11
-0.8
 21
0.0
 31
0.0
  0
ENDBLK
  5
7D28
  8
0
  0
ENDSEC
  0
SECTION
  2
ENTITIES
  0
LINE
  5
5697
  8
0
 10
493.82032109829203
 20
425.69489474467969
 30
0.0
 11
447.32023310266879
 21
425.69489474467969
 31
0.0
  0
LINE
  5
5698
  8
0
 10
493.82025310266948
 20
595.694894744679
 30
0.0
 11
447.32023310266879
 21
595.69489474467969
 31
0.0
  0
LINE
  5
5699
  8
0
  6
AM_ISO08W050
 10
603.82025310266897
 20
395.36356074467989
 30
0.0
 11
603.82025310266897
 21
420.22328874468002
 31
0.0
  0
LINE
  5
569A
  8
0
  6
AM_ISO08W050
 10
478.82024310266922
 20
395.36356074467989
 30
0.0
 11
478.82024310266922
 21
420.22328874468002
 31
0.0
  0
LINE
  5
569B
  8
0
  6
AM_ISO08W050
 10
486.11254205305357
 20
538.69486674467998
 30
0.0
 11
691.08256068504761
 21
538.69486674467998
 31
0.0
  0
LINE
  5
569C
  8
0
  6
AM_ISO08W050
 10
983.89244046794579
 20
420.94420674467989
 30
0.0
 11
983.89244046794579
 21
395.36356074467989
 31
0.0
  0
LINE
  5
569D
  8
0
  6
AM_ISO08W050
 10
793.89244146794556
 20
421.70676474467967
 30
0.0
 11
793.89244146794556
 21
395.36356074467989
 31
0.0
  0
LINE
  5
569E
  8
0
 10
893.89242846794616
 20
549.69489174467981
 30
0.0
 11
893.89242846794616
 21
557.69490174468081
 31
0.0
  0
LINE
  5
569F
  8
0
 10
883.89242946794525
 20
549.69489174467981
 30
0.0
 11
893.89242846794616
 21
549.69489174467981
 31
0.0
  0
LINE
  5
56A0
  8
0
 10
883.89242946794525
 20
549.69489174467981
 30
0.0
 11
883.89242946794525
 21
557.69490174468081
 31
0.0
  0
LINE
  5
56A1
  8
0
 10
683.82023310266868
 20
522.69489474467991
 30
0.0
 11
625.8202131026701
 21
522.69489474467991
 31
0.0
  0
LINE
  5
56A2
  8
0
 10
625.8202131026701
 20
556.19490174468058
 30
0.0
 11
621.82025310266886
 21
556.19490174468058
 31
0.0
  0
LINE
  5
56A3
  8
0
 10
683.82023310266868
 20
557.69490174468081
 30
0.0
 11
638.82023310266993
 21
557.69490174468081
 31
0.0
  0
LINE
  5
56A4
  8
0
 10
683.82023310266868
 20
554.69490174468081
 30
0.0
 11
625.8202131026701
 21
554.69490174468081
 31
0.0
  0
LINE
  5
56A5
  8
0
 10
625.8202131026701
 20
521.19489474467969
 30
0.0
 11
621.82025310266886
 21
521.19489474467969
 31
0.0
  0
LINE
  5
56A6
  8
0
 10
625.8202131026701
 20
521.19489474467969
 30
0.0
 11
625.8202131026701
 21
556.19490174468058
 31
0.0
  0
LINE
  5
56A7
  8
0
 10
683.82023310266868
 20
522.69489474467991
 30
0.0
 11
683.82023310266868
 21
557.69490174468081
 31
0.0
  0
LINE
  5
56A8
  8
0
 10
638.82023310266993
 20
554.69490174468081
 30
0.0
 11
638.82023310266993
 21
557.69490174468081
 31
0.0
  0
LINE
  5
56A9
  8
0
  6
AM_ISO08W050
 10
888.89244546794635
 20
392.51888453598298
 30
0.0
 11
888.89244546794635
 21
647.12704169317374
 31
0.0
  0
LINE
  5
56AA
  8
0
 10
883.89242946794525
 20
557.69490174468081
 30
0.0
 11
893.89242846794616
 21
557.69490174468081
 31
0.0
  0
LINE
  5
56AB
  8
0
  6
AM_ISO08W050
 10
787.07792646794553
 20
538.69486674467998
 30
0.0
 11
993.98203146794629
 21
538.69486674467998
 31
0.0
  0
LINE
  5
56AC
  8
0
 10
823.89242646794571
 20
412.69486074467989
 30
0.0
 11
823.89242646794571
 21
398.69487774468013
 31
0.0
  0
LINE
  5
56AD
  8
0
 10
976.39244046794636
 20
416.69487774467967
 30
0.0
 11
976.39244046794636
 21
398.69487774468013
 31
0.0
  0
LINE
  5
56AE
  8
0
 10
991.39244046794624
 20
416.69487774467967
 30
0.0
 11
991.39244046794624
 21
398.69487774468013
 31
0.0
  0
LINE
  5
56AF
  8
0
 10
773.89244046794693
 20
398.69487774468013
 30
0.0
 11
823.89242646794571
 21
398.69487774468013
 31
0.0
  0
LINE
  5
56B0
  8
0
 10
773.89244046794693
 20
413.69487774467967
 30
0.0
 11
773.89244046794693
 21
398.69487774468013
 31
0.0
  0
LINE
  5
56B1
  8
0
 10
953.89243746794511
 20
398.69487774468013
 30
0.0
 11
1003.892441467945
 21
398.69487774468013
 31
0.0
  0
LINE
  5
56B2
  8
0
 10
953.89243746794511
 20
412.69486074467989
 30
0.0
 11
953.89243746794511
 21
398.69487774468013
 31
0.0
  0
LINE
  5
56B3
  8
0
 10
1003.892441467945
 20
413.69487774467967
 30
0.0
 11
1003.892441467945
 21
398.69487774468013
 31
0.0
  0
LINE
  5
56B4
  8
0
 10
819.89242746794571
 20
416.69487774467967
 30
0.0
 11
776.89244046794545
 21
416.69487774467967
 31
0.0
  0
LINE
  5
56B5
  8
0
 10
957.89243946794522
 20
416.69487774467967
 30
0.0
 11
1000.892438467946
 21
416.69487774467967
 31
0.0
  0
LINE
  5
56B6
  8
0
 10
621.82025310266886
 20
538.69486674467998
 30
0.0
 11
621.82025310266886
 21
565.9628417446803
 31
0.0
  0
LINE
  5
56B7
  8
0
 10
621.82025310266886
 20
511.42695174468088
 30
0.0
 11
621.82025310266886
 21
538.69486674467998
 31
0.0
  0
LINE
  5
56B8
  8
0
 10
616.32020310266876
 20
506.5194797446801
 30
0.0
 11
620.32022310266836
 21
508.8288677446796
 31
0.0
  0
LINE
  5
56B9
  8
0
 10
616.32023310266868
 20
570.870301744681
 30
0.0
 11
620.3202531026692
 21
568.56093174468106
 31
0.0
  0
LINE
  5
56BA
  8
0
 10
807.17845146794571
 20
582.01683174468087
 30
0.0
 11
794.08161846794633
 21
540.88019874468091
 31
0.0
  0
LINE
  5
56BB
  8
0
 10
611.32025310266874
 20
416.69487774467967
 30
0.0
 11
611.32025310266874
 21
398.69487774468013
 31
0.0
  0
LINE
  5
56BC
  8
0
 10
596.32025310266954
 20
416.69487774467967
 30
0.0
 11
596.32025310266954
 21
398.69487774468013
 31
0.0
  0
LINE
  5
56BD
  8
0
 10
588.82025310266954
 20
416.69487774467967
 30
0.0
 11
619.82021310266896
 21
416.69487774467967
 31
0.0
  0
LINE
  5
56BE
  8
0
 10
498.8202531026692
 20
400.69487574467968
 30
0.0
 11
583.82021310266953
 21
400.69487574467968
 31
0.0
  0
LINE
  5
56BF
  8
0
 10
801.39244146794556
 20
416.69487774467967
 30
0.0
 11
801.39244146794556
 21
398.69487774468013
 31
0.0
  0
LINE
  5
56C0
  8
0
 10
614.82023310266879
 20
424.23427674468007
 30
0.0
 11
614.82023310266879
 21
582.69489174468083
 31
0.0
  0
LINE
  5
56C1
  8
0
 10
573.8202531026692
 20
431.69489274467981
 30
0.0
 11
573.8202531026692
 21
570.13761174467959
 31
0.0
  0
LINE
  5
56C2
  8
0
 10
462.82025310266908
 20
416.69487774467967
 30
0.0
 11
493.90043310266918
 21
416.69487774467967
 31
0.0
  0
LINE
  5
56C3
  8
0
 10
460.82024310266922
 20
398.69487774468013
 30
0.0
 11
496.82024310266922
 21
398.69487774468013
 31
0.0
  0
LINE
  5
56C4
  8
0
 10
621.82025310266886
 20
398.69487774468013
 30
0.0
 11
621.82025310266886
 21
414.69487674467968
 31
0.0
  0
LINE
  5
56C5
  8
0
 10
460.82024310266922
 20
398.69487774468013
 30
0.0
 11
460.82024310266922
 21
414.69487674467968
 31
0.0
  0
LINE
  5
56C6
  8
0
 10
497.71013310266881
 20
419.47576074467958
 30
0.0
 11
512.62994310266924
 21
466.10016774467971
 31
0.0
  0
LINE
  5
56C7
  8
0
 10
786.39244146794556
 20
416.69487774467967
 30
0.0
 11
786.39244146794556
 21
398.69487774468013
 31
0.0
  0
LINE
  5
56C8
  8
0
 10
593.82023310266925
 20
439.15261074467969
 30
0.0
 11
593.82023310266925
 21
600.17583174467995
 31
0.0
  0
LINE
  5
56C9
  8
0
 10
601.82021310266873
 20
586.69491174467998
 30
0.0
 11
610.82021310266873
 21
586.69491174467998
 31
0.0
  0
LINE
  5
56CA
  8
0
 10
823.89242646794571
 20
521.69489574467957
 30
0.0
 11
823.89242646794571
 21
431.69489274467981
 31
0.0
  0
LINE
  5
56CB
  8
0
 10
817.57046646794697
 20
592.40892174467956
 30
0.0
 11
858.70709346794627
 21
605.50578174467967
 31
0.0
  0
LINE
  5
56CC
  8
0
 10
512.82023310266925
 20
467.31929874468011
 30
0.0
 11
512.82023310266925
 21
525.34263174468015
 31
0.0
  0
LINE
  5
56CD
  8
0
 10
971.00840646794541
 20
582.21561174467956
 30
0.0
 11
984.00433146794637
 21
539.91779574467989
 31
0.0
  0
LINE
  5
56CE
  8
0
 10
960.41318346794583
 20
592.81083174468074
 30
0.0
 11
918.11536146794708
 21
605.80674174467993
 31
0.0
  0
LINE
  5
56CF
  8
0
 10
953.89243746794511
 20
521.69489574467957
 30
0.0
 11
953.89243746794511
 21
431.69489274467981
 31
0.0
  0
LINE
  5
56D0
  8
0
 10
965.89243746794625
 20
570.78858174468007
 30
0.0
 11
965.89243746794625
 21
472.43215374467968
 31
0.0
  0
LINE
  5
56D1
  8
0
 10
811.8924264679456
 20
570.78858174468007
 30
0.0
 11
811.8924264679456
 21
472.43215374467968
 31
0.0
  0
LINE
  5
56D2
  8
0
 10
508.82030310266879
 20
610.19490174468069
 30
0.0
 11
586.02968310266954
 21
608.17308174468099
 31
0.0
  0
LINE
  5
56D3
  8
0
 10
1003.859756467946
 20
414.13651074467981
 30
0.0
 11
987.30835446794515
 21
525.34263174468015
 31
0.0
  0
LINE
  5
56D4
  8
0
 10
773.92509546794554
 20
414.13652574467972
 30
0.0
 11
790.4764854679463
 21
525.34263174468015
 31
0.0
  0
LINE
  5
56D5
  8
0
 10
508.82024310266922
 20
525.34263174468015
 30
0.0
 11
512.82023310266925
 21
525.34263174468015
 31
0.0
  0
LINE
  5
56D6
  8
0
 10
578.89523310266952
 20
431.15262474467971
 30
0.0
 11
585.82025310266954
 21
431.15262474467971
 31
0.0
  0
LINE
  5
56D7
  8
0
 10
585.82025310266954
 20
398.69487774468013
 30
0.0
 11
621.82025310266886
 21
398.69487774468013
 31
0.0
  0
LINE
  5
56D8
  8
0
 10
585.82025310266954
 20
398.69487774468013
 30
0.0
 11
585.82025310266954
 21
398.69487774468013
 31
0.0
  0
LINE
  5
56D9
  8
0
 10
825.89242746794559
 20
400.69487574467968
 30
0.0
 11
951.89243946794511
 21
400.69487574467968
 31
0.0
  0
LINE
  5
56DA
  8
0
 10
581.82023310266925
 20
578.1376217446799
 30
0.0
 11
590.21972310266926
 21
578.1376217446799
 31
0.0
  0
LINE
  5
56DB
  8
0
 10
508.82030310266879
 20
540.88019874468091
 30
0.0
 11
508.8218331026693
 21
540.88019874468091
 31
0.0
  0
LINE
  5
56DC
  8
0
 10
508.82024310266922
 20
540.88019874468091
 30
0.0
 11
536.58890310266941
 21
566.16666174467969
 31
0.0
  0
LINE
  5
56DD
  8
0
 10
486.32024310266911
 20
416.69487774467967
 30
0.0
 11
486.32024310266911
 21
398.69487774468013
 31
0.0
  0
LINE
  5
56DE
  8
0
 10
471.32024310266922
 20
416.69487774467967
 30
0.0
 11
471.32024310266922
 21
398.69487774468013
 31
0.0
  0
LINE
  5
56DF
  8
0
 10
508.82024310266922
 20
454.19489274467992
 30
0.0
 11
508.82024310266922
 21
610.19490174468069
 31
0.0
  0
LINE
  5
56E0
  8
0
  6
AM_ISO08W050
 10
156.0469756734982
 20
510.6948947446798
 30
0.0
 11
491.43211849411358
 21
510.6948947446798
 31
0.0
  0
CIRCLE
  5
56E1
  8
0
 10
888.89244546794635
 20
538.69486674467998
 30
0.0
 40
2.75000007
  0
CIRCLE
  5
56E2
  8
0
 10
888.89244546794635
 20
538.69486674467998
 30
0.0
 40
4.000000199999997
  0
ARC
  5
56E3
  8
0
 10
888.89244546794635
 20
538.69486674467998
 30
0.0
 40
16.000000499999999
 50
108.2099599999983
 51
71.790051999995185
  0
ARC
  5
56E4
  8
0
 10
498.8202531026692
 20
398.69487774468013
 30
0.0
 40
2.00000007
 50
90.000002999984659
 51
180.00001000000091
  0
ARC
  5
56E5
  8
0
 10
819.89242746794571
 20
412.69486074467989
 30
0.0
 40
4.000000199999997
 50
0.0
 51
90.000002999984659
  0
ARC
  5
56E6
  8
0
 10
493.90043310266918
 20
420.69487674468002
 30
0.0
 40
4.000000199999997
 50
270.0
 51
342.25533000000792
  0
ARC
  5
56E7
  8
0
 10
508.82024310266922
 20
467.31929874468011
 30
0.0
 40
4.000000199999997
 50
342.25533000000792
 51
0.0
  0
ARC
  5
56E8
  8
0
 10
588.82025310266954
 20
431.69489274467981
 30
0.0
 40
15.000000299999989
 50
179.999989999999
 51
270.0
  0
ARC
  5
56E9
  8
0
 10
581.82023310266925
 20
570.13761174467959
 30
0.0
 40
8.0000000999999976
 50
90.000002999984659
 51
180.00001000000091
  0
ARC
  5
56EA
  8
0
 10
776.89244046794545
 20
413.69487774467967
 30
0.0
 40
3.0
 50
90.000002999984659
 51
180.00001000000091
  0
ARC
  5
56EB
  8
0
 10
1000.892438467946
 20
413.69487774467967
 30
0.0
 40
3.0
 50
0.0
 51
90.000002999984659
  0
ARC
  5
56EC
  8
0
 10
957.89243946794522
 20
412.69486074467989
 30
0.0
 40
4.000000199999997
 50
90.000002999984659
 51
180.00001000000091
  0
ARC
  5
56ED
  8
0
 10
888.89244546794635
 20
472.43215374467968
 30
0.0
 40
77.000000999999983
 50
179.999989999999
 51
212.41839000000891
  0
ARC
  5
56EE
  8
0
 10
617.82023310266879
 20
503.9213957446799
 30
0.0
 40
3.0
 50
119.999999999992
 51
180.00001000000091
  0
ARC
  5
56EF
  8
0
 10
617.82023310266879
 20
573.46839174467959
 30
0.0
 40
3.0
 50
179.999989999999
 51
240.0000099999958
  0
ARC
  5
56F0
  8
0
 10
618.82025310266874
 20
565.9628417446803
 30
0.0
 40
3.0
 50
0.0
 51
60.000001999997792
  0
ARC
  5
56F1
  8
0
 10
618.82025310266874
 20
511.42695174468088
 30
0.0
 40
3.0
 50
299.99999999999199
 51
0.0
  0
ARC
  5
56F2
  8
0
 10
585.82025310266954
 20
600.17583174467995
 30
0.0
 40
8.0000000999999976
 50
0.0
 51
88.499996999987701
  0
ARC
  5
56F3
  8
0
 10
808.89242646794594
 20
431.69489274467981
 30
0.0
 40
15.000000299999989
 50
270.0
 51
0.0
  0
ARC
  5
56F4
  8
0
 10
462.82025310266908
 20
414.69487674467968
 30
0.0
 40
2.00000007
 50
90.000002999984659
 51
180.00001000000091
  0
ARC
  5
56F5
  8
0
 10
619.82021310266896
 20
414.69487674467968
 30
0.0
 40
2.00000007
 50
0.0
 51
90.000002999984659
  0
ARC
  5
56F6
  8
0
 10
585.82025310266954
 20
439.15261074467969
 30
0.0
 40
8.0000000999999976
 50
270.0
 51
0.0
  0
ARC
  5
56F7
  8
0
 10
951.89243946794511
 20
398.69487774468013
 30
0.0
 40
2.00000007
 50
0.0
 51
90.000002999984659
  0
ARC
  5
56F8
  8
0
 10
825.89242746794559
 20
398.69487774468013
 30
0.0
 40
2.00000007
 50
90.000002999984659
 51
180.00001000000091
  0
ARC
  5
56F9
  8
0
 10
601.82021310266873
 20
594.69489174468083
 30
0.0
 40
8.0000000999999976
 50
179.999989999999
 51
270.0
  0
ARC
  5
56FA
  8
0
 10
888.89244546794635
 20
521.69489574467957
 30
0.0
 40
65.000000999999997
 50
0.0
 51
180.00001000000091
  0
ARC
  5
56FB
  8
0
 10
888.89244546794635
 20
510.6948947446798
 30
0.0
 40
99.500004000000004
 50
8.4654901000033682
 51
171.53449999999989
  0
ARC
  5
56FC
  8
0
 10
622.82021310266873
 20
424.23427674468007
 30
0.0
 40
8.0000000999999976
 50
179.999989999999
 51
252.54239000001451
  0
ARC
  5
56FD
  8
0
 10
955.71403146794523
 20
577.51650174468045
 30
0.0
 40
16.000000499999999
 50
17.079463000014659
 51
72.920534000006185
  0
ARC
  5
56FE
  8
0
 10
968.89243746794523
 20
431.69489274467981
 30
0.0
 40
15.000000299999989
 50
179.999989999999
 51
270.0
  0
ARC
  5
56FF
  8
0
 10
888.89244546794635
 20
472.43215374467968
 30
0.0
 40
77.000000999999983
 50
327.58160000001152
 51
0.0
  0
ARC
  5
5700
  8
0
 10
822.42437946794576
 20
577.16295174467962
 30
0.0
 40
16.000000499999999
 50
107.0794599999996
 51
162.92053000001161
  0
ARC
  5
5701
  8
0
 10
583.82021310266953
 20
398.69487774468013
 30
0.0
 40
2.00000007
 50
0.0
 51
90.000002999984659
  0
ARC
  5
5702
  8
0
 10
957.89243946794522
 20
570.78858174468007
 30
0.0
 40
8.0000000999999976
 50
0.0
 51
41.053350999981276
  0
ARC
  5
5703
  8
0
 10
819.89242746794571
 20
570.78858174468007
 30
0.0
 40
8.0000000999999976
 50
138.9466500000035
 51
180.00001000000091
  0
ARC
  5
5704
  8
0
 10
610.82021310266873
 20
582.69489174468083
 30
0.0
 40
4.000000199999997
 50
0.0
 51
90.000002999984659
  0
CIRCLE
  5
5705
  8
0
 10
888.89244546794635
 20
538.69486674467998
 30
0.0
 40
29.000001000000001
  0
POLYLINE
  5
5706
  8
0
 66
     1
 10
0.0
 20
0.0
 30
0.0
  0
VERTEX
  5
5707
  8
0
 10
536.58944310266941
 20
566.16720174467969
 30
0.0
 42
0.038759412
  0
VERTEX
  5
5708
  8
0
 10
539.33726310266877
 20
569.07807174468076
 30
0.0
 42
0.04530642
  0
VERTEX
  5
5709
  8
0
 10
541.55945310266941
 20
572.40579174467962
 30
0.0
 42
0.052171517
  0
VERTEX
  5
570A
  8
0
 10
543.0961431026692
 20
576.10359174468113
 30
0.0
 42
0.057266797
  0
VERTEX
  5
570B
  8
0
 10
543.79040310266942
 20
580.04235174468113
 30
0.0
 42
0.058402473
  0
VERTEX
  5
570C
  8
0
 10
543.55964310266916
 20
584.03055174467988
 30
0.0
 42
0.055045428
  0
VERTEX
  5
570D
  8
0
 10
542.43413310266942
 20
587.8657217446796
 30
0.0
 42
0.048778207
  0
VERTEX
  5
570E
  8
0
 10
540.54125310266875
 20
591.38622174467991
 30
0.0
 42
0.041944178
  0
VERTEX
  5
570F
  8
0
 10
538.04375310266926
 20
594.50925174468011
 30
0.0
 42
0.035908203
  0
VERTEX
  5
5710
  8
0
 10
535.09115310266941
 20
597.21003174467967
 30
0.0
 42
0.031063143
  0
VERTEX
  5
5711
  8
0
 10
531.80447310266925
 20
599.49399174467976
 30
0.0
 42
0.027381807
  0
VERTEX
  5
5712
  8
0
 10
528.27254310266949
 20
601.38111174467963
 30
0.0
 42
0.024647351
  0
VERTEX
  5
5713
  8
0
 10
524.56352310266925
 20
602.89224174468029
 30
0.0
 42
0.022677519
  0
VERTEX
  5
5714
  8
0
 10
520.72814310266915
 20
604.04691174467962
 30
0.0
 42
0.021321472
  0
VERTEX
  5
5715
  8
0
 10
516.80573310266936
 20
604.86072174468086
 30
0.0
 42
0.020471059
  0
VERTEX
  5
5716
  8
0
 10
512.82884310266923
 20
605.3448017446799
 30
0.0
 42
0.020088491
  0
VERTEX
  5
5717
  8
0
 10
508.82021310266953
 20
605.5057217446797
 30
0.0
  0
SEQEND
  5
5718
  8
0
  0
POLYLINE
  5
5719
  8
0
 66
     1
 10
0.0
 20
0.0
 30
0.0
  0
VERTEX
  5
571A
  8
0
 10
542.27690310266951
 20
583.33629174467956
 30
0.0
 42
0.046333928
  0
VERTEX
  5
571B
  8
0
 10
540.42509310266939
 20
584.3939117446796
 30
0.0
 42
0.024113287
  0
VERTEX
  5
571C
  8
0
 10
538.44560310266922
 20
585.19377174467991
 30
0.0
 42
0.015482173
  0
VERTEX
  5
571D
  8
0
 10
536.40866310266915
 20
585.83844174468084
 30
0.0
 42
0.01117072
  0
VERTEX
  5
571E
  8
0
 10
534.34094310266914
 20
586.37493174467977
 30
0.0
 42
0.0086851636
  0
VERTEX
  5
571F
  8
0
 10
532.25336310266925
 20
586.8296117446796
 30
0.0
 42
0.0071112813
  0
VERTEX
  5
5720
  8
0
 10
530.15168310266938
 20
587.21862174468095
 30
0.0
 42
0.0060487741
  0
VERTEX
  5
5721
  8
0
 10
528.03896310266941
 20
587.55264174467959
 30
0.0
 42
0.0052886701
  0
VERTEX
  5
5722
  8
0
 10
525.92159310266868
 20
587.8384817446796
 30
0.0
 42
0.0047450804
  0
VERTEX
  5
5723
  8
0
 10
523.79648310266896
 20
588.082171744682
 30
0.0
 42
0.004337472
  0
VERTEX
  5
5724
  8
0
 10
521.66678310266923
 20
588.28731174468112
 30
0.0
 42
0.0040309329
  0
VERTEX
  5
5725
  8
0
 10
519.53399310266889
 20
588.45681174468098
 30
0.0
 42
0.0038017188
  0
VERTEX
  5
5726
  8
0
 10
517.39877310266911
 20
588.59292174467998
 30
0.0
 42
0.0036333127
  0
VERTEX
  5
5727
  8
0
 10
515.26169310266857
 20
588.69732174467958
 30
0.0
 42
0.0035147917
  0
VERTEX
  5
5728
  8
0
 10
513.12329310266909
 20
588.77118174468035
 30
0.0
 42
0.0034390753
  0
VERTEX
  5
5729
  8
0
 10
510.98405310266918
 20
588.81531174467966
 30
0.0
 42
0.0034021186
  0
VERTEX
  5
572A
  8
0
 10
508.84436310266921
 20
588.83019174468086
 30
0.0
  0
SEQEND
  5
572B
  8
0
  0
LINE
  5
5735
  8
0
 10
447.32023310266879
 20
430.19918768208061
 30
0.0
 11
447.32023310266879
 21
510.6948947446798
 31
0.0
  0
LINE
  5
5736
  8
0
 10
447.32023310266879
 20
591.19060180728002
 30
0.0
 11
447.32023310266879
 21
510.6948947446798
 31
0.0
  0
LINE
  5
5737
  8
0
 10
498.82032109829208
 20
588.83017074467989
 30
0.0
 11
508.82031109829239
 21
588.83017074467989
 31
0.0
  0
LINE
  5
5738
  8
0
 10
500.75049109829172
 20
609.91306074467991
 30
0.0
 11
508.82031109829239
 21
610.19488074468006
 31
0.0
  0
LINE
  5
573A
  8
0
 10
498.82032109829208
 20
607.91428074468013
 30
0.0
 11
498.82032109829208
 21
448.50561574467969
 31
0.0
  0
LINE
  5
573C
  8
0
 10
484.5432770951756
 20
550.16956074467998
 30
0.0
 11
498.8202531026692
 21
550.16956074467998
 31
0.0
  0
LINE
  5
573D
  8
0
 10
498.82032109829208
 20
420.6948947446798
 30
0.0
 11
498.82032109829208
 21
408.75091803522167
 31
0.0
  0
LINE
  5
573E
  8
0
 10
498.82032109829208
 20
446.99011974467982
 30
0.0
 11
506.51484109829232
 21
446.99011974467982
 31
0.0
  0
ARC
  5
5740
  8
0
 10
500.82033109829217
 20
607.91428074468013
 30
0.0
 40
2.00000007
 50
91.999997999994051
 51
180.00001000000091
  0
LINE
  5
5741
  8
0
 10
498.8202531026692
 20
600.69489474467991
 30
0.0
 11
498.8202531026692
 21
607.91430174468076
 31
0.0
  0
LINE
  5
5743
  8
0
 10
953.89243746794511
 20
398.69487774468013
 30
0.0
 11
1003.892441467945
 21
398.69487774468013
 31
0.0
  0
LINE
  5
57D7
  8
0
 10
447.32023310266879
 20
425.69489474467969
 30
0.0
 11
447.32023310266879
 21
595.69489474467969
 31
0.0
  0
LINE
  5
583F
  8
0
 10
487.82024310266922
 20
607.69488174467961
 30
0.0
 11
498.82025310267079
 21
607.69488174467961
 31
0.0
  0
LINE
  5
5840
  8
0
 10
487.82024310266922
 20
596.93459196837819
 30
0.0
 11
487.82024310266922
 21
607.69488174467961
 31
0.0
  0
LINE
  5
5841
  8
0
 10
488.76663811340478
 20
607.69488174467961
 30
0.0
 11
490.0156731026716
 21
612.35631994468008
 31
0.0
  0
LINE
  5
5842
  8
0
 10
504.2467556971356
 20
610.03515978644873
 30
0.0
 11
503.58416310267057
 21
612.5078799446801
 31
0.0
  0
LINE
  5
5843
  8
0
 10
490.69403310267057
 20
613.05528994468011
 30
0.0
 11
496.82024310267099
 21
614.89491994468028
 31
0.0
  0
LINE
  5
5844
  8
0
 10
496.82024310267099
 20
614.89491994468028
 30
0.0
 11
502.88549310266961
 21
613.21272994467927
 31
0.0
  0
CIRCLE
  5
5845
  8
0
 10
496.82024310267099
 20
624.89487994468016
 30
0.0
 40
9.9999992999999971
  0
ARC
  5
5846
  8
0
 10
496.82024310267099
 20
624.89487994468016
 30
0.0
 40
16.299997799999989
 50
304.10956999998632
 51
235.8904199999885
  0
ARC
  5
5847
  8
0
 10
485.98925310267077
 20
608.9205399446796
 30
0.0
 40
3.0
 50
345.00000000000563
 51
55.861737000010223
  0
ARC
  5
5848
  8
0
 10
490.98161310267062
 20
612.0975099446797
 30
0.0
 40
1.0000000199999941
 50
106.7144200000012
 51
164.99999000001139
  0
ARC
  5
5849
  8
0
 10
502.6182831026706
 20
612.24909994467987
 30
0.0
 40
1.0000000199999941
 50
14.99999999999444
 51
74.498793000029593
  0
ARC
  5
584A
  8
0
 10
507.65123310267109
 20
608.9205399446796
 30
0.0
 40
3.0
 50
124.13826299998981
 51
157.73743008351781
  0
LINE
  5
584B
  8
0
 10
885.74243646794423
 20
638.04487744467963
 30
0.0
 11
885.74243646794423
 21
611.89492744467907
 31
0.0
  0
LINE
  5
584C
  8
0
 10
892.04243946794497
 20
638.04487744467963
 30
0.0
 11
892.04243946794497
 21
611.89492744467907
 31
0.0
  0
LINE
  5
584D
  8
0
 10
881.48840239746005
 20
610.11905790048513
 30
0.0
 11
882.08788146794495
 21
612.35635744468004
 31
0.0
  0
LINE
  5
584E
  8
0
 10
896.29647716360705
 20
610.11905874926651
 30
0.0
 11
895.69699746794424
 21
612.35635744468004
 31
0.0
  0
LINE
  5
584F
  8
0
 10
882.76619646794438
 20
613.05526744468125
 30
0.0
 11
885.74243646794423
 21
613.94899744468012
 31
0.0
  0
LINE
  5
5850
  8
0
 10
892.04243946794497
 20
613.94899744468012
 30
0.0
 11
895.01868246794299
 21
613.05526744468125
 31
0.0
  0
ARC
  5
5851
  8
0
 10
888.89244546794635
 20
638.04487744467963
 30
0.0
 40
3.1500002999999981
 50
359.999989999999
 51
179.999989999999
  0
ARC
  5
5852
  8
0
 10
883.74243846794445
 20
611.89492744467907
 30
0.0
 40
2.00000007
 50
307.94188207110398
 51
0.0
  0
ARC
  5
5853
  8
0
 10
894.04244046794417
 20
611.89492744467907
 30
0.0
 40
2.00000007
 50
179.999989999999
 51
232.0580947086726
  0
ARC
  5
5854
  8
0
 10
883.05380946794571
 20
612.09751744468042
 30
0.0
 40
1.0000000199999941
 50
106.71442000000199
 51
164.99999000001131
  0
ARC
  5
5855
  8
0
 10
894.73108446794436
 20
612.09751744468042
 30
0.0
 40
1.0000000199999941
 50
14.99999999999442
 51
73.285573000008782
  0
LINE
  5
5857
  8
0
 10
786.64953546794573
 20
544.19489474467991
 30
0.0
 11
786.89244546794555
 21
544.19489474467991
 31
0.0
  0
LINE
  5
5858
  8
0
 10
744.69165546794591
 20
550.73197474467975
 30
0.0
 11
748.66484546794561
 21
551.35032474467971
 31
0.0
  0
LINE
  5
5859
  8
0
 10
744.67250546794571
 20
470.67383474467982
 30
0.0
 11
748.66482546794555
 21
470.03928474467972
 31
0.0
  0
LINE
  5
585A
  8
0
 10
781.66484546794572
 20
476.44648474467988
 30
0.0
 11
781.66484546794572
 21
544.9433347446801
 31
0.0
  0
LINE
  5
585B
  8
0
 10
776.62400546794572
 20
470.52366474467982
 30
0.0
 11
773.6948454679457
 21
470.0492947446798
 31
0.0
  0
LINE
  5
585C
  8
0
 10
780.9883854679457
 20
470.4701347446798
 30
0.0
 11
773.7248354679457
 21
470.0592747446799
 31
0.0
  0
LINE
  5
585D
  8
0
 10
786.64953546794573
 20
499.62997514261991
 30
0.0
 11
786.64953546794573
 21
544.92923474468
 31
0.0
  0
LINE
  5
585E
  8
0
 10
779.13174546794573
 20
478.49814474467968
 30
0.0
 11
779.13174546794573
 21
542.89142474467974
 31
0.0
  0
LINE
  5
585F
  8
0
 10
780.98840546794554
 20
550.91965474467997
 30
0.0
 11
773.7248354679457
 21
551.33051474467982
 31
0.0
  0
LINE
  5
5860
  8
0
 10
776.6240254679459
 20
550.86615474467987
 30
0.0
 11
773.6948454679457
 21
551.34052474467956
 31
0.0
  0
LINE
  5
5861
  8
0
 10
753.85627546794569
 20
477.83048474467989
 30
0.0
 11
753.85627546794569
 21
543.5602547446797
 31
0.0
  0
LINE
  5
5862
  8
0
 10
738.892445467946
 20
478.60215474467969
 30
0.0
 11
738.892445467946
 21
542.78882474467991
 31
0.0
  0
ARC
  5
5863
  8
0
 10
761.15161546794548
 20
540.72809474467965
 30
0.0
 40
71.783180000000002
 50
259.98237999999873
 51
280.06341000000248
  0
ARC
  5
5864
  8
0
 10
759.38984546794575
 20
595.67310474468013
 30
0.0
 40
122.22763
 50
261.9788100000028
 51
277.65161000000211
  0
ARC
  5
5865
  8
0
 10
761.15161546794548
 20
480.67417474467987
 30
0.0
 40
71.770743999999979
 50
79.871153000000461
 51
100.01937999999819
  0
ARC
  5
5866
  8
0
 10
759.38484546794575
 20
425.72950474467967
 30
0.0
 40
122.21539
 50
82.345157000000981
 51
98.019572999999482
  0
ARC
  5
5867
  8
0
 10
775.13174546794573
 20
542.89142474467974
 30
0.0
 40
4.0
 50
0.0
 51
82.345157000000981
  0
ARC
  5
5868
  8
0
 10
775.13174546794573
 20
478.49814474467968
 30
0.0
 40
4.0
 50
277.65161000000211
 51
0.0
  0
ARC
  5
5869
  8
0
 10
780.64953546794573
 20
476.46058474467981
 30
0.0
 40
6.0
 50
273.23752000000138
 51
286.4088539595723
  0
ARC
  5
586A
  8
0
 10
775.66484546794561
 20
476.44648474467988
 30
0.0
 40
6.0
 50
279.19881000000089
 51
0.0
  0
ARC
  5
586B
  8
0
 10
775.66484546794561
 20
544.9433347446801
 30
0.0
 40
6.0
 50
0.0
 51
80.801193000001817
  0
ARC
  5
586C
  8
0
 10
780.64953546794573
 20
544.92923474468
 30
0.0
 40
6.0
 50
0.0
 51
86.7624789999971
  0
ARC
  5
586D
  8
0
 10
749.85627546794569
 20
477.83048474467989
 30
0.0
 40
4.0
 50
265.37478999999541
 51
0.0
  0
ARC
  5
586E
  8
0
 10
749.85627546794569
 20
543.5602547446797
 30
0.0
 40
4.0
 50
0.0
 51
94.623254999999546
  0
ARC
  5
586F
  8
0
 10
742.89244546794555
 20
542.78882474467991
 30
0.0
 40
4.0
 50
98.019572999999482
 51
180.00001000000091
  0
ARC
  5
5870
  8
0
 10
745.61433546794569
 20
544.80335474467984
 30
0.0
 40
6.0
 50
98.845931000000306
 51
177.25420999998229
  0
ARC
  5
5871
  8
0
 10
742.89244546794555
 20
478.60215474467969
 30
0.0
 40
4.0
 50
179.999989999999
 51
261.97882000000141
  0
ARC
  5
5872
  8
0
 10
745.61433546794569
 20
476.59946474467972
 30
0.0
 40
6.0
 50
182.86755000001421
 51
260.96893000000148
  0
LINE
  5
5876
  8
0
 10
786.89244546794555
 20
548.19489578218679
 30
0.0
 11
796.51807365747004
 21
548.53300785909676
 31
0.0
  0
LINE
  5
5877
  8
0
 10
786.89244546794555
 20
548.19489578218679
 30
0.0
 11
786.89244546794555
 21
501.262048050602
 31
0.0
  0
ARC
  5
5878
  8
0
 10
493.82025310266948
 20
600.69489474467878
 30
0.0
 40
5.0
 50
270.0
 51
0.0000000000130276
1001
GENIUS_GENOBJ-N-FIL_13
1002
{
1000
OWNER
1000
GEN
1002
}
1001
GENIUS_GENODEF_13
1002
{
1000
HIER
1070
     0
1002
}
1002
{
1000
MANEDIT
1070
     0
1002
}
1002
{
1000
NOSEL
1070
     0
1002
}
1002
{
1000
BEHIND
1070
     0
1002
}
1002
{
1000
OTHER
1070
     0
1002
}
1002
{
1000
REACTOR
1002
}
  0
ARC
  5
5879
  8
0
 10
493.82032109829203
 20
420.6948947446794
 30
0.0
 40
5.0
 50
17.641986604243531
 51
90.0
1001
GENIUS_GENODEF_13
1002
{
1000
HIER
1070
     0
1002
}
1002
{
1000
MANEDIT
1070
     0
1002
}
1002
{
1000
NOSEL
1070
     0
1002
}
1002
{
1000
BEHIND
1070
     0
1002
}
1002
{
1000
OTHER
1070
     0
1002
}
1002
{
1000
REACTOR
1002
}
1001
GENIUS_GENOBJ-N-FIL_13
1002
{
1000
OWNER
1000
GEN
1002
}
  0
ARC
  5
675F
  8
0
 10
168.82023310266891
 20
411.49489474467981
 30
0.0
 40
2.0
 50
180.0
 51
270.0
  0
LINE
  5
6761
  8
0
 10
239.82023310266891
 20
611.49489474467975
 30
0.0
 11
239.82023310266891
 21
409.4948947446797
 31
0.0
  0
ARC
  5
6762
  8
0
 10
169.22023310266891
 20
596.47170974467963
 30
0.0
 40
2.399999999999999
 50
160.0000000000035
 51
180.0
  0
ARC
  5
6763
  8
0
 10
173.8146971026689
 20
609.09489474467989
 30
0.0
 40
2.399999999999999
 50
90.0
 51
160.0000000000035
  0
LINE
  5
6764
  8
0
 10
171.55943410266889
 20
609.91574274467962
 30
0.0
 11
166.96497110266881
 21
597.29255874467992
 31
0.0
  0
LINE
  5
6765
  8
0
 10
172.1341981026689
 20
610.80834874467962
 30
0.0
 11
172.1341981026689
 21
409.4948947446797
 31
0.0
  0
LINE
  5
6766
  8
0
 10
166.82023310266891
 20
596.47170974467963
 30
0.0
 11
166.82023310266891
 21
411.49489474467981
 31
0.0
  0
LINE
  5
6767
  8
0
 10
239.82023310266891
 20
611.49489474467975
 30
0.0
 11
173.8146971026689
 21
611.49489474467975
 31
0.0
  0
ARC
  5
6768
  8
0
 10
340.32023310266891
 20
-48.155081255320042
 30
0.0
 40
600.59997599999986
 50
86.033759999997372
 51
93.836910000000643
  0
ARC
  5
6769
  8
0
 10
300.504838102669
 20
545.51129374467985
 30
0.0
 40
5.5999980000000003
 50
93.837062000000614
 51
179.99998200000081
  0
ARC
  5
676A
  8
0
 10
302.56863810266879
 20
545.64609674467977
 30
0.0
 40
5.5999980000000003
 50
93.638055999997604
 51
179.99998200000081
  0
ARC
  5
676B
  8
0
 10
293.39683610266889
 20
510.6948947446798
 30
0.0
 40
15.000002
 50
310.58999199999971
 51
49.409702000001012
  0
ARC
  5
676C
  8
0
 10
340.32023310266891
 20
-48.155081255320042
 30
0.0
 40
596.09997599999986
 50
86.44328999999945
 51
93.315089000003056
  0
ARC
  5
676D
  8
0
 10
296.35618110266893
 20
510.6948947446798
 30
0.0
 40
14.0
 50
317.10021800000243
 51
42.899781999997558
  0
ARC
  5
676E
  8
0
 10
308.51643610266888
 20
521.99481474467984
 30
0.0
 40
2.6000000000000001
 50
180.0
 51
222.8997819999976
  0
LINE
  5
676F
  8
0
 10
302.457738102669
 20
543.35349474467989
 30
0.0
 11
302.457738102669
 21
523.60439474467967
 31
0.0
  0
LINE
  5
6770
  8
0
 10
305.91643610266908
 20
521.99481474467984
 30
0.0
 11
305.91643610266908
 21
540.27719274467984
 31
0.0
  0
ARC
  5
6771
  8
0
 10
306.05773610266908
 20
543.35349474467989
 30
0.0
 40
3.5999979999999989
 50
93.315005000002984
 51
179.99998200000081
  0
ARC
  5
6772
  8
0
 10
304.457738102669
 20
523.60439474467967
 30
0.0
 40
1.999997
 50
179.99998200000081
 51
229.4100490000026
  0
LINE
  5
6773
  8
0
 10
294.90483510266881
 20
545.51129474467984
 30
0.0
 11
294.90483510266881
 21
475.87849074467982
 31
0.0
  0
LINE
  5
6774
  8
0
 10
296.96863610266888
 20
545.64609874467965
 30
0.0
 11
296.96863610266888
 21
475.74369074467972
 31
0.0
  0
LINE
  5
6775
  8
0
 10
305.91643610266908
 20
478.1626987446798
 30
0.0
 11
305.91643610266908
 21
499.39497474467981
 31
0.0
  0
LINE
  5
6776
  8
0
 10
302.457738102669
 20
478.03215574467959
 30
0.0
 11
302.457738102669
 21
497.78539874467981
 31
0.0
  0
ARC
  5
6777
  8
0
 10
308.51643610266888
 20
499.39497474467981
 30
0.0
 40
2.6000000000000001
 50
137.1002180000024
 51
180.0
  0
ARC
  5
6778
  8
0
 10
304.457738102669
 20
497.78539874467981
 30
0.0
 40
2.0
 50
130.59005899999829
 51
179.99998200000081
  0
ARC
  5
6779
  8
0
 10
340.32023310266891
 20
1069.5448707446801
 30
0.0
 40
596.09997599999986
 50
266.6850579999973
 51
273.5570069999992
  0
ARC
  5
677A
  8
0
 10
306.05773610266908
 20
478.03629874467993
 30
0.0
 40
3.6000009999999989
 50
180.00007799999869
 51
266.68501400000298
  0
ARC
  5
677B
  8
0
 10
340.32023310266891
 20
1069.5448707446801
 30
0.0
 40
600.59997599999986
 50
266.16305400000141
 51
273.96601299999787
  0
ARC
  5
677C
  8
0
 10
300.504838102669
 20
475.87849574467981
 30
0.0
 40
5.600000999999998
 50
180.00005699999531
 51
266.1630369999973
  0
ARC
  5
677D
  8
0
 10
302.56863810266879
 20
475.74369574467971
 30
0.0
 40
5.599998999999996
 50
180.00005699999531
 51
266.36204099999878
  0
ARC
  5
677E
  8
0
 10
381.61433910266891
 20
547.41489574467982
 30
0.0
 40
3.5999989999999982
 50
0.0000179999992061
 51
86.033744000000837
  0
LINE
  5
677F
  8
0
 10
376.79733710266891
 20
477.39039774467972
 30
0.0
 11
376.79733710266891
 21
543.99939974467998
 31
0.0
  0
LINE
  5
6780
  8
0
 10
380.11433910266879
 20
477.5871977446796
 30
0.0
 11
380.11433910266879
 21
543.80691174467984
 31
0.0
  0
ARC
  5
6781
  8
0
 10
377.11433910266891
 20
543.80259874467993
 30
0.0
 40
3.0000029999999982
 50
0.0000179999992061
 51
86.4432529999997
  0
ARC
  5
6782
  8
0
 10
373.79733710266891
 20
543.99939874467975
 30
0.0
 40
2.999998999999999
 50
0.0000179999992061
 51
86.764376000000055
  0
LINE
  5
6783
  8
0
 10
385.21432910266878
 20
473.96421374467968
 30
0.0
 11
385.21432910266878
 21
547.42275674467965
 31
0.0
  0
ARC
  5
6784
  8
0
 10
373.79733710266891
 20
477.39039774467972
 30
0.0
 40
3.0
 50
273.23604299999818
 51
0.0000179999992061
  0
ARC
  5
6785
  8
0
 10
381.61433910266891
 20
473.9746947446796
 30
0.0
 40
3.6000059999999969
 50
273.96599899999779
 51
0.0000179999992061
  0
ARC
  5
6786
  8
0
 10
377.11433910266891
 20
477.5871977446796
 30
0.0
 40
3.0
 50
273.55702100000269
 51
0.0000179999992061
  0
LINE
  5
6787
  8
0
 10
392.27710910266882
 20
559.87989474467975
 30
0.0
 11
392.27710910266882
 21
539.51489474467985
 31
0.0
  0
LINE
  5
6788
  8
0
 10
408.3202321026688
 20
559.87989474467975
 30
0.0
 11
408.3202321026688
 21
539.51489474467985
 31
0.0
  0
LINE
  5
6789
  8
0
 10
422.8696281026688
 20
454.67409874467961
 30
0.0
 11
408.3202321026688
 21
454.67409874467961
 31
0.0
  0
LINE
  5
678A
  8
0
 10
427.82023310266891
 20
466.0864487446799
 30
0.0
 11
408.3202321026688
 21
466.0864487446799
 31
0.0
  0
LINE
  5
678B
  8
0
 10
393.0256301026688
 20
459.3891887446797
 30
0.0
 11
408.32023310266879
 21
454.67409874467961
 31
0.0
  0
LINE
  5
678C
  8
0
 10
408.32023310266879
 20
466.0864487446799
 30
0.0
 11
393.28429210266899
 21
465.5456977446799
 31
0.0
  0
ARC
  5
678D
  8
0
 10
393.32023310266891
 20
464.54634374467997
 30
0.0
 40
1.0
 50
92.059690999997088
 51
180.0
  0
ARC
  5
678E
  8
0
 10
393.32023310266891
 20
460.34480874467988
 30
0.0
 40
1.0
 50
180.0
 51
252.8662750000021
  0
LINE
  5
678F
  8
0
 10
408.32023310266879
 20
586.54768174467961
 30
0.0
 11
393.01977410266892
 21
581.7278157446799
 31
0.0
  0
ARC
  5
6790
  8
0
 10
393.32023310266891
 20
580.77402074467989
 30
0.0
 40
1.0
 50
107.485179
 51
180.0
  0
ARC
  5
6791
  8
0
 10
393.32023310266891
 20
578.4229557446796
 30
0.0
 40
1.0
 50
180.0
 51
270.0
  0
LINE
  5
6792
  8
0
 10
393.36878810266882
 20
577.42413474467992
 30
0.0
 11
408.32023310266879
 21
578.15095474467967
 31
0.0
  0
LINE
  5
6793
  8
0
 10
427.82023310266891
 20
578.15095474467967
 30
0.0
 11
408.32023310266879
 21
578.15095474467967
 31
0.0
  0
LINE
  5
6794
  8
0
 10
351.32023310266879
 20
608.98138774467998
 30
0.0
 11
438.76741810266878
 21
608.98138774467998
 31
0.0
  0
ARC
  5
6795
  8
0
 10
262.58447810266892
 20
606.98138774467975
 30
0.0
 40
2.0
 50
90.0
 51
156.10180000000051
  0
ARC
  5
6796
  8
0
 10
438.76741810266878
 20
606.98138774467975
 30
0.0
 40
2.0
 50
10.000001999998901
 51
90.0
  0
LINE
  5
6797
  8
0
 10
442.32023310266879
 20
598.34991174467962
 30
0.0
 11
440.73703310266882
 21
607.32868474467989
 31
0.0
  0
LINE
  5
6798
  8
0
 10
442.0594251026688
 20
598.34991174467962
 30
0.0
 11
442.32023310266879
 21
598.34991174467962
 31
0.0
  0
ARC
  5
6799
  8
0
 10
247.65144810266889
 20
605.79161374467992
 30
0.0
 40
2.0
 50
90.0
 51
169.99999800000111
  0
LINE
  5
679A
  8
0
 10
243.32023310266891
 20
592.74561074467988
 30
0.0
 11
245.6818331026688
 21
606.13891074467995
 31
0.0
  0
ARC
  5
679B
  8
0
 10
438.71639910266879
 20
605.79161374467992
 30
0.0
 40
2.0
 50
10.000001999998901
 51
90.0
  0
LINE
  5
679C
  8
0
 10
442.32023310266879
 20
596.87079374467999
 30
0.0
 11
440.68601410266882
 21
606.13891074467995
 31
0.0
  0
LINE
  5
679D
  8
0
 10
243.32023310266891
 20
592.74561074467988
 30
0.0
 11
243.8881391026689
 21
592.74561074467988
 31
0.0
  0
LINE
  5
679E
  8
0
 10
441.78426210266878
 20
596.87079374467999
 30
0.0
 11
442.32023310266879
 21
596.87079374467999
 31
0.0
  0
ARC
  5
679F
  8
0
 10
438.63054410266892
 20
603.23887974467948
 30
0.0
 40
2.0
 50
10.00000100000196
 51
90.0
  0
ARC
  5
67A0
  8
0
 10
247.76923910266891
 20
603.23887974467948
 30
0.0
 40
2.0
 50
90.0
 51
169.9999989999979
  0
LINE
  5
67A1
  8
0
 10
243.32023310266891
 20
589.52485474467949
 30
0.0
 11
245.79962310266899
 21
603.58617574467962
 31
0.0
  0
ARC
  5
67A2
  8
0
 10
247.9503801026689
 20
599.27369474467991
 30
0.0
 40
2.0
 50
90.0
 51
170.00000000000139
  0
LINE
  5
67A3
  8
0
 10
243.32023310266891
 20
584.5323697446795
 30
0.0
 11
245.9807641026689
 21
599.6209907446796
 31
0.0
  0
ARC
  5
67A4
  8
0
 10
248.2316081026689
 20
593.69626674467975
 30
0.0
 40
2.0
 50
90.0
 51
170.00000000000139
  0
LINE
  5
67A5
  8
0
 10
243.32023310266891
 20
577.36001774467991
 30
0.0
 11
246.26199210266881
 21
594.04356374467989
 31
0.0
  0
ARC
  5
67A6
  8
0
 10
248.32687210266889
 20
587.6955997446795
 30
0.0
 40
2.0
 50
90.0
 51
169.9999989999979
  0
LINE
  5
67A7
  8
0
 10
243.32023310266891
 20
570.81908174467992
 30
0.0
 11
246.357256102669
 21
588.04289574467975
 31
0.0
  0
LINE
  5
67A8
  8
0
 10
442.19197410266878
 20
594.55854374467992
 30
0.0
 11
440.60015910266878
 21
603.58617574467962
 31
0.0
  0
LINE
  5
67A9
  8
0
 10
243.32023310266891
 20
589.52485474467949
 30
0.0
 11
244.20054310266889
 21
589.52485474467949
 31
0.0
  0
ARC
  5
67AA
  8
0
 10
438.50116610266878
 20
599.27369474467991
 30
0.0
 40
2.0
 50
9.9999999999986073
 51
90.0
  0
LINE
  5
67AB
  8
0
 10
441.36342810266882
 20
594.55854374467992
 30
0.0
 11
440.47078210266881
 21
599.6209907446796
 31
0.0
  0
ARC
  5
67AC
  8
0
 10
373.70925110266882
 20
593.69626674467975
 30
0.0
 40
2.0
 50
5.5986529999989587
 51
90.0
  0
ARC
  5
67AD
  8
0
 10
373.70729610266892
 20
587.6955997446795
 30
0.0
 40
2.0
 50
5.4290190000020546
 51
90.0
  0
LINE
  5
67AE
  8
0
 10
444.32023310266891
 20
470.97218874467961
 30
0.0
 11
444.32023310266891
 21
572.76082774467977
 31
0.0
  0
LINE
  5
67AF
  8
0
 10
444.32023310266891
 20
594.55854374467992
 30
0.0
 11
444.32023310266891
 21
598.69489474467991
 31
0.0
  0
LINE
  5
67B0
  8
0
 10
392.27710910266882
 20
584.5323697446795
 30
0.0
 11
408.3202321026688
 21
589.13223174467998
 31
0.0
  0
LINE
  5
67B1
  8
0
 10
376.61714810266892
 20
584.5323697446795
 30
0.0
 11
392.27710910266882
 21
584.5323697446795
 31
0.0
  0
LINE
  5
67B2
  8
0
 10
408.3202321026688
 20
589.13223174467998
 30
0.0
 11
423.0135161026688
 21
589.13223174467998
 31
0.0
  0
ARC
  5
67B3
  8
0
 10
425.02003210266878
 20
582.17816074467987
 30
0.0
 40
2.600398999999999
 50
179.9999819999943
 51
269.99997799999852
  0
ARC
  5
67B4
  8
0
 10
425.02003210266878
 20
587.47814874467963
 30
0.0
 40
2.600403
 50
90.0
 51
179.9999819999943
  0
LINE
  5
67B5
  8
0
 10
427.82023310266891
 20
584.8941797446796
 30
0.0
 11
426.32023310266879
 21
584.02815474467991
 31
0.0
  0
LINE
  5
67B6
  8
0
 10
427.82023310266891
 20
585.8941797446796
 30
0.0
 11
426.32023310266879
 21
585.02815474467968
 31
0.0
  0
LINE
  5
67B7
  8
0
 10
427.82023310266891
 20
590.92815474467989
 30
0.0
 11
427.82023310266891
 21
578.72815474467996
 31
0.0
  0
LINE
  5
67B8
  8
0
 10
426.32023310266879
 20
590.92815474467989
 30
0.0
 11
427.82023310266891
 21
590.92815474467989
 31
0.0
  0
LINE
  5
67B9
  8
0
 10
426.32023310266879
 20
578.72815474467996
 30
0.0
 11
427.82023310266891
 21
578.72815474467996
 31
0.0
  0
LINE
  5
67BA
  8
0
 10
422.4202391026688
 20
587.47814874467963
 30
0.0
 11
422.4202391026688
 21
582.17816074467987
 31
0.0
  0
LINE
  5
67BB
  8
0
 10
426.32023310266879
 20
590.92815474467989
 30
0.0
 11
426.32023310266879
 21
578.72815474467996
 31
0.0
  0
LINE
  5
67BC
  8
0
 10
426.32023310266879
 20
579.57815474467975
 30
0.0
 11
425.02003210266878
 21
579.57815474467975
 31
0.0
  0
LINE
  5
67BD
  8
0
 10
426.32023310266879
 20
590.07815474467998
 30
0.0
 11
425.02003210266878
 21
590.07815474467998
 31
0.0
  0
ARC
  5
67BE
  8
0
 10
425.02003210266878
 20
456.13623374467988
 30
0.0
 40
2.600398999999999
 50
179.9999819999943
 51
269.99997799999852
  0
ARC
  5
67BF
  8
0
 10
425.02003210266878
 20
461.43622174467993
 30
0.0
 40
2.600403
 50
90.0
 51
179.9999819999943
  0
LINE
  5
67C0
  8
0
 10
427.82023310266891
 20
458.85225274467967
 30
0.0
 11
426.32023310266879
 21
457.98622774467992
 31
0.0
  0
LINE
  5
67C1
  8
0
 10
427.82023310266891
 20
459.85225274467967
 30
0.0
 11
426.32023310266879
 21
458.98622774467981
 31
0.0
  0
LINE
  5
67C2
  8
0
 10
427.82023310266891
 20
464.88622774468001
 30
0.0
 11
427.82023310266891
 21
452.6862277446798
 31
0.0
  0
LINE
  5
67C3
  8
0
 10
426.32023310266879
 20
464.88622774468001
 30
0.0
 11
427.82023310266891
 21
464.88622774468001
 31
0.0
  0
LINE
  5
67C4
  8
0
 10
426.32023310266879
 20
452.6862277446798
 30
0.0
 11
427.82023310266891
 21
452.6862277446798
 31
0.0
  0
LINE
  5
67C5
  8
0
 10
422.4202391026688
 20
461.43622174467993
 30
0.0
 11
422.4202391026688
 21
456.13623374467988
 31
0.0
  0
LINE
  5
67C6
  8
0
 10
426.32023310266879
 20
464.88622774468001
 30
0.0
 11
426.32023310266879
 21
452.6862277446798
 31
0.0
  0
LINE
  5
67C7
  8
0
 10
426.32023310266879
 20
453.53622774467982
 30
0.0
 11
425.02003210266878
 21
453.53622774467982
 31
0.0
  0
LINE
  5
67C8
  8
0
 10
426.32023310266879
 20
464.03622774467982
 30
0.0
 11
425.02003210266878
 21
464.03622774467982
 31
0.0
  0
LINE
  5
67C9
  8
0
 10
442.25940310266878
 20
598.69489474467991
 30
0.0
 11
444.32023310266891
 21
598.69489474467991
 31
0.0
  0
LINE
  5
67CA
  8
0
 10
247.9503801026689
 20
601.27369474467991
 30
0.0
 11
438.50116610266878
 21
601.27369474467991
 31
0.0
  0
LINE
  5
67CB
  8
0
 10
247.76923910266891
 20
605.23887974467959
 30
0.0
 11
438.63054410266892
 21
605.23887974467959
 31
0.0
  0
LINE
  5
67CC
  8
0
 10
247.65144810266889
 20
607.79161374467969
 30
0.0
 11
438.71639910266879
 21
607.79161374467969
 31
0.0
  0
LINE
  5
67CD
  8
0
 10
239.82023310266891
 20
604.19489474467969
 30
0.0
 11
245.33905110266889
 21
604.19489474467969
 31
0.0
  0
LINE
  5
67CE
  8
0
 10
262.58447810266892
 20
608.98138774467998
 30
0.0
 11
329.32023310266891
 21
608.98138774467998
 31
0.0
  0
LINE
  5
67CF
  8
0
 10
408.3202321026688
 20
567.85489474467965
 30
0.0
 11
408.3202321026688
 21
562.50989474467974
 31
0.0
  0
LINE
  5
67D0
  8
0
 10
392.27710910266882
 20
567.85489474467965
 30
0.0
 11
392.27710910266882
 21
562.50989474467974
 31
0.0
  0
LINE
  5
67D1
  8
0
 10
408.3202321026688
 20
578.15095474467967
 30
0.0
 11
408.3202321026688
 21
570.55489474467947
 31
0.0
  0
LINE
  5
67D2
  8
0
 10
408.3202321026688
 20
586.54768174467961
 30
0.0
 11
422.4202391026688
 21
586.54768174467961
 31
0.0
  0
LINE
  5
67D3
  8
0
 10
243.32023310266891
 20
570.81908174467992
 30
0.0
 11
377.32023310266891
 21
570.81908174467992
 31
0.0
  0
LINE
  5
67D4
  8
0
 10
376.64260610266888
 20
577.36001774467991
 30
0.0
 11
377.32023310266891
 21
577.36001774467991
 31
0.0
  0
LINE
  5
67D5
  8
0
 10
248.32687210266889
 20
589.69559974467961
 30
0.0
 11
373.70729610266892
 21
589.69559974467961
 31
0.0
  0
LINE
  5
67D6
  8
0
 10
243.32023310266891
 20
577.36001774467991
 30
0.0
 11
244.4735761026688
 21
577.36001774467991
 31
0.0
  0
LINE
  5
67D7
  8
0
 10
248.2316081026689
 20
595.69626674467986
 30
0.0
 11
373.70925110266882
 21
595.69626674467986
 31
0.0
  0
LINE
  5
67D8
  8
0
 10
444.32023310266891
 20
572.76082774467977
 30
0.0
 11
447.32023310266879
 21
571.02877674467959
 31
0.0
  0
ARC
  5
67D9
  8
0
 10
426.82023310266879
 20
573.76082774467955
 30
0.0
 40
1.0
 50
270.0
 51
0.0
  0
ARC
  5
67DA
  8
0
 10
429.82023310266879
 20
592.55854374467992
 30
0.0
 40
2.0
 50
90.0
 51
180.0
  0
ARC
  5
67DB
  8
0
 10
429.82023310266879
 20
588.43453874467968
 30
0.0
 40
2.0
 50
180.0
 51
270.0
  0
ARC
  5
67DC
  8
0
 10
429.82023310266879
 20
584.43453874467991
 30
0.0
 40
2.0
 50
90.0
 51
180.0
  0
LINE
  5
67DD
  8
0
 10
429.82023310266879
 20
594.55854374467992
 30
0.0
 11
447.32023310266879
 21
594.55854374467992
 31
0.0
  0
LINE
  5
67DE
  8
0
 10
427.82023310266891
 20
572.76082774467977
 30
0.0
 11
444.32023310266891
 21
572.76082774467977
 31
0.0
  0
LINE
  5
67DF
  8
0
 10
429.82023310266879
 20
586.43453874467991
 30
0.0
 11
447.32023310266879
 21
586.43453874467991
 31
0.0
  0
LINE
  5
67E0
  8
0
 10
427.82023310266891
 20
573.76082774467955
 30
0.0
 11
427.82023310266891
 21
592.55854374467992
 31
0.0
  0
LINE
  5
67E1
  8
0
 10
243.32023310266891
 20
426.6948947446798
 30
0.0
 11
239.82023310266891
 21
426.6948947446798
 31
0.0
  0
LINE
  5
67E2
  8
0
 10
243.32023310266891
 20
476.33610574467991
 30
0.0
 11
247.92760910266881
 21
469.90449974467958
 31
0.0
  0
LINE
  5
67E3
  8
0
 10
247.92760910266881
 20
469.90449974467958
 30
0.0
 11
248.78340910266891
 21
472.53141974467968
 31
0.0
  0
LINE
  5
67E4
  8
0
 10
243.32023310266891
 20
476.33610574467991
 30
0.0
 11
248.78340910266891
 21
472.53141974467968
 31
0.0
  0
LINE
  5
67E5
  8
0
 10
248.78340910266891
 20
472.53141974467968
 30
0.0
 11
249.99533910266879
 21
471.9754597446796
 31
0.0
  0
LINE
  5
67E6
  8
0
 10
239.82023310266891
 20
469.90449974467958
 30
0.0
 11
247.92760910266881
 21
469.90449974467958
 31
0.0
  0
LINE
  5
67E7
  8
0
 10
239.82023310266891
 20
476.33610574467991
 30
0.0
 11
243.32023310266891
 21
476.33610574467991
 31
0.0
  0
LINE
  5
67E8
  8
0
 10
243.32023310266891
 20
453.76271974467983
 30
0.0
 11
243.32023310266891
 21
450.56982574467958
 31
0.0
  0
LINE
  5
67E9
  8
0
 10
245.0802331026689
 20
453.19428574467969
 30
0.0
 11
245.0802331026689
 21
451.1955037446798
 31
0.0
  0
LINE
  5
67EA
  8
0
 10
260.0802331026689
 20
462.1948947446798
 30
0.0
 11
260.0802331026689
 21
460.19550374467968
 31
0.0
  0
LINE
  5
67EB
  8
0
 10
258.32023310266891
 20
462.65643674467981
 30
0.0
 11
258.32023310266891
 21
459.58870174467972
 31
0.0
  0
LINE
  5
67EC
  8
0
 10
258.32023310266891
 20
462.65643674467981
 30
0.0
 11
340.32023310266891
 21
462.65643674467981
 31
0.0
  0
LINE
  5
67ED
  8
0
 10
258.32023310266891
 20
459.58870174467972
 30
0.0
 11
340.32023310266891
 21
459.58870174467972
 31
0.0
  0
LINE
  5
67EE
  8
0
 10
243.32023310266891
 20
450.56982574467958
 30
0.0
 11
340.32023310266891
 21
450.56982574467958
 31
0.0
  0
LINE
  5
67EF
  8
0
 10
243.32023310266891
 20
453.76271974467983
 30
0.0
 11
340.32023310266891
 21
453.76271974467983
 31
0.0
  0
LINE
  5
67F0
  8
0
 10
245.0802331026689
 20
453.19428574467969
 30
0.0
 11
340.32023310266891
 21
453.19428574467969
 31
0.0
  0
LINE
  5
67F1
  8
0
 10
245.0802331026689
 20
451.1955037446798
 30
0.0
 11
340.32023310266891
 21
451.1955037446798
 31
0.0
  0
LINE
  5
67F2
  8
0
 10
245.0802331026689
 20
453.19428574467969
 30
0.0
 11
243.32023310266891
 21
453.76271974467983
 31
0.0
  0
LINE
  5
67F3
  8
0
 10
245.0802331026689
 20
451.1955037446798
 30
0.0
 11
243.32023310266891
 21
450.56982574467958
 31
0.0
  0
LINE
  5
67F4
  8
0
 10
248.2634991026689
 20
459.93681574467968
 30
0.0
 11
249.44459010266891
 21
459.69940674467972
 31
0.0
  0
LINE
  5
67F5
  8
0
 10
260.0802331026689
 20
462.1948947446798
 30
0.0
 11
340.32023310266891
 21
462.1948947446798
 31
0.0
  0
LINE
  5
67F6
  8
0
 10
260.0802331026689
 20
460.19550374467968
 30
0.0
 11
340.32023310266891
 21
460.19550374467968
 31
0.0
  0
LINE
  5
67F7
  8
0
 10
260.0802331026689
 20
462.1948947446798
 30
0.0
 11
258.32023310266891
 21
462.65643674467981
 31
0.0
  0
LINE
  5
67F8
  8
0
 10
260.0802331026689
 20
460.19550374467968
 30
0.0
 11
258.32023310266891
 21
459.58870174467972
 31
0.0
  0
LINE
  5
67F9
  8
0
 10
377.32023310266891
 20
462.65643674467981
 30
0.0
 11
340.32023310266891
 21
462.65643674467981
 31
0.0
  0
LINE
  5
67FA
  8
0
 10
377.32023310266891
 20
459.58870174467972
 30
0.0
 11
340.32023310266891
 21
459.58870174467972
 31
0.0
  0
LINE
  5
67FB
  8
0
 10
375.56023310266892
 20
462.1948947446798
 30
0.0
 11
340.32023310266891
 21
462.1948947446798
 31
0.0
  0
LINE
  5
67FC
  8
0
 10
375.56023310266892
 20
460.19550374467968
 30
0.0
 11
340.32023310266891
 21
460.19550374467968
 31
0.0
  0
LINE
  5
67FD
  8
0
 10
375.56023310266892
 20
460.19550374467968
 30
0.0
 11
377.32023310266891
 21
459.58870174467972
 31
0.0
  0
LINE
  5
67FE
  8
0
 10
375.56023310266892
 20
462.1948947446798
 30
0.0
 11
377.32023310266891
 21
462.65643674467981
 31
0.0
  0
LINE
  5
67FF
  8
0
 10
377.32023310266891
 20
462.65643674467981
 30
0.0
 11
377.32023310266891
 21
459.58870174467972
 31
0.0
  0
LINE
  5
6800
  8
0
 10
375.56023310266892
 20
462.1948947446798
 30
0.0
 11
375.56023310266892
 21
460.19550374467968
 31
0.0
  0
LINE
  5
6801
  8
0
 10
377.32023310266891
 20
453.76271974467983
 30
0.0
 11
340.32023310266891
 21
453.76271974467983
 31
0.0
  0
LINE
  5
6802
  8
0
 10
375.56023310266892
 20
453.19428574467969
 30
0.0
 11
340.32023310266891
 21
453.19428574467969
 31
0.0
  0
LINE
  5
6803
  8
0
 10
375.56023310266892
 20
451.1955037446798
 30
0.0
 11
340.32023310266891
 21
451.1955037446798
 31
0.0
  0
LINE
  5
6804
  8
0
 10
375.56023310266892
 20
451.1955037446798
 30
0.0
 11
377.32023310266891
 21
450.56982574467958
 31
0.0
  0
LINE
  5
6805
  8
0
 10
375.56023310266892
 20
453.19428574467969
 30
0.0
 11
377.32023310266891
 21
453.76271974467983
 31
0.0
  0
LINE
  5
6806
  8
0
 10
375.56023310266892
 20
453.19428574467969
 30
0.0
 11
375.56023310266892
 21
451.1955037446798
 31
0.0
  0
LINE
  5
6807
  8
0
 10
377.32023310266891
 20
453.76271974467983
 30
0.0
 11
377.32023310266891
 21
450.56982574467958
 31
0.0
  0
LINE
  5
6808
  8
0
 10
243.32023310266891
 20
450.56982574467958
 30
0.0
 11
244.9129751026689
 21
433.27063874467967
 31
0.0
  0
LINE
  5
6809
  8
0
 10
243.32023310266891
 20
444.02977174467992
 30
0.0
 11
243.922378102669
 21
444.02977174467992
 31
0.0
  0
LINE
  5
680A
  8
0
 10
243.32023310266891
 20
436.85741974467987
 30
0.0
 11
244.0030101026689
 21
436.85741974467987
 31
0.0
  0
LINE
  5
680B
  8
0
 10
243.32023310266891
 20
431.86493474467989
 30
0.0
 11
243.84474610266889
 21
431.86493474467989
 31
0.0
  0
LINE
  5
680C
  8
0
 10
243.32023310266891
 20
428.64417874467989
 30
0.0
 11
243.68017510266901
 21
428.64417874467989
 31
0.0
  0
LINE
  5
680D
  8
0
 10
243.273456102669
 20
427.07459774467969
 30
0.0
 11
243.5038471026688
 21
427.07459774467969
 31
0.0
  0
LINE
  5
680E
  8
0
 10
243.32023310266891
 20
444.02977174467992
 30
0.0
 11
244.90788510266881
 21
427.35199774467981
 31
0.0
  0
LINE
  5
680F
  8
0
 10
243.32023310266891
 20
436.85741974467987
 30
0.0
 11
244.89206610266891
 21
421.8962087446796
 31
0.0
  0
LINE
  5
6810
  8
0
 10
243.32023310266891
 20
431.86493474467989
 30
0.0
 11
244.88154410266901
 21
417.89434374467987
 31
0.0
  0
LINE
  5
6811
  8
0
 10
243.32023310266891
 20
428.64417874467989
 30
0.0
 11
244.87345210266889
 21
415.36685074467982
 31
0.0
  0
LINE
  5
6812
  8
0
 10
243.273456102669
 20
427.07459774467969
 30
0.0
 11
244.8639721026689
 21
414.1638637446797
 31
0.0
  0
ARC
  5
6813
  8
0
 10
246.90455110266879
 20
433.45400374467988
 30
0.0
 40
2.0
 50
185.2604109999981
 51
270.0
  0
ARC
  5
6814
  8
0
 10
246.898883102669
 20
427.5415327446799
 30
0.0
 40
2.0
 50
185.4379219999999
 51
270.0
  0
ARC
  5
6815
  8
0
 10
246.88111910266889
 20
422.10517974467967
 30
0.0
 40
2.0
 50
185.99752600000011
 51
270.0
  0
ARC
  5
6816
  8
0
 10
246.8691701026689
 20
418.11647474467981
 30
0.0
 40
2.0
 50
186.376742000001
 51
270.0
  0
ARC
  5
6817
  8
0
 10
246.8599061026689
 20
415.5992317446798
 30
0.0
 40
2.0
 50
186.67229399999829
 51
270.0
  0
ARC
  5
6818
  8
0
 10
246.8489661026689
 20
414.40840174467968
 30
0.0
 40
2.0
 50
187.02306899999661
 51
270.0
  0
LINE
  5
6819
  8
0
 10
249.99533910266879
 20
471.9754597446796
 30
0.0
 11
249.99533910266879
 21
459.58870174467972
 31
0.0
  0
LINE
  5
681A
  8
0
 10
247.92760910266881
 20
469.90449974467958
 30
0.0
 11
247.92760910266881
 21
460.0043327446798
 31
0.0
  0
LINE
  5
681B
  8
0
 10
239.82023310266891
 20
459.58870174467972
 30
0.0
 11
249.99533910266879
 21
459.58870174467972
 31
0.0
  0
LINE
  5
681C
  8
0
 10
239.82023310266891
 20
460.0043327446798
 30
0.0
 11
247.92760910266881
 21
460.0043327446798
 31
0.0
  0
LINE
  5
681D
  8
0
 10
442.32023310266879
 20
525.87489474467975
 30
0.0
 11
440.5602331026688
 21
526.42489474467982
 31
0.0
  0
LINE
  5
681E
  8
0
 10
442.32023310266879
 20
528.51489474467985
 30
0.0
 11
442.32023310266879
 21
525.87489474467975
 31
0.0
  0
LINE
  5
681F
  8
0
 10
440.5602331026688
 20
528.02489474467984
 30
0.0
 11
442.32023310266879
 21
528.51489474467985
 31
0.0
  0
LINE
  5
6820
  8
0
 10
440.5602331026688
 20
528.02489474467984
 30
0.0
 11
440.5602331026688
 21
526.42489474467982
 31
0.0
  0
LINE
  5
6821
  8
0
 10
442.32023310266879
 20
514.87489474467975
 30
0.0
 11
440.5602331026688
 21
515.42489474467982
 31
0.0
  0
LINE
  5
6822
  8
0
 10
442.32023310266879
 20
517.51489474467985
 30
0.0
 11
442.32023310266879
 21
514.87489474467975
 31
0.0
  0
LINE
  5
6823
  8
0
 10
440.5602331026688
 20
517.02489474467995
 30
0.0
 11
442.32023310266879
 21
517.51489474467985
 31
0.0
  0
LINE
  5
6824
  8
0
 10
440.5602331026688
 20
517.02489474467995
 30
0.0
 11
440.5602331026688
 21
515.42489474467982
 31
0.0
  0
LINE
  5
6825
  8
0
 10
442.32023310266879
 20
503.87489474467981
 30
0.0
 11
440.5602331026688
 21
504.4248947446797
 31
0.0
  0
LINE
  5
6826
  8
0
 10
442.32023310266879
 20
506.51489474467968
 30
0.0
 11
442.32023310266879
 21
503.87489474467981
 31
0.0
  0
LINE
  5
6827
  8
0
 10
440.5602331026688
 20
506.02489474467973
 30
0.0
 11
442.32023310266879
 21
506.51489474467968
 31
0.0
  0
LINE
  5
6828
  8
0
 10
440.5602331026688
 20
506.02489474467973
 30
0.0
 11
440.5602331026688
 21
504.4248947446797
 31
0.0
  0
LINE
  5
6829
  8
0
 10
442.32023310266879
 20
492.87489474467981
 30
0.0
 11
440.5602331026688
 21
493.42489474467982
 31
0.0
  0
LINE
  5
682A
  8
0
 10
442.32023310266879
 20
495.51489474467968
 30
0.0
 11
442.32023310266879
 21
492.87489474467981
 31
0.0
  0
LINE
  5
682B
  8
0
 10
440.5602331026688
 20
495.0248947446799
 30
0.0
 11
442.32023310266879
 21
495.51489474467968
 31
0.0
  0
LINE
  5
682C
  8
0
 10
440.5602331026688
 20
495.0248947446799
 30
0.0
 11
440.5602331026688
 21
493.42489474467982
 31
0.0
  0
LINE
  5
682D
  8
0
 10
441.7319021026687
 20
424.18561474467992
 30
0.0
 11
440.70027310266892
 21
415.36685374467959
 31
0.0
  0
LINE
  5
682E
  8
0
 10
440.6650161026688
 20
417.89404774467988
 30
0.0
 11
441.71997310266892
 21
427.32103474467988
 31
0.0
  0
LINE
  5
682F
  8
0
 10
440.69208610266878
 20
421.89490374467971
 30
0.0
 11
441.79099810266882
 21
432.28907774467967
 31
0.0
  0
LINE
  5
6830
  8
0
 10
441.84193910266879
 20
438.82569774467993
 30
0.0
 11
440.71665810266882
 21
427.34641374467981
 31
0.0
  0
LINE
  5
6831
  8
0
 10
441.88310610266882
 20
446.23543974467981
 30
0.0
 11
440.65038910266878
 21
433.26477874467992
 31
0.0
  0
LINE
  5
6832
  8
0
 10
441.79202510266879
 20
423.04928674467959
 30
0.0
 11
440.71999210266881
 21
414.1687087446798
 31
0.0
  0
LINE
  5
6833
  8
0
 10
440.5602331026688
 20
484.0248947446799
 30
0.0
 11
440.5602331026688
 21
482.42489474467988
 31
0.0
  0
LINE
  5
6834
  8
0
 10
440.5602331026688
 20
484.0248947446799
 30
0.0
 11
442.32023310266879
 21
484.51489474467968
 31
0.0
  0
LINE
  5
6835
  8
0
 10
442.32023310266879
 20
484.51489474467968
 30
0.0
 11
442.32023310266879
 21
481.87489474467981
 31
0.0
  0
LINE
  5
6836
  8
0
 10
442.32023310266879
 20
481.87489474467981
 30
0.0
 11
440.5602331026688
 21
482.42489474467988
 31
0.0
  0
LINE
  5
6837
  8
0
 10
440.5602331026688
 20
539.02489474467984
 30
0.0
 11
440.5602331026688
 21
537.42489474467982
 31
0.0
  0
LINE
  5
6838
  8
0
 10
440.5602331026688
 20
539.02489474467984
 30
0.0
 11
442.32023310266879
 21
539.51489474467985
 31
0.0
  0
LINE
  5
6839
  8
0
 10
442.32023310266879
 20
539.51489474467985
 30
0.0
 11
442.32023310266879
 21
536.87489474467998
 31
0.0
  0
LINE
  5
683A
  8
0
 10
442.32023310266879
 20
536.87489474467998
 30
0.0
 11
440.5602331026688
 21
537.42489474467982
 31
0.0
  0
LINE
  5
683B
  8
0
 10
392.27710910266882
 20
536.87489474467998
 30
0.0
 11
392.27710910266882
 21
528.51489474467985
 31
0.0
  0
LINE
  5
683C
  8
0
 10
408.3202321026688
 20
536.87489474467998
 30
0.0
 11
408.3202321026688
 21
528.51489474467985
 31
0.0
  0
LINE
  5
683D
  8
0
 10
408.3202321026688
 20
525.87489474467975
 30
0.0
 11
408.3202321026688
 21
517.51489474467985
 31
0.0
  0
LINE
  5
683E
  8
0
 10
392.27710910266882
 20
525.87489474467975
 30
0.0
 11
392.27710910266882
 21
517.51489474467985
 31
0.0
  0
LINE
  5
683F
  8
0
 10
392.27710910266882
 20
514.87489474467975
 30
0.0
 11
392.27710910266882
 21
506.51489474467968
 31
0.0
  0
LINE
  5
6840
  8
0
 10
408.3202321026688
 20
514.87489474467975
 30
0.0
 11
408.3202321026688
 21
506.51489474467968
 31
0.0
  0
LINE
  5
6841
  8
0
 10
408.3202321026688
 20
503.87489474467981
 30
0.0
 11
408.3202321026688
 21
495.51489474467968
 31
0.0
  0
LINE
  5
6842
  8
0
 10
392.27710910266882
 20
503.87489474467981
 30
0.0
 11
392.27710910266882
 21
495.51489474467968
 31
0.0
  0
LINE
  5
6843
  8
0
 10
392.27710910266882
 20
492.87489474467981
 30
0.0
 11
392.27710910266882
 21
484.51489474467968
 31
0.0
  0
LINE
  5
6844
  8
0
 10
408.3202321026688
 20
492.87489474467981
 30
0.0
 11
408.3202321026688
 21
484.51489474467968
 31
0.0
  0
LINE
  5
6845
  8
0
 10
408.3202321026688
 20
481.87489474467981
 30
0.0
 11
408.3202321026688
 21
466.0864487446799
 31
0.0
  0
LINE
  5
6846
  8
0
 10
392.27710910266882
 20
481.87489474467981
 30
0.0
 11
392.27710910266882
 21
450.56982574467958
 31
0.0
  0
LINE
  5
6847
  8
0
 10
441.88310610266882
 20
446.23543974467981
 30
0.0
 11
408.3202321026688
 21
446.23543974467981
 31
0.0
  0
LINE
  5
6848
  8
0
 10
441.84193910266879
 20
438.82569774467993
 30
0.0
 11
441.17889310266878
 21
438.82569774467993
 31
0.0
  0
ARC
  5
6849
  8
0
 10
438.65936110266881
 20
433.45400374467988
 30
0.0
 40
2.0
 50
270.0
 51
354.57098099999791
  0
ARC
  5
684A
  8
0
 10
438.72619910266877
 20
427.5415327446799
 30
0.0
 40
2.0
 50
270.0
 51
354.40134700000101
  0
ARC
  5
684B
  8
0
 10
438.70317110266882
 20
422.10517974467967
 30
0.0
 40
2.0
 50
270.0
 51
353.96488600000038
  0
ARC
  5
684C
  8
0
 10
438.67742310266891
 20
418.11647474467981
 30
0.0
 40
2.0
 50
270.0
 51
353.61470099999991
  0
ARC
  5
684D
  8
0
 10
438.71381910266882
 20
415.5992317446798
 30
0.0
 40
2.0
 50
270.0
 51
353.32779999999809
  0
ARC
  5
684E
  8
0
 10
438.73440810266891
 20
414.40840174467968
 30
0.0
 40
2.0
 50
270.0
 51
353.11676000000148
  0
LINE
  5
684F
  8
0
 10
441.79099810266882
 20
432.28907774467967
 30
0.0
 11
441.2011731026688
 21
432.28907774467967
 31
0.0
  0
LINE
  5
6850
  8
0
 10
441.71997310266892
 20
427.32103474467988
 30
0.0
 11
441.26575810266883
 21
427.32103474467988
 31
0.0
  0
LINE
  5
6851
  8
0
 10
441.7319021026687
 20
424.18561474467992
 30
0.0
 11
441.36909410266878
 21
424.18561474467992
 31
0.0
  0
LINE
  5
6852
  8
0
 10
441.79202510266879
 20
423.04928674467959
 30
0.0
 11
441.59897310266882
 21
423.04928674467959
 31
0.0
  0
LINE
  5
6853
  8
0
 10
444.32023310266891
 20
470.97218874467961
 30
0.0
 11
427.82023310266891
 21
470.97218874467961
 31
0.0
  0
LINE
  5
6854
  8
0
 10
447.32023310266879
 20
460.79289674467981
 30
0.0
 11
429.82023310266879
 21
460.79289674467981
 31
0.0
  0
LINE
  5
6855
  8
0
 10
447.32023310266879
 20
448.50561574467969
 30
0.0
 11
429.82023310266879
 21
448.50561574467969
 31
0.0
  0
LINE
  5
6856
  8
0
 10
427.82023310266891
 20
469.97218874467973
 30
0.0
 11
427.82023310266891
 21
450.5056157446798
 31
0.0
  0
LINE
  5
6857
  8
0
 10
444.32023310266891
 20
470.97218874467961
 30
0.0
 11
447.32023310266879
 21
472.7042397446798
 31
0.0
  0
ARC
  5
6858
  8
0
 10
429.82023310266879
 20
462.79289674467981
 30
0.0
 40
2.0
 50
180.0
 51
270.0
  0
ARC
  5
6859
  8
0
 10
429.82023310266879
 20
450.5056157446798
 30
0.0
 40
2.0
 50
180.0
 51
270.0
  0
ARC
  5
685A
  8
0
 10
429.82023310266879
 20
458.79289674467981
 30
0.0
 40
2.0
 50
90.0
 51
180.0
  0
LINE
  5
685B
  8
0
 10
408.3202321026688
 20
454.67409874467961
 30
0.0
 11
408.3202321026688
 21
446.23543974467981
 31
0.0
  0
LINE
  5
685C
  8
0
 10
392.27710910266882
 20
450.56982574467958
 30
0.0
 11
408.3202321026688
 21
446.23543974467981
 31
0.0
  0
ARC
  5
685D
  8
0
 10
426.82023310266879
 20
469.97218874467973
 30
0.0
 40
1.0
 50
0.0
 51
90.0
  0
LINE
  5
685E
  8
0
 10
392.27710910266882
 20
450.56982574467958
 30
0.0
 11
340.32023310266891
 21
450.56982574467958
 31
0.0
  0
LINE
  5
685F
  8
0
 10
438.73440810266891
 20
412.40840174467968
 30
0.0
 11
246.8489661026689
 21
412.40840174467968
 31
0.0
  0
LINE
  5
6860
  8
0
 10
438.71381910266882
 20
413.59923174467968
 30
0.0
 11
246.8599061026689
 21
413.59923174467968
 31
0.0
  0
LINE
  5
6861
  8
0
 10
438.67742310266891
 20
416.11647474467981
 30
0.0
 11
246.8691701026689
 21
416.11647474467981
 31
0.0
  0
LINE
  5
6862
  8
0
 10
438.70317110266882
 20
420.10517974467967
 30
0.0
 11
246.88111910266889
 21
420.10517974467967
 31
0.0
  0
LINE
  5
6863
  8
0
 10
438.72619910266877
 20
425.54153274467961
 30
0.0
 11
246.898883102669
 21
425.54153274467961
 31
0.0
  0
LINE
  5
6864
  8
0
 10
438.65936110266881
 20
431.4540037446796
 30
0.0
 11
246.90455110266879
 21
431.4540037446796
 31
0.0
  0
LINE
  5
6865
  8
0
 10
392.27710910266882
 20
584.5323697446795
 30
0.0
 11
392.27710910266882
 21
570.55489474467947
 31
0.0
  0
LINE
  5
6866
  8
0
 10
408.3202321026688
 20
589.13223174467998
 30
0.0
 11
408.3202321026688
 21
586.54768174467961
 31
0.0
  0
LINE
  5
6867
  8
0
 10
385.21432910266878
 20
539.51489474467985
 30
0.0
 11
442.32023310266879
 21
539.51489474467985
 31
0.0
  0
LINE
  5
6868
  8
0
 10
385.21432910266878
 20
539.02489474467984
 30
0.0
 11
440.5602331026688
 21
539.02489474467984
 31
0.0
  0
LINE
  5
6869
  8
0
 10
385.21432910266878
 20
537.42489474467982
 30
0.0
 11
440.5602331026688
 21
537.42489474467982
 31
0.0
  0
LINE
  5
686A
  8
0
 10
385.21432910266878
 20
536.87489474467998
 30
0.0
 11
442.32023310266879
 21
536.87489474467998
 31
0.0
  0
LINE
  5
686B
  8
0
 10
385.21432910266878
 20
484.51489474467968
 30
0.0
 11
442.32023310266879
 21
484.51489474467968
 31
0.0
  0
LINE
  5
686C
  8
0
 10
385.21432910266878
 20
484.0248947446799
 30
0.0
 11
440.5602331026688
 21
484.0248947446799
 31
0.0
  0
LINE
  5
686D
  8
0
 10
385.21432910266878
 20
482.42489474467988
 30
0.0
 11
440.5602331026688
 21
482.42489474467988
 31
0.0
  0
LINE
  5
686E
  8
0
 10
385.21432910266878
 20
481.87489474467981
 30
0.0
 11
442.32023310266879
 21
481.87489474467981
 31
0.0
  0
LINE
  5
686F
  8
0
 10
385.21432910266878
 20
514.87489474467975
 30
0.0
 11
442.32023310266879
 21
514.87489474467975
 31
0.0
  0
LINE
  5
6870
  8
0
 10
385.21432910266878
 20
515.42489474467982
 30
0.0
 11
440.5602331026688
 21
515.42489474467982
 31
0.0
  0
LINE
  5
6871
  8
0
 10
385.21432910266878
 20
495.51489474467968
 30
0.0
 11
442.32023310266879
 21
495.51489474467968
 31
0.0
  0
LINE
  5
6872
  8
0
 10
385.21432910266878
 20
495.0248947446799
 30
0.0
 11
440.5602331026688
 21
495.0248947446799
 31
0.0
  0
LINE
  5
6873
  8
0
 10
385.21432910266878
 20
493.42489474467982
 30
0.0
 11
440.5602331026688
 21
493.42489474467982
 31
0.0
  0
LINE
  5
6874
  8
0
 10
385.21432910266878
 20
492.87489474467981
 30
0.0
 11
442.32023310266879
 21
492.87489474467981
 31
0.0
  0
LINE
  5
6875
  8
0
 10
385.21432910266878
 20
506.51489474467968
 30
0.0
 11
442.32023310266879
 21
506.51489474467968
 31
0.0
  0
LINE
  5
6876
  8
0
 10
385.21432910266878
 20
506.02489474467973
 30
0.0
 11
440.5602331026688
 21
506.02489474467973
 31
0.0
  0
LINE
  5
6877
  8
0
 10
385.21432910266878
 20
504.4248947446797
 30
0.0
 11
440.5602331026688
 21
504.4248947446797
 31
0.0
  0
LINE
  5
6878
  8
0
 10
385.21432910266878
 20
503.87489474467981
 30
0.0
 11
442.32023310266879
 21
503.87489474467981
 31
0.0
  0
LINE
  5
6879
  8
0
 10
385.21432910266878
 20
528.51489474467985
 30
0.0
 11
442.32023310266879
 21
528.51489474467985
 31
0.0
  0
LINE
  5
687A
  8
0
 10
385.21432910266878
 20
528.02489474467984
 30
0.0
 11
440.5602331026688
 21
528.02489474467984
 31
0.0
  0
LINE
  5
687B
  8
0
 10
385.21432910266878
 20
526.42489474467982
 30
0.0
 11
440.5602331026688
 21
526.42489474467982
 31
0.0
  0
LINE
  5
687C
  8
0
 10
385.21432910266878
 20
525.87489474467975
 30
0.0
 11
442.32023310266879
 21
525.87489474467975
 31
0.0
  0
LINE
  5
687D
  8
0
 10
385.21432910266878
 20
517.51489474467985
 30
0.0
 11
442.32023310266879
 21
517.51489474467985
 31
0.0
  0
LINE
  5
687E
  8
0
 10
385.21432910266878
 20
517.02489474467995
 30
0.0
 11
440.5602331026688
 21
517.02489474467995
 31
0.0
  0
LINE
  5
687F
  8
0
 10
444.32023310266891
 20
422.6948947446798
 30
0.0
 11
444.32023310266891
 21
448.50561574467969
 31
0.0
  0
LINE
  5
6880
  8
0
 10
441.74924410266891
 20
422.6948947446798
 30
0.0
 11
444.32023310266891
 21
422.6948947446798
 31
0.0
  0
LINE
  5
6881
  8
0
 10
442.32023310266879
 20
570.55489474467947
 30
0.0
 11
440.5602331026688
 21
569.99489474467975
 31
0.0
  0
LINE
  5
6882
  8
0
 10
440.5602331026688
 20
568.39489474468007
 30
0.0
 11
442.32023310266879
 21
567.85489474467965
 31
0.0
  0
LINE
  5
6883
  8
0
 10
442.32023310266879
 20
567.85489474467965
 30
0.0
 11
442.32023310266879
 21
570.55489474467947
 31
0.0
  0
LINE
  5
6884
  8
0
 10
440.5602331026688
 20
568.39489474468007
 30
0.0
 11
440.5602331026688
 21
569.99489474467975
 31
0.0
  0
LINE
  5
6885
  8
0
 10
442.32023310266879
 20
562.50989474467974
 30
0.0
 11
440.5602331026688
 21
561.96989474467966
 31
0.0
  0
LINE
  5
6886
  8
0
 10
440.5602331026688
 20
560.36989474467975
 30
0.0
 11
442.32023310266879
 21
559.87989474467975
 31
0.0
  0
LINE
  5
6887
  8
0
 10
440.5602331026688
 20
560.36989474467975
 30
0.0
 11
440.5602331026688
 21
561.96989474467966
 31
0.0
  0
LINE
  5
6888
  8
0
 10
442.32023310266879
 20
559.87989474467975
 30
0.0
 11
442.32023310266879
 21
562.50989474467974
 31
0.0
  0
LINE
  5
6889
  8
0
 10
377.32023310266891
 20
570.81908174467992
 30
0.0
 11
375.69832410266889
 21
587.88482474467992
 31
0.0
  0
LINE
  5
688A
  8
0
 10
377.32023310266891
 20
577.36001774467991
 30
0.0
 11
375.6997101026688
 21
593.89138574467961
 31
0.0
  0
LINE
  5
688B
  8
0
 10
244.58491210266891
 20
584.5323697446795
 30
0.0
 11
243.32023310266891
 21
584.5323697446795
 31
0.0
  0
LINE
  5
688C
  8
0
 10
243.32023310266891
 20
570.55489474467947
 30
0.0
 11
245.0802331026689
 21
569.99489474467975
 31
0.0
  0
LINE
  5
688D
  8
0
 10
245.0802331026689
 20
568.39489474468007
 30
0.0
 11
243.32023310266891
 21
567.85489474467965
 31
0.0
  0
LINE
  5
688E
  8
0
 10
243.32023310266891
 20
562.50989474467974
 30
0.0
 11
245.0802331026689
 21
561.96989474467966
 31
0.0
  0
LINE
  5
688F
  8
0
 10
245.0802331026689
 20
560.36989474467975
 30
0.0
 11
243.32023310266891
 21
559.87989474467975
 31
0.0
  0
LINE
  5
6890
  8
0
 10
243.32023310266891
 20
567.85489474467965
 30
0.0
 11
243.32023310266891
 21
570.55489474467947
 31
0.0
  0
LINE
  5
6891
  8
0
 10
245.0802331026689
 20
568.39489474468007
 30
0.0
 11
245.0802331026689
 21
569.99489474467975
 31
0.0
  0
LINE
  5
6892
  8
0
 10
245.0802331026689
 20
560.36989474467975
 30
0.0
 11
245.0802331026689
 21
561.96989474467966
 31
0.0
  0
LINE
  5
6893
  8
0
 10
243.32023310266891
 20
559.87989474467975
 30
0.0
 11
243.32023310266891
 21
562.50989474467974
 31
0.0
  0
LINE
  5
6894
  8
0
 10
243.32023310266891
 20
549.41432974467955
 30
0.0
 11
296.48908210266887
 21
549.41432974467955
 31
0.0
  0
LINE
  5
6895
  8
0
 10
251.69023310266891
 20
548.56255674467991
 30
0.0
 11
295.80911910266889
 21
548.56255674467991
 31
0.0
  0
LINE
  5
6896
  8
0
 10
243.32023310266891
 20
549.41432974467955
 30
0.0
 11
251.69023310266891
 21
548.56255674467991
 31
0.0
  0
LINE
  5
6897
  8
0
 10
249.99533910266879
 20
471.9754597446796
 30
0.0
 11
296.48907910266888
 21
471.9754597446796
 31
0.0
  0
LINE
  5
6898
  8
0
 10
251.69023310266891
 20
472.82723274467992
 30
0.0
 11
295.8091161026689
 21
472.82723274467992
 31
0.0
  0
LINE
  5
6899
  8
0
 10
243.32023310266891
 20
476.33610574467991
 30
0.0
 11
243.32023310266891
 21
549.41432974467955
 31
0.0
  0
LINE
  5
689A
  8
0
 10
248.78340910266891
 20
472.53141974467968
 30
0.0
 11
251.69023310266891
 21
472.82723274467992
 31
0.0
  0
LINE
  5
689B
  8
0
 10
251.69023310266891
 20
472.82723274467992
 30
0.0
 11
251.69023310266891
 21
548.56255674467991
 31
0.0
  0
LINE
  5
689C
  8
0
 10
239.82023310266891
 20
594.31519174467962
 30
0.0
 11
243.59699210266891
 21
594.31519174467962
 31
0.0
  0
LINE
  5
689D
  8
0
 10
329.32023310266891
 20
611.69489474467991
 30
0.0
 11
351.32023310266879
 21
611.69489474467991
 31
0.0
  0
LINE
  5
689E
  8
0
 10
329.32023310266891
 20
611.69489474467991
 30
0.0
 11
329.32023310266891
 21
607.79161374467969
 31
0.0
  0
LINE
  5
689F
  8
0
 10
351.32023310266879
 20
611.69489474467991
 30
0.0
 11
351.32023310266879
 21
607.79161374467969
 31
0.0
  0
LINE
  5
68A0
  8
0
 10
245.0802331026689
 20
568.39489474468007
 30
0.0
 11
440.5602331026688
 21
568.39489474468007
 31
0.0
  0
LINE
  5
68A1
  8
0
 10
245.0802331026689
 20
569.99489474467975
 30
0.0
 11
440.5602331026688
 21
569.99489474467975
 31
0.0
  0
LINE
  5
68A2
  8
0
 10
243.32023310266891
 20
567.85489474467965
 30
0.0
 11
442.32023310266879
 21
567.85489474467965
 31
0.0
  0
LINE
  5
68A3
  8
0
 10
243.32023310266891
 20
570.55489474467947
 30
0.0
 11
442.32023310266879
 21
570.55489474467947
 31
0.0
  0
LINE
  5
68A4
  8
0
 10
243.32023310266891
 20
559.87989474467975
 30
0.0
 11
442.32023310266879
 21
559.87989474467975
 31
0.0
  0
LINE
  5
68A5
  8
0
 10
243.32023310266891
 20
562.50989474467974
 30
0.0
 11
442.32023310266879
 21
562.50989474467974
 31
0.0
  0
LINE
  5
68A6
  8
0
 10
245.0802331026689
 20
560.36989474467975
 30
0.0
 11
440.5602331026688
 21
560.36989474467975
 31
0.0
  0
LINE
  5
68A7
  8
0
 10
245.0802331026689
 20
561.96989474467966
 30
0.0
 11
440.5602331026688
 21
561.96989474467966
 31
0.0
  0
LINE
  5
68A8
  8
0
 10
447.32023310266879
 20
425.69489474467969
 30
0.0
 11
444.32023310266891
 21
422.6948947446798
 31
0.0
  0
LINE
  5
68A9
  8
0
 10
447.32023310266879
 20
425.69489474467969
 30
0.0
 11
447.32023310266879
 21
595.69489474467969
 31
0.0
  0
LINE
  5
68AA
  8
0
 10
447.32023310266879
 20
595.69489474467969
 30
0.0
 11
444.32023310266891
 21
598.69489474467991
 31
0.0
  0
LINE
  5
6C19
  8
0
 10
168.82023310266891
 20
409.4948947446797
 30
0.0
 11
239.82023310266891
 21
409.4948947446797
 31
0.0
  0
LINE
  5
7272
  8
0
  6
AM_ISO08W050
 10
144.29516950721441
 20
807.4744588366716
 30
0.0
 11
691.73307310266875
 21
807.4744588366716
 31
0.0
  0
LINE
  5
7273
  8
0
  6
CONTINUOUS
 10
460.82020310266881
 20
892.97447383667054
 30
0.0
 11
460.82020310266893
 21
914.08474883667145
 31
0.0
  0
LINE
  5
7274
  8
0
  6
CONTINUOUS
 10
621.82026310266917
 20
876.47445883667103
 30
0.0
 11
621.82026310266917
 21
914.87520883667139
 31
0.0
  0
LINE
  5
7275
  8
0
  6
CONTINUOUS
 10
508.8202031026691
 20
707.97448883667141
 30
0.0
 11
508.8202031026691
 21
804.25743383667145
 31
0.0
  0
LINE
  5
7276
  8
0
  6
CONTINUOUS
 10
464.47163310266887
 20
918.06954883667163
 30
0.0
 11
514.82026310266883
 21
922.47451883667145
 31
0.0
  0
LINE
  5
7277
  8
0
 10
478.8202031026691
 20
888.97445883667103
 30
0.0
 11
478.8202031026691
 21
915.97445883667172
 31
0.0
  0
LINE
  5
7278
  8
0
  6
CONTINUOUS
 10
614.82026310266872
 20
746.37111883667149
 30
0.0
 11
614.82026310266872
 21
868.57784883667159
 31
0.0
  0
LINE
  5
7279
  8
0
  6
CENTER
 10
603.8202631026686
 20
888.97445883667103
 30
0.0
 11
603.8202631026686
 21
915.97445883667172
 31
0.0
  0
LINE
  5
727A
  8
0
  6
CENTER
 10
465.32020310266881
 20
902.47445883667149
 30
0.0
 11
492.3202031026691
 21
902.47445883667149
 31
0.0
  0
LINE
  5
727B
  8
0
  6
CENTER
 10
590.32026310266872
 20
902.47445883667149
 30
0.0
 11
617.32026310266872
 21
902.47445883667149
 31
0.0
  0
LINE
  5
727C
  8
0
  6
CONTINUOUS
 10
514.82026310266883
 20
922.47445883667115
 30
0.0
 11
617.9598531026686
 21
918.87276883667164
 31
0.0
  0
LINE
  5
727E
  8
0
  6
CONTINUOUS
 10
500.08174310266878
 20
915.16213883667172
 30
0.0
 11
508.47163310266882
 21
915.89614883667116
 31
0.0
  0
LINE
  5
7280
  8
0
  6
CONTINUOUS
 10
514.82020310266887
 20
692.4744888366713
 30
0.0
 11
617.9598531026686
 21
696.07619883667178
 31
0.0
  0
LINE
  5
7281
  8
0
  6
CENTER
 10
590.32026310266872
 20
712.47448883667141
 30
0.0
 11
617.32026310266872
 21
712.47448883667141
 31
0.0
  0
LINE
  5
7282
  8
0
  6
CENTER
 10
465.32020310266881
 20
712.47448883667141
 30
0.0
 11
492.3202031026691
 21
712.47448883667141
 31
0.0
  0
LINE
  5
7283
  8
0
  6
CENTER
 10
603.8202631026686
 20
725.9744888366713
 30
0.0
 11
603.8202631026686
 21
698.97448883667141
 31
0.0
  0
LINE
  5
7284
  8
0
  6
CENTER
 10
478.8202031026691
 20
725.9744888366713
 30
0.0
 11
478.8202031026691
 21
698.97448883667141
 31
0.0
  0
LINE
  5
7285
  8
0
  6
CONTINUOUS
 10
464.47163310266887
 20
696.87938883667141
 30
0.0
 11
514.82026310266883
 21
692.4744888366713
 31
0.0
  0
LINE
  5
7286
  8
0
  6
CONTINUOUS
 10
621.82026310266917
 20
738.4744888366713
 30
0.0
 11
621.82026310266917
 21
700.07375883667135
 31
0.0
  0
LINE
  5
7287
  8
0
  6
CONTINUOUS
 10
460.82020310266893
 20
721.97447383667145
 30
0.0
 11
460.82020310266893
 21
700.86419883667179
 31
0.0
  0
LINE
  5
7288
  8
0
  6
CONTINUOUS
 10
683.82023310266868
 20
823.4744588366716
 30
0.0
 11
625.82026310266872
 21
823.4744588366716
 31
0.0
  0
LINE
  5
7289
  8
0
  6
CONTINUOUS
 10
498.82020310266881
 20
742.40227883667137
 30
0.0
 11
498.82020310266881
 21
795.44921383667145
 31
0.0
  0
LINE
  5
728A
  8
0
  6
CONTINUOUS
 10
616.32023310266868
 20
839.64992883667082
 30
0.0
 11
620.32020310266876
 21
837.34054883667136
 31
0.0
  0
LINE
  5
728B
  8
0
  6
CONTINUOUS
 10
616.3202031026691
 20
775.29909883667165
 30
0.0
 11
620.32020310266876
 21
777.60848883667143
 31
0.0
  0
LINE
  5
728C
  8
0
  6
CONTINUOUS
 10
621.82023310266902
 20
780.20656883667141
 30
0.0
 11
621.82023310266902
 21
807.4744588366716
 31
0.0
  0
LINE
  5
728D
  8
0
  6
CONTINUOUS
 10
621.82023310266902
 20
807.4744588366716
 30
0.0
 11
621.82023310266902
 21
834.74245883667174
 31
0.0
  0
LINE
  5
728E
  8
0
  6
CONTINUOUS
 10
625.82026310266872
 20
824.97451883667145
 30
0.0
 11
621.82023310266902
 21
824.97451883667145
 31
0.0
  0
LINE
  5
728F
  8
0
  6
CONTINUOUS
 10
683.82023310266868
 20
791.47451883667145
 30
0.0
 11
683.82023310266868
 21
823.4744588366716
 31
0.0
  0
LINE
  5
7290
  8
0
  6
CONTINUOUS
 10
625.82026310266872
 20
789.97451883667145
 30
0.0
 11
625.82026310266872
 21
824.97451883667145
 31
0.0
  0
LINE
  5
7291
  8
0
  6
CONTINUOUS
 10
638.82026310266872
 20
802.47451883667145
 30
0.0
 11
638.82026310266872
 21
812.4744588366716
 31
0.0
  0
LINE
  5
7292
  8
0
  6
CONTINUOUS
 10
683.82023310266868
 20
791.47451883667145
 30
0.0
 11
625.82026310266872
 21
791.47451883667145
 31
0.0
  0
LINE
  5
7293
  8
0
  6
CONTINUOUS
 10
625.82026310266872
 20
789.97451883667145
 30
0.0
 11
621.82023310266902
 21
789.97451883667145
 31
0.0
  0
LINE
  5
7294
  8
0
  6
CONTINUOUS
 10
638.82023310266902
 20
802.47451883667145
 30
0.0
 11
683.82023310266868
 21
802.47451883667145
 31
0.0
  0
LINE
  5
7295
  8
0
  6
CONTINUOUS
 10
638.82023310266902
 20
812.4744588366716
 30
0.0
 11
683.82023310266868
 21
812.4744588366716
 31
0.0
  0
LINE
  5
7296
  8
0
  6
CONTINUOUS
 10
610.92494310266886
 20
872.57650883667134
 30
0.0
 11
601.06306310266848
 21
872.83474883667145
 31
0.0
  0
LINE
  5
7297
  8
0
  6
CONTINUOUS
 10
610.92497310266901
 20
742.37249883667141
 30
0.0
 11
601.06306310266848
 21
742.11425883667141
 31
0.0
  0
LINE
  5
7298
  8
0
  6
CONTINUOUS
 10
593.82026310266872
 20
738.26772883667138
 30
0.0
 11
593.82026310266872
 21
876.68123883667135
 31
0.0
  0
LINE
  5
7299
  8
0
  6
CONTINUOUS
 10
573.82023310266879
 20
702.81905883667127
 30
0.0
 11
573.82023310266879
 21
718.26089883667134
 31
0.0
  0
LINE
  5
729A
  8
0
  6
CONTINUOUS
 10
586.02967310266877
 20
884.67849883667145
 30
0.0
 11
585.50611310266879
 21
884.69222883667123
 31
0.0
  0
LINE
  5
729B
  8
0
  6
CONTINUOUS
 10
586.02967310266877
 20
730.2704788366716
 30
0.0
 11
585.50611310266879
 21
730.25677883667129
 31
0.0
  0
LINE
  5
729C
  8
0
  6
CONTINUOUS
 10
573.82023310266879
 20
896.68807883667125
 30
0.0
 11
573.82023310266879
 21
912.12990883667135
 31
0.0
  0
LINE
  5
729D
  8
0
  6
CONTINUOUS
 10
508.8202031026691
 20
707.97448883667141
 30
0.0
 11
512.8202031026691
 21
707.97448883667141
 31
0.0
  0
LINE
  5
729E
  8
0
  6
CONTINUOUS
 10
508.8202031026691
 20
906.97445883667149
 30
0.0
 11
512.8202031026691
 21
906.97445883667149
 31
0.0
  0
LINE
  5
729F
  8
0
  6
CONTINUOUS
 10
512.8202031026691
 20
906.97445883667149
 30
0.0
 11
512.8202031026691
 21
916.84298883667145
 31
0.0
  0
LINE
  5
72A0
  8
0
  6
CONTINUOUS
 10
500.08174310266878
 20
699.78683883667145
 30
0.0
 11
508.47169310266878
 21
699.05282883667144
 31
0.0
  0
LINE
  5
72A1
  8
0
  6
CONTINUOUS
 10
512.8202031026691
 20
707.97448883667141
 30
0.0
 11
512.8202031026691
 21
698.10598883667149
 31
0.0
  0
LINE
  5
72A2
  8
0
  6
CONTINUOUS
 10
501.71553310266921
 20
708.22259883667141
 30
0.0
 11
508.82014310266862
 21
707.97448883667141
 31
0.0
  0
LINE
  5
72A3
  8
0
  6
CONTINUOUS
 10
508.8202031026691
 20
712.68429883667159
 30
0.0
 11
498.82020310266881
 21
712.68429883667159
 31
0.0
  0
LINE
  5
72A4
  8
0
  6
CONTINUOUS
 10
508.8202031026691
 20
730.0577088366714
 30
0.0
 11
486.82020310266881
 21
730.0577088366714
 31
0.0
  0
LINE
  5
72A5
  8
0
  6
CONTINUOUS
 10
508.8202031026691
 20
777.19805883667141
 30
0.0
 11
498.82020310266881
 21
777.19805883667141
 31
0.0
  0
LINE
  5
72A6
  8
0
  6
CONTINUOUS
 10
508.8202031026691
 20
837.75094883667145
 30
0.0
 11
498.82020310266881
 21
837.75094883667145
 31
0.0
  0
LINE
  5
72A7
  8
0
  6
CONTINUOUS
 10
508.8202031026691
 20
884.89126883667166
 30
0.0
 11
486.82020310266881
 21
884.89126883667166
 31
0.0
  0
LINE
  5
72AE
  8
0
  6
CONTINUOUS
 10
486.82020310266881
 20
716.55337883667141
 30
0.0
 11
486.82020310266881
 21
898.39559883667164
 31
0.0
  0
LINE
  5
72AF
  8
0
  6
CONTINUOUS
 10
486.82020310266881
 20
739.40227883667137
 30
0.0
 11
495.8202031026691
 21
739.40227883667137
 31
0.0
  0
LINE
  5
72B0
  8
0
  6
CONTINUOUS
 10
486.82020310266881
 20
750.15691883667148
 30
0.0
 11
498.82020310266881
 21
750.15691883667148
 31
0.0
  0
LINE
  5
72B1
  8
0
  6
CONTINUOUS
 10
486.82020310266881
 20
875.54671883667174
 30
0.0
 11
495.8202031026691
 21
875.54671883667174
 31
0.0
  0
LINE
  5
72B2
  8
0
  6
CONTINUOUS
 10
486.82020310266881
 20
864.79207883667164
 30
0.0
 11
498.82020310266881
 21
864.79207883667164
 31
0.0
  0
LINE
  5
72B3
  8
0
  6
CONTINUOUS
 10
489.82020310266893
 20
724.58446883667136
 30
0.0
 11
495.8202031026691
 21
724.58446883667136
 31
0.0
  0
LINE
  5
72B4
  8
0
  6
CONTINUOUS
 10
498.82020310266881
 20
711.22075883667139
 30
0.0
 11
498.82020310266881
 21
721.58446883667148
 31
0.0
  0
LINE
  5
72B5
  8
0
  6
CONTINUOUS
 10
489.82020310266893
 20
713.55337883667141
 30
0.0
 11
495.85743310266889
 21
713.55337883667141
 31
0.0
  0
LINE
  5
72B6
  8
0
  6
CONTINUOUS
 10
489.82020310266893
 20
901.39559883667152
 30
0.0
 11
495.85743310266889
 21
901.39559883667152
 31
0.0
  0
LINE
  5
72B7
  8
0
  6
CONTINUOUS
 10
498.82020310266881
 20
903.72823883667149
 30
0.0
 11
498.82020310266881
 21
893.36452883667175
 31
0.0
  0
LINE
  5
72B8
  8
0
  6
CONTINUOUS
 10
489.82020310266893
 20
890.36452883667164
 30
0.0
 11
495.8202031026691
 21
890.36452883667164
 31
0.0
  0
LINE
  5
72B9
  8
0
  6
CONTINUOUS
 10
501.71553310266921
 20
906.72640883667145
 30
0.0
 11
508.8202031026691
 21
906.97445883667149
 31
0.0
  0
LINE
  5
72BA
  8
0
  6
CONTINUOUS
 10
508.8202031026691
 20
902.26467883667135
 30
0.0
 11
498.82020310266881
 21
902.26467883667135
 31
0.0
  0
LINE
  5
72BB
  8
0
  6
CONTINUOUS
 10
447.3203231026701
 20
733.97448883667141
 30
0.0
 11
447.3203231026701
 21
880.97445883667103
 31
0.0
  0
ARC
  5
72BC
  8
0
  6
CONTINUOUS
 10
617.82026310266872
 20
914.87520883667139
 30
0.0
 40
4.0
 50
0.0
 51
87.999999999996248
  0
CIRCLE
  5
72BD
  8
0
  6
CONTINUOUS
 10
478.8202031026691
 20
902.47445883667149
 30
0.0
 40
7.5
  0
CIRCLE
  5
72BE
  8
0
  6
CONTINUOUS
 10
603.8202631026686
 20
902.47445883667149
 30
0.0
 40
7.5
  0
ARC
  5
72BF
  8
0
  6
CONTINUOUS
 10
464.82020310266893
 20
914.08474883667145
 30
0.0
 40
4.0
 50
95.00000199999208
 51
180.00001000000091
  0
ARC
  5
72C0
  8
0
  6
CONTINUOUS
 10
618.82026310266872
 20
868.53719883667145
 30
0.0
 40
4.0
 50
97.180758000007273
 51
180.00001000000091
  0
ARC
  5
72C1
  8
0
  6
CONTINUOUS
 10
617.82026310266872
 20
876.47445883667103
 30
0.0
 40
4.0
 50
277.18075000000363
 51
0.0
  0
ARC
  5
72C3
  8
0
  6
CONTINUOUS
 10
499.8202031026691
 20
918.15072883667165
 30
0.0
 40
3.0
 50
95.00000199999208
 51
275.0
  0
ARC
  5
72C4
  8
0
  6
CONTINUOUS
 10
508.8202031026691
 20
911.91134883667155
 30
0.0
 40
4.0
 50
0.0
 51
95.00000199999208
  0
ARC
  5
72C6
  8
0
  6
CONTINUOUS
 10
617.82026310266872
 20
738.4744888366713
 30
0.0
 40
4.0
 50
0.0
 51
82.819246999996963
  0
ARC
  5
72C7
  8
0
  6
CONTINUOUS
 10
618.82026310266872
 20
746.41173883667136
 30
0.0
 40
4.0
 50
180.00001000000091
 51
262.81924999999637
  0
ARC
  5
72C8
  8
0
  6
CONTINUOUS
 10
464.82020310266893
 20
700.86419883667179
 30
0.0
 40
4.0
 50
180.00001000000091
 51
265.00001000000037
  0
CIRCLE
  5
72C9
  8
0
  6
CONTINUOUS
 10
603.8202631026686
 20
712.47448883667141
 30
0.0
 40
7.5
  0
CIRCLE
  5
72CA
  8
0
  6
CONTINUOUS
 10
478.8202031026691
 20
712.47448883667141
 30
0.0
 40
7.5
  0
ARC
  5
72CB
  8
0
  6
CONTINUOUS
 10
617.82026310266872
 20
700.07375883667135
 30
0.0
 40
4.0
 50
272.00000000000369
 51
0.0
  0
ARC
  5
72CC
  8
0
  6
CONTINUOUS
 10
618.82023310266879
 20
780.20656883667141
 30
0.0
 40
3.0
 50
300.00001000000651
 51
0.0
  0
ARC
  5
72CD
  8
0
  6
CONTINUOUS
 10
618.82023310266879
 20
834.74245883667174
 30
0.0
 40
3.0
 50
0.0
 51
60.000002000001302
  0
ARC
  5
72CE
  8
0
  6
CONTINUOUS
 10
617.82026310266872
 20
842.24801883667192
 30
0.0
 40
3.0
 50
179.999989999999
 51
240.0000100000085
  0
ARC
  5
72CF
  8
0
  6
CONTINUOUS
 10
617.82026310266872
 20
772.70101883667144
 30
0.0
 40
3.0
 50
120.0000000000005
 51
180.00001000000091
  0
ARC
  5
72D0
  8
0
  6
CONTINUOUS
 10
638.82023310266902
 20
807.4744588366716
 30
0.0
 40
4.9999924
 50
90.00000299999769
 51
270.0
  0
ARC
  5
72D1
  8
0
  6
CONTINUOUS
 10
610.82026310266872
 20
746.37111883667149
 30
0.0
 40
4.0
 50
271.50000000000267
 51
0.0
  0
ARC
  5
72D2
  8
0
  6
CONTINUOUS
 10
610.82026310266872
 20
868.57784883667159
 30
0.0
 40
4.0
 50
0.0
 51
88.499997000000647
  0
ARC
  5
72D3
  8
0
  6
CONTINUOUS
 10
585.82026310266872
 20
876.68123883667135
 30
0.0
 40
8.0
 50
0.0
 51
88.499997000000647
  0
ARC
  5
72D4
  8
0
  6
CONTINUOUS
 10
585.82026310266872
 20
738.26772883667138
 30
0.0
 40
8.0
 50
271.50000000000267
 51
0.0
  0
ARC
  5
72D5
  8
0
  6
CONTINUOUS
 10
601.2724731026691
 20
734.11696883667162
 30
0.0
 40
8.0
 50
91.500001000001546
 51
164.96420000000299
  0
ARC
  5
72D6
  8
0
  6
CONTINUOUS
 10
601.2724731026691
 20
880.83199883667146
 30
0.0
 40
8.0
 50
195.0357999999969
 51
268.49999999999733
  0
ARC
  5
72D7
  8
0
  6
CONTINUOUS
 10
585.82023310266879
 20
896.68807883667125
 30
0.0
 40
12.0
 50
180.00001000000091
 51
268.49999999999733
  0
ARC
  5
72D8
  8
0
  6
CONTINUOUS
 10
585.82023310266879
 20
718.26089883667134
 30
0.0
 40
12.0
 50
91.500001000001546
 51
180.00001000000091
  0
ARC
  5
72D9
  8
0
  6
CONTINUOUS
 10
581.82023310266879
 20
912.12990883667135
 30
0.0
 40
8.0
 50
87.999999999996248
 51
180.00001000000091
  0
ARC
  5
72DA
  8
0
  6
CONTINUOUS
 10
581.82023310266879
 20
702.81905883667127
 30
0.0
 40
8.0
 50
180.00001000000091
 51
271.99999000000798
  0
ARC
  5
72DB
  8
0
  6
CONTINUOUS
 10
508.8202031026691
 20
703.03762883667162
 30
0.0
 40
4.0
 50
265.00001000000037
 51
0.0000006832429909
  0
ARC
  5
72DC
  8
0
  6
CONTINUOUS
 10
499.8202031026691
 20
696.79827883667156
 30
0.0
 40
3.0
 50
85.000003999997659
 51
264.99999999999989
  0
ARC
  5
72DD
  8
0
  6
CONTINUOUS
 10
507.8202031026687
 20
916.84298883667145
 30
0.0
 40
5.0
 50
0.0
 51
95.00000199999208
  0
ARC
  5
72DE
  8
0
  6
CONTINUOUS
 10
507.8202031026687
 20
698.10598883667149
 30
0.0
 40
5.0
 50
265.00001000000037
 51
0.0000006832429909
  0
ARC
  5
72E1
  8
0
  6
CONTINUOUS
 10
495.8202031026691
 20
742.40227883667137
 30
0.0
 40
3.0
 50
270.0
 51
0.0
  0
ARC
  5
72E2
  8
0
  6
CONTINUOUS
 10
495.8202031026691
 20
872.54671883667163
 30
0.0
 40
3.0
 50
0.0
 51
90.00000299999769
  0
ARC
  5
72E3
  8
0
  6
CONTINUOUS
 10
495.8202031026691
 20
721.58446883667148
 30
0.0
 40
3.0
 50
0.0
 51
90.00000299999769
  0
ARC
  5
72E4
  8
0
  6
CONTINUOUS
 10
501.8202031026691
 20
711.22075883667139
 30
0.0
 40
3.0
 50
180.00001000000091
 51
267.99999999999608
  0
ARC
  5
72E5
  8
0
  6
CONTINUOUS
 10
489.82020310266893
 20
727.58446883667136
 30
0.0
 40
3.0
 50
180.00001000000091
 51
270.0
  0
ARC
  5
72E6
  8
0
  6
CONTINUOUS
 10
489.82020310266893
 20
716.55337883667141
 30
0.0
 40
3.0
 50
180.00001000000091
 51
270.0
  0
ARC
  5
72E7
  8
0
  6
CONTINUOUS
 10
495.85743310266889
 20
710.55337883667141
 30
0.0
 40
3.0
 50
6.3862994000029252
 51
90.00000299999769
  0
ARC
  5
72E8
  8
0
  6
CONTINUOUS
 10
495.85743310266889
 20
904.39559883667164
 30
0.0
 40
3.0
 50
270.0
 51
353.61370000000329
  0
ARC
  5
72E9
  8
0
  6
CONTINUOUS
 10
489.82020310266893
 20
887.36452883667164
 30
0.0
 40
3.0
 50
90.00000299999769
 51
180.00001000000091
  0
ARC
  5
72EA
  8
0
  6
CONTINUOUS
 10
501.8202031026691
 20
903.72823883667149
 30
0.0
 40
3.0
 50
91.999997999994051
 51
180.00001000000091
  0
ARC
  5
72EB
  8
0
  6
CONTINUOUS
 10
495.8202031026691
 20
893.36452883667175
 30
0.0
 40
3.0
 50
270.0
 51
0.0
  0
ARC
  5
72EC
  8
0
  6
CONTINUOUS
 10
489.82020310266893
 20
898.39559883667164
 30
0.0
 40
3.0
 50
90.00000299999769
 51
180.00001000000091
  0
POLYLINE
  5
72ED
  8
0
  6
CONTINUOUS
 66
     1
 10
0.0
 20
0.0
 30
0.0
  0
VERTEX
  5
72EE
  8
0
  6
CONTINUOUS
 10
508.8202031026691
 20
777.19805883667141
 30
0.0
 42
-0.07005559
  0
VERTEX
  5
72EF
  8
0
  6
CONTINUOUS
 10
535.18085310266883
 20
757.00071883667135
 30
0.0
 42
-0.27110578
  0
VERTEX
  5
72F0
  8
0
  6
CONTINUOUS
 10
543.82020310266887
 20
737.11736883667163
 30
0.0
 42
-0.21303172
  0
VERTEX
  5
72F1
  8
0
  6
CONTINUOUS
 10
524.22976310266915
 20
718.9825588366715
 30
0.0
  0
VERTEX
  5
72F2
  8
0
  6
CONTINUOUS
 10
508.8202031026691
 20
712.68429883667159
 30
0.0
 42
-1.0
  0
SEQEND
  5
72F3
  8
0
  0
POLYLINE
  5
72F4
  8
0
  6
CONTINUOUS
 66
     1
 10
0.0
 20
0.0
 30
0.0
  0
VERTEX
  5
72F5
  8
0
  6
CONTINUOUS
 10
508.8202031026691
 20
730.0577088366714
 30
0.0
 42
0.040442906
  0
VERTEX
  5
72F6
  8
0
  6
CONTINUOUS
 10
520.34838310266878
 20
730.28104883667163
 30
0.0
 42
0.04246993
  0
VERTEX
  5
72F7
  8
0
  6
CONTINUOUS
 10
531.68208310266891
 20
732.39453883667136
 30
0.0
 42
0.022672732
  0
VERTEX
  5
72F8
  8
0
  6
CONTINUOUS
 10
537.16657310266885
 20
734.18547883667145
 30
0.0
  0
VERTEX
  5
72F9
  8
0
  6
CONTINUOUS
 10
542.47218310266896
 20
736.45433883667147
 30
0.0
 42
-1.0
  0
SEQEND
  5
72FA
  8
0
  0
POLYLINE
  5
72FB
  8
0
  6
CONTINUOUS
 66
     1
 10
0.0
 20
0.0
 30
0.0
  0
VERTEX
  5
72FC
  8
0
  6
CONTINUOUS
 10
508.8202031026691
 20
884.89126883667166
 30
0.0
 42
-0.040442893
  0
VERTEX
  5
72FD
  8
0
  6
CONTINUOUS
 10
520.34837310266914
 20
884.66791883667145
 30
0.0
 42
-0.042469915
  0
VERTEX
  5
72FE
  8
0
  6
CONTINUOUS
 10
531.68208310266891
 20
882.55443883667147
 30
0.0
 42
-0.022671767
  0
VERTEX
  5
72FF
  8
0
  6
CONTINUOUS
 10
537.16656310266876
 20
880.76349883667137
 30
0.0
  0
VERTEX
  5
7300
  8
0
  6
CONTINUOUS
 10
542.47218310266896
 20
878.49466883667162
 30
0.0
 42
-1.0
  0
SEQEND
  5
7301
  8
0
  0
POLYLINE
  5
7302
  8
0
  6
CONTINUOUS
 66
     1
 10
0.0
 20
0.0
 30
0.0
  0
VERTEX
  5
7303
  8
0
  6
CONTINUOUS
 10
508.8202031026691
 20
837.75094883667145
 30
0.0
 42
0.070055572
  0
VERTEX
  5
7304
  8
0
  6
CONTINUOUS
 10
535.18085310266883
 20
857.94827883667165
 30
0.0
 42
0.27110574
  0
VERTEX
  5
7305
  8
0
  6
CONTINUOUS
 10
543.82020310266887
 20
877.83162883667103
 30
0.0
 42
0.21303201
  0
VERTEX
  5
7306
  8
0
  6
CONTINUOUS
 10
524.22976310266915
 20
895.96641883667155
 30
0.0
  0
VERTEX
  5
7307
  8
0
  6
CONTINUOUS
 10
508.8202031026691
 20
902.26467883667135
 30
0.0
 42
-1.0
  0
SEQEND
  5
7308
  8
0
  0
ARC
  5
7309
  8
0
 10
169.2202531026698
 20
721.97708483667145
 30
0.0
 40
2.399999999999999
 50
180.0
 51
199.9999999999975
  0
ARC
  5
730A
  8
0
 10
173.81471710266979
 20
709.35389983667164
 30
0.0
 40
2.399999999999999
 50
199.9999999999975
 51
270.0
  0
LINE
  5
730B
  8
0
 10
171.5594541026698
 20
708.53305183667135
 30
0.0
 11
166.96499110266981
 21
721.15623683667138
 31
0.0
  0
LINE
  5
730C
  8
0
 10
239.82025310266991
 20
706.95389983667155
 30
0.0
 11
173.81471710266979
 21
706.95389983667155
 31
0.0
  0
LINE
  5
730D
  8
0
 10
239.82025310266991
 20
907.99501783667165
 30
0.0
 11
239.82025310266991
 21
706.95389983667155
 31
0.0
  0
LINE
  5
730E
  8
0
 10
171.5594541026698
 20
906.41586583667163
 30
0.0
 11
166.96499110266981
 21
893.79268083667159
 31
0.0
  0
ARC
  5
730F
  8
0
 10
173.81471710266979
 20
905.59501783667156
 30
0.0
 40
2.399999999999999
 50
90.0
 51
160.00000000000239
  0
ARC
  5
7310
  8
0
 10
169.2202531026698
 20
892.97183283667164
 30
0.0
 40
2.399999999999999
 50
160.00000000000239
 51
180.0
  0
LINE
  5
7311
  8
0
 10
172.13421810266991
 20
907.30847183667163
 30
0.0
 11
172.13421810266991
 21
706.95389983667155
 31
0.0
  0
LINE
  5
7312
  8
0
 10
166.82025310266991
 20
892.97183283667164
 30
0.0
 11
166.82025310266991
 21
722.19501783667135
 31
0.0
  0
LINE
  5
7313
  8
0
 10
239.82025310266991
 20
907.99501783667165
 30
0.0
 11
173.81471710266979
 21
907.99501783667165
 31
0.0
  0
LINE
  5
7314
  8
0
 10
373.82025310266982
 20
705.4744588366716
 30
0.0
 11
373.82025310266982
 21
702.4744588366716
 31
0.0
  0
LINE
  5
7315
  8
0
 10
306.82025310266988
 20
705.4744588366716
 30
0.0
 11
306.82025310266988
 21
702.4744588366716
 31
0.0
  0
LINE
  5
7316
  8
0
 10
383.57037810266991
 20
704.10344383667143
 30
0.0
 11
294.75225910266988
 21
662.68743483667163
 31
0.0
  0
LINE
  5
7317
  8
0
 10
385.21837310266977
 20
700.56947883667146
 30
0.0
 11
383.57037810266991
 21
704.10344383667143
 31
0.0
  0
LINE
  5
7318
  8
0
 10
306.42025510266973
 20
702.4744588366716
 30
0.0
 11
376.16335510266993
 21
702.4744588366716
 31
0.0
  0
LINE
  5
7319
  8
0
 10
296.40045210266987
 20
659.15246283667125
 30
0.0
 11
294.75225910266988
 21
662.68743483667163
 31
0.0
  0
LINE
  5
731A
  8
0
 10
303.9534571026698
 20
659.51846783667145
 30
0.0
 11
303.63205510266982
 21
660.20745983667155
 31
0.0
  0
LINE
  5
731B
  8
0
 10
380.24535510266969
 20
675.38845983667159
 30
0.0
 11
380.24535510266969
 21
695.76246883667136
 31
0.0
  0
LINE
  5
731C
  8
0
 10
297.86784710266983
 20
658.6234608366716
 30
0.0
 11
384.69335210266991
 21
699.11046383667144
 31
0.0
  0
LINE
  5
731D
  8
0
 10
302.82025710266993
 20
666.44946483667161
 30
0.0
 11
302.82025710266993
 21
698.87446783667144
 31
0.0
  0
LINE
  5
731E
  8
0
  6
AM_ISO08W050
 10
297.64405610266988
 20
682.4744588366716
 30
0.0
 11
306.23435710266978
 21
682.4744588366716
 31
0.0
  0
LINE
  5
731F
  8
0
 10
300.82025710266993
 20
694.07446483667161
 30
0.0
 11
300.82025710266993
 21
670.87446783667156
 31
0.0
  0
LINE
  5
7320
  8
0
 10
300.82025710266993
 20
694.07446483667161
 30
0.0
 11
301.82025710266993
 21
694.07446483667161
 31
0.0
  0
LINE
  5
7321
  8
0
 10
300.82025710266993
 20
670.87446783667156
 30
0.0
 11
301.82025710266993
 21
670.87446783667156
 31
0.0
  0
ARC
  5
7322
  8
0
 10
306.42025510266973
 20
698.87446783667144
 30
0.0
 40
3.5999979999999989
 50
90.000061000000898
 51
179.99998200000081
  0
ARC
  5
7323
  8
0
 10
384.22135310266992
 20
700.10446383667158
 30
0.0
 40
1.100006
 50
294.99982600000448
 51
24.99951399999285
  0
ARC
  5
7324
  8
0
 10
297.39735610267002
 20
659.6174638366715
 30
0.0
 40
1.0999959999999971
 50
204.99980300000141
 51
295.00019499999559
  0
ARC
  5
7325
  8
0
 10
372.64535710266989
 20
675.38845983667159
 30
0.0
 40
7.5999979999999958
 50
288.90001599999658
 51
0.0000179999992061
  0
ARC
  5
7326
  8
0
 10
307.21615810267002
 20
661.03946083667165
 30
0.0
 40
3.5999979999999989
 50
204.9991569999998
 51
269.09402099999909
  0
ARC
  5
7327
  8
0
 10
310.32265610267012
 20
857.41545283667165
 30
0.0
 40
200.0
 50
269.09405200000299
 51
288.9000030000019
  0
ARC
  5
7328
  8
0
 10
302.72575510266972
 20
659.78546383667162
 30
0.0
 40
0.9999979999999998
 50
24.999268000004911
 51
114.9993579999945
  0
ARC
  5
7329
  8
0
 10
382.24535510266969
 20
695.76246883667136
 30
0.0
 40
2.0
 50
115.00014999999451
 51
179.99998200000081
  0
ARC
  5
732A
  8
0
 10
376.16335510266993
 20
699.87446783667144
 30
0.0
 40
2.600006
 50
40.686130000000617
 51
90.0
  0
ARC
  5
732B
  8
0
 10
301.82025710266993
 20
695.07446483667161
 30
0.0
 40
1.0
 50
269.99894299999522
 51
0.0000179999992061
  0
ARC
  5
732C
  8
0
 10
301.82025710266993
 20
669.87446783667156
 30
0.0
 40
1.0
 50
0.0000179999992061
 51
90.0
  0
ARC
  5
732D
  8
0
 10
248.26389710267
 20
725.07377883667164
 30
0.0
 40
2.0
 50
189.99999999999861
 51
270.0
  0
LINE
  5
732E
  8
0
 10
246.29428210266991
 20
724.72648283667161
 30
0.0
 11
243.32025310266991
 21
741.59303683667144
 31
0.0
  0
LINE
  5
732F
  8
0
 10
243.32025310266991
 20
741.59303683667144
 30
0.0
 11
244.3819921026699
 21
741.59303683667144
 31
0.0
  0
LINE
  5
7330
  8
0
 10
441.78439410266992
 20
893.64676583667165
 30
0.0
 11
442.32025310266982
 21
893.64676583667165
 31
0.0
  0
LINE
  5
7331
  8
0
 10
442.04478510266978
 20
895.20902283667135
 30
0.0
 11
442.32025310266982
 21
895.20902283667135
 31
0.0
  0
LINE
  5
7332
  8
0
 10
443.99845210266977
 20
719.47460983667145
 30
0.0
 11
444.32025310266971
 21
719.47460983667145
 31
0.0
  0
LINE
  5
7333
  8
0
 10
440.14085810266971
 20
724.32247283667164
 30
0.0
 11
442.32025310266982
 21
724.32247283667164
 31
0.0
  0
LINE
  5
7334
  8
0
 10
441.1469411026697
 20
736.42804283667158
 30
0.0
 11
442.32025310266982
 21
736.42804283667158
 31
0.0
  0
LINE
  5
7335
  8
0
  6
AM_ISO08W050
 10
340.32025310266988
 20
699.81849383667156
 30
0.0
 11
340.32025310266988
 21
709.00020983667139
 31
0.0
  0
ARC
  5
7336
  8
0
 10
438.56313310266978
 20
896.48270683667158
 30
0.0
 40
2.0
 50
9.9999999999986073
 51
90.0
  0
ARC
  5
7337
  8
0
 10
438.62915010267
 20
900.02350583667135
 30
0.0
 40
2.0
 50
9.9999999999986073
 51
90.0
  0
ARC
  5
7338
  8
0
 10
438.71506810266999
 20
902.57524283667146
 30
0.0
 40
2.0
 50
9.9999999999986073
 51
90.0
  0
ARC
  5
7339
  8
0
 10
438.74381710266982
 20
903.9744588366716
 30
0.0
 40
2.0
 50
9.9999999999986073
 51
90.0
  0
LINE
  5
733A
  8
0
 10
447.32025610266999
 20
892.47445883667149
 30
0.0
 11
444.32025610266999
 21
895.4744588366716
 31
0.0
  0
LINE
  5
733B
  8
0
 10
442.2734491026697
 20
895.4744588366716
 30
0.0
 11
444.32025310266971
 21
895.4744588366716
 31
0.0
  0
LINE
  5
733C
  8
0
 10
447.32025310266971
 20
722.4744588366716
 30
0.0
 11
444.32025310266971
 21
719.4744588366716
 31
0.0
  0
LINE
  5
733D
  8
0
 10
444.32025310266971
 20
719.4744588366716
 30
0.0
 11
444.32025310266971
 21
745.09484483667165
 31
0.0
  0
LINE
  5
733E
  8
0
 10
447.32025310266971
 20
722.4744588366716
 30
0.0
 11
447.32025310266971
 21
892.47445883667149
 31
0.0
  0
CIRCLE
  5
733F
  8
0
 10
340.32025310266988
 20
807.4744588366716
 30
0.0
 40
11.0
  0
LINE
  5
7340
  8
0
 10
247.60637310266989
 20
905.97445883667149
 30
0.0
 11
299.32025310266988
 21
905.97445883667149
 31
0.0
  0
LINE
  5
7341
  8
0
 10
379.32025310266982
 20
898.4827068366717
 30
0.0
 11
379.32025310266982
 21
903.9744588366716
 31
0.0
  0
LINE
  5
7342
  8
0
 10
301.32025310266988
 20
898.4827068366717
 30
0.0
 11
301.32025310266988
 21
903.9744588366716
 31
0.0
  0
ARC
  5
7343
  8
0
 10
299.32025310266988
 20
903.9744588366716
 30
0.0
 40
2.0
 50
0.0
 51
90.0
  0
ARC
  5
7344
  8
0
 10
381.32025310266982
 20
903.9744588366716
 30
0.0
 40
2.0
 50
90.0
 51
180.0
  0
LINE
  5
7345
  8
0
 10
381.32025310266982
 20
905.97445883667149
 30
0.0
 11
438.74381710266982
 21
905.97445883667149
 31
0.0
  0
LINE
  5
7346
  8
0
 10
438.71506810266999
 20
904.57524283667158
 30
0.0
 11
381.32025310266982
 21
904.57524283667158
 31
0.0
  0
LINE
  5
7347
  8
0
 10
442.32025310266982
 20
893.64676583667165
 30
0.0
 11
440.68468410266968
 21
902.92253883667161
 31
0.0
  0
LINE
  5
7348
  8
0
 10
442.32025310266982
 20
895.20902283667135
 30
0.0
 11
440.71343210266951
 21
904.32175483667152
 31
0.0
  0
LINE
  5
7349
  8
0
 10
243.32025310266991
 20
891.1842048366716
 30
0.0
 11
245.6367581026698
 21
904.32175483667152
 31
0.0
  0
ARC
  5
734A
  8
0
 10
247.60637310266989
 20
903.9744588366716
 30
0.0
 40
2.0
 50
90.0
 51
170.00000000000139
  0
LINE
  5
734B
  8
0
 10
243.32025310266991
 20
889.5251438366713
 30
0.0
 11
245.6825751026698
 21
902.92253883667161
 31
0.0
  0
ARC
  5
734C
  8
0
 10
247.6521911026698
 20
902.57524283667146
 30
0.0
 40
2.0
 50
90.0
 51
170.00000000000139
  0
ARC
  5
734D
  8
0
 10
299.32025310266988
 20
902.57524283667146
 30
0.0
 40
2.0
 50
0.0
 51
90.0
  0
ARC
  5
734E
  8
0
 10
381.32025310266982
 20
902.57524283667146
 30
0.0
 40
2.0
 50
90.0
 51
180.0
  0
LINE
  5
734F
  8
0
 10
299.32025310266988
 20
904.57524283667158
 30
0.0
 11
247.6521911026698
 21
904.57524283667158
 31
0.0
  0
LINE
  5
7350
  8
0
 10
438.62915010267
 20
902.02350583667146
 30
0.0
 11
381.32025310266982
 21
902.02350583667146
 31
0.0
  0
LINE
  5
7351
  8
0
 10
442.1914731026697
 20
891.33810783667161
 30
0.0
 11
440.5987651026698
 21
900.3708028366716
 31
0.0
  0
LINE
  5
7352
  8
0
 10
243.32025310266991
 20
886.30435283667146
 30
0.0
 11
245.80054810266989
 21
900.3708028366716
 31
0.0
  0
ARC
  5
7353
  8
0
 10
247.7701631026699
 20
900.02350583667135
 30
0.0
 40
2.0
 50
90.0
 51
170.00000000000139
  0
ARC
  5
7354
  8
0
 10
299.32025310266988
 20
900.02350583667135
 30
0.0
 40
2.0
 50
0.0
 51
90.0
  0
ARC
  5
7355
  8
0
 10
381.32025310266982
 20
900.02350583667135
 30
0.0
 40
2.0
 50
90.0
 51
180.0
  0
LINE
  5
7356
  8
0
 10
299.32025310266988
 20
902.02350583667146
 30
0.0
 11
247.7701631026699
 21
902.02350583667146
 31
0.0
  0
LINE
  5
7357
  8
0
 10
438.56313310266978
 20
898.4827068366717
 30
0.0
 11
247.93167210266989
 21
898.4827068366717
 31
0.0
  0
LINE
  5
7358
  8
0
 10
441.50111810266992
 20
891.33810783667161
 30
0.0
 11
440.5327491026697
 21
896.83000283667161
 31
0.0
  0
LINE
  5
7359
  8
0
 10
243.32025310266991
 20
881.84759283667165
 30
0.0
 11
245.96205610266989
 21
896.83000283667161
 31
0.0
  0
ARC
  5
735A
  8
0
 10
247.93167210266989
 20
896.48270683667158
 30
0.0
 40
2.0
 50
90.0
 51
170.00000000000139
  0
LINE
  5
735B
  8
0
 10
372.3766091026697
 20
891.87513883667145
 30
0.0
 11
248.26389710267
 21
891.87513883667145
 31
0.0
  0
LINE
  5
735C
  8
0
 10
377.32025310266982
 20
873.35588083667164
 30
0.0
 11
374.34622410266991
 21
890.22243483667148
 31
0.0
  0
ARC
  5
735D
  8
0
 10
372.3766091026697
 20
889.87513883667145
 30
0.0
 40
2.0
 50
9.9999999999986073
 51
90.0
  0
LINE
  5
735E
  8
0
 10
243.32025310266991
 20
873.35588083667164
 30
0.0
 11
246.29428210266991
 21
890.22243483667148
 31
0.0
  0
ARC
  5
735F
  8
0
 10
248.26389710267
 20
889.87513883667145
 30
0.0
 40
2.0
 50
90.0
 51
170.00000000000139
  0
LINE
  5
7360
  8
0
 10
372.04634510266999
 20
886.47309483667163
 30
0.0
 11
248.5941611026698
 21
886.47309483667163
 31
0.0
  0
LINE
  5
7361
  8
0
 10
377.09920210266978
 20
867.3344588366715
 30
0.0
 11
374.01596110266968
 21
884.82039183667155
 31
0.0
  0
ARC
  5
7362
  8
0
 10
372.04634510266999
 20
884.47309483667163
 30
0.0
 40
2.0
 50
9.9999999999986073
 51
90.0
  0
LINE
  5
7363
  8
0
 10
243.59724710266991
 20
867.6517268366714
 30
0.0
 11
246.62454510266991
 21
884.82039183667155
 31
0.0
  0
ARC
  5
7364
  8
0
 10
248.5941611026698
 20
884.47309483667163
 30
0.0
 40
2.0
 50
90.0
 51
170.00000000000139
  0
LINE
  5
7365
  8
0
 10
442.32025310266982
 20
812.50461083667142
 30
0.0
 11
442.32025310266982
 21
815.45230283667161
 31
0.0
  0
LINE
  5
7366
  8
0
 10
442.32025310266982
 20
822.50408683667149
 30
0.0
 11
442.32025310266982
 21
825.46556583667154
 31
0.0
  0
LINE
  5
7367
  8
0
 10
442.32025310266982
 20
833.49626683667134
 30
0.0
 11
442.32025310266982
 21
836.48889383667142
 31
0.0
  0
LINE
  5
7368
  8
0
 10
442.32025310266982
 20
844.4790618366718
 30
0.0
 11
442.32025310266982
 21
847.52476783667146
 31
0.0
  0
LINE
  5
7369
  8
0
 10
442.32025310266982
 20
855.44894083667145
 30
0.0
 11
442.32025310266982
 21
858.57985383667165
 31
0.0
  0
LINE
  5
736A
  8
0
 10
442.32025310266982
 20
864.40741683667136
 30
0.0
 11
442.32025310266982
 21
867.6517268366714
 31
0.0
  0
LINE
  5
736B
  8
0
 10
392.32025310266982
 20
881.84759283667165
 30
0.0
 11
375.82293510266982
 21
881.84759283667165
 31
0.0
  0
LINE
  5
736C
  8
0
 10
424.10703010266991
 20
886.6925608366713
 30
0.0
 11
408.32025310266982
 21
886.6925608366713
 31
0.0
  0
LINE
  5
736D
  8
0
 10
392.32025310266982
 20
881.84759283667165
 30
0.0
 11
408.32025310266982
 21
886.6925608366713
 31
0.0
  0
LINE
  5
736E
  8
0
 10
408.32025310266982
 20
886.6925608366713
 30
0.0
 11
408.32025310266982
 21
883.32724583667164
 31
0.0
  0
LINE
  5
736F
  8
0
 10
392.32025310266982
 20
881.84759283667165
 30
0.0
 11
392.32025310266982
 21
867.6517268366714
 31
0.0
  0
LINE
  5
7370
  8
0
 10
427.82025310266982
 20
870.5404208366715
 30
0.0
 11
427.82025310266982
 21
889.3381078366715
 31
0.0
  0
ARC
  5
7371
  8
0
 10
429.82025310266982
 20
889.3381078366715
 30
0.0
 40
2.0
 50
90.0
 51
180.0
  0
LINE
  5
7372
  8
0
 10
427.82025310266982
 20
874.93051883667147
 30
0.0
 11
408.32025310266982
 21
874.93051883667147
 31
0.0
  0
LINE
  5
7373
  8
0
 10
422.4202591026696
 20
883.32724583667164
 30
0.0
 11
408.32025310266982
 21
883.32724583667164
 31
0.0
  0
LINE
  5
7374
  8
0
 10
408.32025310266982
 20
874.93051883667147
 30
0.0
 11
408.32025310266982
 21
867.6517268366714
 31
0.0
  0
ARC
  5
7375
  8
0
  6
CONTINUOUS
 10
425.02005210266952
 20
878.95772483667145
 30
0.0
 40
2.600398999999999
 50
179.99998200000081
 51
269.99997799999522
  0
ARC
  5
7376
  8
0
  6
CONTINUOUS
 10
425.02005210266952
 20
884.25771283667143
 30
0.0
 40
2.600403
 50
90.0
 51
179.99998200000081
  0
LINE
  5
7377
  8
0
  6
CONTINUOUS
 10
427.82025310266982
 20
881.67374383667129
 30
0.0
 11
426.3202531026696
 21
880.80771883667148
 31
0.0
  0
LINE
  5
7378
  8
0
  6
CONTINUOUS
 10
427.82025310266982
 20
882.67374383667141
 30
0.0
 11
426.3202531026696
 21
881.80771883667137
 31
0.0
  0
LINE
  5
7379
  8
0
  6
CONTINUOUS
 10
427.82025310266982
 20
887.70771883667135
 30
0.0
 11
427.82025310266982
 21
875.50771883667164
 31
0.0
  0
LINE
  5
737A
  8
0
  6
CONTINUOUS
 10
426.3202531026696
 20
887.70771883667135
 30
0.0
 11
427.82025310266982
 21
887.70771883667135
 31
0.0
  0
LINE
  5
737B
  8
0
  6
CONTINUOUS
 10
426.3202531026696
 20
875.50771883667164
 30
0.0
 11
427.82025310266982
 21
875.50771883667164
 31
0.0
  0
LINE
  5
737C
  8
0
  6
CONTINUOUS
 10
422.4202591026696
 20
884.25771283667143
 30
0.0
 11
422.4202591026696
 21
878.95772483667145
 31
0.0
  0
LINE
  5
737D
  8
0
  6
CONTINUOUS
 10
426.3202531026696
 20
887.70771883667135
 30
0.0
 11
426.3202531026696
 21
875.50771883667164
 31
0.0
  0
LINE
  5
737E
  8
0
  6
CONTINUOUS
 10
426.3202531026696
 20
876.35771883667132
 30
0.0
 11
425.02005210266952
 21
876.35771883667132
 31
0.0
  0
LINE
  5
737F
  8
0
  6
CONTINUOUS
 10
426.3202531026696
 20
886.85771883667144
 30
0.0
 11
425.02005210266952
 21
886.85771883667144
 31
0.0
  0
LINE
  5
7380
  8
0
 10
447.32025310266971
 20
891.33810783667161
 30
0.0
 11
429.82025310266982
 21
891.33810783667161
 31
0.0
  0
LINE
  5
7381
  8
0
 10
447.32025310266971
 20
869.5404208366715
 30
0.0
 11
426.82025310266971
 21
869.5404208366715
 31
0.0
  0
ARC
  5
7382
  8
0
 10
426.82025310266971
 20
870.5404208366715
 30
0.0
 40
1.0
 50
270.0
 51
0.0
  0
LINE
  5
7383
  8
0
 10
447.32025310266971
 20
883.2141028366716
 30
0.0
 11
429.82025310266982
 21
883.2141028366716
 31
0.0
  0
LINE
  5
7384
  8
0
 10
239.82025310266991
 20
891.4744588366716
 30
0.0
 11
243.32025310266991
 21
891.4744588366716
 31
0.0
  0
ARC
  5
7385
  8
0
 10
443.99845210266977
 20
717.47445883667137
 30
0.0
 40
2.0
 50
90.0
 51
170.00000000000139
  0
ARC
  5
7386
  8
0
 10
380.0628951026697
 20
712.4808018366715
 30
0.0
 40
1.9936590000000001
 50
90.075931000003493
 51
178.17025399999861
  0
LINE
  5
7387
  8
0
 10
380.06025310266978
 20
714.4744588366716
 30
0.0
 11
439.76041910266991
 21
714.4744588366716
 31
0.0
  0
LINE
  5
7388
  8
0
 10
377.82025310266982
 20
705.4744588366716
 30
0.0
 11
378.43628210266991
 21
723.07377883667164
 31
0.0
  0
LINE
  5
7389
  8
0
 10
442.0288371026698
 20
717.82175483667118
 30
0.0
 11
441.73003410266978
 21
716.12716283667157
 31
0.0
  0
ARC
  5
738A
  8
0
 10
439.76041910266991
 20
716.4744588366716
 30
0.0
 40
2.0
 50
270.0
 51
350.00000000000148
  0
LINE
  5
738B
  8
0
 10
243.8976031026699
 20
722.4744588366716
 30
0.0
 11
251.1144821026698
 21
709.9744588366716
 31
0.0
  0
LINE
  5
738C
  8
0
 10
252.84653210266981
 20
708.97445883667137
 30
0.0
 11
300.76522410267
 21
708.97445883667137
 31
0.0
  0
LINE
  5
738D
  8
0
 10
302.82025310266988
 20
705.4744588366716
 30
0.0
 11
302.76394110266989
 21
707.04607383667144
 31
0.0
  0
ARC
  5
738E
  8
0
 10
242.16555210266989
 20
721.47445883667137
 30
0.0
 40
2.0
 50
29.999999999991651
 51
90.0
  0
ARC
  5
738F
  8
0
 10
252.84653210266981
 20
710.9744588366716
 30
0.0
 40
2.0
 50
209.9999999999917
 51
270.0
  0
ARC
  5
7390
  8
0
 10
300.76522410267
 20
706.9744588366716
 30
0.0
 40
2.0
 50
2.052064999998533
 51
90.0
  0
LINE
  5
7391
  8
0
 10
302.82025310266988
 20
705.4744588366716
 30
0.0
 11
377.82025310266982
 21
705.4744588366716
 31
0.0
  0
LINE
  5
7392
  8
0
 10
251.84653210266981
 20
709.24240783667165
 30
0.0
 11
251.84653210266981
 21
723.07377883667164
 31
0.0
  0
LINE
  5
7393
  8
0
 10
438.28733710266999
 20
723.07377883667164
 30
0.0
 11
248.26389710267
 21
723.07377883667164
 31
0.0
  0
LINE
  5
7394
  8
0
 10
438.06655110266968
 20
728.47582283667145
 30
0.0
 11
248.37311010266981
 21
728.47582283667145
 31
0.0
  0
LINE
  5
7395
  8
0
 10
442.32025310266982
 20
743.08222483667134
 30
0.0
 11
408.32025310266982
 21
743.08222483667134
 31
0.0
  0
LINE
  5
7396
  8
0
 10
442.32025310266982
 20
743.08222483667134
 30
0.0
 11
440.03616610266982
 21
730.12852583667143
 31
0.0
  0
ARC
  5
7397
  8
0
 10
438.06655110266968
 20
730.47582283667145
 30
0.0
 40
2.0
 50
270.0
 51
350.00000000000148
  0
LINE
  5
7398
  8
0
 10
442.32025310266982
 20
736.42804283667158
 30
0.0
 11
440.2569521026698
 21
724.72648283667161
 31
0.0
  0
ARC
  5
7399
  8
0
 10
438.28733710266999
 20
725.07377883667164
 30
0.0
 40
2.0
 50
270.0
 51
350.00000000000148
  0
LINE
  5
739A
  8
0
 10
247.06299110267
 20
723.4744588366716
 30
0.0
 11
239.82025310266991
 21
723.4744588366716
 31
0.0
  0
LINE
  5
739B
  8
0
 10
442.32025310266982
 20
724.32247283667164
 30
0.0
 11
440.8751991026698
 21
716.12716283667157
 31
0.0
  0
ARC
  5
739C
  8
0
 10
438.90558310266982
 20
716.4744588366716
 30
0.0
 40
2.0
 50
270.0
 51
350.00000000000148
  0
LINE
  5
739D
  8
0
 10
377.32025310266982
 20
759.31445883667141
 30
0.0
 11
377.32025310266982
 21
756.61445883667136
 31
0.0
  0
LINE
  5
739E
  8
0
 10
447.32025310266971
 20
745.26482183667144
 30
0.0
 11
429.82025310266982
 21
745.26482183667144
 31
0.0
  0
LINE
  5
739F
  8
0
 10
447.32025310266971
 20
757.57246083667144
 30
0.0
 11
429.82025310266982
 21
757.57246083667144
 31
0.0
  0
LINE
  5
73A0
  8
0
 10
447.32025310266971
 20
767.75175283667136
 30
0.0
 11
442.32025310266982
 21
767.75175283667136
 31
0.0
  0
LINE
  5
73A1
  8
0
 10
427.82025310266982
 20
766.75175283667136
 30
0.0
 11
427.82025310266982
 21
747.26482183667144
 31
0.0
  0
ARC
  5
73A2
  8
0
 10
426.82025310266971
 20
766.75175283667136
 30
0.0
 40
1.0
 50
0.0
 51
42.252324000004279
  0
ARC
  5
73A3
  8
0
 10
429.82025310266982
 20
747.26482183667144
 30
0.0
 40
2.0
 50
180.0
 51
270.0
  0
LINE
  5
73A4
  8
0
 10
392.32025310266982
 20
864.40741683667136
 30
0.0
 11
392.32025310266982
 21
858.57985383667165
 31
0.0
  0
LINE
  5
73A5
  8
0
 10
408.32025310266982
 20
864.40741683667136
 30
0.0
 11
408.32025310266982
 21
858.57985383667165
 31
0.0
  0
LINE
  5
73A6
  8
0
 10
392.32025310266982
 20
855.44894083667145
 30
0.0
 11
392.32025310266982
 21
847.52476783667146
 31
0.0
  0
LINE
  5
73A7
  8
0
 10
392.32025310266982
 20
844.4790618366718
 30
0.0
 11
392.32025310266982
 21
836.48889383667142
 31
0.0
  0
LINE
  5
73A8
  8
0
 10
392.32025310266982
 20
833.49626683667134
 30
0.0
 11
392.32025310266982
 21
825.46556583667154
 31
0.0
  0
LINE
  5
73A9
  8
0
 10
392.32025310266982
 20
822.50408683667149
 30
0.0
 11
392.32025310266982
 21
815.45230283667161
 31
0.0
  0
LINE
  5
73AA
  8
0
 10
392.32025310266982
 20
812.63445883667146
 30
0.0
 11
392.32025310266982
 21
802.44430683667144
 31
0.0
  0
LINE
  5
73AB
  8
0
 10
408.32025310266982
 20
812.63445883667146
 30
0.0
 11
408.32025310266982
 21
802.44430683667144
 31
0.0
  0
LINE
  5
73AC
  8
0
 10
408.32025310266982
 20
822.50408683667149
 30
0.0
 11
408.32025310266982
 21
815.45230283667161
 31
0.0
  0
LINE
  5
73AD
  8
0
 10
408.32025310266982
 20
833.49626683667134
 30
0.0
 11
408.32025310266982
 21
825.46556583667154
 31
0.0
  0
LINE
  5
73AE
  8
0
 10
408.32025310266982
 20
844.4790618366718
 30
0.0
 11
408.32025310266982
 21
836.48889383667142
 31
0.0
  0
LINE
  5
73AF
  8
0
 10
408.32025310266982
 20
855.44894083667145
 30
0.0
 11
408.32025310266982
 21
847.52476783667146
 31
0.0
  0
LINE
  5
73B0
  8
0
 10
392.32025310266982
 20
799.4966148366716
 30
0.0
 11
392.32025310266982
 21
792.4448308366716
 31
0.0
  0
LINE
  5
73B1
  8
0
 10
408.32025310266982
 20
799.4966148366716
 30
0.0
 11
408.32025310266982
 21
792.4448308366716
 31
0.0
  0
LINE
  5
73B2
  8
0
 10
408.32025310266982
 20
789.48335183667143
 30
0.0
 11
408.32025310266982
 21
781.45265083667164
 31
0.0
  0
LINE
  5
73B3
  8
0
 10
392.32025310266982
 20
789.48335183667143
 30
0.0
 11
392.32025310266982
 21
781.45265083667164
 31
0.0
  0
LINE
  5
73B4
  8
0
 10
392.32025310266982
 20
778.46002383667144
 30
0.0
 11
392.32025310266982
 21
770.46985583667163
 31
0.0
  0
LINE
  5
73B5
  8
0
 10
408.32025310266982
 20
778.46002383667144
 30
0.0
 11
408.32025310266982
 21
770.46985583667163
 31
0.0
  0
LINE
  5
73B6
  8
0
 10
422.86964810266971
 20
751.45366283667136
 30
0.0
 11
408.3202521026696
 21
751.45366283667136
 31
0.0
  0
LINE
  5
73B7
  8
0
 10
427.82025310266982
 20
762.86601283667164
 30
0.0
 11
408.3202521026696
 21
762.86601283667164
 31
0.0
  0
LINE
  5
73B8
  8
0
 10
392.32025310266982
 20
767.42414983667163
 30
0.0
 11
392.32025310266982
 21
747.42414983667163
 31
0.0
  0
LINE
  5
73B9
  8
0
 10
444.32025310266971
 20
891.33810783667161
 30
0.0
 11
444.32025310266971
 21
895.4744588366716
 31
0.0
  0
LINE
  5
73BA
  8
0
 10
442.32025310266982
 20
721.27271483667164
 30
0.0
 11
441.4129531026698
 21
716.12716283667157
 31
0.0
  0
ARC
  5
73BB
  8
0
 10
439.44333810266971
 20
716.4744588366716
 30
0.0
 40
2.0
 50
270.0
 51
350.00000000000148
  0
LINE
  5
73BC
  8
0
 10
408.32025310266982
 20
767.42414983667163
 30
0.0
 11
408.32025310266982
 21
762.86601283667164
 31
0.0
  0
LINE
  5
73BD
  8
0
 10
444.32025310266971
 20
767.75175283667136
 30
0.0
 11
444.32025310266971
 21
869.5404208366715
 31
0.0
  0
LINE
  5
73BE
  8
0
 10
243.32025310266991
 20
747.61445883667147
 30
0.0
 11
246.40349510266989
 21
730.12852583667143
 31
0.0
  0
ARC
  5
73BF
  8
0
 10
248.37311010266981
 20
730.47582283667145
 30
0.0
 40
2.0
 50
189.99999999999861
 51
270.0
  0
LINE
  5
73C0
  8
0
 10
393.02565010266977
 20
756.16875283667162
 30
0.0
 11
408.32025310266982
 21
751.45366283667136
 31
0.0
  0
LINE
  5
73C1
  8
0
 10
408.32025310266982
 20
762.86601283667164
 30
0.0
 11
393.28431210267001
 21
762.32526183667164
 31
0.0
  0
LINE
  5
73C2
  8
0
 10
408.32025310266982
 20
751.45366283667136
 30
0.0
 11
408.32025310266982
 21
743.08222483667134
 31
0.0
  0
ARC
  5
73C3
  8
0
 10
393.32025310266982
 20
761.3259078366716
 30
0.0
 40
1.0
 50
92.059691000003568
 51
180.0
  0
ARC
  5
73C4
  8
0
 10
393.32025310266982
 20
757.12437283667157
 30
0.0
 40
1.0
 50
180.0
 51
252.8662750000021
  0
LINE
  5
73C5
  8
0
 10
408.32025310266982
 20
883.32724583667164
 30
0.0
 11
393.01979410267012
 21
878.50737983667148
 31
0.0
  0
LINE
  5
73C6
  8
0
 10
393.36880810267002
 20
874.20369883667172
 30
0.0
 11
408.32025310266982
 21
874.93051883667147
 31
0.0
  0
ARC
  5
73C7
  8
0
 10
393.32025310266982
 20
877.55358483667146
 30
0.0
 40
1.0
 50
107.485179
 51
180.0
  0
ARC
  5
73C8
  8
0
 10
393.32025310266982
 20
875.20251983667163
 30
0.0
 40
1.0
 50
180.0
 51
270.0
  0
ARC
  5
73C9
  8
0
  6
CONTINUOUS
 10
425.02005210266952
 20
752.91579783667135
 30
0.0
 40
2.600398999999999
 50
179.99998200000081
 51
269.99997799999522
  0
ARC
  5
73CA
  8
0
  6
CONTINUOUS
 10
425.02005210266952
 20
758.21578583667144
 30
0.0
 40
2.600403
 50
90.0
 51
179.99998200000081
  0
LINE
  5
73CB
  8
0
  6
CONTINUOUS
 10
427.82025310266982
 20
755.63181683667165
 30
0.0
 11
426.3202531026696
 21
754.76579183667161
 31
0.0
  0
LINE
  5
73CC
  8
0
  6
CONTINUOUS
 10
427.82025310266982
 20
756.63181683667165
 30
0.0
 11
426.3202531026696
 21
755.76579183667138
 31
0.0
  0
LINE
  5
73CD
  8
0
  6
CONTINUOUS
 10
427.82025310266982
 20
761.66579183667159
 30
0.0
 11
427.82025310266982
 21
749.46579183667143
 31
0.0
  0
LINE
  5
73CE
  8
0
  6
CONTINUOUS
 10
426.3202531026696
 20
761.66579183667159
 30
0.0
 11
427.82025310266982
 21
761.66579183667159
 31
0.0
  0
LINE
  5
73CF
  8
0
  6
CONTINUOUS
 10
426.3202531026696
 20
749.46579183667143
 30
0.0
 11
427.82025310266982
 21
749.46579183667143
 31
0.0
  0
LINE
  5
73D0
  8
0
  6
CONTINUOUS
 10
422.4202591026696
 20
758.21578583667144
 30
0.0
 11
422.4202591026696
 21
752.91579783667135
 31
0.0
  0
LINE
  5
73D1
  8
0
  6
CONTINUOUS
 10
426.3202531026696
 20
761.66579183667159
 30
0.0
 11
426.3202531026696
 21
749.46579183667143
 31
0.0
  0
LINE
  5
73D2
  8
0
  6
CONTINUOUS
 10
426.3202531026696
 20
750.31579183667145
 30
0.0
 11
425.02005210266952
 21
750.31579183667145
 31
0.0
  0
LINE
  5
73D3
  8
0
  6
CONTINUOUS
 10
426.3202531026696
 20
760.81579183667179
 30
0.0
 11
425.02005210266952
 21
760.81579183667179
 31
0.0
  0
LINE
  5
73D4
  8
0
 10
442.32025310266982
 20
867.6517268366714
 30
0.0
 11
243.32025310266991
 21
867.6517268366714
 31
0.0
  0
LINE
  5
73D5
  8
0
 10
442.32025310266982
 20
864.40741683667136
 30
0.0
 11
243.32025310266991
 21
864.40741683667136
 31
0.0
  0
LINE
  5
73D6
  8
0
 10
442.32025310266982
 20
858.57985383667165
 30
0.0
 11
243.32025310266991
 21
858.57985383667165
 31
0.0
  0
LINE
  5
73D7
  8
0
 10
442.32025310266982
 20
855.44894083667145
 30
0.0
 11
243.32025310266991
 21
855.44894083667145
 31
0.0
  0
LINE
  5
73D8
  8
0
 10
442.32025310266982
 20
847.52476783667146
 30
0.0
 11
243.32025310266991
 21
847.52476783667146
 31
0.0
  0
LINE
  5
73D9
  8
0
 10
442.32025310266982
 20
844.4790618366718
 30
0.0
 11
243.32025310266991
 21
844.4790618366718
 31
0.0
  0
LINE
  5
73DA
  8
0
 10
442.32025310266982
 20
836.48889383667142
 30
0.0
 11
243.32025310266991
 21
836.48889383667142
 31
0.0
  0
LINE
  5
73DB
  8
0
 10
442.32025310266982
 20
833.49626683667134
 30
0.0
 11
243.32025310266991
 21
833.49626683667134
 31
0.0
  0
LINE
  5
73DC
  8
0
 10
442.32025310266982
 20
825.46556583667154
 30
0.0
 11
243.32025310266991
 21
825.46556583667154
 31
0.0
  0
LINE
  5
73DD
  8
0
 10
442.32025310266982
 20
822.50408683667149
 30
0.0
 11
243.32025310266991
 21
822.50408683667149
 31
0.0
  0
LINE
  5
73DE
  8
0
 10
442.32025310266982
 20
815.45230283667161
 30
0.0
 11
347.89349610266993
 21
815.45230283667161
 31
0.0
  0
LINE
  5
73DF
  8
0
 10
442.32025310266982
 20
812.50461083667142
 30
0.0
 11
354.7059001026696
 21
812.50461083667142
 31
0.0
  0
LINE
  5
73E0
  8
0
 10
440.24133210266967
 20
866.9744588366716
 30
0.0
 11
440.24133210266967
 21
864.97445883667149
 31
0.0
  0
LINE
  5
73E1
  8
0
 10
245.3991741026698
 20
864.97445883667149
 30
0.0
 11
440.24133210266967
 21
864.97445883667149
 31
0.0
  0
LINE
  5
73E2
  8
0
 10
245.3991741026698
 20
866.9744588366716
 30
0.0
 11
440.24133210266967
 21
866.9744588366716
 31
0.0
  0
LINE
  5
73E3
  8
0
 10
245.3991741026698
 20
855.97445883667149
 30
0.0
 11
440.24133210266967
 21
855.97445883667149
 31
0.0
  0
LINE
  5
73E4
  8
0
 10
245.3991741026698
 20
857.9744588366716
 30
0.0
 11
440.24133210266967
 21
857.9744588366716
 31
0.0
  0
LINE
  5
73E5
  8
0
 10
245.3991741026698
 20
844.9744588366716
 30
0.0
 11
440.24133210266967
 21
844.9744588366716
 31
0.0
  0
LINE
  5
73E6
  8
0
 10
245.3991741026698
 20
846.97445883667149
 30
0.0
 11
440.24133210266967
 21
846.97445883667149
 31
0.0
  0
LINE
  5
73E7
  8
0
 10
245.3991741026698
 20
833.9744588366716
 30
0.0
 11
440.24133210266967
 21
833.9744588366716
 31
0.0
  0
LINE
  5
73E8
  8
0
 10
245.3991741026698
 20
835.9744588366716
 30
0.0
 11
440.24133210266967
 21
835.9744588366716
 31
0.0
  0
LINE
  5
73E9
  8
0
 10
245.3991741026698
 20
822.97445883667149
 30
0.0
 11
440.24133210266967
 21
822.97445883667149
 31
0.0
  0
LINE
  5
73EA
  8
0
 10
245.3991741026698
 20
824.9744588366716
 30
0.0
 11
440.24133210266967
 21
824.9744588366716
 31
0.0
  0
LINE
  5
73EB
  8
0
 10
354.09523010266969
 20
812.97445883667149
 30
0.0
 11
440.24133210266967
 21
812.97445883667149
 31
0.0
  0
LINE
  5
73EC
  8
0
 10
348.36699110266989
 20
814.97445883667149
 30
0.0
 11
440.24133210266967
 21
814.97445883667149
 31
0.0
  0
LINE
  5
73ED
  8
0
 10
440.24133210266967
 20
866.9744588366716
 30
0.0
 11
442.32025310266982
 21
867.6517268366714
 31
0.0
  0
LINE
  5
73EE
  8
0
 10
440.24133210266967
 20
864.97445883667149
 30
0.0
 11
442.32025310266982
 21
864.40741683667136
 31
0.0
  0
LINE
  5
73EF
  8
0
 10
440.24133210266967
 20
857.9744588366716
 30
0.0
 11
442.32025310266982
 21
858.57985383667165
 31
0.0
  0
LINE
  5
73F0
  8
0
 10
440.24133210266967
 20
855.97445883667149
 30
0.0
 11
442.32025310266982
 21
855.44894083667145
 31
0.0
  0
LINE
  5
73F1
  8
0
 10
440.24133210266967
 20
846.97445883667149
 30
0.0
 11
442.32025310266982
 21
847.52476783667146
 31
0.0
  0
LINE
  5
73F2
  8
0
 10
440.24133210266967
 20
844.9744588366716
 30
0.0
 11
442.32025310266982
 21
844.4790618366718
 31
0.0
  0
LINE
  5
73F3
  8
0
 10
440.24133210266967
 20
835.9744588366716
 30
0.0
 11
442.32025310266982
 21
836.48889383667142
 31
0.0
  0
LINE
  5
73F4
  8
0
 10
440.24133210266967
 20
833.9744588366716
 30
0.0
 11
442.32025310266982
 21
833.49626683667134
 31
0.0
  0
LINE
  5
73F5
  8
0
 10
440.24133210266967
 20
824.9744588366716
 30
0.0
 11
442.32025310266982
 21
825.46556583667154
 31
0.0
  0
LINE
  5
73F6
  8
0
 10
440.24133210266967
 20
822.97445883667149
 30
0.0
 11
442.32025310266982
 21
822.50408683667149
 31
0.0
  0
LINE
  5
73F7
  8
0
 10
440.24133210266967
 20
814.97445883667149
 30
0.0
 11
442.32025310266982
 21
815.45230283667161
 31
0.0
  0
LINE
  5
73F8
  8
0
 10
440.24133210266967
 20
812.97445883667149
 30
0.0
 11
442.32025310266982
 21
812.50461083667142
 31
0.0
  0
LINE
  5
73F9
  8
0
 10
440.24133210266967
 20
857.9744588366716
 30
0.0
 11
440.24133210266967
 21
855.97445883667149
 31
0.0
  0
LINE
  5
73FA
  8
0
 10
440.24133210266967
 20
846.97445883667149
 30
0.0
 11
440.24133210266967
 21
844.9744588366716
 31
0.0
  0
LINE
  5
73FB
  8
0
 10
440.24133210266967
 20
835.9744588366716
 30
0.0
 11
440.24133210266967
 21
833.9744588366716
 31
0.0
  0
LINE
  5
73FC
  8
0
 10
440.24133210266967
 20
824.9744588366716
 30
0.0
 11
440.24133210266967
 21
822.97445883667149
 31
0.0
  0
LINE
  5
73FD
  8
0
 10
440.24133210266967
 20
814.97445883667149
 30
0.0
 11
440.24133210266967
 21
812.97445883667149
 31
0.0
  0
ARC
  5
73FE
  8
0
 10
354.09523010266969
 20
809.9744588366716
 30
0.0
 40
3.0
 50
90.0
 51
190.2865610000006
  0
ARC
  5
73FF
  8
0
 10
354.7059001026696
 20
809.03461083667162
 30
0.0
 40
3.4700000000000002
 50
90.0
 51
186.1896490000004
  0
LINE
  5
7400
  8
0
 10
260.39917410266992
 20
814.97445883667149
 30
0.0
 11
260.39917410266992
 21
812.97445883667149
 31
0.0
  0
LINE
  5
7401
  8
0
 10
245.3991741026698
 20
824.9744588366716
 30
0.0
 11
245.3991741026698
 21
822.97445883667149
 31
0.0
  0
LINE
  5
7402
  8
0
 10
245.3991741026698
 20
835.9744588366716
 30
0.0
 11
245.3991741026698
 21
833.9744588366716
 31
0.0
  0
LINE
  5
7403
  8
0
 10
245.3991741026698
 20
846.97445883667149
 30
0.0
 11
245.3991741026698
 21
844.9744588366716
 31
0.0
  0
LINE
  5
7404
  8
0
 10
245.3991741026698
 20
857.9744588366716
 30
0.0
 11
245.3991741026698
 21
855.97445883667149
 31
0.0
  0
LINE
  5
7405
  8
0
 10
260.39917410266992
 20
812.97445883667149
 30
0.0
 11
258.32025310266988
 21
812.50461083667142
 31
0.0
  0
LINE
  5
7406
  8
0
 10
260.39917410266992
 20
814.97445883667149
 30
0.0
 11
258.32025310266988
 21
815.45230283667161
 31
0.0
  0
LINE
  5
7407
  8
0
 10
245.3991741026698
 20
822.97445883667149
 30
0.0
 11
243.32025310266991
 21
822.50408683667149
 31
0.0
  0
LINE
  5
7408
  8
0
 10
245.3991741026698
 20
824.9744588366716
 30
0.0
 11
243.32025310266991
 21
825.46556583667154
 31
0.0
  0
LINE
  5
7409
  8
0
 10
245.3991741026698
 20
833.9744588366716
 30
0.0
 11
243.32025310266991
 21
833.49626683667134
 31
0.0
  0
LINE
  5
740A
  8
0
 10
245.3991741026698
 20
835.9744588366716
 30
0.0
 11
243.32025310266991
 21
836.48889383667142
 31
0.0
  0
LINE
  5
740B
  8
0
 10
245.3991741026698
 20
844.9744588366716
 30
0.0
 11
243.32025310266991
 21
844.4790618366718
 31
0.0
  0
LINE
  5
740C
  8
0
 10
245.3991741026698
 20
846.97445883667149
 30
0.0
 11
243.32025310266991
 21
847.52476783667146
 31
0.0
  0
LINE
  5
740D
  8
0
 10
245.3991741026698
 20
855.97445883667149
 30
0.0
 11
243.32025310266991
 21
855.44894083667145
 31
0.0
  0
LINE
  5
740E
  8
0
 10
245.3991741026698
 20
857.9744588366716
 30
0.0
 11
243.32025310266991
 21
858.57985383667165
 31
0.0
  0
LINE
  5
740F
  8
0
 10
245.3991741026698
 20
864.97445883667149
 30
0.0
 11
243.32025310266991
 21
864.40741683667136
 31
0.0
  0
LINE
  5
7410
  8
0
 10
245.3991741026698
 20
866.9744588366716
 30
0.0
 11
243.32025310266991
 21
867.6517268366714
 31
0.0
  0
LINE
  5
7411
  8
0
 10
245.3991741026698
 20
866.9744588366716
 30
0.0
 11
245.3991741026698
 21
864.97445883667149
 31
0.0
  0
LINE
  5
7412
  8
0
 10
243.32025310266991
 20
864.40741683667136
 30
0.0
 11
243.32025310266991
 21
867.6517268366714
 31
0.0
  0
LINE
  5
7413
  8
0
 10
243.32025310266991
 20
855.44894083667145
 30
0.0
 11
243.32025310266991
 21
858.57985383667165
 31
0.0
  0
LINE
  5
7414
  8
0
 10
243.32025310266991
 20
844.4790618366718
 30
0.0
 11
243.32025310266991
 21
847.52476783667146
 31
0.0
  0
LINE
  5
7415
  8
0
 10
243.32025310266991
 20
833.49626683667134
 30
0.0
 11
243.32025310266991
 21
836.48889383667142
 31
0.0
  0
LINE
  5
7416
  8
0
 10
243.32025310266991
 20
822.50408683667149
 30
0.0
 11
243.32025310266991
 21
825.46556583667154
 31
0.0
  0
LINE
  5
7417
  8
0
 10
258.32025310266988
 20
812.50461083667142
 30
0.0
 11
258.32025310266988
 21
815.45230283667161
 31
0.0
  0
LINE
  5
7418
  8
0
 10
258.32025310266988
 20
815.45230283667161
 30
0.0
 11
332.74701010266978
 21
815.45230283667161
 31
0.0
  0
LINE
  5
7419
  8
0
 10
258.32025310266988
 20
812.50461083667142
 30
0.0
 11
325.93460610266999
 21
812.50461083667142
 31
0.0
  0
LINE
  5
741A
  8
0
 10
326.54527610267007
 20
812.97445883667149
 30
0.0
 11
260.39917410266992
 21
812.97445883667149
 31
0.0
  0
LINE
  5
741B
  8
0
 10
332.27351510266988
 20
814.97445883667149
 30
0.0
 11
260.39917410266992
 21
814.97445883667149
 31
0.0
  0
ARC
  5
741C
  8
0
 10
326.54527610267007
 20
809.9744588366716
 30
0.0
 40
3.0
 50
349.71343899999948
 51
90.0
  0
ARC
  5
741D
  8
0
 10
325.93460610266999
 20
809.03461083667162
 30
0.0
 40
3.4700000000000002
 50
353.81035099999951
 51
90.0
  0
LINE
  5
741E
  8
0
 10
442.32025310266982
 20
767.42414983667163
 30
0.0
 11
243.32025310266991
 21
767.42414983667163
 31
0.0
  0
LINE
  5
741F
  8
0
 10
442.32025310266982
 20
770.46985583667163
 30
0.0
 11
243.32025310266991
 21
770.46985583667163
 31
0.0
  0
LINE
  5
7420
  8
0
 10
442.32025310266982
 20
778.46002383667144
 30
0.0
 11
243.32025310266991
 21
778.46002383667144
 31
0.0
  0
LINE
  5
7421
  8
0
 10
442.32025310266982
 20
781.45265083667164
 30
0.0
 11
243.32025310266991
 21
781.45265083667164
 31
0.0
  0
LINE
  5
7422
  8
0
 10
442.32025310266982
 20
789.48335183667143
 30
0.0
 11
243.32025310266991
 21
789.48335183667143
 31
0.0
  0
LINE
  5
7423
  8
0
 10
442.32025310266982
 20
792.4448308366716
 30
0.0
 11
243.32025310266991
 21
792.4448308366716
 31
0.0
  0
LINE
  5
7424
  8
0
 10
245.3991741026698
 20
769.9744588366716
 30
0.0
 11
440.24133210266967
 21
769.9744588366716
 31
0.0
  0
LINE
  5
7425
  8
0
 10
245.3991741026698
 20
767.9744588366716
 30
0.0
 11
440.24133210266967
 21
767.9744588366716
 31
0.0
  0
LINE
  5
7426
  8
0
 10
245.3991741026698
 20
780.9744588366716
 30
0.0
 11
440.24133210266967
 21
780.9744588366716
 31
0.0
  0
LINE
  5
7427
  8
0
 10
245.3991741026698
 20
778.9744588366716
 30
0.0
 11
440.24133210266967
 21
778.9744588366716
 31
0.0
  0
LINE
  5
7428
  8
0
 10
245.3991741026698
 20
791.97445883667149
 30
0.0
 11
440.24133210266967
 21
791.97445883667149
 31
0.0
  0
LINE
  5
7429
  8
0
 10
245.3991741026698
 20
789.9744588366716
 30
0.0
 11
440.24133210266967
 21
789.9744588366716
 31
0.0
  0
LINE
  5
742A
  8
0
 10
258.32025310266988
 20
799.4966148366716
 30
0.0
 11
332.74701010266978
 21
799.4966148366716
 31
0.0
  0
LINE
  5
742B
  8
0
 10
258.32025310266988
 20
802.44430683667144
 30
0.0
 11
325.93460610266999
 21
802.44430683667144
 31
0.0
  0
LINE
  5
742C
  8
0
 10
326.54527610267007
 20
801.9744588366716
 30
0.0
 11
260.39917410266992
 21
801.9744588366716
 31
0.0
  0
LINE
  5
742D
  8
0
 10
332.27351510266988
 20
799.97445883667149
 30
0.0
 11
260.39917410266992
 21
799.97445883667149
 31
0.0
  0
LINE
  5
742E
  8
0
 10
258.32025310266988
 20
802.44430683667144
 30
0.0
 11
258.32025310266988
 21
799.4966148366716
 31
0.0
  0
LINE
  5
742F
  8
0
 10
243.32025310266991
 20
792.4448308366716
 30
0.0
 11
243.32025310266991
 21
789.48335183667143
 31
0.0
  0
LINE
  5
7430
  8
0
 10
243.32025310266991
 20
781.45265083667164
 30
0.0
 11
243.32025310266991
 21
778.46002383667144
 31
0.0
  0
LINE
  5
7431
  8
0
 10
243.32025310266991
 20
770.46985583667163
 30
0.0
 11
243.32025310266991
 21
767.42414983667163
 31
0.0
  0
LINE
  5
7432
  8
0
 10
245.3991741026698
 20
767.9744588366716
 30
0.0
 11
243.32025310266991
 21
767.42414983667163
 31
0.0
  0
LINE
  5
7433
  8
0
 10
245.3991741026698
 20
769.9744588366716
 30
0.0
 11
243.32025310266991
 21
770.46985583667163
 31
0.0
  0
LINE
  5
7434
  8
0
 10
245.3991741026698
 20
778.9744588366716
 30
0.0
 11
243.32025310266991
 21
778.46002383667144
 31
0.0
  0
LINE
  5
7435
  8
0
 10
245.3991741026698
 20
780.9744588366716
 30
0.0
 11
243.32025310266991
 21
781.45265083667164
 31
0.0
  0
LINE
  5
7436
  8
0
 10
245.3991741026698
 20
789.9744588366716
 30
0.0
 11
243.32025310266991
 21
789.48335183667143
 31
0.0
  0
LINE
  5
7437
  8
0
 10
245.3991741026698
 20
791.97445883667149
 30
0.0
 11
243.32025310266991
 21
792.4448308366716
 31
0.0
  0
LINE
  5
7438
  8
0
 10
260.39917410266992
 20
799.97445883667149
 30
0.0
 11
258.32025310266988
 21
799.4966148366716
 31
0.0
  0
LINE
  5
7439
  8
0
 10
260.39917410266992
 20
801.9744588366716
 30
0.0
 11
258.32025310266988
 21
802.44430683667144
 31
0.0
  0
LINE
  5
743A
  8
0
 10
245.3991741026698
 20
767.9744588366716
 30
0.0
 11
245.3991741026698
 21
769.9744588366716
 31
0.0
  0
LINE
  5
743B
  8
0
 10
245.3991741026698
 20
778.9744588366716
 30
0.0
 11
245.3991741026698
 21
780.9744588366716
 31
0.0
  0
LINE
  5
743C
  8
0
 10
245.3991741026698
 20
789.9744588366716
 30
0.0
 11
245.3991741026698
 21
791.97445883667149
 31
0.0
  0
LINE
  5
743D
  8
0
 10
260.39917410266992
 20
799.97445883667149
 30
0.0
 11
260.39917410266992
 21
801.9744588366716
 31
0.0
  0
ARC
  5
743E
  8
0
 10
326.54527610267007
 20
804.97445883667149
 30
0.0
 40
3.0
 50
270.0
 51
10.286561000000651
  0
ARC
  5
743F
  8
0
 10
325.93460610266999
 20
805.91430683667147
 30
0.0
 40
3.4700000000000002
 50
270.0
 51
6.1896490000005366
  0
LINE
  5
7440
  8
0
 10
442.32025310266982
 20
799.4966148366716
 30
0.0
 11
347.89349610266993
 21
799.4966148366716
 31
0.0
  0
LINE
  5
7441
  8
0
 10
442.32025310266982
 20
802.44430683667144
 30
0.0
 11
354.7059001026696
 21
802.44430683667144
 31
0.0
  0
LINE
  5
7442
  8
0
 10
354.09523010266969
 20
801.9744588366716
 30
0.0
 11
440.24133210266967
 21
801.9744588366716
 31
0.0
  0
LINE
  5
7443
  8
0
 10
348.36699110266989
 20
799.97445883667149
 30
0.0
 11
440.24133210266967
 21
799.97445883667149
 31
0.0
  0
ARC
  5
7444
  8
0
 10
354.09523010266969
 20
804.97445883667149
 30
0.0
 40
3.0
 50
169.71343899999931
 51
270.0
  0
ARC
  5
7445
  8
0
 10
354.7059001026696
 20
805.91430683667147
 30
0.0
 40
3.4700000000000002
 50
173.8103509999994
 51
270.0
  0
LINE
  5
7446
  8
0
 10
440.24133210266967
 20
799.97445883667149
 30
0.0
 11
440.24133210266967
 21
801.9744588366716
 31
0.0
  0
LINE
  5
7447
  8
0
 10
440.24133210266967
 20
789.9744588366716
 30
0.0
 11
440.24133210266967
 21
791.97445883667149
 31
0.0
  0
LINE
  5
7448
  8
0
 10
440.24133210266967
 20
778.9744588366716
 30
0.0
 11
440.24133210266967
 21
780.9744588366716
 31
0.0
  0
LINE
  5
7449
  8
0
 10
440.24133210266967
 20
767.9744588366716
 30
0.0
 11
440.24133210266967
 21
769.9744588366716
 31
0.0
  0
LINE
  5
744A
  8
0
 10
440.24133210266967
 20
801.9744588366716
 30
0.0
 11
442.32025310266982
 21
802.44430683667144
 31
0.0
  0
LINE
  5
744B
  8
0
 10
440.24133210266967
 20
799.97445883667149
 30
0.0
 11
442.32025310266982
 21
799.4966148366716
 31
0.0
  0
LINE
  5
744C
  8
0
 10
440.24133210266967
 20
791.97445883667149
 30
0.0
 11
442.32025310266982
 21
792.4448308366716
 31
0.0
  0
LINE
  5
744D
  8
0
 10
440.24133210266967
 20
789.9744588366716
 30
0.0
 11
442.32025310266982
 21
789.48335183667143
 31
0.0
  0
LINE
  5
744E
  8
0
 10
440.24133210266967
 20
780.9744588366716
 30
0.0
 11
442.32025310266982
 21
781.45265083667164
 31
0.0
  0
LINE
  5
744F
  8
0
 10
440.24133210266967
 20
778.9744588366716
 30
0.0
 11
442.32025310266982
 21
778.46002383667144
 31
0.0
  0
LINE
  5
7450
  8
0
 10
440.24133210266967
 20
769.9744588366716
 30
0.0
 11
442.32025310266982
 21
770.46985583667163
 31
0.0
  0
LINE
  5
7451
  8
0
 10
440.24133210266967
 20
767.9744588366716
 30
0.0
 11
442.32025310266982
 21
767.42414983667163
 31
0.0
  0
LINE
  5
7452
  8
0
 10
442.32025310266982
 20
770.46985583667163
 30
0.0
 11
442.32025310266982
 21
767.42414983667163
 31
0.0
  0
LINE
  5
7453
  8
0
 10
442.32025310266982
 20
781.45265083667164
 30
0.0
 11
442.32025310266982
 21
778.46002383667144
 31
0.0
  0
LINE
  5
7454
  8
0
 10
442.32025310266982
 20
792.4448308366716
 30
0.0
 11
442.32025310266982
 21
789.48335183667143
 31
0.0
  0
LINE
  5
7455
  8
0
 10
442.32025310266982
 20
802.44430683667144
 30
0.0
 11
442.32025310266982
 21
799.4966148366716
 31
0.0
  0
LINE
  5
7456
  8
0
 10
375.24133210266967
 20
758.97445883667137
 30
0.0
 11
377.32025310266982
 21
759.46985583667163
 31
0.0
  0
LINE
  5
7457
  8
0
 10
377.32025310266982
 20
759.46985583667163
 30
0.0
 11
243.32025310266991
 21
759.46985583667163
 31
0.0
  0
LINE
  5
7458
  8
0
 10
245.3991741026698
 20
758.97445883667137
 30
0.0
 11
375.24133210266967
 21
758.97445883667137
 31
0.0
  0
LINE
  5
7459
  8
0
 10
375.24133210266967
 20
756.9744588366716
 30
0.0
 11
375.24133210266967
 21
758.97445883667137
 31
0.0
  0
LINE
  5
745A
  8
0
 10
377.32025310266982
 20
756.42414983667163
 30
0.0
 11
243.32025310266991
 21
756.42414983667163
 31
0.0
  0
LINE
  5
745B
  8
0
 10
245.3991741026698
 20
756.9744588366716
 30
0.0
 11
375.24133210266967
 21
756.9744588366716
 31
0.0
  0
LINE
  5
745C
  8
0
 10
375.24133210266967
 20
756.9744588366716
 30
0.0
 11
377.32025310266982
 21
756.42414983667163
 31
0.0
  0
LINE
  5
745D
  8
0
 10
377.32025310266982
 20
750.46985583667163
 30
0.0
 11
243.32025310266991
 21
750.46985583667163
 31
0.0
  0
LINE
  5
745E
  8
0
 10
245.3991741026698
 20
749.97445883667149
 30
0.0
 11
375.24133210266967
 21
749.97445883667149
 31
0.0
  0
LINE
  5
745F
  8
0
 10
377.32025310266982
 20
747.42414983667163
 30
0.0
 11
243.3538101026698
 21
747.42414983667163
 31
0.0
  0
LINE
  5
7460
  8
0
 10
245.3991741026698
 20
747.9744588366716
 30
0.0
 11
375.24133210266967
 21
747.9744588366716
 31
0.0
  0
LINE
  5
7461
  8
0
 10
375.24133210266967
 20
747.9744588366716
 30
0.0
 11
377.32025310266982
 21
747.42414983667163
 31
0.0
  0
LINE
  5
7462
  8
0
 10
377.32025310266982
 20
750.46985583667163
 30
0.0
 11
377.32025310266982
 21
747.42414983667163
 31
0.0
  0
LINE
  5
7463
  8
0
 10
375.24133210266967
 20
747.9744588366716
 30
0.0
 11
375.24133210266967
 21
749.97445883667149
 31
0.0
  0
LINE
  5
7464
  8
0
 10
375.24133210266967
 20
749.97445883667149
 30
0.0
 11
377.32025310266982
 21
750.46985583667163
 31
0.0
  0
LINE
  5
7465
  8
0
 10
377.32025310266982
 20
747.42414983667163
 30
0.0
 11
392.32025310266982
 21
747.42414983667163
 31
0.0
  0
LINE
  5
7466
  8
0
 10
392.32025310266982
 20
747.42414983667163
 30
0.0
 11
408.32025310266982
 21
743.08222483667134
 31
0.0
  0
LINE
  5
7467
  8
0
 10
243.32025310266991
 20
759.46985583667163
 30
0.0
 11
243.32025310266991
 21
756.42414983667163
 31
0.0
  0
LINE
  5
7468
  8
0
 10
243.32025310266991
 20
750.46985583667163
 30
0.0
 11
243.32025310266991
 21
747.42414983667163
 31
0.0
  0
LINE
  5
7469
  8
0
 10
245.3991741026698
 20
756.9744588366716
 30
0.0
 11
245.3991741026698
 21
758.97445883667137
 31
0.0
  0
LINE
  5
746A
  8
0
 10
245.3991741026698
 20
758.97445883667137
 30
0.0
 11
243.32025310266991
 21
759.46985583667163
 31
0.0
  0
LINE
  5
746B
  8
0
 10
245.3991741026698
 20
756.9744588366716
 30
0.0
 11
243.32025310266991
 21
756.42414983667163
 31
0.0
  0
LINE
  5
746C
  8
0
 10
245.3991741026698
 20
749.97445883667149
 30
0.0
 11
243.32025310266991
 21
750.46985583667163
 31
0.0
  0
LINE
  5
746D
  8
0
 10
245.3991741026698
 20
747.9744588366716
 30
0.0
 11
245.3991741026698
 21
749.97445883667149
 31
0.0
  0
LINE
  5
746E
  8
0
 10
245.3991741026698
 20
747.9744588366716
 30
0.0
 11
243.32025310266991
 21
747.42414983667163
 31
0.0
  0
LINE
  5
746F
  8
0
 10
239.82025310266991
 20
815.11822983667162
 30
0.0
 11
246.32025310266991
 21
815.11822983667162
 31
0.0
  0
LINE
  5
7470
  8
0
 10
239.82025310266991
 20
815.45230783667159
 30
0.0
 11
247.00025310266989
 21
815.45230783667159
 31
0.0
  0
LINE
  5
7471
  8
0
 10
248.32025310266991
 20
813.11822983667173
 30
0.0
 11
248.32025310266991
 21
807.47446283667136
 31
0.0
  0
LINE
  5
7472
  8
0
 10
250.0002531026698
 20
818.45230783667159
 30
0.0
 11
250.0002531026698
 21
807.47446283667136
 31
0.0
  0
ARC
  5
7473
  8
0
 10
247.00025310266989
 20
818.45230783667159
 30
0.0
 40
3.0
 50
270.0
 51
0.0
  0
LINE
  5
7474
  8
0
 10
239.82025310266991
 20
799.83069483667157
 30
0.0
 11
246.32025310266991
 21
799.83069483667157
 31
0.0
  0
LINE
  5
7475
  8
0
 10
239.82025310266991
 20
799.49661683667148
 30
0.0
 11
247.00025310266989
 21
799.49661683667148
 31
0.0
  0
LINE
  5
7476
  8
0
 10
248.32025310266991
 20
801.83069483667146
 30
0.0
 11
248.32025310266991
 21
807.47446283667136
 31
0.0
  0
LINE
  5
7477
  8
0
 10
250.0002531026698
 20
796.49661683667136
 30
0.0
 11
250.0002531026698
 21
807.47446283667136
 31
0.0
  0
ARC
  5
7478
  8
0
 10
247.00025310266989
 20
796.49661683667136
 30
0.0
 40
3.0
 50
359.99999799999722
 51
89.999997999997177
  0
LINE
  5
7618
  8
0
 10
447.3203231026701
 20
721.97447383667145
 30
0.0
 11
447.3203231026701
 21
892.97447383667088
 31
0.0
  0
LINE
  5
7619
  8
0
 10
447.32032310266982
 20
721.97447383667145
 30
0.0
 11
483.82020310266881
 21
721.97447383667145
 31
0.0
  0
LINE
  5
761A
  8
0
 10
447.32032310266982
 20
892.97447383667054
 30
0.0
 11
483.82020310266881
 21
892.97447383667054
 31
0.0
  0
ARC
  5
761E
  8
0
 10
483.82020310266881
 20
895.97447383667054
 30
0.0
 40
3.0
 50
270.0
 51
0.0
1001
GENIUS_GENODEF_13
1002
{
1000
HIER
1070
     0
1002
}
1002
{
1000
MANEDIT
1070
     0
1002
}
1002
{
1000
NOSEL
1070
     0
1002
}
1002
{
1000
BEHIND
1070
     0
1002
}
1002
{
1000
OTHER
1070
     0
1002
}
1002
{
1000
REACTOR
1002
}
1001
GENIUS_GENOBJ-N-FIL_13
1002
{
1000
OWNER
1000
GEN
1002
}
  0
ARC
  5
761F
  8
0
 10
483.82020310266881
 20
718.97447383667145
 30
0.0
 40
3.0
 50
0.0
 51
90.0
1001
GENIUS_GENOBJ-N-FIL_13
1002
{
1000
OWNER
1000
GEN
1002
}
1001
GENIUS_GENODEF_13
1002
{
1000
HIER
1070
     0
1002
}
1002
{
1000
MANEDIT
1070
     0
1002
}
1002
{
1000
NOSEL
1070
     0
1002
}
1002
{
1000
BEHIND
1070
     0
1002
}
1002
{
1000
OTHER
1070
     0
1002
}
1002
{
1000
REACTOR
1002
}
  0
LINE
  5
7620
  8
0
 10
486.82020310266881
 20
883.2141028366716
 30
0.0
 11
447.3203231026701
 21
883.2141028366716
 31
0.0
  0
LINE
  5
7621
  8
0
 10
486.82020310266881
 20
869.5404208366715
 30
0.0
 11
447.3203231026701
 21
869.5404208366715
 31
0.0
  0
LINE
  5
7622
  8
0
 10
486.82020310266881
 20
757.57246083667144
 30
0.0
 11
447.3203231026701
 21
757.57246083667144
 31
0.0
  0
LINE
  5
7623
  8
0
 10
486.82020310266881
 20
767.75175283667136
 30
0.0
 11
447.3203231026701
 21
767.75175283667136
 31
0.0
  0
LINE
  5
7624
  8
0
 10
486.82020310266881
 20
745.26482183667144
 30
0.0
 11
447.3203231026701
 21
745.26482183667144
 31
0.0
  0
LINE
  5
7637
  8
0
  6
CENTER
 62
     0
 10
496.8202031026691
 20
816.83421383667144
 30
0.0
 11
496.8202031026691
 21
798.11473383667146
 31
0.0
  0
LINE
  5
7638
  8
0
  6
CONTINUOUS
 62
     0
 10
483.67018310266911
 20
804.25743383667145
 30
0.0
 11
509.97017310266892
 21
804.25743383667145
 31
0.0
  0
LINE
  5
7639
  8
0
  6
CONTINUOUS
 62
     0
 10
483.67018310266911
 20
810.55748383667174
 30
0.0
 11
509.97017310266892
 21
810.55748383667174
 31
0.0
  0
ARC
  5
763A
  8
0
  6
CONTINUOUS
 62
     0
 10
495.8202031026691
 20
819.36571383667149
 30
0.0
 40
3.0
 50
274.78019999998969
 51
0.0
  0
ARC
  5
763B
  8
0
  6
CONTINUOUS
 62
     0
 10
495.8202031026691
 20
795.44921383667145
 30
0.0
 40
3.0
 50
0.0
 51
85.219806000004908
  0
ARC
  5
763C
  8
0
  6
CONTINUOUS
 62
     0
 10
496.8202031026691
 20
807.40746383667147
 30
0.0
 40
9.0
 50
94.780192000005314
 51
159.51270000000099
  0
ARC
  5
763D
  8
0
  6
CONTINUOUS
 62
     0
 10
496.8202031026691
 20
807.40746383667147
 30
0.0
 40
8.0
 50
23.18801900000453
 51
156.811979999995
  0
ARC
  5
763E
  8
0
  6
CONTINUOUS
 62
     0
 10
483.67018310266911
 20
807.40746383667147
 30
0.0
 40
3.1499977000000001
 50
90.000002999984659
 51
270.0
  0
ARC
  5
763F
  8
0
  6
CONTINUOUS
 62
     0
 10
509.97017310266892
 20
807.40746383667147
 30
0.0
 40
3.1499977000000001
 50
270.0
 51
90.000002999984659
  0
ARC
  5
7640
  8
0
  6
CONTINUOUS
 62
     0
 10
496.8202031026691
 20
807.40746383667147
 30
0.0
 40
8.0
 50
203.188020000005
 51
336.81196999999668
  0
ARC
  5
7641
  8
0
  6
CONTINUOUS
 62
     0
 10
496.8202031026691
 20
807.40746383667147
 30
0.0
 40
9.0
 50
200.48729999999901
 51
265.2198000000102
  0
LINE
  5
7642
  8
0
  6
CONTINUOUS
 10
498.82020310266881
 20
819.36571383667149
 30
0.0
 11
498.82020310266881
 21
872.54671883667163
 31
0.0
  0
LINE
  5
7643
  8
0
  6
CONTINUOUS
 10
508.8202031026691
 20
810.55748383667174
 30
0.0
 11
508.8202031026691
 21
906.97445883667149
 31
0.0
  0
LINE
  5
7728
  8
0
 10
498.82032109829208
 20
594.55854374467992
 30
0.0
 11
447.32023310266879
 21
594.55854374467992
 31
0.0
  0
LINE
  5
7729
  8
0
 10
447.32023310266879
 20
586.43453874467991
 30
0.0
 11
498.82032109829208
 21
586.43453874467991
 31
0.0
  0
LINE
  5
772A
  8
0
 10
498.82032109829208
 20
572.76082774467977
 30
0.0
 11
447.32023310266879
 21
572.76082774467977
 31
0.0
  0
LINE
  5
772B
  8
0
 10
498.82032109829208
 20
470.97218874467961
 30
0.0
 11
447.32023310266879
 21
470.97218874467961
 31
0.0
  0
LINE
  5
772C
  8
0
 10
498.82032109829208
 20
460.79289674467981
 30
0.0
 11
447.32023310266879
 21
460.79289674467981
 31
0.0
  0
LINE
  5
772D
  8
0
 10
498.82032109829208
 20
448.50561574467969
 30
0.0
 11
447.32023310266879
 21
448.50561574467969
 31
0.0
  0
TEXT
  5
7D4E
  8
0
  6
CONTINUOUS
 62
     0
 10
756.1871132668648
 20
812.31670427860126
 30
0.0
 40
15.0
  1
VX15-040EM~VX15-050EM
  0
ENDSEC
  0
EOF
