  0
SECTION
  2
HEADER
  9
$ACADVER
  1
AC1009
  9
$INSBASE
 10
0.0
 20
0.0
 30
0.0
  9
$EXTMIN
 10
113.9056799948798
 20
383.77021282482559
 30
-0.000000000000013
  9
$EXTMAX
 10
1061.8989579458989
 20
1027.568692127704
 30
0.0000000000000023
  9
$LIMMIN
 10
-2.7186596955807518
 20
0.0935949875579354
  9
$LIMMAX
 10
1419.781340304419
 20
925.09359498755805
  9
$ORTHOMODE
 70
     0
  9
$REGENMODE
 70
     1
  9
$FILLMODE
 70
     1
  9
$QTEXTMODE
 70
     0
  9
$MIRRTEXT
 70
     0
  9
$DRAGMODE
 70
     2
  9
$LTSCALE
 40
1.0
  9
$OSMODE
 70
   551
  9
$ATTMODE
 70
     1
  9
$TEXTSIZE
 40
2.5
  9
$TRACEWID
 40
1.0
  9
$TEXTSTYLE
  7
STANDARD
  9
$CLAYER
  8
0
  9
$CELTYPE
  6
BYLAYER
  9
$CECOLOR
 62
   256
  9
$DIMSCALE
 40
1.0
  9
$DIMASZ
 40
2.0
  9
$DIMEXO
 40
1.0
  9
$DIMDLI
 40
8.0
  9
$DIMRND
 40
0.0
  9
$DIMDLE
 40
0.0
  9
$DIMEXE
 40
1.0
  9
$DIMTP
 40
-0.025
  9
$DIMTM
 40
0.043
  9
$DIMTXT
 40
2.5
  9
$DIMCEN
 40
0.0
  9
$DIMTSZ
 40
0.0
  9
$DIMTOL
 70
     0
  9
$DIMLIM
 70
     0
  9
$DIMTIH
 70
     0
  9
$DIMTOH
 70
     0
  9
$DIMSE1
 70
     0
  9
$DIMSE2
 70
     0
  9
$DIMTAD
 70
     3
  9
$DIMZIN
 70
     8
  9
$DIMBLK
  1

  9
$DIMASO
 70
     1
  9
$DIMSHO
 70
     1
  9
$DIMPOST
  1

  9
$DIMAPOST
  1
"
  9
$DIMALT
 70
     0
  9
$DIMALTD
 70
     2
  9
$DIMALTF
 40
0.0393701
  9
$DIMLFAC
 40
1.0
  9
$DIMTOFL
 70
     1
  9
$DIMTVP
 40
0.0
  9
$DIMTIX
 70
     0
  9
$DIMSOXD
 70
     0
  9
$DIMSAH
 70
     0
  9
$DIMBLK1
  1

  9
$DIMBLK2
  1

  9
$DIMSTYLE
  2
AM_JIS
  9
$DIMCLRD
 70
     2
  9
$DIMCLRE
 70
     2
  9
$DIMCLRT
 70
     4
  9
$DIMTFAC
 40
0.71
  9
$DIMGAP
 40
1.5
  9
$LUNITS
 70
     2
  9
$LUPREC
 70
     2
  9
$SKETCHINC
 40
1.0
  9
$FILLETRAD
 40
0.0
  9
$AUNITS
 70
     0
  9
$AUPREC
 70
     0
  9
$MENU
  1
.
  9
$ELEVATION
 40
0.0
  9
$PELEVATION
 40
0.0
  9
$THICKNESS
 40
0.0
  9
$LIMCHECK
 70
     0
  9
$BLIPMODE
 70
     0
  9
$CHAMFERA
 40
2.5
  9
$CHAMFERB
 40
2.5
  9
$SKPOLY
 70
     0
  9
$TDCREATE
 40
2456829.3841110538
  9
$TDUPDATE
 40
2458540.6839900119
  9
$TDINDWG
 40
0.2963442014
  9
$TDUSRTIMER
 40
0.2963437847
  9
$USRTIMER
 70
     1
  9
$ANGBASE
 50
0.0
  9
$ANGDIR
 70
     0
  9
$PDMODE
 70
     0
  9
$PDSIZE
 40
0.0
  9
$PLINEWID
 40
0.0
  9
$COORDS
 70
     1
  9
$SPLFRAME
 70
     0
  9
$SPLINETYPE
 70
     6
  9
$SPLINESEGS
 70
     8
  9
$ATTDIA
 70
     1
  9
$ATTREQ
 70
     1
  9
$HANDLING
 70
     1
  9
$HANDSEED
  5
851F
  9
$SURFTAB1
 70
     6
  9
$SURFTAB2
 70
     6
  9
$SURFTYPE
 70
     6
  9
$SURFU
 70
     6
  9
$SURFV
 70
     6
  9
$UCSNAME
  2

  9
$UCSORG
 10
0.0
 20
0.0
 30
0.0
  9
$UCSXDIR
 10
1.0
 20
0.0
 30
0.0
  9
$UCSYDIR
 10
0.0
 20
1.0
 30
0.0
  9
$PUCSNAME
  2

  9
$PUCSORG
 10
0.0
 20
0.0
 30
0.0
  9
$PUCSXDIR
 10
1.0
 20
0.0
 30
0.0
  9
$PUCSYDIR
 10
0.0
 20
1.0
 30
0.0
  9
$USERI1
 70
     0
  9
$USERI2
 70
     0
  9
$USERI3
 70
     0
  9
$USERI4
 70
     0
  9
$USERI5
 70
     0
  9
$USERR1
 40
0.0
  9
$USERR2
 40
0.0
  9
$USERR3
 40
0.0
  9
$USERR4
 40
0.0
  9
$USERR5
 40
0.0
  9
$WORLDVIEW
 70
     1
  9
$SHADEDGE
 70
     3
  9
$SHADEDIF
 70
    70
  9
$TILEMODE
 70
     1
  9
$MAXACTVP
 70
    64
  9
$PLIMCHECK
 70
     0
  9
$PEXTMIN
 10
1.0000000000000000E+020
 20
1.0000000000000000E+020
 30
1.0000000000000000E+020
  9
$PEXTMAX
 10
-1.0000000000000000E+020
 20
-1.0000000000000000E+020
 30
-1.0000000000000000E+020
  9
$PLIMMIN
 10
0.0
 20
0.0
  9
$PLIMMAX
 10
420.0
 20
297.0
  9
$UNITMODE
 70
     0
  9
$VISRETAIN
 70
     1
  9
$PLINEGEN
 70
     0
  9
$PSLTSCALE
 70
     1
  0
ENDSEC
  0
SECTION
  2
TABLES
  0
TABLE
  2
VPORT
 70
     1
  0
VPORT
  2
*ACTIVE
 70
     0
 10
0.0
 20
0.0
 11
1.0
 21
1.0
 12
587.90231897038927
 22
705.66945247626495
 13
0.0
 23
0.0
 14
12.5
 24
12.5
 15
50.0
 25
50.0
 16
0.0
 26
0.0
 36
1.0
 17
0.0
 27
0.0
 37
0.0
 40
648.21814849717748
 41
1.757159221076747
 42
50.0
 43
0.0
 44
0.0
 50
0.0
 51
0.0
 71
    16
 72
  1000
 73
     1
 74
     3
 75
     0
 76
     0
 77
     0
 78
     0
  0
ENDTAB
  0
TABLE
  2
LTYPE
 70
    24
  0
LTYPE
  2
CONTINUOUS
 70
     0
  3
Solid line
 72
    65
 73
     0
 40
0.0
  0
LTYPE
  2
CENTER
 70
     0
  3
Center ____ _ ____ _ ____ _ ____ _ ____ _ ____
 72
    65
 73
     4
 40
50.799999999999997
 49
31.75
 49
-6.349999999999997
 49
6.349999999999997
 49
-6.349999999999997
  0
LTYPE
  2
AM_ISO02W050
 70
     0
  3
__ __ __ __ __ __ __ __ __ __ __ __ __ __ __
 72
    65
 73
     2
 40
7.5
 49
6.0
 49
-1.5
  0
LTYPE
  2
AM_ISO08W050
 70
     0
  3
____ . ____ . ____ . ____ . ____ . ____ . ____
 72
    65
 73
     4
 40
18.0
 49
12.0
 49
-1.5
 49
3.0
 49
-1.5
  0
LTYPE
  2
AM_ISO09W050
 70
     0
  3
_____ . . _____ . . _____ . . ____ .. ____
 72
    65
 73
     6
 40
22.5
 49
12.0
 49
-1.5
 49
3.0
 49
-1.5
 49
3.0
 49
-1.5
  0
LTYPE
  2
AMCONSTR
 70
     0
  3
_______________________
 72
    65
 73
     2
 40
9999.0
 49
9999.0
 49
0.0
  0
LTYPE
  2
AM_ISO08W050X2
 70
     0
  3
__ . __ . __ . __ . __ . __
 72
    65
 73
     4
 40
9.0
 49
6.0
 49
-0.75
 49
1.5
 49
-0.75
  0
LTYPE
  2
AM_ISO02W050X2
 70
     0
  3
 _ _ _ _ _ _ _ _ _ _ _ _
 72
    65
 73
     2
 40
3.75
 49
3.0
 49
-0.75
  0
LTYPE
  2
AMZIGZAG
 70
     0
  3
/\/-/\/-/\/-/\/-/\/-/\/
 72
    65
 73
     2
 40
11.0001
 49
0.0001
 49
-11.0
  0
LTYPE
  2
ACANSTGBM
 70
     0
  3
__ . . __ . .
 72
    65
 73
     6
 40
9.0
 49
4.0
 49
-1.0
 49
1.0
 49
-1.0
 49
1.0
 49
-1.0
  0
LTYPE
  2
ACANSTGLM
 70
     0
  3
_ _ _ _ _
 72
    65
 73
     2
 40
3.0
 49
2.0
 49
-1.0
  0
LTYPE
  2
ACISOWELD
 70
     0
  3
_ _ _ _ _
 72
    65
 73
     2
 40
2.0
 49
2.0
 49
-1.0
  0
LTYPE
  2
ACISOTGB
 70
     0
  3
__ . . __ . .
 72
    65
 73
     6
 40
9.0
 49
4.0
 49
-1.0
 49
1.0
 49
-1.0
 49
1.0
 49
-1.0
  0
LTYPE
  2
ACISOTGL
 70
     0
  3
_ _ _ _ _
 72
    65
 73
     2
 40
3.0
 49
2.0
 49
-1.0
  0
LTYPE
  2
ACJISTGB
 70
     0
  3
__ . . __ . .
 72
    65
 73
     6
 40
9.0
 49
4.0
 49
-1.0
 49
1.0
 49
-1.0
 49
1.0
 49
-1.0
  0
LTYPE
  2
ACJISTGL
 70
     0
  3
_ _ _ _ _
 72
    65
 73
     2
 40
3.0
 49
2.0
 49
-1.0
  0
LTYPE
  2
HIDDEN
 70
     0
  3
Hidden __ __ __ __ __ __ __ __ __ __ __ __ __ _
 72
    65
 73
     2
 40
9.5249999999999968
 49
6.349999999999997
 49
-3.174999999999998
  0
LTYPE
  2
PHANTOM2
 70
     0
  3
Phantom (.5x) ___ _ _ ___ _ _ ___ _ _ ___ _ _
 72
    65
 73
     6
 40
31.75
 49
15.875
 49
-3.174999999999998
 49
3.174999999999998
 49
-3.174999999999998
 49
3.174999999999998
 49
-3.174999999999998
  0
LTYPE
  2
CENTER2
 70
     0
  3
Center (.5x) ___ _ ___ _ ___ _ ___ _ ___ _ ___
 72
    65
 73
     4
 40
1.125
 49
0.75
 49
-0.125
 49
0.125
 49
-0.125
  0
LTYPE
  2
HIDDEN2
 70
     0
  3
Hidden (.5x) _ _ _ _ _ _ _ _ _ _ _ _ _ _ _ _ _
 72
    65
 73
     2
 40
0.1875
 49
0.125
 49
-0.0625
  0
LTYPE
  2
AMZIGZAG2
 70
     0
  3
/\/-/\/-/\/-/\/-/\/-/\/
 72
    65
 73
     2
 40
0.4401
 49
0.0001
 49
-0.4400000000000001
  0
LTYPE
  2
ACANSTGB
 70
     0
  3
__ . . __ . .
 72
    65
 73
     6
 40
0.35433070866
 49
0.15748031496
 49
-0.03937007874
 49
0.03937007874
 49
-0.03937007874
 49
0.03937007874
 49
-0.03937007874
  0
LTYPE
  2
ACANSTGL
 70
     0
  3
_ _ _ _ _
 72
    65
 73
     2
 40
0.11811023622
 49
0.07874015748
 49
-0.03937007874
  0
ENDTAB
  0
TABLE
  2
LAYER
 70
     4
  0
LAYER
  2
0
 70
     0
 62
     7
  6
CONTINUOUS
  0
LAYER
  2
DEFPOINTS
 70
     0
 62
     7
  6
CONTINUOUS
  0
LAYER
  2
AM_CL
 70
     0
 62
     1
  6
AMCONSTR
  0
LAYER
  2
AM_5
 70
     0
 62
     2
  6
CONTINUOUS
  0
ENDTAB
  0
TABLE
  2
STYLE
 70
    10
  0
STYLE
  2
STANDARD
 70
     0
 40
0.0
 41
0.7400000000000003
 50
0.0
 71
     0
 42
2.5
  3
txt.shx
  4
bigfont.shx
  0
STYLE
  2
ANNOTATIVE
 70
     0
 40
0.0
 41
1.0
 50
0.0
 71
     0
 42
0.2
  3
txt
  4

  0
STYLE
  2

 70
     1
 40
0.0
 41
1.0
 50
0.0
 71
     0
 42
2.5
  3
ltypeshp.shx
  4

  0
STYLE
  2
ACANSTS
 70
     0
 40
1.0
 41
1.0
 50
0.0
 71
     0
 42
2.5
  3
romans.shx
  4
bigfont.shx
  0
STYLE
  2
ACANSGDT
 70
     0
 40
0.0
 41
1.0
 50
0.0
 71
     0
 42
2.5
  3
amgdt.shx
  4

  0
STYLE
  2
ACISOTS
 70
     0
 40
1.0
 41
1.0
 50
0.0
 71
     0
 42
2.5
  3
isocp.shx
  4
extfont.shx
  0
STYLE
  2
ACISOGDT
 70
     0
 40
0.0
 41
1.0
 50
0.0
 71
     0
 42
2.5
  3
amgdt.shx
  4

  0
STYLE
  2
ACJISGDT
 70
     0
 40
0.0
 41
1.0
 50
0.0
 71
     0
 42
2.5
  3
amgdt.shx
  4

  0
STYLE
  2
ACJISTS
 70
     0
 40
1.0
 41
1.0
 50
0.0
 71
     0
 42
2.5
  3
isocp.shx
  4
extfont.shx
  0
STYLE
  2

 70
     1
 40
0.0
 41
1.0
 50
0.0
 71
     0
 42
2.5
  3
genltshp.shx
  4

  0
ENDTAB
  0
TABLE
  2
VIEW
 70
     6
  0
VIEW
  2
AM_VIEW1
 70
     0
 40
462.5
 10
486.11585987737283
 20
693.84359498755771
 41
977.66903914590728
 11
0.0
 21
0.0
 31
1.0
 12
0.0
 22
0.0
 32
0.0
 42
50.0
 43
0.0
 44
0.0
 50
0.0
 71
    16
  0
VIEW
  2
AM_VIEW2
 70
     0
 40
462.5
 10
930.94682073146555
 20
693.84359498755771
 41
977.66903914590728
 11
0.0
 21
0.0
 31
1.0
 12
0.0
 22
0.0
 32
0.0
 42
50.0
 43
0.0
 44
0.0
 50
0.0
 71
    16
  0
VIEW
  2
AM_VIEW3
 70
     0
 40
462.5
 10
486.11585987737283
 20
231.34359498755799
 41
977.66903914590728
 11
0.0
 21
0.0
 31
1.0
 12
0.0
 22
0.0
 32
0.0
 42
50.0
 43
0.0
 44
0.0
 50
0.0
 71
    16
  0
VIEW
  2
AM_VIEW4
 70
     0
 40
462.5
 10
930.94682073146555
 20
231.34359498755799
 41
977.66903914590728
 11
0.0
 21
0.0
 31
1.0
 12
0.0
 22
0.0
 32
0.0
 42
50.0
 43
0.0
 44
0.0
 50
0.0
 71
    16
  0
VIEW
  2
AM_VIEW5
 70
     0
 40
462.5
 10
708.53134030441925
 20
462.59359498755799
 41
977.66903914590728
 11
0.0
 21
0.0
 31
1.0
 12
0.0
 22
0.0
 32
0.0
 42
50.0
 43
0.0
 44
0.0
 50
0.0
 71
    16
  0
VIEW
  2
AM_VIEW6
 70
     0
 40
924.99075000000005
 10
708.53134030441925
 20
462.59359498755799
 41
1955.318524911032
 11
0.0
 21
0.0
 31
1.0
 12
0.0
 22
0.0
 32
0.0
 42
50.0
 43
0.0
 44
0.0
 50
0.0
 71
    16
  0
ENDTAB
  0
TABLE
  2
UCS
 70
     0
  0
ENDTAB
  0
TABLE
  2
APPID
 70
   162
  0
APPID
  2
ACAD
 70
     0
  0
APPID
  2
ACADANNOTATIVE
 70
     0
  0
APPID
  2
ACAD_MLEADERVER
 70
     0
  0
APPID
  2
MCAD_NO_VIS
 70
     0
  0
APPID
  2
ACAD_TEMP_GRAPHIC
 70
     0
  0
APPID
  2
AD_DRAW
 70
     0
  0
APPID
  2
ACATTRIBSERVICES
 70
     0
  0
APPID
  2
DESIGNERASSEMBLIES
 70
     0
  0
APPID
  2
ACADM_DIM_EDIT
 70
     0
  0
APPID
  2
AMDT_DM_ADJ
 70
     0
  0
APPID
  2
GENIUS_GENDIMSH_14
 70
     0
  0
APPID
  2
GEVID1057795304
 70
     0
  0
APPID
  2
GEVDC
 70
     0
  0
APPID
  2
GEVCON
 70
     0
  0
APPID
  2
GENIUS_GENBH_13
 70
     0
  0
APPID
  2
GENIUS_GENOENT_13
 70
     0
  0
APPID
  2
GENIUS_GENOBJ-NBEHI-BHF_13
 70
     0
  0
APPID
  2
GENIUS_GENOLIS_13
 70
     0
  0
APPID
  2
GENIUS_GENODEF_13
 70
     0
  0
APPID
  2
GENIUS_GENOREF_13
 70
     0
  0
APPID
  2
GENIUS_GENOBJ-NBEHI-BHB_13
 70
     0
  0
APPID
  2
GENIUS_GENOBJ-F-SCPASSM_13
 70
     0
  0
APPID
  2
GENIUS_GENDTOL_13
 70
     0
  0
APPID
  2
GENIUS_GENTRA_14
 70
     0
  0
APPID
  2
ASURF_PCURVE_APPNAME
 70
     0
  0
APPID
  2
GENIUS_GENCFG_13
 70
     0
  0
APPID
  2
GENIUS_GE3CFG0_13
 70
     0
  0
APPID
  2
GENIUS_GENCFG0_13
 70
     0
  0
APPID
  2
GENIUS_GENCFG1_13
 70
     0
  0
APPID
  2
GENIUS_GENCFG2_13
 70
     0
  0
APPID
  2
GENIUS_GENCFG3_13
 70
     0
  0
APPID
  2
GENIUS_GENCFG4_13
 70
     0
  0
APPID
  2
GENIUS_GEVCFG0_13
 70
     0
  0
APPID
  2
GENIUS_GENOBJ-N-TIT_13
 70
     0
  0
APPID
  2
GENIUS_GENTITLE_13
 70
     0
  0
APPID
  2
GENIUS_GENSCREG_15
 70
     0
  0
APPID
  2
GENIUS_GENOBJ-N-SDF_13
 70
     0
  0
APPID
  2
GENIUS_GENFIL_13
 70
     0
  0
APPID
  2
GENIUS_GENOBJ-N-CHA_13
 70
     0
  0
APPID
  2
GENIUS_GEFSH_13
 70
     0
  0
APPID
  2
GENIUS_GENOBJ-F-SHS_13
 70
     0
  0
APPID
  2
GENIUS_GENOBJ-N-CEN_13
 70
     0
  0
APPID
  2
GENIUS_GENREC_14
 70
     0
  0
APPID
  2
GENIUS_GENOBJ-N-REC_13
 70
     0
  0
APPID
  2
GENIUS_GENOBJ-N-HTC_13
 70
     0
  0
APPID
  2
GENIUS_GENHATCH_13
 70
     0
  0
APPID
  2
ACAD_PSEXT
 70
     0
  0
APPID
  2
ACAD_EXEMPT_FROM_CAD_STANDARDS
 70
     0
  0
APPID
  2
ACAECLAYERSTANDARD
 70
     0
  0
APPID
  2
GENIUS_GENCEN_19
 70
     0
  0
APPID
  2
ACAD_DSTYLE_DIMINSPECT
 70
     0
  0
APPID
  2
ACAD_DSTYLE_DIMANGULAR_EXT
 70
     0
  0
APPID
  2
ACADANNOPO
 70
     0
  0
APPID
  2
ACAD_NAV_VCDISPLAY
 70
     0
  0
APPID
  2
GENIUS_GENOBJ-N-FIL_13
 70
     0
  0
APPID
  2
ACAUTHENVIRON
 70
     0
  0
APPID
  2
ACDBDYNAMICBLOCKTRUENAME
 70
     0
  0
APPID
  2
ACDBDYNAMICBLOCKGUID
 70
     0
  0
APPID
  2
ACDBBLOCKREPETAG
 70
     0
  0
APPID
  2
ACAD_DSTYLE_DIMBREAK
 70
     0
  0
APPID
  2
ACAD_DSTYLE_DIMJAG
 70
     0
  0
APPID
  2
GENIUS_GENHINW_13
 70
     0
  0
APPID
  2
GENIUS_FIRSTVISTXT_14
 70
     0
  0
APPID
  2
GENIUS_GENOBJ-N-LEADER_13
 70
     0
  0
APPID
  2
DCO15
 70
     0
  0
APPID
  2
GENIUS_DUMCFG0_13
 70
     0
  0
APPID
  2
ACAD_DSTYLE_DIMTEXT_FILL
 70
     0
  0
APPID
  2
AMG_2DHIDE
 70
     0
  0
APPID
  2
GENIUS_GEFSHEP_13
 70
     0
  0
APPID
  2
GENIUS_GENOBJ-F-SHE_13
 70
     0
  0
APPID
  2
GENIUS_GEFSHE_13
 70
     0
  0
APPID
  2
ACAD_DIMASSOC_DIMLFAC
 70
     0
  0
APPID
  2
ACAD_DIMASSOC_CALC_DIMLFAC
 70
     0
  0
APPID
  2
ACAD_DIMASSOC_OVERRIDDEN_D
 70
     0
  0
APPID
  2
GENIUS_GENOBJ-F-SHSV_13
 70
     0
  0
APPID
  2
GENIUS_GEFWELD_13
 70
     0
  0
APPID
  2
GENIUS_GENOBJ-N-CRS_13
 70
     0
  0
APPID
  2
GENIUS_GENOBJ-N-RSBK_13
 70
     0
  0
APPID
  2
GENIUS_GENOBJ-N-LIB_13
 70
     0
  0
APPID
  2
GENIUS_GENSCALE_13
 70
     0
  0
APPID
  2
GENIUS_GENDREL_13
 70
     0
  0
APPID
  2
GEVPT
 70
     0
  0
APPID
  2
GEVIT
 70
     0
  0
APPID
  2
VCC
 70
     0
  0
APPID
  2
GENBH
 70
     0
  0
APPID
  2
GEVMK
 70
     0
  0
APPID
  2
GENIUS_GENOBJ-F-DESC_13
 70
     0
  0
APPID
  2
GENIUS_GEFDESC_14
 70
     0
  0
APPID
  2
GENIUS_GENOBJ-F-FEAT_13
 70
     0
  0
APPID
  2
GENIUS_GEFFEAT_14
 70
     0
  0
APPID
  2
GENIUS_GEFPARTINS_13
 70
     0
  0
APPID
  2
GENIUS_GENSCREG_13
 70
     0
  0
APPID
  2
GENIUS_GEFSHP_13
 70
     0
  0
APPID
  2
GEVID1025574798
 70
     0
  0
APPID
  2
GEVID1025574769
 70
     0
  0
APPID
  2
GEVID1025757451
 70
     0
  0
APPID
  2
GEVID1240528327
 70
     0
  0
APPID
  2
AMG_2DSTRUCT_BTR
 70
     0
  0
APPID
  2
ACADM_2DVIEW_IGN_NOTIFY
 70
     0
  0
APPID
  2
GEVID1240528328
 70
     0
  0
APPID
  2
GEVID1240528329
 70
     0
  0
APPID
  2
GEVRADREF
 70
     0
  0
APPID
  2
GEVID1240528330
 70
     0
  0
APPID
  2
GEVID1240528331
 70
     0
  0
APPID
  2
GEVID1240528332
 70
     0
  0
APPID
  2
GEVID1240791080
 70
     0
  0
APPID
  2
GEVID1240791081
 70
     0
  0
APPID
  2
GEVID1240791082
 70
     0
  0
APPID
  2
GEVID1240791083
 70
     0
  0
APPID
  2
GEVID1240791084
 70
     0
  0
APPID
  2
GEVID1240791085
 70
     0
  0
APPID
  2
GEVID1240791086
 70
     0
  0
APPID
  2
GEVID1240791087
 70
     0
  0
APPID
  2
GEVID1240791088
 70
     0
  0
APPID
  2
GEVID1240791089
 70
     0
  0
APPID
  2
GEVID1240791090
 70
     0
  0
APPID
  2
GEVID1240791091
 70
     0
  0
APPID
  2
GEVID1240791092
 70
     0
  0
APPID
  2
GEVID1240791093
 70
     0
  0
APPID
  2
GEVID1240791094
 70
     0
  0
APPID
  2
GEVID1240791095
 70
     0
  0
APPID
  2
GEVID1240791096
 70
     0
  0
APPID
  2
GEVID1240791097
 70
     0
  0
APPID
  2
GEVID1240791098
 70
     0
  0
APPID
  2
GEVID1240791099
 70
     0
  0
APPID
  2
GEVID1240791100
 70
     0
  0
APPID
  2
GEVID1240791101
 70
     0
  0
APPID
  2
GEVID1240791102
 70
     0
  0
APPID
  2
GEVID1240791103
 70
     0
  0
APPID
  2
GEVID1240791104
 70
     0
  0
APPID
  2
GEVID1240791105
 70
     0
  0
APPID
  2
GEVID1240875381
 70
     0
  0
APPID
  2
GEVID1240875382
 70
     0
  0
APPID
  2
GEVID1240875383
 70
     0
  0
APPID
  2
GEVID1240875384
 70
     0
  0
APPID
  2
GEVID1240875385
 70
     0
  0
APPID
  2
GEVID1240875386
 70
     0
  0
APPID
  2
GEVID1240875387
 70
     0
  0
APPID
  2
GEVID1240875388
 70
     0
  0
APPID
  2
GEVID1240875389
 70
     0
  0
APPID
  2
GEVID1240875390
 70
     0
  0
APPID
  2
GEVID1240875391
 70
     0
  0
APPID
  2
GEVID1240875392
 70
     0
  0
APPID
  2
GEVID1240875393
 70
     0
  0
APPID
  2
GEVID1240875394
 70
     0
  0
APPID
  2
GEVID1240875395
 70
     0
  0
APPID
  2
GEVID1240875396
 70
     0
  0
APPID
  2
GEVID1240875397
 70
     0
  0
APPID
  2
GEVID1240875398
 70
     0
  0
APPID
  2
GEVID1240875399
 70
     0
  0
APPID
  2
GEVID1240908996
 70
     0
  0
APPID
  2
GEVID1240908997
 70
     0
  0
APPID
  2
GEVID1240908998
 70
     0
  0
APPID
  2
GEVID1240908999
 70
     0
  0
APPID
  2
GEVID1240909000
 70
     0
  0
APPID
  2
GENIUS_GENOBJ-N-ZOO_13
 70
     0
  0
APPID
  2
GENIUS_GENZOO_17
 70
     0
  0
APPID
  2
ACAD_DSTYLE_DIMRADIAL_EXTENSION
 70
     0
  0
APPID
  2
GENIUS_GE3SECT_13
 70
     0
  0
APPID
  2
GEV_VCCNULL_SWITCH_OFF
 70
     0
  0
APPID
  2
ACAD_DSTYLE_DIMTALN
 70
     0
  0
APPID
  2
CONTENTBLOCKDESCRIPTION
 70
     0
  0
ENDTAB
  0
TABLE
  2
DIMSTYLE
 70
    23
  0
DIMSTYLE
  2
STANDARD
 70
     0
  3

  4

  5

  6

  7

 40
1.0
 41
0.18
 42
0.0625
 43
0.38
 44
0.18
 45
0.0
 46
0.0
 47
0.0
 48
0.0
140
0.18
141
0.09
142
0.0
143
25.399999999999999
144
1.0
145
0.0
146
1.0
147
0.09
 71
     0
 72
     0
 73
     1
 74
     1
 75
     0
 76
     0
 77
     0
 78
     0
170
     0
171
     2
172
     0
173
     0
174
     0
175
     0
176
     0
177
     0
178
     0
  0
DIMSTYLE
  2
ANNOTATIVE
 70
     0
  3

  4

  5

  6

  7

 40
1.0
 41
0.18
 42
0.0625
 43
0.38
 44
0.18
 45
0.0
 46
0.0
 47
0.0
 48
0.0
140
0.18
141
0.09
142
0.0
143
25.399999999999999
144
1.0
145
0.0
146
1.0
147
0.09
 71
     0
 72
     0
 73
     1
 74
     1
 75
     0
 76
     0
 77
     0
 78
     0
170
     0
171
     2
172
     0
173
     0
174
     0
175
     0
176
     0
177
     0
178
     0
  0
DIMSTYLE
  2
AM_ANSI
 70
     0
  3

  4
"
  5

  6

  7

 40
1.0
 41
2.5
 42
1.0
 43
10.0
 44
1.0
 45
0.0
 46
0.0
 47
0.1
 48
0.1
140
3.5
141
0.0
142
0.0
143
0.0393701
144
1.0
145
0.0
146
0.71
147
1.5
 71
     0
 72
     0
 73
     1
 74
     1
 75
     0
 76
     0
 77
     0
 78
     8
170
     0
171
     2
172
     0
173
     0
174
     0
175
     0
176
     2
177
     2
178
     4
  0
DIMSTYLE
  2
AM_ANSI$3
 70
     0
  3

  4
"
  5

  6

  7

 40
1.0
 41
2.5
 42
1.0
 43
10.0
 44
1.0
 45
0.0
 46
0.0
 47
0.1
 48
0.1
140
3.5
141
0.0
142
0.0
143
0.0393701
144
1.0
145
0.0
146
0.71
147
1.5
 71
     0
 72
     0
 73
     1
 74
     1
 75
     0
 76
     0
 77
     0
 78
     8
170
     0
171
     2
172
     0
173
     0
174
     0
175
     0
176
     2
177
     2
178
     4
  0
DIMSTYLE
  2
AM_ANSI$4
 70
     0
  3

  4
"
  5

  6

  7

 40
1.0
 41
2.5
 42
1.0
 43
10.0
 44
1.0
 45
0.0
 46
0.0
 47
0.1
 48
0.1
140
3.5
141
0.0
142
0.0
143
0.0393701
144
1.0
145
0.0
146
0.71
147
1.5
 71
     0
 72
     0
 73
     1
 74
     1
 75
     0
 76
     0
 77
     0
 78
     8
170
     0
171
     2
172
     0
173
     0
174
     0
175
     0
176
     2
177
     2
178
     4
  0
DIMSTYLE
  2
AM_ANSI$7
 70
     0
  3

  4
"
  5

  6

  7

 40
1.0
 41
2.5
 42
1.0
 43
10.0
 44
1.0
 45
0.0
 46
0.0
 47
0.1
 48
0.1
140
5.0
141
0.0
142
0.0
143
0.0393701
144
1.0
145
0.0
146
0.71
147
1.5
 71
     0
 72
     0
 73
     1
 74
     1
 75
     0
 76
     0
 77
     0
 78
     8
170
     0
171
     2
172
     0
173
     0
174
     0
175
     0
176
     2
177
     2
178
     4
  0
DIMSTYLE
  2
AM_ANSI$SF
 70
     0
  3

  4
"
  5

  6

  7

 40
1.0
 41
2.5
 42
1.0
 43
10.0
 44
1.0
 45
0.0
 46
0.0
 47
0.1
 48
0.1
140
3.5
141
0.0
142
0.0
143
0.0393701
144
1.0
145
0.0
146
0.71
147
1.5
 71
     0
 72
     0
 73
     1
 74
     1
 75
     1
 76
     1
 77
     0
 78
     8
170
     0
171
     2
172
     0
173
     0
174
     0
175
     0
176
     2
177
     2
178
     4
  0
DIMSTYLE
  2
AM_ANSI$SH
 70
     0
  3

  4
"
  5

  6

  7

 40
1.0
 41
2.5
 42
1.0
 43
10.0
 44
1.0
 45
0.0
 46
0.0
 47
0.1
 48
0.1
140
3.5
141
0.0
142
0.0
143
0.0393701
144
1.0
145
0.0
146
0.71
147
1.5
 71
     0
 72
     0
 73
     1
 74
     1
 75
     1
 76
     1
 77
     0
 78
     8
170
     0
171
     2
172
     0
173
     1
174
     0
175
     0
176
     2
177
     2
178
     4
  0
DIMSTYLE
  2
AM_ISO
 70
     0
  3

  4
"
  5

  6

  7

 40
1.0
 41
2.5
 42
1.0
 43
10.0
 44
1.0
 45
0.0
 46
0.0
 47
0.1
 48
0.1
140
3.5
141
0.0
142
0.0
143
0.0393701
144
1.0
145
0.0
146
0.71
147
1.5
 71
     0
 72
     0
 73
     0
 74
     0
 75
     0
 76
     0
 77
     1
 78
     8
170
     0
171
     2
172
     1
173
     0
174
     0
175
     0
176
   256
177
   256
178
     2
  0
DIMSTYLE
  2
AM_ISO$3
 70
     0
  3

  4
"
  5

  6

  7

 40
1.0
 41
2.5
 42
1.0
 43
10.0
 44
1.0
 45
0.0
 46
0.0
 47
0.1
 48
0.1
140
3.5
141
0.0
142
0.0
143
0.0393701
144
1.0
145
0.0
146
0.71
147
1.5
 71
     0
 72
     0
 73
     0
 74
     1
 75
     0
 76
     0
 77
     1
 78
     8
170
     0
171
     2
172
     0
173
     0
174
     0
175
     0
176
   256
177
   256
178
     2
  0
DIMSTYLE
  2
AM_ISO$4
 70
     0
  3

  4
"
  5

  6

  7

 40
1.0
 41
2.5
 42
1.0
 43
10.0
 44
1.0
 45
0.0
 46
0.0
 47
0.1
 48
0.1
140
3.5
141
0.0
142
0.0
143
0.0393701
144
1.0
145
0.0
146
0.71
147
1.5
 71
     0
 72
     0
 73
     0
 74
     1
 75
     0
 76
     0
 77
     1
 78
     8
170
     0
171
     2
172
     0
173
     0
174
     0
175
     0
176
   256
177
   256
178
     2
  0
DIMSTYLE
  2
AM_ISO$6
 70
     0
  3

  4
"
  5

  6

  7

 40
1.0
 41
2.5
 42
1.0
 43
10.0
 44
1.0
 45
0.0
 46
0.0
 47
0.1
 48
0.1
140
3.5
141
0.0
142
0.0
143
0.0393701
144
1.0
145
0.0
146
0.71
147
1.5
 71
     0
 72
     0
 73
     0
 74
     0
 75
     0
 76
     0
 77
     0
 78
     8
170
     0
171
     2
172
     1
173
     0
174
     0
175
     0
176
   256
177
   256
178
     2
  0
DIMSTYLE
  2
AM_ISO$7
 70
     0
  3

  4
"
  5

  6

  7

 40
1.0
 41
2.5
 42
1.0
 43
10.0
 44
1.0
 45
0.0
 46
0.0
 47
0.1
 48
0.1
140
5.0
141
0.0
142
0.0
143
0.0393701
144
1.0
145
0.0
146
0.71
147
1.5
 71
     0
 72
     0
 73
     0
 74
     0
 75
     0
 76
     0
 77
     1
 78
     8
170
     0
171
     2
172
     1
173
     0
174
     0
175
     0
176
   256
177
   256
178
     2
  0
DIMSTYLE
  2
AM_ISO$SF
 70
     0
  3

  4
"
  5

  6

  7

 40
1.0
 41
2.5
 42
1.0
 43
10.0
 44
1.0
 45
0.0
 46
0.0
 47
0.1
 48
0.1
140
3.5
141
0.0
142
0.0
143
0.0393701
144
1.0
145
0.0
146
0.71
147
1.5
 71
     0
 72
     0
 73
     0
 74
     0
 75
     1
 76
     1
 77
     1
 78
     8
170
     0
171
     2
172
     1
173
     0
174
     0
175
     0
176
   256
177
   256
178
     2
  0
DIMSTYLE
  2
AM_ISO$SH
 70
     0
  3

  4
"
  5

  6

  7

 40
1.0
 41
2.5
 42
1.0
 43
10.0
 44
1.0
 45
0.0
 46
0.0
 47
0.1
 48
0.1
140
3.5
141
0.0
142
0.0
143
0.0393701
144
2.0
145
0.0
146
0.71
147
1.5
 71
     0
 72
     0
 73
     0
 74
     0
 75
     1
 76
     1
 77
     1
 78
     8
170
     0
171
     2
172
     1
173
     1
174
     0
175
     0
176
   256
177
   256
178
     2
  0
DIMSTYLE
  2
AM_JIS
 70
     0
  3

  4
"
  5

  6

  7

 40
1.0
 41
2.0
 42
1.0
 43
8.0
 44
1.0
 45
0.0
 46
0.0
 47
0.1
 48
0.1
140
2.5
141
0.0
142
0.0
143
0.0393701
144
1.0
145
0.0
146
0.71
147
1.5
 71
     0
 72
     0
 73
     0
 74
     0
 75
     0
 76
     0
 77
     3
 78
     8
170
     0
171
     2
172
     1
173
     0
174
     0
175
     0
176
     2
177
     2
178
     4
  0
DIMSTYLE
  2
AM_JIS$3
 70
     0
  3

  4
"
  5

  6

  7

 40
1.0
 41
2.0
 42
1.0
 43
10.0
 44
1.0
 45
0.0
 46
0.0
 47
0.1
 48
0.1
140
2.5
141
0.0
142
0.0
143
0.0393701
144
1.0
145
0.0
146
0.71
147
1.5
 71
     0
 72
     0
 73
     0
 74
     1
 75
     0
 76
     0
 77
     3
 78
     8
170
     0
171
     2
172
     0
173
     0
174
     0
175
     0
176
     2
177
     2
178
     4
  0
DIMSTYLE
  2
AM_JIS$4
 70
     0
  3

  4
"
  5

  6

  7

 40
1.0
 41
2.0
 42
1.0
 43
10.0
 44
1.0
 45
0.0
 46
0.0
 47
0.1
 48
0.1
140
2.5
141
0.0
142
0.0
143
0.0393701
144
1.0
145
0.0
146
0.71
147
1.5
 71
     0
 72
     0
 73
     0
 74
     0
 75
     0
 76
     0
 77
     3
 78
     8
170
     0
171
     2
172
     0
173
     0
174
     0
175
     0
176
     2
177
     2
178
     4
  0
DIMSTYLE
  2
AM_JIS$6
 70
     0
  3

  4
"
  5

  6

  7

 40
1.0
 41
2.0
 42
1.0
 43
10.0
 44
1.0
 45
0.0
 46
0.0
 47
0.1
 48
0.1
140
2.5
141
0.0
142
0.0
143
0.0393701
144
1.0
145
0.0
146
0.71
147
1.5
 71
     0
 72
     0
 73
     0
 74
     0
 75
     0
 76
     0
 77
     0
 78
     8
170
     0
171
     2
172
     1
173
     0
174
     0
175
     0
176
     2
177
     2
178
     4
  0
DIMSTYLE
  2
AM_JIS$7
 70
     0
  3

  4
"
  5

  6

  7

 40
1.0
 41
2.0
 42
1.0
 43
10.0
 44
1.0
 45
0.0
 46
0.0
 47
0.1
 48
0.1
140
2.5
141
0.0
142
0.0
143
0.0393701
144
1.0
145
0.0
146
0.71
147
1.5
 71
     0
 72
     0
 73
     0
 74
     0
 75
     0
 76
     0
 77
     3
 78
     8
170
     0
171
     2
172
     1
173
     0
174
     0
175
     0
176
     2
177
     2
178
     4
  0
DIMSTYLE
  2
AM_JIS$SF
 70
     0
  3

  4
"
  5

  6

  7

 40
1.0
 41
2.0
 42
1.0
 43
10.0
 44
1.0
 45
0.0
 46
0.0
 47
0.1
 48
0.1
140
2.5
141
0.0
142
0.0
143
0.0393701
144
1.0
145
0.0
146
0.71
147
1.5
 71
     0
 72
     0
 73
     0
 74
     0
 75
     1
 76
     1
 77
     3
 78
     8
170
     0
171
     2
172
     1
173
     0
174
     0
175
     0
176
     2
177
     2
178
     4
  0
DIMSTYLE
  2
AM_JIS$SH
 70
     0
  3

  4
"
  5

  6

  7

 40
1.0
 41
2.0
 42
1.0
 43
10.0
 44
1.0
 45
0.0
 46
0.0
 47
0.1
 48
0.1
140
2.5
141
0.0
142
0.0
143
0.0393701
144
2.0
145
0.0
146
0.71
147
1.5
 71
     0
 72
     0
 73
     0
 74
     0
 75
     1
 76
     1
 77
     3
 78
     8
170
     0
171
     2
172
     1
173
     1
174
     0
175
     0
176
     2
177
     2
178
     4
  0
DIMSTYLE
  2
AM_JIS$0
 70
     0
  3

  4
"
  5

  6

  7

 40
1.0
 41
2.0
 42
1.0
 43
8.0
 44
1.0
 45
0.0
 46
0.0
 47
0.1
 48
0.1
140
2.5
141
0.0
142
0.0
143
0.0393701
144
1.0
145
0.0
146
0.71
147
1.5
 71
     0
 72
     0
 73
     0
 74
     0
 75
     0
 76
     0
 77
     3
 78
     8
170
     0
171
     2
172
     1
173
     0
174
     0
175
     0
176
     2
177
     2
178
     4
  0
ENDTAB
  0
ENDSEC
  0
SECTION
  2
BLOCKS
  0
BLOCK
  8
0
  2
$MODEL_SPACE
 70
     0
 10
0.0
 20
0.0
 30
0.0
  3
$MODEL_SPACE
  1

  0
ENDBLK
  5
8364
  8
0
  0
BLOCK
 67
     1
  8
0
  2
$PAPER_SPACE
 70
     0
 10
0.0
 20
0.0
 30
0.0
  3
$PAPER_SPACE
  1

  0
ENDBLK
  5
8360
 67
     1
  8
0
  0
BLOCK
  8
0
  2
GENAXEH
 70
     0
 10
0.0
 20
0.0
 30
0.0
  3
GENAXEH
  1

  0
LINE
  5
7F1E
  8
0
 10
-1.0
 20
0.0
 30
0.0
 11
1.0
 21
0.0
 31
0.0
  0
ENDBLK
  5
7F1F
  8
0
  0
BLOCK
  8
0
  2
_OPEN30
 70
     0
 10
0.0
 20
0.0
 30
0.0
  3
_OPEN30
  1

  0
LINE
  5
7F65
  8
0
  6
BYBLOCK
 62
     0
 10
-1.0
 20
0.26794919
 30
0.0
 11
0.0
 21
0.0
 31
0.0
  0
LINE
  5
7F66
  8
0
  6
BYBLOCK
 62
     0
 10
0.0
 20
0.0
 30
0.0
 11
-1.0
 21
-0.26794919
 31
0.0
  0
LINE
  5
7F67
  8
0
  6
BYBLOCK
 62
     0
 10
0.0
 20
0.0
 30
0.0
 11
-1.0
 21
0.0
 31
0.0
  0
ENDBLK
  5
7F68
  8
0
  0
BLOCK
  8
0
  2
A$C0B6F2A6D
 70
     0
 10
0.0
 20
0.0
 30
0.0
  3
A$C0B6F2A6D
  1

  0
LINE
  5
7E82
  8
0
  6
CENTER
 62
     0
 10
50.50002999999986
 20
-16.708370000000059
 30
0.0
 11
50.50002999999986
 21
14.60485999999946
 31
0.0
  0
LINE
  5
7E83
  8
0
  6
CONTINUOUS
 62
     0
 10
34.000029999999867
 20
-4.0000600000005271
 30
0.0
 11
67.000029999999853
 21
-4.0000600000005271
 31
0.0
  0
LINE
  5
7E84
  8
0
  6
CONTINUOUS
 62
     0
 10
34.000029999999867
 20
3.9999399999994689
 30
0.0
 11
67.000029999999853
 21
3.9999399999994689
 31
0.0
  0
LINE
  5
7E85
  8
0
  6
CONTINUOUS
 62
     0
 10
35.639550000000092
 20
-85.157280000000014
 30
0.0
 11
-0.0000000000001137
 21
-83.912759860571427
 31
0.0
  0
LINE
  5
7E86
  8
0
  6
CONTINUOUS
 62
     0
 10
35.639609999999891
 20
85.157229999999458
 30
0.0
 11
-0.0000000000001137
 21
83.912634737871826
 31
0.0
  0
ARC
  5
7E87
  8
0
  6
CONTINUOUS
 62
     0
 10
50.50002999999986
 20
0.0
 30
0.0
 40
10.0
 50
23.578037000006329
 51
156.42195999999231
  0
ARC
  5
7E88
  8
0
  6
CONTINUOUS
 62
     0
 10
34.000029999999867
 20
-0.0000600000005306
 30
0.0
 40
3.9999962
 50
90.000002999984659
 51
270.0
  0
ARC
  5
7E89
  8
0
  6
CONTINUOUS
 62
     0
 10
67.000029999999853
 20
-0.0000600000005306
 30
0.0
 40
3.9999962
 50
270.0
 51
90.000002999984659
  0
ARC
  5
7E8A
  8
0
  6
CONTINUOUS
 62
     0
 10
50.50002999999986
 20
0.0
 30
0.0
 40
10.0
 50
203.57826999999989
 51
336.4217200000013
  0
ARC
  5
7E8B
  8
0
  6
CONTINUOUS
 62
     0
 10
35.500029999999867
 20
-89.154840000000036
 30
0.0
 40
4.0
 50
0.0
 51
87.999999999996248
  0
ARC
  5
7E8C
  8
0
  6
CONTINUOUS
 62
     0
 10
35.500029999999867
 20
89.154789999999949
 30
0.0
 40
4.0
 50
272.00000000000369
 51
0.0
  0
ENDBLK
  5
7E90
  8
0
  0
BLOCK
  8
0
  2
*U5
 70
     1
 10
0.0
 20
0.0
 30
0.0
  3
*U5
  1

  0
TEXT
  5
82ED
  8
0
 62
     0
 10
5.1211371559201639
 20
5.9826223594979648
 30
0.0
 40
15.0
  1
ＶＸ０８－００３ＥＭ～ＶＸ０８－０３０ＥＭ
 41
0.7400000000000003
  0
ENDBLK
  5
82EF
  8
0
  0
BLOCK
  8
0
  2
*U6
 70
     1
 10
0.0
 20
0.0
 30
0.0
  3
*U6
  1

  0
TEXT
  5
82F1
  8
0
 62
     0
 10
754.17122949672114
 20
797.71385000614418
 30
0.0
 40
15.0
  1
ＶＸ１５－０６０ＥＭ～ＶＸ１５－１００ＥＭ
 41
0.7400000000000003
  0
ENDBLK
  5
82F3
  8
0
  0
BLOCK
  8
0
  2
_ACMFILLEDHALF
 70
     0
 10
0.0
 20
0.0
 30
0.0
  3
_ACMFILLEDHALF
  1

  0
TRACE
  5
84A4
  8
0
 62
     0
 10
-0.8
 20
0.0
 30
0.0
 11
-1.0
 21
0.166666666
 31
0.0
 12
0.0
 22
0.0
 32
0.0
 13
0.0
 23
0.0
 33
0.0
  0
LINE
  5
84A5
  8
0
 62
     0
 10
-1.0
 20
0.0
 30
0.0
 11
-0.8
 21
0.0
 31
0.0
  0
ENDBLK
  5
84A3
  8
0
  0
ENDSEC
  0
SECTION
  2
ENTITIES
  0
LINE
  5
6089
  8
0
  6
AM_ISO08W050
 10
133.25546312545791
 20
527.8044310150201
 30
0.0
 11
455.67887138889239
 21
527.8044310150201
 31
0.0
  0
LINE
  5
608A
  8
0
  6
AM_ISO08W050
 10
446.1910576132305
 20
565.80443101501999
 30
0.0
 11
685.90568661480575
 21
565.80443101501999
 31
0.0
  0
LINE
  5
608B
  8
0
 10
893.67769271295094
 20
589.8044310150201
 30
0.0
 11
905.67769271294969
 21
589.8044310150201
 31
0.0
  0
LINE
  5
608C
  8
0
 10
905.67769271294969
 20
589.8044310150201
 30
0.0
 11
905.67769271294969
 21
581.80446101502002
 31
0.0
  0
LINE
  5
608D
  8
0
 10
893.67769271295094
 20
589.8044310150201
 30
0.0
 11
893.67769271295094
 21
581.80446101502002
 31
0.0
  0
LINE
  5
608E
  8
0
 10
893.67769271295094
 20
581.80446101502002
 30
0.0
 11
905.67769271294969
 21
581.80446101502002
 31
0.0
  0
LINE
  5
608F
  8
0
  6
AM_ISO08W050
 10
899.67769271294969
 20
703.93438918414097
 30
0.0
 11
899.67769271294969
 21
389.83485101501992
 31
0.0
  0
LINE
  5
6090
  8
0
  6
AM_ISO08W050
 10
1014.677692712949
 20
419.6545860150199
 30
0.0
 11
1014.677692712949
 21
383.82890101501988
 31
0.0
  0
LINE
  5
6091
  8
0
  6
AM_ISO08W050
 10
784.67767771295121
 20
420.31233101501988
 30
0.0
 11
784.67767771295121
 21
385.91279601501992
 31
0.0
  0
LINE
  5
6092
  8
0
 10
825.01847771295104
 20
642.97592601501981
 30
0.0
 11
820.13572771295105
 21
624.7532760150209
 31
0.0
  0
LINE
  5
6093
  8
0
 10
962.08952771295071
 20
650.04697601501994
 30
0.0
 11
943.86689771295073
 21
645.16422601501995
 31
0.0
  0
LINE
  5
6094
  8
0
 10
1036.748752712951
 20
534.87550601502085
 30
0.0
 11
1023.40889271295
 21
548.21538101501994
 31
0.0
  0
LINE
  5
6095
  8
0
 10
1036.748752712951
 20
520.73338601501985
 30
0.0
 11
1028.937792712951
 21
512.92241101501975
 31
0.0
  0
LINE
  5
6096
  8
0
 10
762.6066277129496
 20
534.87547601502001
 30
0.0
 11
775.94652771295102
 21
548.21535101501968
 31
0.0
  0
LINE
  5
6097
  8
0
 10
988.37770271295039
 20
411.80445601501992
 30
0.0
 11
988.37770271295039
 21
390.80442601502
 31
0.0
  0
LINE
  5
6098
  8
0
 10
974.33696271295048
 20
642.97587601501994
 30
0.0
 11
979.21968271295077
 21
624.7532760150209
 31
0.0
  0
LINE
  5
6099
  8
0
 10
984.67769271295072
 20
390.80442601502
 30
0.0
 11
1039.67770771295
 21
390.80442601502
 31
0.0
  0
LINE
  5
609A
  8
0
 10
837.26591771295091
 20
650.04697601501994
 30
0.0
 11
855.48854271295102
 21
645.16422601501995
 31
0.0
  0
LINE
  5
609B
  8
0
 10
814.67768771295107
 20
391.80445601501992
 30
0.0
 11
814.67768771295107
 21
390.80442601502
 31
0.0
  0
LINE
  5
609C
  8
0
 10
759.67767771295121
 20
410.80442601501983
 30
0.0
 11
759.67767771295121
 21
390.80442601502
 31
0.0
  0
LINE
  5
609D
  8
0
 10
818.67768771295096
 20
395.80442601502
 30
0.0
 11
981.04347771294965
 21
395.80442601502
 31
0.0
  0
LINE
  5
609E
  8
0
 10
995.67769271295072
 20
415.80442601502
 30
0.0
 11
1034.67770771295
 21
415.80442601502
 31
0.0
  0
LINE
  5
609F
  8
0
 10
1024.1776927129499
 20
415.80442601502
 30
0.0
 11
1024.1776927129499
 21
390.80442601502
 31
0.0
  0
LINE
  5
60A0
  8
0
 10
775.17767771295075
 20
415.80442601502
 30
0.0
 11
775.17767771295075
 21
390.80442601502
 31
0.0
  0
LINE
  5
60A1
  8
0
 10
810.9777077129512
 20
411.80445601501992
 30
0.0
 11
810.9777077129512
 21
390.80442601502
 31
0.0
  0
LINE
  5
60A2
  8
0
 10
1005.17769271295
 20
415.80442601502
 30
0.0
 11
1005.17769271295
 21
390.80442601502
 31
0.0
  0
LINE
  5
60A3
  8
0
 10
794.17771771295099
 20
415.80442601502
 30
0.0
 11
794.17771771295099
 21
390.80442601502
 31
0.0
  0
LINE
  5
60A4
  8
0
 10
984.67769271295072
 20
391.80445601501992
 30
0.0
 11
984.67769271295072
 21
390.80442601502
 31
0.0
  0
LINE
  5
60A5
  8
0
 10
1039.67770771295
 20
410.80442601501983
 30
0.0
 11
1039.67770771295
 21
390.80442601502
 31
0.0
  0
LINE
  5
60A6
  8
0
 10
759.67767771295121
 20
390.80442601502
 30
0.0
 11
814.67768771295107
 21
390.80442601502
 31
0.0
  0
LINE
  5
60A7
  8
0
 10
762.6066277129496
 20
520.73332101502001
 30
0.0
 11
770.41762771295089
 21
512.92238101502085
 31
0.0
  0
LINE
  5
60A8
  8
0
 10
764.67767771295098
 20
415.80442601502
 30
0.0
 11
806.97770771295109
 21
415.80442601502
 31
0.0
  0
LINE
  5
60A9
  8
0
 10
776.13277771295043
 20
543.19603101502003
 30
0.0
 11
759.71602771295102
 21
411.42259101501992
 31
0.0
  0
LINE
  5
60AA
  8
0
 10
805.67768771295073
 20
609.43927601501991
 30
0.0
 11
805.67768771295073
 21
493.79457101501998
 31
0.0
  0
LINE
  5
60AB
  8
0
 10
1023.22264271295
 20
543.19603101502003
 30
0.0
 11
1039.6393477129509
 21
411.42259101501992
 31
0.0
  0
LINE
  5
60AC
  8
0
 10
811.67771771295099
 20
537.73809852355691
 30
0.0
 11
811.67771771295099
 21
423.80445601501992
 31
0.0
  0
LINE
  5
60AD
  8
0
 10
987.6776927129506
 20
537.80443101501976
 30
0.0
 11
987.6776927129506
 21
423.80445601501992
 31
0.0
  0
LINE
  5
60AE
  8
0
 10
993.67769271294958
 20
609.43927601501991
 30
0.0
 11
993.67768771295027
 21
493.79456773380059
 31
0.0
  0
LINE
  5
60AF
  8
0
  6
AM_ISO08W050
 10
801.36367910138904
 20
565.80443101501999
 30
0.0
 11
997.99170632451228
 21
565.80443101501999
 31
0.0
  0
LINE
  5
60B0
  8
0
 10
832.67768771295096
 20
410.80442601501983
 30
0.0
 11
966.67766271295045
 21
410.80442601501983
 31
0.0
  0
LINE
  5
60B1
  8
0
 10
829.32322771295105
 20
405.53511101501999
 30
0.0
 11
970.03215271295028
 21
405.53511101501999
 31
0.0
  0
LINE
  5
60B2
  8
0
 10
895.67769271295072
 20
694.80442601502
 30
0.0
 11
895.67769271295072
 21
661.30442601502
 31
0.0
  0
LINE
  5
60B3
  8
0
 10
903.67769271295072
 20
694.80442601502
 30
0.0
 11
903.67769271295072
 21
661.30442601502
 31
0.0
  0
LINE
  5
60B4
  8
0
 10
889.70915271295075
 20
657.42162601502048
 30
0.0
 11
891.38993771295077
 21
663.69452601501985
 31
0.0
  0
LINE
  5
60B5
  8
0
 10
909.64628771295031
 20
657.42167601502001
 30
0.0
 11
907.96550271295041
 21
663.69452601501985
 31
0.0
  0
LINE
  5
60B6
  8
0
 10
895.67769271295072
 20
665.06592601502007
 30
0.0
 11
892.1742727129506
 21
664.41907601501975
 31
0.0
  0
LINE
  5
60B7
  8
0
 10
903.67769271295072
 20
665.06592601502007
 30
0.0
 11
907.18110771295085
 21
664.41907601501975
 31
0.0
  0
ARC
  5
60B8
  8
0
 10
899.67769271294969
 20
565.80443101501999
 30
0.0
 40
20.9999985
 50
106.6015499999934
 51
73.398451999986264
  0
CIRCLE
  5
60B9
  8
0
 10
899.67769271294969
 20
565.80443101501999
 30
0.0
 40
3.5000000500000001
  0
CIRCLE
  5
60BA
  8
0
 10
899.67769271294969
 20
565.80443101501999
 30
0.0
 40
5.0
  0
ARC
  5
60BB
  8
0
 10
769.67767771295075
 20
527.8044310150201
 30
0.0
 40
10.0
 50
134.9999999999911
 51
224.9999999999738
  0
ARC
  5
60BC
  8
0
 10
964.6776927129506
 20
640.38772601502092
 30
0.0
 40
10.0
 50
15.00000000002132
 51
104.9999999999944
  0
ARC
  5
60BD
  8
0
 10
1029.6776927129511
 20
527.8044310150201
 30
0.0
 40
10.0
 50
314.99999999999079
 51
45.00000099997758
  0
ARC
  5
60BE
  8
0
 10
806.97770771295109
 20
411.80445601501992
 30
0.0
 40
4.000000049999997
 50
0.0
 51
90.000002999984659
  0
ARC
  5
60BF
  8
0
 10
899.67769271294969
 20
527.8044310150201
 30
0.0
 40
130.0
 50
127.3754999999958
 51
172.62448999998011
  0
ARC
  5
60C0
  8
0
 10
834.67768771295096
 20
640.38772601502092
 30
0.0
 40
10.0
 50
74.999999000022029
 51
164.99999000001131
  0
ARC
  5
60C1
  8
0
 10
899.67769271294969
 20
527.8044310150201
 30
0.0
 40
124.5
 50
7.1014839000139762
 51
172.8985199999988
  0
ARC
  5
60C2
  8
0
 10
899.67769271294969
 20
527.8044310150201
 30
0.0
 40
130.0
 50
187.3755099999936
 51
189.62445999998491
  0
ARC
  5
60C3
  8
0
 10
899.67769271294969
 20
527.8044310150201
 30
0.0
 40
130.0
 50
67.375506000006567
 51
112.62448999998379
  0
ARC
  5
60C4
  8
0
 10
818.67768771295096
 20
391.80445601501992
 30
0.0
 40
4.000000049999997
 50
99.488295999977296
 51
180.00001000000091
  0
ARC
  5
60C5
  8
0
 10
980.6776927129506
 20
391.80445601501992
 30
0.0
 40
4.000000049999997
 50
0.0
 51
80.511701999994784
  0
ARC
  5
60C6
  8
0
 10
764.67767771295098
 20
410.80442601501983
 30
0.0
 40
5.0
 50
90.000002999984659
 51
180.00001000000091
  0
ARC
  5
60C7
  8
0
 10
1034.67770771295
 20
410.80442601501983
 30
0.0
 40
5.0
 50
0.0
 51
90.000002999984659
  0
CIRCLE
  5
60C8
  8
0
 10
899.67769271294969
 20
565.80443101501999
 30
0.0
 40
41.000000499999992
  0
ARC
  5
60C9
  8
0
 10
992.37770271295028
 20
411.80445601501992
 30
0.0
 40
4.000000049999997
 50
90.000002999984659
 51
180.00001000000091
  0
ARC
  5
60CA
  8
0
 10
995.67769271295072
 20
423.80445601501992
 30
0.0
 40
8.0
 50
180.00001000000091
 51
270.0
  0
ARC
  5
60CB
  8
0
 10
899.67769271294969
 20
537.80443101501976
 30
0.0
 40
88.0
 50
0.0
 51
180.04318832006581
  0
ARC
  5
60CC
  8
0
 10
899.67769271294969
 20
527.8044310150201
 30
0.0
 40
130.0
 50
7.3755071999777844
 51
52.6244939999862
  0
ARC
  5
60CD
  8
0
 10
803.67768771295084
 20
423.80445601501992
 30
0.0
 40
8.0
 50
270.0
 51
0.0
  0
ARC
  5
60CE
  8
0
 10
899.67769271294969
 20
493.79457101501998
 30
0.0
 40
93.999994999999984
 50
179.999989999999
 51
200.58195999999401
  0
ARC
  5
60CF
  8
0
 10
899.67769271294969
 20
527.8044310150201
 30
0.0
 40
130.0
 50
350.37554999999219
 51
352.6244900000064
  0
ARC
  5
60D0
  8
0
 10
899.67769271294969
 20
493.79457101501998
 30
0.0
 40
93.999994999999984
 50
339.95001999998561
 51
359.99999800001018
  0
ARC
  5
60D1
  8
0
 10
992.67769271295072
 20
459.85347101501981
 30
0.0
 40
5.0
 50
159.95003000000679
 51
180.00001000000091
  0
ARC
  5
60D2
  8
0
 10
816.69953771295093
 20
403.64027101501978
 30
0.0
 40
8.0
 50
279.48829999999839
 51
357.00553999998567
  0
ARC
  5
60D3
  8
0
 10
832.67768771295096
 20
402.80442601502
 30
0.0
 40
8.0
 50
90.000002999984659
 51
177.00553999998581
  0
ARC
  5
60D4
  8
0
 10
966.67766271295045
 20
402.80442601502
 30
0.0
 40
8.0
 50
2.9944644000066472
 51
90.000002999984659
  0
ARC
  5
60D5
  8
0
 10
766.88207771295106
 20
509.38685601501987
 30
0.0
 40
5.0
 50
352.89851999999883
 51
45.00000099997758
  0
ARC
  5
60D6
  8
0
 10
772.41097771295108
 20
551.75093101501989
 30
0.0
 40
5.0
 50
314.99999999999079
 51
349.34381999999653
  0
ARC
  5
60D7
  8
0
 10
815.306047712951
 20
626.04732601501985
 30
0.0
 40
5.0
 50
310.65618000000683
 51
344.99999999997863
  0
ARC
  5
60D8
  8
0
 10
856.78260771295095
 20
649.99387601501985
 30
0.0
 40
5.0
 50
255.0000000000054
 51
289.34382000001068
  0
ARC
  5
60D9
  8
0
 10
942.57280271295053
 20
649.99387601501985
 30
0.0
 40
5.0
 50
250.6561799999877
 51
284.99999999999449
  0
ARC
  5
60DA
  8
0
 10
984.04933271295045
 20
626.04732601501985
 30
0.0
 40
5.0
 50
195.00000999998861
 51
229.34381999999309
  0
ARC
  5
60DB
  8
0
 10
951.61082771295071
 20
652.41562601501994
 30
0.0
 40
5.0
 50
247.37551000001091
 51
284.99999999999449
  0
ARC
  5
60DC
  8
0
 10
1026.9444177129501
 20
551.75093101501989
 30
0.0
 40
5.0
 50
190.6561799999771
 51
224.9999999999738
  0
ARC
  5
60DD
  8
0
 10
1032.473317712951
 20
509.38685601501987
 30
0.0
 40
5.0
 50
134.9999999999911
 51
187.10148999998231
  0
ARC
  5
60DE
  8
0
 10
847.74455271295119
 20
652.41562601501994
 30
0.0
 40
5.0
 50
255.0000000000054
 51
292.62448999998901
  0
ARC
  5
60DF
  8
0
 10
981.6275827129507
 20
635.08542601501995
 30
0.0
 40
5.0
 50
195.00000999998861
 51
232.6245000000041
  0
ARC
  5
60E0
  8
0
 10
1033.5607177129491
 20
545.13460101501994
 30
0.0
 40
5.0
 50
187.3755099999936
 51
224.9999999999738
  0
ARC
  5
60E1
  8
0
 10
817.7278277129509
 20
635.08542601501995
 30
0.0
 40
5.0
 50
307.37550999998689
 51
344.99999999997863
  0
ARC
  5
60E2
  8
0
 10
765.79467771295106
 20
545.13460101501994
 30
0.0
 40
5.0
 50
314.99999999999079
 51
352.6244900000064
  0
ARC
  5
60E3
  8
0
 10
765.79467771295106
 20
510.47426101502077
 30
0.0
 40
5.0
 50
7.3755080999940654
 51
45.00000099997758
  0
ARC
  5
60E4
  8
0
 10
1033.5607177129491
 20
510.47426101502077
 30
0.0
 40
5.0
 50
134.9999999999911
 51
172.62448999998011
  0
ARC
  5
60E5
  8
0
 10
982.65587271295055
 20
403.64027101501978
 30
0.0
 40
8.0
 50
182.9944600000139
 51
260.5117000000015
  0
ARC
  5
60E6
  8
0
 10
829.32322771295105
 20
400.53511101501999
 30
0.0
 40
5.0
 50
90.000002999984659
 51
166.18077999997911
  0
ARC
  5
60E7
  8
0
 10
970.03215271295028
 20
400.53511101501999
 30
0.0
 40
5.0
 50
13.81921700001431
 51
90.000002999984659
  0
ARC
  5
60E8
  8
0
 10
899.67769271294969
 20
694.80442601502
 30
0.0
 40
4.000000049999997
 50
359.999989999999
 51
179.999989999999
  0
ARC
  5
60E9
  8
0
 10
893.67769271295094
 20
661.30442601502
 30
0.0
 40
2.0000000500000001
 50
270.0
 51
0.0
  0
ARC
  5
60EA
  8
0
 10
905.67769271294969
 20
661.30442601502
 30
0.0
 40
2.0000000500000001
 50
179.999989999999
 51
270.0
  0
ARC
  5
60EB
  8
0
 10
892.35585271295042
 20
663.43567601501991
 30
0.0
 40
1.0
 50
100.4607200000144
 51
164.99999000001131
  0
ARC
  5
60EC
  8
0
 10
906.99955771295072
 20
663.43567601501991
 30
0.0
 40
1.0
 50
15.00000000002132
 51
79.53928100001076
  0
LINE
  5
60FA
  8
0
 10
772.67268671295119
 20
555.54841146015599
 30
0.0
 11
772.67268671295119
 21
558.85344401501993
 31
0.0
  0
ARC
  5
60FB
  8
0
 10
776.67270671295046
 20
558.85344401501993
 30
0.0
 40
4.000000199999997
 50
126.9233060597047
 51
179.99997999999781
  0
ARC
  5
60FC
  8
0
 10
779.7397267129511
 20
560.86549901501985
 30
0.0
 40
6.0000002999999991
 50
142.75615983938729
 51
172.73197000001551
  0
LINE
  5
61F0
  8
0
 10
755.47690271295039
 20
533.64595361538159
 30
0.0
 11
759.45009271295021
 21
534.26430361538144
 31
0.0
  0
LINE
  5
61F1
  8
0
 10
755.45775271295042
 20
453.58781361538109
 30
0.0
 11
759.45007271295015
 21
452.9532636153811
 31
0.0
  0
LINE
  5
61F2
  8
0
 10
764.64152271295018
 20
460.74446361538139
 30
0.0
 11
764.64152271295018
 21
518.69844164601466
 31
0.0
  0
LINE
  5
61F3
  8
0
 10
749.67769271295015
 20
461.51613361538142
 30
0.0
 11
749.67769271295015
 21
525.70280361538153
 31
0.0
  0
ARC
  5
61F4
  8
0
 10
771.93686271295041
 20
523.64207361538138
 30
0.0
 40
71.783180000000002
 50
259.98237999999873
 51
264.2925146432014
  0
ARC
  5
61F5
  8
0
 10
770.17509271295035
 20
578.58708361538152
 30
0.0
 40
122.22763
 50
261.9788100000028
 51
267.72651133324052
  0
ARC
  5
61F6
  8
0
 10
771.93686271295041
 20
463.58815361538149
 30
0.0
 40
71.770743999999979
 50
97.583546643254323
 51
100.01937999999819
  0
ARC
  5
61F7
  8
0
 10
770.17009271295024
 20
408.6434836153814
 30
0.0
 40
122.21539
 50
94.758979822308063
 51
98.019572999999482
  0
ARC
  5
61F8
  8
0
 10
760.64152271295018
 20
460.74446361538139
 30
0.0
 40
4.0
 50
265.37478999999712
 51
0.0
  0
ARC
  5
61F9
  8
0
 10
753.67769271295015
 20
525.70280361538153
 30
0.0
 40
4.0
 50
98.019572999999482
 51
180.00001000000091
  0
ARC
  5
61FA
  8
0
 10
756.39958271295018
 20
527.71733361538145
 30
0.0
 40
6.0
 50
98.845931000000306
 51
177.2542099999954
  0
ARC
  5
61FB
  8
0
 10
753.67769271295015
 20
461.51613361538142
 30
0.0
 40
4.0
 50
179.999989999999
 51
261.97882000000141
  0
ARC
  5
61FC
  8
0
 10
756.39958271295018
 20
459.51344361538139
 30
0.0
 40
6.0
 50
182.8675500000013
 51
260.96893000000148
  0
LINE
  5
6200
  8
0
 10
624.46119861918316
 20
589.8044310150201
 30
0.0
 11
624.46119861918316
 21
586.80446101502025
 31
0.0
  0
LINE
  5
6201
  8
0
 10
624.46119861918316
 20
589.8044310150201
 30
0.0
 11
680.46119861918339
 21
589.8044310150201
 31
0.0
  0
LINE
  5
6202
  8
0
 10
680.46119861918339
 20
544.80443101502033
 30
0.0
 11
680.46119861918339
 21
589.8044310150201
 31
0.0
  0
LINE
  5
6203
  8
0
 10
610.46119861918339
 20
543.30443101502055
 30
0.0
 11
610.46119861918339
 21
588.3044310150201
 31
0.0
  0
LINE
  5
6204
  8
0
 10
606.46124861918292
 20
543.30443101502055
 30
0.0
 11
610.46119861918339
 21
543.30443101502055
 31
0.0
  0
LINE
  5
6205
  8
0
 10
606.46124861918292
 20
588.3044310150201
 30
0.0
 11
610.46119861918339
 21
588.3044310150201
 31
0.0
  0
LINE
  5
6206
  8
0
 10
610.46119861918339
 20
544.80443101502033
 30
0.0
 11
680.46119861918339
 21
544.80443101502033
 31
0.0
  0
LINE
  5
6207
  8
0
 10
610.46119861918339
 20
586.80446101502025
 30
0.0
 11
680.46119861918339
 21
586.80446101502025
 31
0.0
  0
LINE
  5
6208
  8
0
 10
488.46119861918322
 20
449.35283101502017
 30
0.0
 11
488.46119861918322
 21
657.80442601502011
 31
0.0
  0
LINE
  5
6209
  8
0
 10
476.71714861918309
 20
649.04797601502025
 30
0.0
 11
503.46119861918328
 21
649.04797601502025
 31
0.0
  0
LINE
  5
620A
  8
0
 10
506.21884861918358
 20
509.8895110150201
 30
0.0
 11
519.45464861918322
 21
519.79948601502031
 31
0.0
  0
LINE
  5
620B
  8
0
 10
508.85789861918431
 20
548.29197601502017
 30
0.0
 11
520.99659861918315
 21
534.37858601502012
 31
0.0
  0
LINE
  5
620C
  8
0
 10
504.82764861918372
 20
622.19827601502016
 30
0.0
 11
516.62894861918392
 21
626.1396260150201
 31
0.0
  0
LINE
  5
620D
  8
0
 10
508.6601986191838
 20
649.98142601502013
 30
0.0
 11
518.48624861918347
 21
644.27032601502015
 31
0.0
  0
LINE
  5
620E
  8
0
 10
488.46119861918322
 20
632.12872601501999
 30
0.0
 11
500.46119861918322
 21
632.12872601501999
 31
0.0
  0
LINE
  5
620F
  8
0
 10
488.46119861918322
 20
650.38772601502012
 30
0.0
 11
507.15264861918359
 21
650.38772601502012
 31
0.0
  0
LINE
  5
6210
  8
0
 10
573.51944861918332
 20
609.97727601502015
 30
0.0
 11
568.46119861918339
 21
609.97727601502015
 31
0.0
  0
LINE
  5
6211
  8
0
 10
570.46119861918316
 20
461.40229601502023
 30
0.0
 11
561.94444861918362
 21
461.40229601502023
 31
0.0
  0
LINE
  5
6212
  8
0
 10
492.41324861918491
 20
454.45225601502023
 30
0.0
 11
464.86329861918421
 21
418.9038210150203
 31
0.0
  0
LINE
  5
6213
  8
0
 10
488.46119861918322
 20
542.81621101502026
 30
0.0
 11
500.46119861918322
 21
542.81621101502026
 31
0.0
  0
LINE
  5
6214
  8
0
 10
493.46119861918322
 20
501.61635101502031
 30
0.0
 11
503.46119861918328
 21
501.61635101502031
 31
0.0
  0
LINE
  5
6215
  8
0
 10
507.96119861918322
 20
627.28007601501963
 30
0.0
 11
507.96119861918322
 21
648.45327601502015
 31
0.0
  0
LINE
  5
6216
  8
0
 10
503.46119861918328
 20
545.81621101502037
 30
0.0
 11
503.46119861918328
 21
629.12872601502045
 31
0.0
  0
LINE
  5
6217
  8
0
 10
507.96119861918322
 20
540.29225101502027
 30
0.0
 11
507.96119861918322
 21
513.18010101502034
 31
0.0
  0
LINE
  5
6218
  8
0
 10
503.46119861918328
 20
508.1941060150204
 30
0.0
 11
503.46119861918328
 21
501.61635101502031
 31
0.0
  0
LINE
  5
6219
  8
0
 10
586.46124861918292
 20
625.80442601502
 30
0.0
 11
597.46119861918339
 21
625.80442601502
 31
0.0
  0
LINE
  5
621A
  8
0
 10
488.46119861918322
 20
511.19413601502032
 30
0.0
 11
500.46119861918322
 21
511.19413601502032
 31
0.0
  0
LINE
  5
621B
  8
0
 10
493.46119861918322
 20
501.61635101502031
 30
0.0
 11
493.46119861918322
 21
457.51512101502021
 31
0.0
  0
LINE
  5
621C
  8
0
 10
601.33984861918293
 20
611.92577601502012
 30
0.0
 11
605.58259861918339
 21
607.68307601502011
 31
0.0
  0
LINE
  5
621D
  8
0
 10
558.46119861918316
 20
599.97727601502015
 30
0.0
 11
558.46119861918316
 21
423.80445601502032
 31
0.0
  0
LINE
  5
621E
  8
0
 10
503.46119861918328
 20
650.38772601502012
 30
0.0
 11
503.46119861918328
 21
655.34922601502012
 31
0.0
  0
LINE
  5
621F
  8
0
 10
600.46119861918316
 20
565.80443101501999
 30
0.0
 11
600.46119861918316
 21
419.55043101502019
 31
0.0
  0
LINE
  5
6220
  8
0
 10
505.39139861918289
 20
651.92697601502005
 30
0.0
 11
570.74034861918369
 21
649.6449260150207
 31
0.0
  0
LINE
  5
6221
  8
0
 10
601.33989861918451
 20
525.68306101502014
 30
0.0
 11
605.58259861918339
 21
529.92570601502018
 31
0.0
  0
LINE
  5
6222
  8
0
 10
606.46124861918292
 20
411.80445601502021
 30
0.0
 11
606.46124861918292
 21
390.80442601502028
 31
0.0
  0
LINE
  5
6223
  8
0
 10
566.46124861918213
 20
415.80442601502023
 30
0.0
 11
602.46119861918339
 21
415.80442601502023
 31
0.0
  0
LINE
  5
6224
  8
0
 10
488.46124861918258
 20
657.80442601502011
 30
0.0
 11
501.53099861918338
 21
657.34802601502042
 31
0.0
  0
LINE
  5
6225
  8
0
 10
578.46119861918328
 20
469.40229601502023
 30
0.0
 11
578.46119861918328
 21
641.64982601502015
 31
0.0
  0
LINE
  5
6226
  8
0
 10
600.46119861918316
 20
565.80443101501999
 30
0.0
 11
600.46119861918316
 21
622.80442601501966
 31
0.0
  0
LINE
  5
6227
  8
0
 10
606.46124861918292
 20
565.80443101501999
 30
0.0
 11
606.46124861918292
 21
605.56182601502042
 31
0.0
  0
LINE
  5
6228
  8
0
 10
606.46124861918292
 20
565.80443101501999
 30
0.0
 11
606.46124861918292
 21
532.04707601502025
 31
0.0
  0
LINE
  5
6229
  8
0
 10
414.46114861918358
 20
390.80442601502028
 30
0.0
 11
606.46124861918292
 21
390.80442601502028
 31
0.0
  0
LINE
  5
622A
  8
0
 10
418.46114861918358
 20
415.80442601502023
 30
0.0
 11
458.5398986191833
 21
415.80442601502023
 31
0.0
  0
LINE
  5
622B
  8
0
 10
414.46114861918358
 20
411.80445601502021
 30
0.0
 11
414.46114861918358
 21
390.80442601502028
 31
0.0
  0
LINE
  5
622C
  8
0
 10
477.3913486191833
 20
657.41782601502041
 30
0.0
 11
488.46109861918308
 21
657.80442601502011
 31
0.0
  0
LINE
  5
622D
  8
0
 10
421.96119861918322
 20
442.80443101501959
 30
0.0
 11
457.60084617387417
 21
441.55987095518481
 31
0.0
  0
LINE
  5
622E
  8
0
 10
461.46124861918298
 20
416.3568560150203
 30
0.0
 11
461.46124861918298
 21
626.42377601502005
 31
0.0
  0
ARC
  5
622F
  8
0
 10
457.46124861918298
 20
437.56230763201847
 30
0.0
 40
4.0
 50
0.0
 51
88.000006193419637
1001
GENIUS_GENODEF_13
1002
{
1000
HIER
1070
     0
1002
}
1002
{
1000
MANEDIT
1070
     0
1002
}
1002
{
1000
NOSEL
1070
     0
1002
}
1002
{
1000
BEHIND
1070
     0
1002
}
1002
{
1000
OTHER
1070
     0
1002
}
1002
{
1000
REACTOR
1002
}
1001
GENIUS_GENOBJ-N-FIL_13
1002
{
1000
OWNER
1000
GEN
1002
}
  0
LINE
  5
6230
  8
0
 10
475.46119861918322
 20
432.57862601502018
 30
0.0
 11
475.46119861918322
 21
655.4191260150202
 31
0.0
  0
LINE
  5
6231
  8
0
 10
421.96119861918322
 20
612.8044310150201
 30
0.0
 11
457.60084397241292
 21
614.04897134726889
 31
0.0
  0
LINE
  5
6232
  8
0
 10
463.94024861918331
 20
644.88347601502073
 30
0.0
 11
472.98209861918372
 21
646.47782601502013
 31
0.0
  0
LINE
  5
6233
  8
0
 10
486.46124861918298
 20
657.80442601502011
 30
0.0
 11
488.46119861918322
 21
657.80442601502011
 31
0.0
  0
LINE
  5
6234
  8
0
 10
461.46124861918298
 20
626.42377601502005
 30
0.0
 11
461.46124861918298
 21
655.80442601502011
 31
0.0
  0
ARC
  5
6235
  8
0
 10
457.46124861918298
 20
618.04653474731083
 30
0.0
 40
4.0
 50
271.99996225375321
 51
0.0
1001
GENIUS_GENOBJ-N-FIL_13
1002
{
1000
OWNER
1000
GEN
1002
}
1001
GENIUS_GENODEF_13
1002
{
1000
HIER
1070
     0
1002
}
1002
{
1000
MANEDIT
1070
     0
1002
}
1002
{
1000
NOSEL
1070
     0
1002
}
1002
{
1000
BEHIND
1070
     0
1002
}
1002
{
1000
OTHER
1070
     0
1002
}
1002
{
1000
REACTOR
1002
}
  0
LINE
  5
6236
  8
0
 10
462.13829861918299
 20
657.30442601502011
 30
0.0
 11
476.79374861918433
 21
657.30442601502011
 31
0.0
  0
LINE
  5
6237
  8
0
 10
464.6440486191832
 20
664.30442601502011
 30
0.0
 11
480.27824861918282
 21
664.30442601502011
 31
0.0
  0
LINE
  5
6238
  8
0
 10
482.38404861918337
 20
657.59212601502054
 30
0.0
 11
480.74889861918513
 21
663.69452601502007
 31
0.0
  0
LINE
  5
6239
  8
0
 10
462.46119861918322
 20
657.30437601502013
 30
0.0
 11
464.17339861918322
 21
663.69452601502007
 31
0.0
  0
LINE
  5
623A
  8
0
 10
464.95779861918368
 20
664.4190760150201
 30
0.0
 11
472.46124861918281
 21
665.80437601502013
 31
0.0
  0
LINE
  5
623B
  8
0
 10
472.46119861918322
 20
665.80442601502011
 30
0.0
 11
479.9645986191839
 21
664.4190760150201
 31
0.0
  0
LINE
  5
623C
  8
0
 10
475.46119861918322
 20
512.79265101502006
 30
0.0
 11
488.46119861918322
 21
512.79265101502006
 31
0.0
  0
LINE
  5
623D
  8
0
 10
475.46119861918322
 20
542.81621101502026
 30
0.0
 11
488.46119861918322
 21
542.81621101502026
 31
0.0
  0
LINE
  5
623E
  8
0
 10
475.46119861918322
 20
632.12872601501999
 30
0.0
 11
488.46119861918322
 21
632.12872601501999
 31
0.0
  0
LINE
  5
623F
  8
0
 10
475.46119861918322
 20
650.38772601502012
 30
0.0
 11
488.46119861918322
 21
650.38772601502012
 31
0.0
  0
ARC
  5
6240
  8
0
 10
500.46119861918322
 20
508.1941060150204
 30
0.0
 40
3.0000000500000001
 50
0.0
 51
90.000002999984659
  0
ARC
  5
6241
  8
0
 10
506.59719861918381
 20
546.31972101502026
 30
0.0
 40
3.0000000500000001
 50
41.102821999973649
 51
90.000002999984659
  0
ARC
  5
6242
  8
0
 10
500.46119861918322
 20
629.12872601502045
 30
0.0
 40
3.0000000500000001
 50
0.0
 51
90.000002999984659
  0
ARC
  5
6243
  8
0
 10
500.46119861918322
 20
545.81621101502037
 30
0.0
 40
3.0000000500000001
 50
270.0
 51
0.0
  0
ARC
  5
6244
  8
0
 10
513.46119861918339
 20
527.80443101502033
 30
0.0
 40
10.0
 50
306.8230400000096
 51
41.102821999973649
  0
ARC
  5
6245
  8
0
 10
513.46119861918339
 20
635.62462601502011
 30
0.0
 40
10.0
 50
288.46821000003149
 51
59.83387800001988
  0
ARC
  5
6246
  8
0
 10
570.46119861918316
 20
469.40229601502023
 30
0.0
 40
8.0
 50
270.0
 51
0.0
  0
ARC
  5
6247
  8
0
 10
507.4734986191836
 20
626.24472601501998
 30
0.0
 40
3.0000000500000001
 50
270.0
 51
288.4682200000384
  0
ARC
  5
6248
  8
0
 10
507.15264861918359
 20
647.38772601502012
 30
0.0
 40
3.0000000500000001
 50
59.83387800001988
 51
90.000002999984659
  0
ARC
  5
6249
  8
0
 10
568.46119861918339
 20
599.97727601502015
 30
0.0
 40
10.0
 50
90.000002999984659
 51
180.00001000000091
  0
ARC
  5
624A
  8
0
 10
566.46124861918213
 20
423.80445601502032
 30
0.0
 40
8.0
 50
180.00001000000091
 51
270.0
  0
ARC
  5
624B
  8
0
 10
597.46119861918339
 20
622.80442601501966
 30
0.0
 40
3.0000000500000001
 50
0.0
 51
90.000002999984659
  0
ARC
  5
624C
  8
0
 10
501.46124861918281
 20
655.34922601502012
 30
0.0
 40
2.0000000500000001
 50
0.0
 51
87.999999999996447
  0
ARC
  5
624D
  8
0
 10
505.46119861918322
 20
653.92577601502046
 30
0.0
 40
2.0000000500000001
 50
179.999989999999
 51
268.00000999999281
  0
ARC
  5
624E
  8
0
 10
586.46124861918292
 20
633.80442601502
 30
0.0
 40
8.0
 50
180.00001000000091
 51
270.0
  0
ARC
  5
624F
  8
0
 10
604.46119861918316
 20
419.55043101502019
 30
0.0
 40
4.000000049999997
 50
179.999989999999
 51
255.52248999999159
  0
ARC
  5
6250
  8
0
 10
602.46119861918339
 20
411.80445601502021
 30
0.0
 40
4.000000049999997
 50
0.0
 51
90.000002999984659
  0
ARC
  5
6251
  8
0
 10
458.5398986191833
 20
423.80445601502032
 30
0.0
 40
8.0
 50
270.0
 51
322.22432000001339
  0
ARC
  5
6252
  8
0
 10
488.46119861918322
 20
457.51512101502021
 30
0.0
 40
5.0
 50
322.22432000001339
 51
0.0
  0
ARC
  5
6253
  8
0
 10
418.46114861918358
 20
411.80445601502021
 30
0.0
 40
4.000000049999997
 50
90.000002999984659
 51
180.00001000000091
  0
ARC
  5
6254
  8
0
 10
603.46119861918328
 20
523.56181601502021
 30
0.0
 40
3.0000000500000001
 50
135.00000000000881
 51
180.00001000000091
  0
ARC
  5
6255
  8
0
 10
603.46119861918328
 20
605.56182601502042
 30
0.0
 40
3.0000000500000001
 50
0.0
 51
45.000001000014002
  0
ARC
  5
6256
  8
0
 10
603.46119861918328
 20
532.04707601502025
 30
0.0
 40
3.0000000500000001
 50
315.00000000000881
 51
0.0
  0
ARC
  5
6257
  8
0
 10
603.46119861918328
 20
614.04702601502015
 30
0.0
 40
3.0000000500000001
 50
179.999989999999
 51
224.99999999999119
  0
ARC
  5
6258
  8
0
 10
570.46119861918316
 20
641.64982601502015
 30
0.0
 40
8.0
 50
0.0
 51
87.999999999996447
  0
ARC
  5
6259
  8
0
 10
477.46119861918328
 20
655.4191260150202
 30
0.0
 40
2.0000000500000001
 50
91.999997999994619
 51
180.00001000000091
  0
ARC
  5
625A
  8
0
 10
464.46119861918322
 20
641.9290260150201
 30
0.0
 40
3.0000000500000001
 50
100.00000000000681
 51
180.00001000000091
  0
ARC
  5
625B
  8
0
 10
472.46119861918322
 20
649.43217601501988
 30
0.0
 40
3.0000000500000001
 50
280.00000000000682
 51
0.0
  0
ARC
  5
625C
  8
0
 10
463.46119861918322
 20
655.80442601502011
 30
0.0
 40
2.0000000500000001
 50
131.4096200000069
 51
180.00001000000091
  0
CIRCLE
  5
625D
  8
0
 10
472.46119861918322
 20
678.30442601502011
 30
0.0
 40
12.5
  0
ARC
  5
625E
  8
0
 10
472.46119861918322
 20
678.30442601502011
 30
0.0
 40
20.500000500000009
 50
304.61363999998878
 51
235.3863500000009
  0
ARC
  5
625F
  8
0
 10
486.3780986191835
 20
658.14092601502011
 30
0.0
 40
4.000000049999997
 50
124.613649999999
 51
187.8682200000151
  0
ARC
  5
6260
  8
0
 10
458.54419861918279
 20
658.14092601502011
 30
0.0
 40
4.000000049999997
 50
347.9293300000013
 51
55.386359000034062
  0
ARC
  5
6261
  8
0
 10
465.13934861918312
 20
663.43567601502025
 30
0.0
 40
1.0
 50
100.46071999998399
 51
164.99998999998439
  0
ARC
  5
6262
  8
0
 10
479.78309861918319
 20
663.43567601502025
 30
0.0
 40
1.0
 50
14.999999999994451
 51
79.539281000010376
  0
LINE
  5
6264
  8
0
 10
575.96124861918292
 20
415.80443101501987
 30
0.0
 11
575.96124861918292
 21
390.80442601502028
 31
0.0
  0
LINE
  5
6265
  8
0
 10
594.96124861918565
 20
415.80443101501987
 30
0.0
 11
594.96124861918565
 21
390.80442601502028
 31
0.0
  0
LINE
  5
6266
  8
0
 10
444.96124861918571
 20
415.80443101501987
 30
0.0
 11
444.96124861918571
 21
390.80442601502028
 31
0.0
  0
LINE
  5
6267
  8
0
 10
425.96124861918258
 20
415.80443101501987
 30
0.0
 11
425.96124861918258
 21
390.80442601502028
 31
0.0
  0
LINE
  5
6268
  8
0
  6
AM_ISO08W050
 10
585.46119861918612
 20
417.76484601501988
 30
0.0
 11
585.46119861918612
 21
388.04670601502022
 31
0.0
  0
LINE
  5
6269
  8
0
  6
AM_ISO08W050
 10
435.46119861918328
 20
417.76484601501988
 30
0.0
 11
435.46119861918328
 21
388.04670601502022
 31
0.0
  0
ARC
  5
6F4E
  8
0
  6
CONTINUOUS
 10
143.46119861918339
 20
428.60443101502011
 30
0.0
 40
2.0
 50
180.0
 51
270.0
  0
LINE
  5
6F50
  8
0
  6
CONTINUOUS
 10
214.46119861918339
 20
628.60443101502005
 30
0.0
 11
214.46119861918339
 21
426.60443101502
 31
0.0
  0
ARC
  5
6F51
  8
0
  6
CONTINUOUS
 10
143.86119861918331
 20
613.58124601502004
 30
0.0
 40
2.399999999999999
 50
160.0000000000035
 51
180.0
  0
ARC
  5
6F52
  8
0
  6
CONTINUOUS
 10
148.45566261918341
 20
626.20443101502008
 30
0.0
 40
2.399999999999999
 50
90.0
 51
160.0000000000035
  0
LINE
  5
6F53
  8
0
  6
CONTINUOUS
 10
146.2003996191834
 20
627.02527901502003
 30
0.0
 11
141.6059366191833
 21
614.40209501502011
 31
0.0
  0
LINE
  5
6F54
  8
0
 10
146.77516361918339
 20
627.91788501502015
 30
0.0
 11
146.77516361918339
 21
426.60443101502
 31
0.0
  0
LINE
  5
6F55
  8
0
  6
CONTINUOUS
 10
141.46119861918339
 20
613.58124601502004
 30
0.0
 11
141.46119861918339
 21
428.60443101502011
 31
0.0
  0
LINE
  5
6F56
  8
0
  6
CONTINUOUS
 10
214.46119861918339
 20
628.60443101502005
 30
0.0
 11
148.45566261918341
 21
628.60443101502005
 31
0.0
  0
ARC
  5
6F57
  8
0
  6
CONTINUOUS
 10
314.96119861918339
 20
-31.04554498497988
 30
0.0
 40
600.59997599999986
 50
86.033759999997372
 51
93.836910000000643
  0
ARC
  5
6F58
  8
0
  6
CONTINUOUS
 10
275.14580361918343
 20
562.62083001502015
 30
0.0
 40
5.5999980000000003
 50
93.837062000000614
 51
179.99998200000081
  0
ARC
  5
6F59
  8
0
  6
CONTINUOUS
 10
277.20960361918333
 20
562.75563301501995
 30
0.0
 40
5.5999980000000003
 50
93.638055999997604
 51
179.99998200000081
  0
ARC
  5
6F5A
  8
0
  6
CONTINUOUS
 10
268.03780161918343
 20
527.8044310150201
 30
0.0
 40
15.000002
 50
310.58999199999971
 51
49.409702000001012
  0
ARC
  5
6F5B
  8
0
  6
CONTINUOUS
 10
314.96119861918339
 20
-31.04554498497988
 30
0.0
 40
596.09997599999986
 50
86.44328999999945
 51
93.315089000003056
  0
ARC
  5
6F5C
  8
0
  6
CONTINUOUS
 10
270.99714661918352
 20
527.8044310150201
 30
0.0
 40
14.0
 50
317.10021800000243
 51
42.899781999997558
  0
ARC
  5
6F5D
  8
0
  6
CONTINUOUS
 10
283.15740161918347
 20
539.10435101502003
 30
0.0
 40
2.6000000000000001
 50
180.0
 51
222.8997819999976
  0
LINE
  5
6F5E
  8
0
  6
CONTINUOUS
 10
277.09870361918342
 20
560.46303101501985
 30
0.0
 11
277.09870361918342
 21
540.71393101501985
 31
0.0
  0
LINE
  5
6F5F
  8
0
  6
CONTINUOUS
 10
280.55740161918362
 20
539.10435101502003
 30
0.0
 11
280.55740161918362
 21
557.38672901502025
 31
0.0
  0
ARC
  5
6F60
  8
0
  6
CONTINUOUS
 10
280.6987016191834
 20
560.46303101501985
 30
0.0
 40
3.5999979999999989
 50
93.315005000002984
 51
179.99998200000081
  0
ARC
  5
6F61
  8
0
  6
CONTINUOUS
 10
279.09870361918342
 20
540.71393101501985
 30
0.0
 40
1.999997
 50
179.99998200000081
 51
229.4100490000026
  0
LINE
  5
6F62
  8
0
  6
CONTINUOUS
 10
269.5458006191833
 20
562.62083101502003
 30
0.0
 11
269.5458006191833
 21
492.98802701501978
 31
0.0
  0
LINE
  5
6F63
  8
0
  6
CONTINUOUS
 10
271.60960161918331
 20
562.75563501501995
 30
0.0
 11
271.60960161918331
 21
492.8532270150198
 31
0.0
  0
LINE
  5
6F64
  8
0
  6
CONTINUOUS
 10
280.55740161918362
 20
495.27223501501999
 30
0.0
 11
280.55740161918362
 21
516.50451101502006
 31
0.0
  0
LINE
  5
6F65
  8
0
  6
CONTINUOUS
 10
277.09870361918342
 20
495.14169201502
 30
0.0
 11
277.09870361918342
 21
514.89493501502011
 31
0.0
  0
ARC
  5
6F66
  8
0
  6
CONTINUOUS
 10
283.15740161918347
 20
516.50451101502006
 30
0.0
 40
2.6000000000000001
 50
137.1002180000024
 51
180.0
  0
ARC
  5
6F67
  8
0
  6
CONTINUOUS
 10
279.09870361918342
 20
514.89493501502011
 30
0.0
 40
2.0
 50
130.59005899999829
 51
179.99998200000081
  0
ARC
  5
6F68
  8
0
  6
CONTINUOUS
 10
314.96119861918339
 20
1086.6544070150201
 30
0.0
 40
596.09997599999986
 50
266.6850579999973
 51
273.5570069999992
  0
ARC
  5
6F69
  8
0
  6
CONTINUOUS
 10
280.6987016191834
 20
495.14583501502
 30
0.0
 40
3.6000009999999989
 50
180.00007799999869
 51
266.68501400000298
  0
ARC
  5
6F6A
  8
0
  6
CONTINUOUS
 10
314.96119861918339
 20
1086.6544070150201
 30
0.0
 40
600.59997599999986
 50
266.16305400000141
 51
273.96601299999787
  0
ARC
  5
6F6B
  8
0
  6
CONTINUOUS
 10
275.14580361918343
 20
492.98803201502022
 30
0.0
 40
5.600000999999998
 50
180.00005699999531
 51
266.1630369999973
  0
ARC
  5
6F6C
  8
0
  6
CONTINUOUS
 10
277.20960361918333
 20
492.85323201502013
 30
0.0
 40
5.599998999999996
 50
180.00005699999531
 51
266.36204099999878
  0
ARC
  5
6F6D
  8
0
  6
CONTINUOUS
 10
356.25530461918328
 20
564.52443201502012
 30
0.0
 40
3.5999989999999982
 50
0.0000179999992061
 51
86.033744000000837
  0
LINE
  5
6F6E
  8
0
  6
CONTINUOUS
 10
351.43830261918328
 20
494.49993401502002
 30
0.0
 11
351.43830261918328
 21
561.10893601502005
 31
0.0
  0
LINE
  5
6F6F
  8
0
  6
CONTINUOUS
 10
354.75530461918328
 20
494.69673401502013
 30
0.0
 11
354.75530461918328
 21
560.91644801502002
 31
0.0
  0
ARC
  5
6F70
  8
0
  6
CONTINUOUS
 10
351.75530461918328
 20
560.91213501502011
 30
0.0
 40
3.0000029999999982
 50
0.0000179999992061
 51
86.4432529999997
  0
ARC
  5
6F71
  8
0
  6
CONTINUOUS
 10
348.4383026191835
 20
561.10893501502005
 30
0.0
 40
2.999998999999999
 50
0.0000179999992061
 51
86.764376000000055
  0
LINE
  5
6F72
  8
0
  6
CONTINUOUS
 10
359.85529461918333
 20
491.0737500150201
 30
0.0
 11
359.85529461918333
 21
564.53229301501995
 31
0.0
  0
ARC
  5
6F73
  8
0
  6
CONTINUOUS
 10
348.4383026191835
 20
494.49993401502002
 30
0.0
 40
3.0
 50
273.23604299999818
 51
0.0000179999992061
  0
ARC
  5
6F74
  8
0
  6
CONTINUOUS
 10
356.25530461918328
 20
491.08423101502001
 30
0.0
 40
3.6000059999999969
 50
273.96599899999779
 51
0.0000179999992061
  0
ARC
  5
6F75
  8
0
  6
CONTINUOUS
 10
351.75530461918328
 20
494.69673401502013
 30
0.0
 40
3.0
 50
273.55702100000269
 51
0.0000179999992061
  0
LINE
  5
6F76
  8
0
  6
CONTINUOUS
 10
366.9180746191833
 20
576.98943101502005
 30
0.0
 11
366.9180746191833
 21
556.62443101502004
 31
0.0
  0
LINE
  5
6F77
  8
0
  6
CONTINUOUS
 10
382.96119761918328
 20
576.98943101502005
 30
0.0
 11
382.96119761918328
 21
556.62443101502004
 31
0.0
  0
LINE
  5
6F78
  8
0
  6
CONTINUOUS
 10
397.5105936191834
 20
471.78363501501991
 30
0.0
 11
382.96119761918328
 21
471.78363501501991
 31
0.0
  0
LINE
  5
6F79
  8
0
  6
CONTINUOUS
 10
402.46119861918328
 20
483.19598501502009
 30
0.0
 11
382.96119761918328
 21
483.19598501502009
 31
0.0
  0
LINE
  5
6F7A
  8
0
  6
CONTINUOUS
 10
367.6665956191834
 20
476.49872501502
 30
0.0
 11
382.96119861918328
 21
471.78363501501991
 31
0.0
  0
LINE
  5
6F7B
  8
0
  6
CONTINUOUS
 10
382.96119861918328
 20
483.19598501502009
 30
0.0
 11
367.92525761918341
 21
482.65523401501991
 31
0.0
  0
ARC
  5
6F7C
  8
0
  6
CONTINUOUS
 10
367.96119861918328
 20
481.65588001501987
 30
0.0
 40
1.0
 50
92.059690999997088
 51
180.0
  0
ARC
  5
6F7D
  8
0
  6
CONTINUOUS
 10
367.96119861918328
 20
477.45434501502012
 30
0.0
 40
1.0
 50
180.0
 51
252.8662750000021
  0
LINE
  5
6F7E
  8
0
  6
CONTINUOUS
 10
382.96119861918328
 20
603.65721801502013
 30
0.0
 11
367.66073961918352
 21
598.83735201502009
 31
0.0
  0
ARC
  5
6F7F
  8
0
  6
CONTINUOUS
 10
367.96119861918328
 20
597.88355701501996
 30
0.0
 40
1.0
 50
107.485179
 51
180.0
  0
ARC
  5
6F80
  8
0
  6
CONTINUOUS
 10
367.96119861918328
 20
595.53249201502013
 30
0.0
 40
1.0
 50
180.0
 51
270.0
  0
LINE
  5
6F81
  8
0
  6
CONTINUOUS
 10
368.0097536191833
 20
594.5336710150201
 30
0.0
 11
382.96119861918328
 21
595.26049101501985
 31
0.0
  0
LINE
  5
6F82
  8
0
  6
CONTINUOUS
 10
402.46119861918328
 20
595.26049101501985
 30
0.0
 11
382.96119861918328
 21
595.26049101501985
 31
0.0
  0
LINE
  5
6F83
  8
0
  6
CONTINUOUS
 10
325.96119861918339
 20
626.09092401502005
 30
0.0
 11
413.40838361918321
 21
626.09092401502005
 31
0.0
  0
ARC
  5
6F84
  8
0
  6
CONTINUOUS
 10
237.22544361918341
 20
624.09092401502016
 30
0.0
 40
2.0
 50
90.0
 51
156.10180000000051
  0
ARC
  5
6F85
  8
0
  6
CONTINUOUS
 10
413.40838361918321
 20
624.09092401502016
 30
0.0
 40
2.0
 50
10.000001999998901
 51
90.0
  0
LINE
  5
6F86
  8
0
  6
CONTINUOUS
 10
416.96119861918322
 20
615.45944801502014
 30
0.0
 11
415.37799861918342
 21
624.43822101502019
 31
0.0
  0
LINE
  5
6F87
  8
0
  6
CONTINUOUS
 10
416.70039061918322
 20
615.45944801502014
 30
0.0
 11
416.96119861918322
 21
615.45944801502014
 31
0.0
  0
ARC
  5
6F88
  8
0
  6
CONTINUOUS
 10
222.29241361918349
 20
622.90115001502011
 30
0.0
 40
2.0
 50
90.0
 51
169.99999800000111
  0
LINE
  5
6F89
  8
0
  6
CONTINUOUS
 10
217.96119861918339
 20
609.85514701502007
 30
0.0
 11
220.3227986191834
 21
623.24844701502013
 31
0.0
  0
ARC
  5
6F8A
  8
0
  6
CONTINUOUS
 10
413.35736461918322
 20
622.90115001502011
 30
0.0
 40
2.0
 50
10.000001999998901
 51
90.0
  0
LINE
  5
6F8B
  8
0
  6
CONTINUOUS
 10
416.96119861918322
 20
613.98033001502017
 30
0.0
 11
415.32697961918342
 21
623.24844701502013
 31
0.0
  0
LINE
  5
6F8C
  8
0
  6
CONTINUOUS
 10
217.96119861918339
 20
609.85514701502007
 30
0.0
 11
218.52910461918341
 21
609.85514701502007
 31
0.0
  0
LINE
  5
6F8D
  8
0
  6
CONTINUOUS
 10
416.42522761918337
 20
613.98033001502017
 30
0.0
 11
416.96119861918322
 21
613.98033001502017
 31
0.0
  0
ARC
  5
6F8E
  8
0
  6
CONTINUOUS
 10
413.27150961918329
 20
620.34841601502012
 30
0.0
 40
2.0
 50
10.00000100000196
 51
90.0
  0
ARC
  5
6F8F
  8
0
  6
CONTINUOUS
 10
222.4102046191833
 20
620.34841601502012
 30
0.0
 40
2.0
 50
90.0
 51
169.9999989999979
  0
LINE
  5
6F90
  8
0
  6
CONTINUOUS
 10
217.96119861918339
 20
606.63439101502013
 30
0.0
 11
220.4405886191835
 21
620.69571201502004
 31
0.0
  0
ARC
  5
6F91
  8
0
  6
CONTINUOUS
 10
222.5913456191833
 20
616.38323101501987
 30
0.0
 40
2.0
 50
90.0
 51
170.00000000000139
  0
LINE
  5
6F92
  8
0
  6
CONTINUOUS
 10
217.96119861918339
 20
601.64190601502014
 30
0.0
 11
220.62172961918341
 21
616.73052701502013
 31
0.0
  0
ARC
  5
6F93
  8
0
  6
CONTINUOUS
 10
222.87257361918341
 20
610.80580301502016
 30
0.0
 40
2.0
 50
90.0
 51
170.00000000000139
  0
LINE
  5
6F94
  8
0
  6
CONTINUOUS
 10
217.96119861918339
 20
594.46955401502009
 30
0.0
 11
220.9029576191833
 21
611.15310001502007
 31
0.0
  0
ARC
  5
6F95
  8
0
  6
CONTINUOUS
 10
222.96783761918331
 20
604.80513601502003
 30
0.0
 40
2.0
 50
90.0
 51
169.9999989999979
  0
LINE
  5
6F96
  8
0
  6
CONTINUOUS
 10
217.96119861918339
 20
587.92861801501999
 30
0.0
 11
220.9982216191836
 21
605.15243201501994
 31
0.0
  0
LINE
  5
6F97
  8
0
  6
CONTINUOUS
 10
416.83293961918332
 20
611.66808001501988
 30
0.0
 11
415.24112461918321
 21
620.69571201502004
 31
0.0
  0
LINE
  5
6F98
  8
0
  6
CONTINUOUS
 10
217.96119861918339
 20
606.63439101502013
 30
0.0
 11
218.8415086191834
 21
606.63439101502013
 31
0.0
  0
ARC
  5
6F99
  8
0
  6
CONTINUOUS
 10
413.14213161918337
 20
616.38323101501987
 30
0.0
 40
2.0
 50
9.9999999999986073
 51
90.0
  0
LINE
  5
6F9A
  8
0
  6
CONTINUOUS
 10
416.0043936191833
 20
611.66808001501988
 30
0.0
 11
415.11174761918318
 21
616.73052701502013
 31
0.0
  0
ARC
  5
6F9B
  8
0
  6
CONTINUOUS
 10
348.35021661918341
 20
610.80580301502016
 30
0.0
 40
2.0
 50
5.5986529999989587
 51
90.0
  0
ARC
  5
6F9C
  8
0
  6
CONTINUOUS
 10
348.34826161918329
 20
604.80513601502003
 30
0.0
 40
2.0
 50
5.4290190000020546
 51
90.0
  0
LINE
  5
6F9D
  8
0
  6
CONTINUOUS
 10
418.96119861918328
 20
488.08172501501991
 30
0.0
 11
418.96119861918328
 21
589.87036401501985
 31
0.0
  0
LINE
  5
6F9E
  8
0
  6
CONTINUOUS
 10
418.96119861918328
 20
611.66808001501988
 30
0.0
 11
418.96119861918328
 21
615.80443101501999
 31
0.0
  0
LINE
  5
6F9F
  8
0
  6
CONTINUOUS
 10
366.9180746191833
 20
601.64190601502014
 30
0.0
 11
382.96119761918328
 21
606.24176801502006
 31
0.0
  0
LINE
  5
6FA0
  8
0
  6
CONTINUOUS
 10
351.2581136191834
 20
601.64190601502014
 30
0.0
 11
366.9180746191833
 21
601.64190601502014
 31
0.0
  0
LINE
  5
6FA1
  8
0
  6
CONTINUOUS
 10
382.96119761918328
 20
606.24176801502006
 30
0.0
 11
397.65448161918329
 21
606.24176801502006
 31
0.0
  0
ARC
  5
6FA2
  8
0
  6
CONTINUOUS
 10
399.66099761918338
 20
599.28769701501994
 30
0.0
 40
2.600398999999999
 50
179.9999819999943
 51
269.99997799999852
  0
ARC
  5
6FA3
  8
0
  6
CONTINUOUS
 10
399.66099761918338
 20
604.58768501502016
 30
0.0
 40
2.600403
 50
90.0
 51
179.9999819999943
  0
LINE
  5
6FA4
  8
0
  6
CONTINUOUS
 10
402.46119861918328
 20
602.00371601502013
 30
0.0
 11
400.96119861918322
 21
601.13769101501987
 31
0.0
  0
LINE
  5
6FA5
  8
0
  6
CONTINUOUS
 10
402.46119861918328
 20
603.00371601502013
 30
0.0
 11
400.96119861918322
 21
602.1376910150201
 31
0.0
  0
LINE
  5
6FA6
  8
0
  6
CONTINUOUS
 10
402.46119861918328
 20
608.03769101502007
 30
0.0
 11
402.46119861918328
 21
595.83769101502014
 31
0.0
  0
LINE
  5
6FA7
  8
0
  6
CONTINUOUS
 10
400.96119861918322
 20
608.03769101502007
 30
0.0
 11
402.46119861918328
 21
608.03769101502007
 31
0.0
  0
LINE
  5
6FA8
  8
0
  6
CONTINUOUS
 10
400.96119861918322
 20
595.83769101502014
 30
0.0
 11
402.46119861918328
 21
595.83769101502014
 31
0.0
  0
LINE
  5
6FA9
  8
0
  6
CONTINUOUS
 10
397.06120461918329
 20
604.58768501502016
 30
0.0
 11
397.06120461918329
 21
599.28769701501994
 31
0.0
  0
LINE
  5
6FAA
  8
0
  6
CONTINUOUS
 10
400.96119861918322
 20
608.03769101502007
 30
0.0
 11
400.96119861918322
 21
595.83769101502014
 31
0.0
  0
LINE
  5
6FAB
  8
0
  6
CONTINUOUS
 10
400.96119861918322
 20
596.68769101502005
 30
0.0
 11
399.66099761918338
 21
596.68769101502005
 31
0.0
  0
LINE
  5
6FAC
  8
0
  6
CONTINUOUS
 10
400.96119861918322
 20
607.18769101502005
 30
0.0
 11
399.66099761918338
 21
607.18769101502005
 31
0.0
  0
ARC
  5
6FAD
  8
0
  6
CONTINUOUS
 10
399.66099761918338
 20
473.24577001502013
 30
0.0
 40
2.600398999999999
 50
179.9999819999943
 51
269.99997799999852
  0
ARC
  5
6FAE
  8
0
  6
CONTINUOUS
 10
399.66099761918338
 20
478.54575801501989
 30
0.0
 40
2.600403
 50
90.0
 51
179.9999819999943
  0
LINE
  5
6FAF
  8
0
  6
CONTINUOUS
 10
402.46119861918328
 20
475.96178901502009
 30
0.0
 11
400.96119861918322
 21
475.09576401501999
 31
0.0
  0
LINE
  5
6FB0
  8
0
  6
CONTINUOUS
 10
402.46119861918328
 20
476.96178901501992
 30
0.0
 11
400.96119861918322
 21
476.09576401501988
 31
0.0
  0
LINE
  5
6FB1
  8
0
  6
CONTINUOUS
 10
402.46119861918328
 20
481.99576401501997
 30
0.0
 11
402.46119861918328
 21
469.7957640150201
 31
0.0
  0
LINE
  5
6FB2
  8
0
  6
CONTINUOUS
 10
400.96119861918322
 20
481.99576401501997
 30
0.0
 11
402.46119861918328
 21
481.99576401501997
 31
0.0
  0
LINE
  5
6FB3
  8
0
  6
CONTINUOUS
 10
400.96119861918322
 20
469.7957640150201
 30
0.0
 11
402.46119861918328
 21
469.7957640150201
 31
0.0
  0
LINE
  5
6FB4
  8
0
  6
CONTINUOUS
 10
397.06120461918329
 20
478.54575801501989
 30
0.0
 11
397.06120461918329
 21
473.24577001502013
 31
0.0
  0
LINE
  5
6FB5
  8
0
  6
CONTINUOUS
 10
400.96119861918322
 20
481.99576401501997
 30
0.0
 11
400.96119861918322
 21
469.7957640150201
 31
0.0
  0
LINE
  5
6FB6
  8
0
  6
CONTINUOUS
 10
400.96119861918322
 20
470.64576401501978
 30
0.0
 11
399.66099761918338
 21
470.64576401501978
 31
0.0
  0
LINE
  5
6FB7
  8
0
  6
CONTINUOUS
 10
400.96119861918322
 20
481.14576401502012
 30
0.0
 11
399.66099761918338
 21
481.14576401502012
 31
0.0
  0
LINE
  5
6FB8
  8
0
  6
CONTINUOUS
 10
416.90036861918333
 20
615.80443101501999
 30
0.0
 11
418.96119861918328
 21
615.80443101501999
 31
0.0
  0
LINE
  5
6FB9
  8
0
  6
CONTINUOUS
 10
222.5913456191833
 20
618.3832310150201
 30
0.0
 11
413.14213161918337
 21
618.3832310150201
 31
0.0
  0
LINE
  5
6FBA
  8
0
  6
CONTINUOUS
 10
222.4102046191833
 20
622.34841601502012
 30
0.0
 11
413.27150961918329
 21
622.34841601502012
 31
0.0
  0
LINE
  5
6FBB
  8
0
  6
CONTINUOUS
 10
222.29241361918349
 20
624.90115001502011
 30
0.0
 11
413.35736461918322
 21
624.90115001502011
 31
0.0
  0
LINE
  5
6FBC
  8
0
  6
CONTINUOUS
 10
214.46119861918339
 20
621.3044310150201
 30
0.0
 11
219.9800166191834
 21
621.3044310150201
 31
0.0
  0
LINE
  5
6FBD
  8
0
  6
CONTINUOUS
 10
237.22544361918341
 20
626.09092401502005
 30
0.0
 11
303.96119861918339
 21
626.09092401502005
 31
0.0
  0
LINE
  5
6FBE
  8
0
  6
CONTINUOUS
 10
382.96119761918328
 20
584.96443101502018
 30
0.0
 11
382.96119761918328
 21
579.61943101502015
 31
0.0
  0
LINE
  5
6FBF
  8
0
  6
CONTINUOUS
 10
366.9180746191833
 20
584.96443101502018
 30
0.0
 11
366.9180746191833
 21
579.61943101502015
 31
0.0
  0
LINE
  5
6FC0
  8
0
  6
CONTINUOUS
 10
382.96119761918328
 20
595.26049101501985
 30
0.0
 11
382.96119761918328
 21
587.66443101502011
 31
0.0
  0
LINE
  5
6FC1
  8
0
  6
CONTINUOUS
 10
382.96119761918328
 20
603.65721801502013
 30
0.0
 11
397.06120461918329
 21
603.65721801502013
 31
0.0
  0
LINE
  5
6FC2
  8
0
  6
CONTINUOUS
 10
217.96119861918339
 20
587.92861801501999
 30
0.0
 11
351.96119861918328
 21
587.92861801501999
 31
0.0
  0
LINE
  5
6FC3
  8
0
  6
CONTINUOUS
 10
351.28357161918348
 20
594.46955401502009
 30
0.0
 11
351.96119861918328
 21
594.46955401502009
 31
0.0
  0
LINE
  5
6FC4
  8
0
  6
CONTINUOUS
 10
222.96783761918331
 20
606.80513601501991
 30
0.0
 11
348.34826161918329
 21
606.80513601501991
 31
0.0
  0
LINE
  5
6FC5
  8
0
  6
CONTINUOUS
 10
217.96119861918339
 20
594.46955401502009
 30
0.0
 11
219.1145416191834
 21
594.46955401502009
 31
0.0
  0
LINE
  5
6FC6
  8
0
  6
CONTINUOUS
 10
222.87257361918341
 20
612.80580301502005
 30
0.0
 11
348.35021661918341
 21
612.80580301502005
 31
0.0
  0
LINE
  5
6FC7
  8
0
  6
CONTINUOUS
 10
418.96119861918328
 20
589.87036401501985
 30
0.0
 11
421.96119861918322
 21
588.13831301502012
 31
0.0
  0
ARC
  5
6FC8
  8
0
  6
CONTINUOUS
 10
401.46119861918322
 20
590.87036401501985
 30
0.0
 40
1.0
 50
270.0
 51
0.0
  0
ARC
  5
6FC9
  8
0
  6
CONTINUOUS
 10
404.46119861918322
 20
609.66808001502011
 30
0.0
 40
2.0
 50
90.0
 51
180.0
  0
ARC
  5
6FCA
  8
0
  6
CONTINUOUS
 10
404.46119861918322
 20
605.5440750150201
 30
0.0
 40
2.0
 50
180.0
 51
270.0
  0
ARC
  5
6FCB
  8
0
  6
CONTINUOUS
 10
404.46119861918322
 20
601.5440750150201
 30
0.0
 40
2.0
 50
90.0
 51
180.0
  0
LINE
  5
6FCC
  8
0
  6
CONTINUOUS
 10
404.46119861918322
 20
611.66808001501988
 30
0.0
 11
461.46124861918298
 21
611.66808001501988
 31
0.0
  0
LINE
  5
6FCD
  8
0
  6
CONTINUOUS
 10
402.46119861918328
 20
589.87036401501985
 30
0.0
 11
418.96119861918328
 21
589.87036401501985
 31
0.0
  0
LINE
  5
6FCE
  8
0
  6
CONTINUOUS
 10
404.46119861918322
 20
603.54407501501998
 30
0.0
 11
461.46124861918298
 21
603.54407501501998
 31
0.0
  0
LINE
  5
6FCF
  8
0
  6
CONTINUOUS
 10
402.46119861918328
 20
590.87036401501985
 30
0.0
 11
402.46119861918328
 21
609.66808001502011
 31
0.0
  0
LINE
  5
6FD0
  8
0
  6
CONTINUOUS
 10
217.96119861918339
 20
443.80443101502021
 30
0.0
 11
214.46119861918339
 21
443.80443101502021
 31
0.0
  0
LINE
  5
6FD1
  8
0
  6
CONTINUOUS
 10
217.96119861918339
 20
493.44564201501993
 30
0.0
 11
222.56857461918329
 21
487.01403601502
 31
0.0
  0
LINE
  5
6FD2
  8
0
  6
CONTINUOUS
 10
222.56857461918329
 20
487.01403601502
 30
0.0
 11
223.4243746191834
 21
489.64095601502021
 31
0.0
  0
LINE
  5
6FD3
  8
0
  6
CONTINUOUS
 10
217.96119861918339
 20
493.44564201501993
 30
0.0
 11
223.4243746191834
 21
489.64095601502021
 31
0.0
  0
LINE
  5
6FD4
  8
0
  6
CONTINUOUS
 10
223.4243746191834
 20
489.64095601502021
 30
0.0
 11
224.63630461918331
 21
489.08499601502001
 31
0.0
  0
LINE
  5
6FD5
  8
0
  6
CONTINUOUS
 10
214.46119861918339
 20
487.01403601502
 30
0.0
 11
222.56857461918329
 21
487.01403601502
 31
0.0
  0
LINE
  5
6FD6
  8
0
  6
CONTINUOUS
 10
214.46119861918339
 20
493.44564201501993
 30
0.0
 11
217.96119861918339
 21
493.44564201501993
 31
0.0
  0
LINE
  5
6FD7
  8
0
  6
CONTINUOUS
 10
217.96119861918339
 20
470.87225601501979
 30
0.0
 11
217.96119861918339
 21
467.6793620150201
 31
0.0
  0
LINE
  5
6FD8
  8
0
  6
CONTINUOUS
 10
219.72119861918341
 20
470.3038220150201
 30
0.0
 11
219.72119861918341
 21
468.30504001501993
 31
0.0
  0
LINE
  5
6FD9
  8
0
  6
CONTINUOUS
 10
234.72119861918341
 20
479.30443101501987
 30
0.0
 11
234.72119861918341
 21
477.3050400150201
 31
0.0
  0
LINE
  5
6FDA
  8
0
  6
CONTINUOUS
 10
232.96119861918339
 20
479.76597301501999
 30
0.0
 11
232.96119861918339
 21
476.6982380150198
 31
0.0
  0
LINE
  5
6FDB
  8
0
  6
CONTINUOUS
 10
232.96119861918339
 20
479.76597301501999
 30
0.0
 11
314.96119861918339
 21
479.76597301501999
 31
0.0
  0
LINE
  5
6FDC
  8
0
  6
CONTINUOUS
 10
232.96119861918339
 20
476.6982380150198
 30
0.0
 11
314.96119861918339
 21
476.6982380150198
 31
0.0
  0
LINE
  5
6FDD
  8
0
  6
CONTINUOUS
 10
217.96119861918339
 20
467.6793620150201
 30
0.0
 11
314.96119861918339
 21
467.6793620150201
 31
0.0
  0
LINE
  5
6FDE
  8
0
  6
CONTINUOUS
 10
217.96119861918339
 20
470.87225601501979
 30
0.0
 11
314.96119861918339
 21
470.87225601501979
 31
0.0
  0
LINE
  5
6FDF
  8
0
  6
CONTINUOUS
 10
219.72119861918341
 20
470.3038220150201
 30
0.0
 11
314.96119861918339
 21
470.3038220150201
 31
0.0
  0
LINE
  5
6FE0
  8
0
  6
CONTINUOUS
 10
219.72119861918341
 20
468.30504001501993
 30
0.0
 11
314.96119861918339
 21
468.30504001501993
 31
0.0
  0
LINE
  5
6FE1
  8
0
  6
CONTINUOUS
 10
219.72119861918341
 20
470.3038220150201
 30
0.0
 11
217.96119861918339
 21
470.87225601501979
 31
0.0
  0
LINE
  5
6FE2
  8
0
  6
CONTINUOUS
 10
219.72119861918341
 20
468.30504001501993
 30
0.0
 11
217.96119861918339
 21
467.6793620150201
 31
0.0
  0
LINE
  5
6FE3
  8
0
  6
CONTINUOUS
 10
222.90446461918339
 20
477.04635201501992
 30
0.0
 11
224.0855556191834
 21
476.80894301501968
 31
0.0
  0
LINE
  5
6FE4
  8
0
  6
CONTINUOUS
 10
234.72119861918341
 20
479.30443101501987
 30
0.0
 11
314.96119861918339
 21
479.30443101501987
 31
0.0
  0
LINE
  5
6FE5
  8
0
  6
CONTINUOUS
 10
234.72119861918341
 20
477.3050400150201
 30
0.0
 11
314.96119861918339
 21
477.3050400150201
 31
0.0
  0
LINE
  5
6FE6
  8
0
  6
CONTINUOUS
 10
234.72119861918341
 20
479.30443101501987
 30
0.0
 11
232.96119861918339
 21
479.76597301501999
 31
0.0
  0
LINE
  5
6FE7
  8
0
  6
CONTINUOUS
 10
234.72119861918341
 20
477.3050400150201
 30
0.0
 11
232.96119861918339
 21
476.6982380150198
 31
0.0
  0
LINE
  5
6FE8
  8
0
  6
CONTINUOUS
 10
351.96119861918328
 20
479.76597301501999
 30
0.0
 11
314.96119861918339
 21
479.76597301501999
 31
0.0
  0
LINE
  5
6FE9
  8
0
  6
CONTINUOUS
 10
351.96119861918328
 20
476.6982380150198
 30
0.0
 11
314.96119861918339
 21
476.6982380150198
 31
0.0
  0
LINE
  5
6FEA
  8
0
  6
CONTINUOUS
 10
350.20119861918329
 20
479.30443101501987
 30
0.0
 11
314.96119861918339
 21
479.30443101501987
 31
0.0
  0
LINE
  5
6FEB
  8
0
  6
CONTINUOUS
 10
350.20119861918329
 20
477.3050400150201
 30
0.0
 11
314.96119861918339
 21
477.3050400150201
 31
0.0
  0
LINE
  5
6FEC
  8
0
  6
CONTINUOUS
 10
350.20119861918329
 20
477.3050400150201
 30
0.0
 11
351.96119861918328
 21
476.6982380150198
 31
0.0
  0
LINE
  5
6FED
  8
0
  6
CONTINUOUS
 10
350.20119861918329
 20
479.30443101501987
 30
0.0
 11
351.96119861918328
 21
479.76597301501999
 31
0.0
  0
LINE
  5
6FEE
  8
0
  6
CONTINUOUS
 10
351.96119861918328
 20
479.76597301501999
 30
0.0
 11
351.96119861918328
 21
476.6982380150198
 31
0.0
  0
LINE
  5
6FEF
  8
0
  6
CONTINUOUS
 10
350.20119861918329
 20
479.30443101501987
 30
0.0
 11
350.20119861918329
 21
477.3050400150201
 31
0.0
  0
LINE
  5
6FF0
  8
0
  6
CONTINUOUS
 10
351.96119861918328
 20
470.87225601501979
 30
0.0
 11
314.96119861918339
 21
470.87225601501979
 31
0.0
  0
LINE
  5
6FF1
  8
0
  6
CONTINUOUS
 10
350.20119861918329
 20
470.3038220150201
 30
0.0
 11
314.96119861918339
 21
470.3038220150201
 31
0.0
  0
LINE
  5
6FF2
  8
0
  6
CONTINUOUS
 10
350.20119861918329
 20
468.30504001501993
 30
0.0
 11
314.96119861918339
 21
468.30504001501993
 31
0.0
  0
LINE
  5
6FF3
  8
0
  6
CONTINUOUS
 10
350.20119861918329
 20
468.30504001501993
 30
0.0
 11
351.96119861918328
 21
467.6793620150201
 31
0.0
  0
LINE
  5
6FF4
  8
0
  6
CONTINUOUS
 10
350.20119861918329
 20
470.3038220150201
 30
0.0
 11
351.96119861918328
 21
470.87225601501979
 31
0.0
  0
LINE
  5
6FF5
  8
0
  6
CONTINUOUS
 10
350.20119861918329
 20
470.3038220150201
 30
0.0
 11
350.20119861918329
 21
468.30504001501993
 31
0.0
  0
LINE
  5
6FF6
  8
0
  6
CONTINUOUS
 10
351.96119861918328
 20
470.87225601501979
 30
0.0
 11
351.96119861918328
 21
467.6793620150201
 31
0.0
  0
LINE
  5
6FF7
  8
0
  6
CONTINUOUS
 10
217.96119861918339
 20
467.6793620150201
 30
0.0
 11
219.55394061918341
 21
450.38017501501992
 31
0.0
  0
LINE
  5
6FF8
  8
0
  6
CONTINUOUS
 10
217.96119861918339
 20
461.13930801501988
 30
0.0
 11
218.56334361918351
 21
461.13930801501988
 31
0.0
  0
LINE
  5
6FF9
  8
0
  6
CONTINUOUS
 10
217.96119861918339
 20
453.96695601501989
 30
0.0
 11
218.64397561918341
 21
453.96695601501989
 31
0.0
  0
LINE
  5
6FFA
  8
0
  6
CONTINUOUS
 10
217.96119861918339
 20
448.9744710150199
 30
0.0
 11
218.48571161918329
 21
448.9744710150199
 31
0.0
  0
LINE
  5
6FFB
  8
0
  6
CONTINUOUS
 10
217.96119861918339
 20
445.75371501502008
 30
0.0
 11
218.32114061918341
 21
445.75371501502008
 31
0.0
  0
LINE
  5
6FFC
  8
0
  6
CONTINUOUS
 10
217.91442161918351
 20
444.18413401501999
 30
0.0
 11
218.14481261918331
 21
444.18413401501999
 31
0.0
  0
LINE
  5
6FFD
  8
0
  6
CONTINUOUS
 10
217.96119861918339
 20
461.13930801501988
 30
0.0
 11
219.5488506191833
 21
444.46153401501999
 31
0.0
  0
LINE
  5
6FFE
  8
0
  6
CONTINUOUS
 10
217.96119861918339
 20
453.96695601501989
 30
0.0
 11
219.53303161918339
 21
439.00574501502012
 31
0.0
  0
LINE
  5
6FFF
  8
0
  6
CONTINUOUS
 10
217.96119861918339
 20
448.9744710150199
 30
0.0
 11
219.52250961918341
 21
435.00388001501989
 31
0.0
  0
LINE
  5
7000
  8
0
  6
CONTINUOUS
 10
217.96119861918339
 20
445.75371501502008
 30
0.0
 11
219.5144176191834
 21
432.47638701502001
 31
0.0
  0
LINE
  5
7001
  8
0
  6
CONTINUOUS
 10
217.91442161918351
 20
444.18413401501999
 30
0.0
 11
219.50493761918341
 21
431.27340001502
 31
0.0
  0
ARC
  5
7002
  8
0
  6
CONTINUOUS
 10
221.54551661918339
 20
450.5635400150199
 30
0.0
 40
2.0
 50
185.2604109999981
 51
270.0
  0
ARC
  5
7003
  8
0
  6
CONTINUOUS
 10
221.5398486191834
 20
444.65106901502003
 30
0.0
 40
2.0
 50
185.4379219999999
 51
270.0
  0
ARC
  5
7004
  8
0
  6
CONTINUOUS
 10
221.5220846191834
 20
439.21471601502009
 30
0.0
 40
2.0
 50
185.99752600000011
 51
270.0
  0
ARC
  5
7005
  8
0
  6
CONTINUOUS
 10
221.51013561918339
 20
435.22601101502022
 30
0.0
 40
2.0
 50
186.376742000001
 51
270.0
  0
ARC
  5
7006
  8
0
  6
CONTINUOUS
 10
221.50087161918341
 20
432.70876801501981
 30
0.0
 40
2.0
 50
186.67229399999829
 51
270.0
  0
ARC
  5
7007
  8
0
  6
CONTINUOUS
 10
221.48993161918341
 20
431.51793801501981
 30
0.0
 40
2.0
 50
187.02306899999661
 51
270.0
  0
LINE
  5
7008
  8
0
  6
CONTINUOUS
 10
224.63630461918331
 20
489.08499601502001
 30
0.0
 11
224.63630461918331
 21
476.6982380150198
 31
0.0
  0
LINE
  5
7009
  8
0
  6
CONTINUOUS
 10
222.56857461918329
 20
487.01403601502
 30
0.0
 11
222.56857461918329
 21
477.1138690150201
 31
0.0
  0
LINE
  5
700A
  8
0
  6
CONTINUOUS
 10
214.46119861918339
 20
476.6982380150198
 30
0.0
 11
224.63630461918331
 21
476.6982380150198
 31
0.0
  0
LINE
  5
700B
  8
0
  6
CONTINUOUS
 10
214.46119861918339
 20
477.1138690150201
 30
0.0
 11
222.56857461918329
 21
477.1138690150201
 31
0.0
  0
LINE
  5
700C
  8
0
  6
CONTINUOUS
 10
416.96119861918322
 20
542.98443101502005
 30
0.0
 11
415.20119861918317
 21
543.53443101502012
 31
0.0
  0
LINE
  5
700D
  8
0
  6
CONTINUOUS
 10
416.96119861918322
 20
545.62443101502004
 30
0.0
 11
416.96119861918322
 21
542.98443101502005
 31
0.0
  0
LINE
  5
700E
  8
0
  6
CONTINUOUS
 10
415.20119861918317
 20
545.13443101502025
 30
0.0
 11
416.96119861918322
 21
545.62443101502004
 31
0.0
  0
LINE
  5
700F
  8
0
  6
CONTINUOUS
 10
415.20119861918317
 20
545.13443101502025
 30
0.0
 11
415.20119861918317
 21
543.53443101502012
 31
0.0
  0
LINE
  5
7010
  8
0
  6
CONTINUOUS
 10
416.96119861918322
 20
531.98443101502005
 30
0.0
 11
415.20119861918317
 21
532.53443101502
 31
0.0
  0
LINE
  5
7011
  8
0
  6
CONTINUOUS
 10
416.96119861918322
 20
534.62443101502004
 30
0.0
 11
416.96119861918322
 21
531.98443101502005
 31
0.0
  0
LINE
  5
7012
  8
0
  6
CONTINUOUS
 10
415.20119861918317
 20
534.13443101502025
 30
0.0
 11
416.96119861918322
 21
534.62443101502004
 31
0.0
  0
LINE
  5
7013
  8
0
  6
CONTINUOUS
 10
415.20119861918317
 20
534.13443101502025
 30
0.0
 11
415.20119861918317
 21
532.53443101502
 31
0.0
  0
LINE
  5
7014
  8
0
  6
CONTINUOUS
 10
416.96119861918322
 20
520.98443101502005
 30
0.0
 11
415.20119861918317
 21
521.53443101502012
 31
0.0
  0
LINE
  5
7015
  8
0
  6
CONTINUOUS
 10
416.96119861918322
 20
523.62443101502004
 30
0.0
 11
416.96119861918322
 21
520.98443101502005
 31
0.0
  0
LINE
  5
7016
  8
0
  6
CONTINUOUS
 10
415.20119861918317
 20
523.13443101502025
 30
0.0
 11
416.96119861918322
 21
523.62443101502004
 31
0.0
  0
LINE
  5
7017
  8
0
  6
CONTINUOUS
 10
415.20119861918317
 20
523.13443101502025
 30
0.0
 11
415.20119861918317
 21
521.53443101502012
 31
0.0
  0
LINE
  5
7018
  8
0
  6
CONTINUOUS
 10
416.96119861918322
 20
509.98443101501999
 30
0.0
 11
415.20119861918317
 21
510.53443101502
 31
0.0
  0
LINE
  5
7019
  8
0
  6
CONTINUOUS
 10
416.96119861918322
 20
512.62443101502004
 30
0.0
 11
416.96119861918322
 21
509.98443101501999
 31
0.0
  0
LINE
  5
701A
  8
0
  6
CONTINUOUS
 10
415.20119861918317
 20
512.13443101502025
 30
0.0
 11
416.96119861918322
 21
512.62443101502004
 31
0.0
  0
LINE
  5
701B
  8
0
  6
CONTINUOUS
 10
415.20119861918317
 20
512.13443101502025
 30
0.0
 11
415.20119861918317
 21
510.53443101502
 31
0.0
  0
LINE
  5
701C
  8
0
  6
CONTINUOUS
 10
416.3728676191833
 20
441.29515101501988
 30
0.0
 11
415.34123861918317
 21
432.47639001502
 31
0.0
  0
LINE
  5
701D
  8
0
  6
CONTINUOUS
 10
415.30598161918329
 20
435.00358401502012
 30
0.0
 11
416.36093861918351
 21
444.43057101502001
 31
0.0
  0
LINE
  5
701E
  8
0
  6
CONTINUOUS
 10
415.33305161918321
 20
439.00444001502001
 30
0.0
 11
416.43196361918319
 21
449.39861401502009
 31
0.0
  0
LINE
  5
701F
  8
0
  6
CONTINUOUS
 10
416.48290461918322
 20
455.93523401502
 30
0.0
 11
415.3576236191833
 21
444.45595001502022
 31
0.0
  0
LINE
  5
7020
  8
0
  6
CONTINUOUS
 10
416.5240716191833
 20
463.34497601502022
 30
0.0
 11
415.29135461918321
 21
450.37431501501982
 31
0.0
  0
LINE
  5
7021
  8
0
  6
CONTINUOUS
 10
416.43299061918327
 20
440.15882301502
 30
0.0
 11
415.3609576191833
 21
431.2782450150201
 31
0.0
  0
LINE
  5
7022
  8
0
  6
CONTINUOUS
 10
415.20119861918317
 20
501.13443101501991
 30
0.0
 11
415.20119861918317
 21
499.53443101501989
 31
0.0
  0
LINE
  5
7023
  8
0
  6
CONTINUOUS
 10
415.20119861918317
 20
501.13443101501991
 30
0.0
 11
416.96119861918322
 21
501.62443101502009
 31
0.0
  0
LINE
  5
7024
  8
0
  6
CONTINUOUS
 10
416.96119861918322
 20
501.62443101502009
 30
0.0
 11
416.96119861918322
 21
498.98443101502022
 31
0.0
  0
LINE
  5
7025
  8
0
  6
CONTINUOUS
 10
416.96119861918322
 20
498.98443101502022
 30
0.0
 11
415.20119861918317
 21
499.53443101501989
 31
0.0
  0
LINE
  5
7026
  8
0
  6
CONTINUOUS
 10
415.20119861918317
 20
556.13443101502025
 30
0.0
 11
415.20119861918317
 21
554.53443101502012
 31
0.0
  0
LINE
  5
7027
  8
0
  6
CONTINUOUS
 10
415.20119861918317
 20
556.13443101502025
 30
0.0
 11
416.96119861918322
 21
556.62443101502004
 31
0.0
  0
LINE
  5
7028
  8
0
  6
CONTINUOUS
 10
416.96119861918322
 20
556.62443101502004
 30
0.0
 11
416.96119861918322
 21
553.98443101502005
 31
0.0
  0
LINE
  5
7029
  8
0
  6
CONTINUOUS
 10
416.96119861918322
 20
553.98443101502005
 30
0.0
 11
415.20119861918317
 21
554.53443101502012
 31
0.0
  0
LINE
  5
702A
  8
0
  6
CONTINUOUS
 10
366.9180746191833
 20
553.98443101502005
 30
0.0
 11
366.9180746191833
 21
545.62443101502004
 31
0.0
  0
LINE
  5
702B
  8
0
  6
CONTINUOUS
 10
382.96119761918328
 20
553.98443101502005
 30
0.0
 11
382.96119761918328
 21
545.62443101502004
 31
0.0
  0
LINE
  5
702C
  8
0
  6
CONTINUOUS
 10
382.96119761918328
 20
542.98443101502005
 30
0.0
 11
382.96119761918328
 21
534.62443101502004
 31
0.0
  0
LINE
  5
702D
  8
0
  6
CONTINUOUS
 10
366.9180746191833
 20
542.98443101502005
 30
0.0
 11
366.9180746191833
 21
534.62443101502004
 31
0.0
  0
LINE
  5
702E
  8
0
  6
CONTINUOUS
 10
366.9180746191833
 20
531.98443101502005
 30
0.0
 11
366.9180746191833
 21
523.62443101502004
 31
0.0
  0
LINE
  5
702F
  8
0
  6
CONTINUOUS
 10
382.96119761918328
 20
531.98443101502005
 30
0.0
 11
382.96119761918328
 21
523.62443101502004
 31
0.0
  0
LINE
  5
7030
  8
0
  6
CONTINUOUS
 10
382.96119761918328
 20
520.98443101502005
 30
0.0
 11
382.96119761918328
 21
512.62443101502004
 31
0.0
  0
LINE
  5
7031
  8
0
  6
CONTINUOUS
 10
366.9180746191833
 20
520.98443101502005
 30
0.0
 11
366.9180746191833
 21
512.62443101502004
 31
0.0
  0
LINE
  5
7032
  8
0
  6
CONTINUOUS
 10
366.9180746191833
 20
509.98443101501999
 30
0.0
 11
366.9180746191833
 21
501.62443101502009
 31
0.0
  0
LINE
  5
7033
  8
0
  6
CONTINUOUS
 10
382.96119761918328
 20
509.98443101501999
 30
0.0
 11
382.96119761918328
 21
501.62443101502009
 31
0.0
  0
LINE
  5
7034
  8
0
  6
CONTINUOUS
 10
382.96119761918328
 20
498.98443101502022
 30
0.0
 11
382.96119761918328
 21
483.19598501502009
 31
0.0
  0
LINE
  5
7035
  8
0
  6
CONTINUOUS
 10
366.9180746191833
 20
498.98443101502022
 30
0.0
 11
366.9180746191833
 21
467.6793620150201
 31
0.0
  0
LINE
  5
7036
  8
0
  6
CONTINUOUS
 10
416.5240716191833
 20
463.34497601502022
 30
0.0
 11
382.96119761918328
 21
463.34497601502022
 31
0.0
  0
LINE
  5
7037
  8
0
  6
CONTINUOUS
 10
416.48290461918322
 20
455.93523401502
 30
0.0
 11
415.81985861918321
 21
455.93523401502
 31
0.0
  0
ARC
  5
7038
  8
0
  6
CONTINUOUS
 10
413.30032661918329
 20
450.5635400150199
 30
0.0
 40
2.0
 50
270.0
 51
354.57098099999791
  0
ARC
  5
7039
  8
0
  6
CONTINUOUS
 10
413.36716461918331
 20
444.65106901502003
 30
0.0
 40
2.0
 50
270.0
 51
354.40134700000101
  0
ARC
  5
703A
  8
0
  6
CONTINUOUS
 10
413.3441366191833
 20
439.21471601502009
 30
0.0
 40
2.0
 50
270.0
 51
353.96488600000038
  0
ARC
  5
703B
  8
0
  6
CONTINUOUS
 10
413.31838861918322
 20
435.22601101502022
 30
0.0
 40
2.0
 50
270.0
 51
353.61470099999991
  0
ARC
  5
703C
  8
0
  6
CONTINUOUS
 10
413.35478461918342
 20
432.70876801501981
 30
0.0
 40
2.0
 50
270.0
 51
353.32779999999809
  0
ARC
  5
703D
  8
0
  6
CONTINUOUS
 10
413.37537361918328
 20
431.51793801501981
 30
0.0
 40
2.0
 50
270.0
 51
353.11676000000148
  0
LINE
  5
703E
  8
0
  6
CONTINUOUS
 10
416.43196361918319
 20
449.39861401502009
 30
0.0
 11
415.84213861918317
 21
449.39861401502009
 31
0.0
  0
LINE
  5
703F
  8
0
  6
CONTINUOUS
 10
416.36093861918351
 20
444.43057101502001
 30
0.0
 11
415.9067236191832
 21
444.43057101502001
 31
0.0
  0
LINE
  5
7040
  8
0
  6
CONTINUOUS
 10
416.3728676191833
 20
441.29515101501988
 30
0.0
 11
416.01005961918321
 21
441.29515101501988
 31
0.0
  0
LINE
  5
7041
  8
0
  6
CONTINUOUS
 10
416.43299061918327
 20
440.15882301502
 30
0.0
 11
416.23993861918319
 21
440.15882301502
 31
0.0
  0
LINE
  5
7042
  8
0
  6
CONTINUOUS
 10
461.46124861918298
 20
488.08172501501991
 30
0.0
 11
421.96119861918322
 21
488.08172501502003
 31
0.0
  0
LINE
  5
7043
  8
0
  6
CONTINUOUS
 10
461.46124861918298
 20
477.90243301501999
 30
0.0
 11
404.46119861918322
 21
477.90243301502022
 31
0.0
  0
LINE
  5
7044
  8
0
  6
CONTINUOUS
 10
461.46124861918298
 20
465.6151520150201
 30
0.0
 11
404.46119861918322
 21
465.6151520150201
 31
0.0
  0
LINE
  5
7045
  8
0
  6
CONTINUOUS
 10
402.46119861918328
 20
487.0817250150198
 30
0.0
 11
402.46119861918328
 21
467.6151520150201
 31
0.0
  0
LINE
  5
7046
  8
0
  6
CONTINUOUS
 10
418.96119861918328
 20
488.08172501501991
 30
0.0
 11
421.96119861918322
 21
489.81377601501981
 31
0.0
  0
ARC
  5
7047
  8
0
  6
CONTINUOUS
 10
404.46119861918322
 20
479.90243301501999
 30
0.0
 40
2.0
 50
180.0
 51
270.0
  0
ARC
  5
7048
  8
0
  6
CONTINUOUS
 10
404.46119861918322
 20
467.6151520150201
 30
0.0
 40
2.0
 50
180.0
 51
270.0
  0
ARC
  5
7049
  8
0
  6
CONTINUOUS
 10
404.46119861918322
 20
475.90243301501999
 30
0.0
 40
2.0
 50
90.0
 51
180.0
  0
LINE
  5
704A
  8
0
  6
CONTINUOUS
 10
382.96119761918328
 20
471.78363501501991
 30
0.0
 11
382.96119761918328
 21
463.34497601502022
 31
0.0
  0
LINE
  5
704B
  8
0
  6
CONTINUOUS
 10
366.9180746191833
 20
467.6793620150201
 30
0.0
 11
382.96119761918328
 21
463.34497601502022
 31
0.0
  0
ARC
  5
704C
  8
0
  6
CONTINUOUS
 10
401.46119861918322
 20
487.0817250150198
 30
0.0
 40
1.0
 50
0.0
 51
90.0
  0
LINE
  5
704D
  8
0
  6
CONTINUOUS
 10
366.9180746191833
 20
467.6793620150201
 30
0.0
 11
314.96119861918339
 21
467.6793620150201
 31
0.0
  0
LINE
  5
704E
  8
0
  6
CONTINUOUS
 10
413.37537361918328
 20
429.51793801502009
 30
0.0
 11
221.48993161918341
 21
429.51793801502009
 31
0.0
  0
LINE
  5
704F
  8
0
  6
CONTINUOUS
 10
413.35478461918342
 20
430.70876801502021
 30
0.0
 11
221.50087161918341
 21
430.70876801502021
 31
0.0
  0
LINE
  5
7050
  8
0
  6
CONTINUOUS
 10
413.31838861918322
 20
433.22601101501988
 30
0.0
 11
221.51013561918339
 21
433.22601101501988
 31
0.0
  0
LINE
  5
7051
  8
0
  6
CONTINUOUS
 10
413.3441366191833
 20
437.2147160150198
 30
0.0
 11
221.5220846191834
 21
437.2147160150198
 31
0.0
  0
LINE
  5
7052
  8
0
  6
CONTINUOUS
 10
413.36716461918331
 20
442.65106901502008
 30
0.0
 11
221.5398486191834
 21
442.65106901502008
 31
0.0
  0
LINE
  5
7053
  8
0
  6
CONTINUOUS
 10
413.30032661918329
 20
448.56354001502001
 30
0.0
 11
221.54551661918339
 21
448.56354001502001
 31
0.0
  0
LINE
  5
7054
  8
0
  6
CONTINUOUS
 10
366.9180746191833
 20
601.64190601502014
 30
0.0
 11
366.9180746191833
 21
587.66443101502011
 31
0.0
  0
LINE
  5
7055
  8
0
  6
CONTINUOUS
 10
382.96119761918328
 20
606.24176801502006
 30
0.0
 11
382.96119761918328
 21
603.65721801502013
 31
0.0
  0
LINE
  5
7056
  8
0
  6
CONTINUOUS
 10
359.85529461918333
 20
556.62443101502004
 30
0.0
 11
416.96119861918322
 21
556.62443101502004
 31
0.0
  0
LINE
  5
7057
  8
0
  6
CONTINUOUS
 10
359.85529461918333
 20
556.13443101502025
 30
0.0
 11
415.20119861918317
 21
556.13443101502025
 31
0.0
  0
LINE
  5
7058
  8
0
  6
CONTINUOUS
 10
359.85529461918333
 20
554.53443101502012
 30
0.0
 11
415.20119861918317
 21
554.53443101502012
 31
0.0
  0
LINE
  5
7059
  8
0
  6
CONTINUOUS
 10
359.85529461918333
 20
553.98443101502005
 30
0.0
 11
416.96119861918322
 21
553.98443101502005
 31
0.0
  0
LINE
  5
705A
  8
0
  6
CONTINUOUS
 10
359.85529461918333
 20
501.62443101502009
 30
0.0
 11
416.96119861918322
 21
501.62443101502009
 31
0.0
  0
LINE
  5
705B
  8
0
  6
CONTINUOUS
 10
359.85529461918333
 20
501.13443101501991
 30
0.0
 11
415.20119861918317
 21
501.13443101501991
 31
0.0
  0
LINE
  5
705C
  8
0
  6
CONTINUOUS
 10
359.85529461918333
 20
499.53443101501989
 30
0.0
 11
415.20119861918317
 21
499.53443101501989
 31
0.0
  0
LINE
  5
705D
  8
0
  6
CONTINUOUS
 10
359.85529461918333
 20
498.98443101502022
 30
0.0
 11
416.96119861918322
 21
498.98443101502022
 31
0.0
  0
LINE
  5
705E
  8
0
  6
CONTINUOUS
 10
359.85529461918333
 20
531.98443101502005
 30
0.0
 11
416.96119861918322
 21
531.98443101502005
 31
0.0
  0
LINE
  5
705F
  8
0
  6
CONTINUOUS
 10
359.85529461918333
 20
532.53443101502
 30
0.0
 11
415.20119861918317
 21
532.53443101502
 31
0.0
  0
LINE
  5
7060
  8
0
  6
CONTINUOUS
 10
359.85529461918333
 20
512.62443101502004
 30
0.0
 11
416.96119861918322
 21
512.62443101502004
 31
0.0
  0
LINE
  5
7061
  8
0
  6
CONTINUOUS
 10
359.85529461918333
 20
512.13443101502025
 30
0.0
 11
415.20119861918317
 21
512.13443101502025
 31
0.0
  0
LINE
  5
7062
  8
0
  6
CONTINUOUS
 10
359.85529461918333
 20
510.53443101502
 30
0.0
 11
415.20119861918317
 21
510.53443101502
 31
0.0
  0
LINE
  5
7063
  8
0
  6
CONTINUOUS
 10
359.85529461918333
 20
509.98443101501999
 30
0.0
 11
416.96119861918322
 21
509.98443101501999
 31
0.0
  0
LINE
  5
7064
  8
0
  6
CONTINUOUS
 10
359.85529461918333
 20
523.62443101502004
 30
0.0
 11
416.96119861918322
 21
523.62443101502004
 31
0.0
  0
LINE
  5
7065
  8
0
  6
CONTINUOUS
 10
359.85529461918333
 20
523.13443101502025
 30
0.0
 11
415.20119861918317
 21
523.13443101502025
 31
0.0
  0
LINE
  5
7066
  8
0
  6
CONTINUOUS
 10
359.85529461918333
 20
521.53443101502012
 30
0.0
 11
415.20119861918317
 21
521.53443101502012
 31
0.0
  0
LINE
  5
7067
  8
0
  6
CONTINUOUS
 10
359.85529461918333
 20
520.98443101502005
 30
0.0
 11
416.96119861918322
 21
520.98443101502005
 31
0.0
  0
LINE
  5
7068
  8
0
  6
CONTINUOUS
 10
359.85529461918333
 20
545.62443101502004
 30
0.0
 11
416.96119861918322
 21
545.62443101502004
 31
0.0
  0
LINE
  5
7069
  8
0
  6
CONTINUOUS
 10
359.85529461918333
 20
545.13443101502025
 30
0.0
 11
415.20119861918317
 21
545.13443101502025
 31
0.0
  0
LINE
  5
706A
  8
0
  6
CONTINUOUS
 10
359.85529461918333
 20
543.53443101502012
 30
0.0
 11
415.20119861918317
 21
543.53443101502012
 31
0.0
  0
LINE
  5
706B
  8
0
  6
CONTINUOUS
 10
359.85529461918333
 20
542.98443101502005
 30
0.0
 11
416.96119861918322
 21
542.98443101502005
 31
0.0
  0
LINE
  5
706C
  8
0
  6
CONTINUOUS
 10
359.85529461918333
 20
534.62443101502004
 30
0.0
 11
416.96119861918322
 21
534.62443101502004
 31
0.0
  0
LINE
  5
706D
  8
0
  6
CONTINUOUS
 10
359.85529461918333
 20
534.13443101502025
 30
0.0
 11
415.20119861918317
 21
534.13443101502025
 31
0.0
  0
LINE
  5
706E
  8
0
  6
CONTINUOUS
 10
418.96119861918328
 20
439.80443101502021
 30
0.0
 11
418.96119861918328
 21
465.6151520150201
 31
0.0
  0
LINE
  5
706F
  8
0
  6
CONTINUOUS
 10
416.39020961918322
 20
439.80443101502021
 30
0.0
 11
418.96119861918328
 21
439.80443101502021
 31
0.0
  0
LINE
  5
7070
  8
0
  6
CONTINUOUS
 10
416.96119861918322
 20
587.66443101502011
 30
0.0
 11
415.20119861918317
 21
587.10443101502005
 31
0.0
  0
LINE
  5
7071
  8
0
  6
CONTINUOUS
 10
415.20119861918317
 20
585.50443101502015
 30
0.0
 11
416.96119861918322
 21
584.96443101502018
 31
0.0
  0
LINE
  5
7072
  8
0
  6
CONTINUOUS
 10
416.96119861918322
 20
584.96443101502018
 30
0.0
 11
416.96119861918322
 21
587.66443101502011
 31
0.0
  0
LINE
  5
7073
  8
0
  6
CONTINUOUS
 10
415.20119861918317
 20
585.50443101502015
 30
0.0
 11
415.20119861918317
 21
587.10443101502005
 31
0.0
  0
LINE
  5
7074
  8
0
  6
CONTINUOUS
 10
416.96119861918322
 20
579.61943101502015
 30
0.0
 11
415.20119861918317
 21
579.07943101501985
 31
0.0
  0
LINE
  5
7075
  8
0
  6
CONTINUOUS
 10
415.20119861918317
 20
577.47943101501994
 30
0.0
 11
416.96119861918322
 21
576.98943101502005
 31
0.0
  0
LINE
  5
7076
  8
0
  6
CONTINUOUS
 10
415.20119861918317
 20
577.47943101501994
 30
0.0
 11
415.20119861918317
 21
579.07943101501985
 31
0.0
  0
LINE
  5
7077
  8
0
  6
CONTINUOUS
 10
416.96119861918322
 20
576.98943101502005
 30
0.0
 11
416.96119861918322
 21
579.61943101502015
 31
0.0
  0
LINE
  5
7078
  8
0
  6
CONTINUOUS
 10
351.96119861918328
 20
587.92861801501999
 30
0.0
 11
350.33928961918338
 21
604.9943610150201
 31
0.0
  0
LINE
  5
7079
  8
0
  6
CONTINUOUS
 10
351.96119861918328
 20
594.46955401502009
 30
0.0
 11
350.3406756191834
 21
611.00092201502014
 31
0.0
  0
LINE
  5
707A
  8
0
  6
CONTINUOUS
 10
219.22587761918339
 20
601.64190601502014
 30
0.0
 11
217.96119861918339
 21
601.64190601502014
 31
0.0
  0
LINE
  5
707B
  8
0
  6
CONTINUOUS
 10
217.96119861918339
 20
587.66443101502011
 30
0.0
 11
219.72119861918341
 21
587.10443101502005
 31
0.0
  0
LINE
  5
707C
  8
0
  6
CONTINUOUS
 10
219.72119861918341
 20
585.50443101502015
 30
0.0
 11
217.96119861918339
 21
584.96443101502018
 31
0.0
  0
LINE
  5
707D
  8
0
  6
CONTINUOUS
 10
217.96119861918339
 20
579.61943101502015
 30
0.0
 11
219.72119861918341
 21
579.07943101501985
 31
0.0
  0
LINE
  5
707E
  8
0
  6
CONTINUOUS
 10
219.72119861918341
 20
577.47943101501994
 30
0.0
 11
217.96119861918339
 21
576.98943101502005
 31
0.0
  0
LINE
  5
707F
  8
0
  6
CONTINUOUS
 10
217.96119861918339
 20
584.96443101502018
 30
0.0
 11
217.96119861918339
 21
587.66443101502011
 31
0.0
  0
LINE
  5
7080
  8
0
  6
CONTINUOUS
 10
219.72119861918341
 20
585.50443101502015
 30
0.0
 11
219.72119861918341
 21
587.10443101502005
 31
0.0
  0
LINE
  5
7081
  8
0
  6
CONTINUOUS
 10
219.72119861918341
 20
577.47943101501994
 30
0.0
 11
219.72119861918341
 21
579.07943101501985
 31
0.0
  0
LINE
  5
7082
  8
0
  6
CONTINUOUS
 10
217.96119861918339
 20
576.98943101502005
 30
0.0
 11
217.96119861918339
 21
579.61943101502015
 31
0.0
  0
LINE
  5
7083
  8
0
  6
CONTINUOUS
 10
217.96119861918339
 20
566.52386601501985
 30
0.0
 11
271.13004761918342
 21
566.52386601501985
 31
0.0
  0
LINE
  5
7084
  8
0
  6
CONTINUOUS
 10
226.3311986191834
 20
565.6720930150201
 30
0.0
 11
270.45008461918337
 21
565.6720930150201
 31
0.0
  0
LINE
  5
7085
  8
0
  6
CONTINUOUS
 10
217.96119861918339
 20
566.52386601501985
 30
0.0
 11
226.3311986191834
 21
565.6720930150201
 31
0.0
  0
LINE
  5
7086
  8
0
  6
CONTINUOUS
 10
224.63630461918331
 20
489.08499601502001
 30
0.0
 11
271.13004461918342
 21
489.08499601502001
 31
0.0
  0
LINE
  5
7087
  8
0
  6
CONTINUOUS
 10
226.3311986191834
 20
489.93676901501988
 30
0.0
 11
270.45008161918338
 21
489.93676901501988
 31
0.0
  0
LINE
  5
7088
  8
0
  6
CONTINUOUS
 10
217.96119861918339
 20
493.44564201501993
 30
0.0
 11
217.96119861918339
 21
566.52386601501985
 31
0.0
  0
LINE
  5
7089
  8
0
  6
CONTINUOUS
 10
223.4243746191834
 20
489.64095601502021
 30
0.0
 11
226.3311986191834
 21
489.93676901501988
 31
0.0
  0
LINE
  5
708A
  8
0
  6
CONTINUOUS
 10
226.3311986191834
 20
489.93676901501988
 30
0.0
 11
226.3311986191834
 21
565.6720930150201
 31
0.0
  0
LINE
  5
708B
  8
0
  6
CONTINUOUS
 10
214.46119861918339
 20
611.42472801502015
 30
0.0
 11
218.23795761918339
 21
611.42472801502015
 31
0.0
  0
LINE
  5
708C
  8
0
  6
CONTINUOUS
 10
303.96119861918339
 20
628.80443101501987
 30
0.0
 11
325.96119861918339
 21
628.80443101501987
 31
0.0
  0
LINE
  5
708D
  8
0
  6
CONTINUOUS
 10
303.96119861918339
 20
628.80443101501987
 30
0.0
 11
303.96119861918339
 21
624.90115001502011
 31
0.0
  0
LINE
  5
708E
  8
0
  6
CONTINUOUS
 10
325.96119861918339
 20
628.80443101501987
 30
0.0
 11
325.96119861918339
 21
624.90115001502011
 31
0.0
  0
LINE
  5
708F
  8
0
  6
CONTINUOUS
 10
219.72119861918341
 20
585.50443101502015
 30
0.0
 11
415.20119861918317
 21
585.50443101502015
 31
0.0
  0
LINE
  5
7090
  8
0
  6
CONTINUOUS
 10
219.72119861918341
 20
587.10443101502005
 30
0.0
 11
415.20119861918317
 21
587.10443101502005
 31
0.0
  0
LINE
  5
7091
  8
0
  6
CONTINUOUS
 10
217.96119861918339
 20
584.96443101502018
 30
0.0
 11
416.96119861918322
 21
584.96443101502018
 31
0.0
  0
LINE
  5
7092
  8
0
  6
CONTINUOUS
 10
217.96119861918339
 20
587.66443101502011
 30
0.0
 11
416.96119861918322
 21
587.66443101502011
 31
0.0
  0
LINE
  5
7093
  8
0
  6
CONTINUOUS
 10
217.96119861918339
 20
576.98943101502005
 30
0.0
 11
416.96119861918322
 21
576.98943101502005
 31
0.0
  0
LINE
  5
7094
  8
0
  6
CONTINUOUS
 10
217.96119861918339
 20
579.61943101502015
 30
0.0
 11
416.96119861918322
 21
579.61943101502015
 31
0.0
  0
LINE
  5
7095
  8
0
  6
CONTINUOUS
 10
219.72119861918341
 20
577.47943101501994
 30
0.0
 11
415.20119861918317
 21
577.47943101501994
 31
0.0
  0
LINE
  5
7096
  8
0
  6
CONTINUOUS
 10
219.72119861918341
 20
579.07943101501985
 30
0.0
 11
415.20119861918317
 21
579.07943101501985
 31
0.0
  0
LINE
  5
7097
  8
0
  6
CONTINUOUS
 10
421.96119861918322
 20
442.8044310150201
 30
0.0
 11
418.96119861918328
 21
439.80443101502021
 31
0.0
  0
LINE
  5
7098
  8
0
  6
CONTINUOUS
 10
421.96119861918322
 20
442.8044310150201
 30
0.0
 11
421.96119861918322
 21
612.8044310150201
 31
0.0
  0
LINE
  5
7099
  8
0
  6
CONTINUOUS
 10
421.96119861918322
 20
612.8044310150201
 30
0.0
 11
418.96119861918328
 21
615.80443101501999
 31
0.0
  0
LINE
  5
7139
  8
0
  6
CONTINUOUS
 10
418.96119861918328
 20
488.08172501502003
 30
0.0
 11
402.46119861918328
 21
488.08172501501991
 31
0.0
  0
LINE
  5
713A
  8
0
  6
CONTINUOUS
 10
421.96119861918322
 20
589.87036401501985
 30
0.0
 11
461.46124861918298
 21
589.87036401501985
 31
0.0
  0
LINE
  5
7511
  8
0
  6
CONTINUOUS
 10
143.46119861918339
 20
426.60443101502
 30
0.0
 11
214.46119861918339
 21
426.60443101502
 31
0.0
  0
LINE
  5
7B12
  8
0
  6
AM_ISO08W050
 10
113.93616502373
 20
887.50201419889561
 30
0.0
 11
686.97522861918469
 21
887.50201419889561
 31
0.0
  0
LINE
  5
7B15
  8
0
  6
CONTINUOUS
 10
477.39142861918322
 20
1016.245794198896
 30
0.0
 11
488.46119861918322
 21
1016.632324198896
 31
0.0
  0
LINE
  5
7B16
  8
0
  6
CONTINUOUS
 10
461.46119861918328
 20
773.3940441988957
 30
0.0
 11
461.46119861918328
 21
883.50201419889549
 31
0.0
  0
LINE
  5
7B17
  8
0
  6
CONTINUOUS
 10
475.46112861918368
 20
751.29223419889547
 30
0.0
 11
475.46112861918368
 21
877.96258419889591
 31
0.0
  0
LINE
  5
7B18
  8
0
  6
CONTINUOUS
 10
463.94025861918351
 20
1004.581054198895
 30
0.0
 11
472.98212861918341
 21
1006.175354198895
 31
0.0
  0
LINE
  5
7B1A
  8
0
  6
CONTINUOUS
 10
601.3399786191834
 20
847.3806741988958
 30
0.0
 11
605.5825886191833
 21
851.62335419889541
 31
0.0
  0
LINE
  5
7B1B
  8
0
  6
CONTINUOUS
 10
601.33991861918355
 20
933.62335419889553
 30
0.0
 11
605.5825886191833
 21
929.38067419889546
 31
0.0
  0
LINE
  5
7B1C
  8
0
  6
CONTINUOUS
 10
610.46119861918339
 20
908.50201419889549
 30
0.0
 11
680.46119861918339
 21
908.50201419889549
 31
0.0
  0
LINE
  5
7B1D
  8
0
  6
CONTINUOUS
 10
610.46119861918339
 20
866.50201419889595
 30
0.0
 11
680.46119861918339
 21
866.50201419889595
 31
0.0
  0
LINE
  5
7B1E
  8
0
  6
CONTINUOUS
 10
606.46125861918358
 20
910.00201419889538
 30
0.0
 11
610.46119861918339
 21
910.00201419889538
 31
0.0
  0
LINE
  5
7B1F
  8
0
  6
CONTINUOUS
 10
606.46125861918358
 20
865.00201419889572
 30
0.0
 11
610.46119861918339
 21
865.00201419889572
 31
0.0
  0
LINE
  5
7B20
  8
0
  6
CONTINUOUS
 10
610.46119861918339
 20
865.00201419889572
 30
0.0
 11
610.46119861918339
 21
910.00201419889538
 31
0.0
  0
LINE
  5
7B21
  8
0
  6
CONTINUOUS
 10
680.46119861918339
 20
866.50201419889595
 30
0.0
 11
680.46119861918339
 21
908.50201419889549
 31
0.0
  0
LINE
  5
7B22
  8
0
  6
CONTINUOUS
 10
624.46119861918316
 20
893.50201419889549
 30
0.0
 11
624.46119861918316
 21
881.50201419889584
 31
0.0
  0
LINE
  5
7B23
  8
0
  6
CONTINUOUS
 10
414.46119861918322
 20
1019.565924198896
 30
0.0
 11
414.46119861918322
 21
985.68761913751143
 31
0.0
  0
LINE
  5
7B24
  8
0
  6
CONTINUOUS
 10
606.46119861918339
 20
1019.693244198896
 30
0.0
 11
606.46119861918339
 21
980.31079419889545
 31
0.0
  0
LINE
  5
7B25
  8
0
  6
CONTINUOUS
 10
493.46119861918322
 20
1027.502014198895
 30
0.0
 11
602.6007786191833
 21
1023.690794198896
 31
0.0
  0
LINE
  5
7B26
  8
0
  6
CONTINUOUS
 10
418.25183861918327
 20
1023.560424198896
 30
0.0
 11
493.46119861918322
 21
1027.502014198895
 31
0.0
  0
LINE
  5
7B27
  8
0
  6
CENTER
 10
418.46119861918322
 20
1002.5020141988959
 30
0.0
 11
451.96119861918322
 21
1002.5020141988959
 31
0.0
  0
LINE
  5
7B28
  8
0
  6
CENTER
 10
435.46119861918328
 20
1019.0020141988959
 30
0.0
 11
435.46119861918328
 21
986.00201419889561
 31
0.0
  0
LINE
  5
7B29
  8
0
  6
CENTER
 10
585.46119861918339
 20
1019.0020141988959
 30
0.0
 11
585.46119861918339
 21
986.00201419889561
 31
0.0
  0
LINE
  5
7B2A
  8
0
  6
CONTINUOUS
 10
600.46119861918316
 20
973.38263419889552
 30
0.0
 11
600.46119861918316
 21
801.62146419889586
 31
0.0
  0
LINE
  5
7B2B
  8
0
  6
CONTINUOUS
 10
417.9184496180871
 20
979.1111719439582
 30
0.0
 11
461.46125861918358
 21
975.30163419889561
 31
0.0
  0
LINE
  5
7B2C
  8
0
  6
CONTINUOUS
 10
418.32497983934502
 20
795.92843322883164
 30
0.0
 11
461.46125861918358
 21
799.70233419889553
 31
0.0
  0
LINE
  5
7B2D
  8
0
  6
CONTINUOUS
 10
418.25183861918327
 20
751.44354419889555
 30
0.0
 11
493.46119861918322
 21
747.50201419889561
 31
0.0
  0
LINE
  5
7B2E
  8
0
  6
CONTINUOUS
 10
493.46119861918322
 20
747.50201419889561
 30
0.0
 11
602.6007786191833
 21
751.31323419889554
 31
0.0
  0
LINE
  5
7B2F
  8
0
  6
CONTINUOUS
 10
606.46119861918339
 20
755.31079419889602
 30
0.0
 11
606.46119861918339
 21
794.69324419889551
 31
0.0
  0
LINE
  5
7B30
  8
0
  6
CONTINUOUS
 10
414.46119861918322
 20
755.43811419889551
 30
0.0
 11
414.46119861918322
 21
791.92505419889562
 31
0.0
  0
LINE
  5
7B31
  8
0
  6
CONTINUOUS
 10
488.46119861918322
 20
747.7640441988957
 30
0.0
 11
488.46119861918322
 21
883.50201419889549
 31
0.0
  0
LINE
  5
7B32
  8
0
  6
CONTINUOUS
 10
606.46119861918339
 20
927.2594041988956
 30
0.0
 11
606.46119861918339
 21
853.74463419889605
 31
0.0
  0
LINE
  5
7B33
  8
0
  6
CONTINUOUS
 10
532.55158861918358
 20
1010.676084198895
 30
0.0
 11
550.74042861918326
 21
1010.040954198896
 31
0.0
  0
LINE
  5
7B34
  8
0
  6
CONTINUOUS
 10
558.46119861918316
 20
996.50201419889561
 30
0.0
 11
558.46119861918316
 21
1002.045844198896
 31
0.0
  0
LINE
  5
7B35
  8
0
  6
CONTINUOUS
 10
585.78626861918326
 20
974.04370419889585
 30
0.0
 11
595.63569861918324
 21
973.69970419889546
 31
0.0
  0
LINE
  5
7B36
  8
0
  6
CONTINUOUS
 10
516.27765861918385
 20
1023.665404198896
 30
0.0
 11
525.64478861918337
 21
1013.788634198895
 31
0.0
  0
LINE
  5
7B37
  8
0
  6
CONTINUOUS
 10
475.46112861918368
 20
1017.248964198895
 30
0.0
 11
468.08265861918358
 21
1018.173224198895
 31
0.0
  0
LINE
  5
7B38
  8
0
  6
CONTINUOUS
 10
558.46119861918316
 20
1020.054504198895
 30
0.0
 11
558.46119861918316
 21
1002.045844198896
 31
0.0
  0
LINE
  5
7B39
  8
0
  6
CONTINUOUS
 10
462.46119861918322
 20
1024.8972141988961
 30
0.0
 11
462.46119861918322
 21
1017.048464198896
 31
0.0
  0
LINE
  5
7B3A
  8
0
  6
CONTINUOUS
 10
568.46119861918339
 20
986.50201419889561
 30
0.0
 11
570.46119861918316
 21
986.50201419889561
 31
0.0
  0
LINE
  5
7B3B
  8
0
  6
CENTER
 10
568.96119861918339
 20
1002.5020141988959
 30
0.0
 11
602.46119861918339
 21
1002.5020141988959
 31
0.0
  0
LINE
  5
7B3C
  8
0
  6
CENTER
 10
418.46119861918322
 20
772.50201419889561
 30
0.0
 11
451.96119861918322
 21
772.50201419889561
 31
0.0
  0
LINE
  5
7B3D
  8
0
  6
CENTER
 10
435.46119861918328
 20
756.00201419889561
 30
0.0
 11
435.46119861918328
 21
789.00201419889561
 31
0.0
  0
LINE
  5
7B3E
  8
0
  6
CENTER
 10
585.46119861918339
 20
756.00201419889561
 30
0.0
 11
585.46119861918339
 21
789.00201419889561
 31
0.0
  0
LINE
  5
7B3F
  8
0
  6
CENTER
 10
568.96119861918339
 20
772.50201419889561
 30
0.0
 11
602.46119861918339
 21
772.50201419889561
 31
0.0
  0
LINE
  5
7B40
  8
0
  6
CONTINUOUS
 10
532.55152861918339
 20
764.32794419889581
 30
0.0
 11
550.7403686191833
 21
764.9630741988957
 31
0.0
  0
LINE
  5
7B41
  8
0
  6
CONTINUOUS
 10
558.46119861918316
 20
778.50201419889549
 30
0.0
 11
558.46119861918316
 21
772.9581941988954
 31
0.0
  0
LINE
  5
7B42
  8
0
  6
CONTINUOUS
 10
585.78620861918364
 20
800.96032419889548
 30
0.0
 11
595.63569861918324
 21
801.30432419889542
 31
0.0
  0
LINE
  5
7B43
  8
0
  6
CONTINUOUS
 10
516.27759861918355
 20
751.33856419889526
 30
0.0
 11
525.64478861918337
 21
761.21539419889586
 31
0.0
  0
LINE
  5
7B44
  8
0
  6
CONTINUOUS
 10
558.46119861918316
 20
754.9495241988958
 30
0.0
 11
558.46119861918316
 21
772.9581941988954
 31
0.0
  0
LINE
  5
7B45
  8
0
  6
CONTINUOUS
 10
568.46119861918339
 20
788.50201419889561
 30
0.0
 11
570.46119861918316
 21
788.50201419889561
 31
0.0
  0
LINE
  5
7B46
  8
0
  6
CONTINUOUS
 10
578.46119861918328
 20
796.50201419889561
 30
0.0
 11
578.46119861918328
 21
978.50201419889561
 31
0.0
  0
LINE
  5
7B47
  8
0
  6
CONTINUOUS
 10
503.46119861918328
 20
760.82684419889586
 30
0.0
 11
503.46119861918328
 21
807.93622419889562
 31
0.0
  0
LINE
  5
7B48
  8
0
  6
CONTINUOUS
 10
505.39142861918373
 20
764.94256419889552
 30
0.0
 11
529.99445861918355
 21
765.80169419889558
 31
0.0
  0
LINE
  5
7B49
  8
0
  6
CONTINUOUS
 10
488.46112861918328
 20
758.3717041988956
 30
0.0
 11
501.53101861918321
 21
758.82806419889585
 31
0.0
  0
LINE
  5
7B4A
  8
0
  6
CONTINUOUS
 10
503.46119861918328
 20
837.93750419889545
 30
0.0
 11
503.46119861918328
 21
937.06653419889562
 31
0.0
  0
LINE
  5
7B4B
  8
0
  6
CONTINUOUS
 10
507.96119861918322
 20
809.93622419889562
 30
0.0
 11
507.96119861918322
 21
835.93750419889557
 31
0.0
  0
LINE
  5
7B4C
  8
0
  6
CONTINUOUS
 10
475.46112861918368
 20
809.93622419889562
 30
0.0
 11
501.46119861918322
 21
809.93622419889562
 31
0.0
  0
LINE
  5
7B4D
  8
0
  6
CONTINUOUS
 10
475.46112861918368
 20
835.93750419889557
 30
0.0
 11
501.46119861918322
 21
835.93750419889557
 31
0.0
  0
LINE
  5
7B4E
  8
0
  6
CONTINUOUS
 10
507.96119861918322
 20
965.06781419889558
 30
0.0
 11
507.96119861918322
 21
939.06653419889585
 31
0.0
  0
LINE
  5
7B4F
  8
0
  6
CONTINUOUS
 10
505.39142861918373
 20
1010.061464198895
 30
0.0
 11
529.99445861918355
 21
1009.202334198895
 31
0.0
  0
LINE
  5
7B50
  8
0
  6
CONTINUOUS
 10
488.46119861918322
 20
1016.632324198896
 30
0.0
 11
501.53107861918318
 21
1016.1759641988961
 31
0.0
  0
LINE
  5
7B51
  8
0
  6
CONTINUOUS
 10
475.46112861918368
 20
939.06653419889585
 30
0.0
 11
501.46119861918322
 21
939.06653419889585
 31
0.0
  0
LINE
  5
7B52
  8
0
  6
CONTINUOUS
 10
503.46119861918328
 20
1014.177184198896
 30
0.0
 11
503.46119861918328
 21
967.06781419889558
 31
0.0
  0
LINE
  5
7B53
  8
0
  6
CONTINUOUS
 10
475.46112861918368
 20
965.06781419889558
 30
0.0
 11
501.46119861918322
 21
965.06781419889558
 31
0.0
  0
LINE
  5
7B54
  8
0
  6
CONTINUOUS
 10
624.46119861918316
 20
881.50201419889584
 30
0.0
 11
680.46119861918339
 21
881.50201419889584
 31
0.0
  0
LINE
  5
7B55
  8
0
  6
CONTINUOUS
 10
624.46119861918316
 20
893.50201419889549
 30
0.0
 11
680.46119861918339
 21
893.50201419889549
 31
0.0
  0
LINE
  5
7B58
  8
0
  6
CONTINUOUS
 10
477.39142861918322
 20
758.75818419889561
 30
0.0
 11
488.46125861918358
 21
758.37164419889586
 31
0.0
  0
LINE
  5
7B59
  8
0
  6
CONTINUOUS
 10
463.9401986191836
 20
770.42297419889553
 30
0.0
 11
472.98212861918341
 21
768.82867419889556
 31
0.0
  0
LINE
  5
7B5B
  8
0
  6
CONTINUOUS
 10
475.46119861918322
 20
757.75506419889552
 30
0.0
 11
468.08265861918358
 21
756.83081419889561
 31
0.0
  0
LINE
  5
7B5C
  8
0
  6
CONTINUOUS
 10
462.46119861918322
 20
750.10681419889602
 30
0.0
 11
462.46119861918322
 21
757.95556419889601
 31
0.0
  0
LINE
  5
7B61
  8
0
  6
CONTINUOUS
 10
488.46119861918322
 20
891.50195419889553
 30
0.0
 11
488.46119861918322
 21
1027.2399941988961
 31
0.0
  0
LINE
  5
7B62
  8
0
  6
CONTINUOUS
 10
475.46112861918368
 20
897.04144419889587
 30
0.0
 11
475.46112861918368
 21
1023.711794198896
 31
0.0
  0
LINE
  5
7B63
  8
0
  6
CONTINUOUS
 10
461.46119861918328
 20
891.50195419889553
 30
0.0
 11
461.46119861918328
 21
1001.643194198895
 31
0.0
  0
LINE
  5
7B64
  8
0
  6
CONTINUOUS
 10
507.96119861918322
 20
751.2648941988956
 30
0.0
 11
507.96119861918322
 21
763.29724419889601
 31
0.0
  0
LINE
  5
7B65
  8
0
  6
CONTINUOUS
 10
507.96119861918322
 20
1011.781864198896
 30
0.0
 11
507.96119861918322
 21
1023.735354198895
 31
0.0
  0
ARC
  5
7B66
  8
0
  6
CONTINUOUS
 10
477.46119861918328
 20
1014.247014198896
 30
0.0
 40
2.0
 50
91.999997999994051
 51
180.00001000000091
  0
ARC
  5
7B67
  8
0
  6
CONTINUOUS
 10
464.46119861918322
 20
1001.626584198895
 30
0.0
 40
3.0
 50
100.000000000005
 51
180.00001000000091
  0
ARC
  5
7B68
  8
0
  6
CONTINUOUS
 10
472.46119861918322
 20
1009.129764198895
 30
0.0
 40
3.0
 50
280.00001000000128
 51
0.0
  0
ARC
  5
7B6A
  8
0
  6
CONTINUOUS
 10
603.46119861918328
 20
935.74463419889526
 30
0.0
 40
3.0
 50
179.999989999999
 51
225.0000000000046
  0
ARC
  5
7B6B
  8
0
  6
CONTINUOUS
 10
603.46119861918328
 20
853.74463419889605
 30
0.0
 40
3.0
 50
314.9999999999954
 51
0.0
  0
ARC
  5
7B6C
  8
0
  6
CONTINUOUS
 10
603.46119861918328
 20
927.2594041988956
 30
0.0
 40
3.0
 50
0.0
 51
45.000001000008389
  0
ARC
  5
7B6D
  8
0
  6
CONTINUOUS
 10
603.46119861918328
 20
845.25940419889548
 30
0.0
 40
3.0
 50
134.9999999999954
 51
180.00001000000091
  0
ARC
  5
7B6E
  8
0
  6
CONTINUOUS
 10
418.46119861918322
 20
1019.565924198896
 30
0.0
 40
4.0
 50
92.99999900000816
 51
180.00001000000091
  0
ARC
  5
7B6F
  8
0
  6
CONTINUOUS
 10
602.46119861918339
 20
980.31079419889545
 30
0.0
 40
4.0
 50
278.21322000000288
 51
0.0
  0
CIRCLE
  5
7B70
  8
0
  6
CONTINUOUS
 10
585.46119861918339
 20
1002.5020141988959
 30
0.0
 40
9.5
  0
CIRCLE
  5
7B71
  8
0
  6
CONTINUOUS
 10
435.46119861918328
 20
1002.5020141988959
 30
0.0
 40
9.5
  0
ARC
  5
7B72
  8
0
  6
CONTINUOUS
 10
602.46119861918339
 20
755.31079419889602
 30
0.0
 40
4.0
 50
272.00000000000369
 51
0.0
  0
ARC
  5
7B73
  8
0
  6
CONTINUOUS
 10
418.47082098643119
 20
791.92146245487299
 30
0.0
 40
4.009623975330336
 50
92.084466235000775
 51
179.94868551206741
  0
CIRCLE
  5
7B74
  8
0
  6
CONTINUOUS
 10
435.46119861918328
 20
772.50201419889561
 30
0.0
 40
9.5
  0
CIRCLE
  5
7B75
  8
0
  6
CONTINUOUS
 10
585.46119861918339
 20
772.50201419889561
 30
0.0
 40
9.5
  0
ARC
  5
7B76
  8
0
  6
CONTINUOUS
 10
602.46119861918339
 20
794.69324419889551
 30
0.0
 40
4.0
 50
0.0
 51
81.786789000000198
  0
ARC
  5
7B77
  8
0
  6
CONTINUOUS
 10
418.46119861918322
 20
755.43811419889551
 30
0.0
 40
4.0
 50
180.00001000000091
 51
266.99999000000679
  0
ARC
  5
7B78
  8
0
  6
CONTINUOUS
 10
602.46119861918339
 20
1019.693244198896
 30
0.0
 40
4.0
 50
0.0
 51
87.999999999996248
  0
ARC
  5
7B79
  8
0
  6
CONTINUOUS
 10
603.46119861918328
 20
845.25940419889548
 30
0.0
 40
3.0
 50
134.9999999999954
 51
180.00001000000091
  0
ARC
  5
7B7A
  8
0
  6
CONTINUOUS
 10
603.46119861918328
 20
927.2594041988956
 30
0.0
 40
3.0
 50
0.0
 51
44.999998000001611
  0
ARC
  5
7B7B
  8
0
  6
CONTINUOUS
 10
603.46119861918328
 20
853.74463419889605
 30
0.0
 40
3.0
 50
314.9999999999954
 51
0.0
  0
ARC
  5
7B7C
  8
0
  6
CONTINUOUS
 10
603.46119861918328
 20
935.74463419889526
 30
0.0
 40
3.0
 50
180.00001000000091
 51
225.0000000000046
  0
ARC
  5
7B7D
  8
0
  6
CONTINUOUS
 10
532.90052861918355
 20
1020.670044198896
 30
0.0
 40
10.0
 50
223.48296000000141
 51
267.99999999999608
  0
ARC
  5
7B7E
  8
0
  6
CONTINUOUS
 10
550.46119861918316
 20
1002.045844198896
 30
0.0
 40
8.0
 50
0.0
 51
87.999999999996248
  0
ARC
  5
7B7F
  8
0
  6
CONTINUOUS
 10
509.02185861918321
 20
1016.783994198895
 30
0.0
 40
10.0
 50
43.482964999999631
 51
87.999999999996248
  0
ARC
  5
7B80
  8
0
  6
CONTINUOUS
 10
467.46119861918322
 20
1013.211974198896
 30
0.0
 40
5.0
 50
82.860167000000104
 51
180.00001000000091
  0
ARC
  5
7B81
  8
0
  6
CONTINUOUS
 10
563.46119861918339
 20
1020.054504198895
 30
0.0
 40
5.0
 50
87.999999999996248
 51
180.00001000000091
  0
ARC
  5
7B82
  8
0
  6
CONTINUOUS
 10
568.46119861918339
 20
996.50201419889561
 30
0.0
 40
10.0
 50
180.00001000000091
 51
270.0
  0
ARC
  5
7B83
  8
0
  6
CONTINUOUS
 10
595.46119861918316
 20
968.70276419889558
 30
0.0
 40
5.0
 50
0.0
 51
87.999999999996248
  0
ARC
  5
7B84
  8
0
  6
CONTINUOUS
 10
603.46119861918328
 20
973.38263419889552
 30
0.0
 40
3.0
 50
98.213209000002095
 51
180.00001000000091
  0
ARC
  5
7B85
  8
0
  6
CONTINUOUS
 10
532.90052861918355
 20
754.33398419889591
 30
0.0
 40
10.0
 50
91.999997999994051
 51
136.5170399999985
  0
ARC
  5
7B86
  8
0
  6
CONTINUOUS
 10
550.46119861918316
 20
772.9581941988954
 30
0.0
 40
8.0
 50
272.00000000000369
 51
0.0
  0
ARC
  5
7B87
  8
0
  6
CONTINUOUS
 10
509.02185861918321
 20
758.21997419889556
 30
0.0
 40
10.0
 50
272.00000000000369
 51
316.51703999999847
  0
ARC
  5
7B88
  8
0
  6
CONTINUOUS
 10
563.46119861918339
 20
754.9495241988958
 30
0.0
 40
5.0
 50
180.00001000000091
 51
271.99999000000798
  0
ARC
  5
7B89
  8
0
  6
CONTINUOUS
 10
568.46119861918339
 20
778.50201419889549
 30
0.0
 40
10.0
 50
90.00000299999769
 51
180.00001000000091
  0
ARC
  5
7B8A
  8
0
  6
CONTINUOUS
 10
595.46119861918316
 20
806.30127419889561
 30
0.0
 40
5.0
 50
272.00000000000369
 51
0.0
  0
ARC
  5
7B8B
  8
0
  6
CONTINUOUS
 10
603.46119861918328
 20
801.62146419889586
 30
0.0
 40
3.0
 50
180.00001000000091
 51
261.78677999999712
  0
ARC
  5
7B8C
  8
0
  6
CONTINUOUS
 10
570.46119861918316
 20
796.50201419889561
 30
0.0
 40
8.0
 50
270.0
 51
0.0
  0
ARC
  5
7B8D
  8
0
  6
CONTINUOUS
 10
586.06537861918366
 20
792.96521419889586
 30
0.0
 40
8.0
 50
91.999997999994051
 51
167.22924999999881
  0
ARC
  5
7B8E
  8
0
  6
CONTINUOUS
 10
570.46119861918316
 20
978.50201419889561
 30
0.0
 40
8.0
 50
0.0
 51
90.00000299999769
  0
ARC
  5
7B8F
  8
0
  6
CONTINUOUS
 10
586.06537861918366
 20
982.03882419889555
 30
0.0
 40
8.0
 50
192.77075000000119
 51
267.99999999999608
  0
ARC
  5
7B90
  8
0
  6
CONTINUOUS
 10
501.46119861918322
 20
760.82684419889586
 30
0.0
 40
2.0
 50
272.00000000000369
 51
0.0
  0
ARC
  5
7B91
  8
0
  6
CONTINUOUS
 10
505.46119861918322
 20
762.94378419889551
 30
0.0
 40
2.0
 50
91.999997999994051
 51
180.00001000000091
  0
ARC
  5
7B92
  8
0
  6
CONTINUOUS
 10
501.46119861918322
 20
807.93622419889562
 30
0.0
 40
2.0
 50
0.0
 51
90.00000299999769
  0
ARC
  5
7B93
  8
0
  6
CONTINUOUS
 10
501.46119861918322
 20
837.93750419889545
 30
0.0
 40
2.0
 50
270.0
 51
0.0
  0
ARC
  5
7B94
  8
0
  6
CONTINUOUS
 10
507.48926861918352
 20
809.55578419889582
 30
0.0
 40
2.0
 50
270.0
 51
296.80020000000292
  0
ARC
  5
7B95
  8
0
  6
CONTINUOUS
 10
507.01081861918323
 20
841.82141419889558
 30
0.0
 40
3.0
 50
54.348323999999401
 51
90.00000299999769
  0
ARC
  5
7B96
  8
0
  6
CONTINUOUS
 10
507.48926861918352
 20
965.44824419889574
 30
0.0
 40
2.0
 50
63.199808999996499
 51
90.00000299999769
  0
ARC
  5
7B97
  8
0
  6
CONTINUOUS
 10
501.46119861918322
 20
1014.177184198896
 30
0.0
 40
2.0
 50
0.0
 51
87.999999999996248
  0
ARC
  5
7B98
  8
0
  6
CONTINUOUS
 10
505.46119861918322
 20
1012.060244198895
 30
0.0
 40
2.0
 50
180.00001000000091
 51
267.99999999999608
  0
ARC
  5
7B99
  8
0
  6
CONTINUOUS
 10
507.01081861918323
 20
933.18262419889538
 30
0.0
 40
3.0
 50
270.0
 51
305.65166999999741
  0
ARC
  5
7B9A
  8
0
  6
CONTINUOUS
 10
501.46119861918322
 20
967.06781419889558
 30
0.0
 40
2.0
 50
270.0
 51
0.0
  0
ARC
  5
7B9B
  8
0
  6
CONTINUOUS
 10
501.46119861918322
 20
937.06653419889562
 30
0.0
 40
2.0
 50
0.0
 51
90.00000299999769
  0
ARC
  5
7B9C
  8
0
  6
CONTINUOUS
 10
624.46119861918316
 20
887.50201419889561
 30
0.0
 40
6.0000037999999991
 50
90.00000299999769
 51
270.0
  0
ARC
  5
7B9D
  8
0
  6
CONTINUOUS
 10
478.46112861918311
 20
1023.711794198896
 30
0.0
 40
3.0
 50
92.99999900000816
 51
180.00001000000091
  0
ARC
  5
7B9E
  8
0
  6
CONTINUOUS
 10
477.46119861918328
 20
760.757084198896
 30
0.0
 40
2.0
 50
179.999989999999
 51
268.00000999999207
  0
ARC
  5
7B9F
  8
0
  6
CONTINUOUS
 10
464.46119861918322
 20
773.37744419889555
 30
0.0
 40
3.0
 50
179.999989999999
 51
259.999999999995
  0
ARC
  5
7BA0
  8
0
  6
CONTINUOUS
 10
472.46119861918322
 20
765.87427419889548
 30
0.0
 40
3.0
 50
0.0
 51
79.999998000001099
  0
ARC
  5
7BA2
  8
0
  6
CONTINUOUS
 10
478.46112861918311
 20
751.29223419889547
 30
0.0
 40
3.0
 50
180.00001000000091
 51
266.99999000000679
  0
ARC
  5
7BA3
  8
0
  6
CONTINUOUS
 10
467.46119861918322
 20
761.7920541988957
 30
0.0
 40
5.0
 50
180.00001000000091
 51
277.13983000000661
  0
POLYLINE
  5
7BA8
  8
0
  6
CONTINUOUS
 66
     1
 10
0.0
 20
0.0
 30
0.0
  0
VERTEX
  5
7BA9
  8
0
  6
CONTINUOUS
 10
508.39088861918373
 20
807.7705241988956
 30
0.0
 42
0.110757
  0
VERTEX
  5
7BAA
  8
0
  6
CONTINUOUS
 10
521.27183861918354
 20
817.6782641988957
 30
0.0
 42
0.2037583
  0
VERTEX
  5
7BAB
  8
0
  6
CONTINUOUS
 10
523.52955861918315
 20
825.34373419889562
 30
0.0
  0
VERTEX
  5
7BAC
  8
0
  6
CONTINUOUS
 10
508.75975861918357
 20
844.25885419889551
 30
0.0
 42
-1.0
  0
SEQEND
  5
7BAD
  8
0
  0
POLYLINE
  5
7BAE
  8
0
  6
CONTINUOUS
 66
     1
 10
0.0
 20
0.0
 30
0.0
  0
VERTEX
  5
7BAF
  8
0
  6
CONTINUOUS
 10
508.39088861918373
 20
967.23350419889562
 30
0.0
 42
-0.110757
  0
VERTEX
  5
7BB0
  8
0
  6
CONTINUOUS
 10
521.27183861918354
 20
957.32576419889563
 30
0.0
 42
-0.2037583
  0
VERTEX
  5
7BB1
  8
0
  6
CONTINUOUS
 10
523.52955861918315
 20
949.66029419889549
 30
0.0
  0
VERTEX
  5
7BB2
  8
0
  6
CONTINUOUS
 10
508.75975861918357
 20
930.74517419889537
 30
0.0
 42
-1.0
  0
SEQEND
  5
7BB3
  8
0
  0
ARC
  5
7BB4
  8
0
 10
143.8611886191843
 20
802.00464019889557
 30
0.0
 40
2.399999999999999
 50
180.0
 51
199.9999999999952
  0
ARC
  5
7BB5
  8
0
 10
148.45565261918429
 20
789.38145519889554
 30
0.0
 40
2.399999999999999
 50
199.9999999999952
 51
270.0
  0
LINE
  5
7BB6
  8
0
 10
146.20038961918431
 20
788.5606071988957
 30
0.0
 11
141.60592661918429
 21
801.18379219889562
 31
0.0
  0
LINE
  5
7BB7
  8
0
 10
214.4611886191843
 20
786.98145519889545
 30
0.0
 11
148.45565261918429
 21
786.98145519889545
 31
0.0
  0
LINE
  5
7BB8
  8
0
 10
214.4611886191843
 20
988.02257319889554
 30
0.0
 11
214.4611886191843
 21
786.98145519889545
 31
0.0
  0
LINE
  5
7BB9
  8
0
 10
146.20038961918431
 20
986.44342119889552
 30
0.0
 11
141.60592661918429
 21
973.82023619889549
 31
0.0
  0
ARC
  5
7BBA
  8
0
 10
148.45565261918429
 20
985.62257319889545
 30
0.0
 40
2.399999999999999
 50
90.0
 51
160.0000000000046
  0
ARC
  5
7BBB
  8
0
 10
143.8611886191843
 20
972.99938819889553
 30
0.0
 40
2.399999999999999
 50
160.0000000000046
 51
180.0
  0
LINE
  5
7BBC
  8
0
 10
146.77515361918441
 20
987.33602719889552
 30
0.0
 11
146.77515361918441
 21
786.98145519889545
 31
0.0
  0
LINE
  5
7BBD
  8
0
 10
141.4611886191843
 20
972.99938819889553
 30
0.0
 11
141.4611886191843
 21
802.2225731988957
 31
0.0
  0
LINE
  5
7BBE
  8
0
 10
214.4611886191843
 20
988.02257319889554
 30
0.0
 11
148.45565261918429
 21
988.02257319889554
 31
0.0
  0
LINE
  5
7BBF
  8
0
 10
348.46118861918433
 20
785.50201419889561
 30
0.0
 11
348.46118861918433
 21
782.50201419889561
 31
0.0
  0
LINE
  5
7BC0
  8
0
 10
281.46118861918438
 20
785.50201419889561
 30
0.0
 11
281.46118861918438
 21
782.50201419889561
 31
0.0
  0
LINE
  5
7BC1
  8
0
 10
358.21131361918441
 20
784.13099919889555
 30
0.0
 11
269.39319461918438
 21
742.71499019889552
 31
0.0
  0
LINE
  5
7BC2
  8
0
 10
359.85930861918439
 20
780.5970341988957
 30
0.0
 11
358.21131361918441
 21
784.13099919889555
 31
0.0
  0
LINE
  5
7BC3
  8
0
 10
281.06119061918417
 20
782.50201419889561
 30
0.0
 11
350.80429061918431
 21
782.50201419889561
 31
0.0
  0
LINE
  5
7BC4
  8
0
 10
271.04138761918432
 20
739.1800181988956
 30
0.0
 11
269.39319461918438
 21
742.71499019889552
 31
0.0
  0
LINE
  5
7BC5
  8
0
 10
278.5943926191843
 20
739.54602319889545
 30
0.0
 11
278.27299061918438
 21
740.23501519889555
 31
0.0
  0
LINE
  5
7BC6
  8
0
 10
354.88629061918431
 20
755.41601519889559
 30
0.0
 11
354.88629061918431
 21
775.79002419889559
 31
0.0
  0
LINE
  5
7BC7
  8
0
 10
272.50878261918427
 20
738.65101619889549
 30
0.0
 11
359.33428761918452
 21
779.13801919889545
 31
0.0
  0
LINE
  5
7BC8
  8
0
 10
277.46119261918432
 20
746.4770201988955
 30
0.0
 11
277.46119261918432
 21
778.90202319889545
 31
0.0
  0
LINE
  5
7BC9
  8
0
  6
AM_ISO08W050
 10
272.28499161918432
 20
762.50201419889549
 30
0.0
 11
280.87529261918428
 21
762.50201419889549
 31
0.0
  0
LINE
  5
7BCA
  8
0
 10
275.46119261918432
 20
774.10202019889562
 30
0.0
 11
275.46119261918432
 21
750.90202319889545
 31
0.0
  0
LINE
  5
7BCB
  8
0
 10
275.46119261918432
 20
774.10202019889562
 30
0.0
 11
276.46119261918432
 21
774.10202019889562
 31
0.0
  0
LINE
  5
7BCC
  8
0
 10
275.46119261918432
 20
750.90202319889545
 30
0.0
 11
276.46119261918432
 21
750.90202319889545
 31
0.0
  0
ARC
  5
7BCD
  8
0
 10
281.06119061918417
 20
778.90202319889545
 30
0.0
 40
3.5999979999999989
 50
90.000061000000898
 51
179.99998200000081
  0
ARC
  5
7BCE
  8
0
 10
358.86228861918443
 20
780.1320191988957
 30
0.0
 40
1.100006
 50
294.99982600000169
 51
24.999513999998751
  0
ARC
  5
7BCF
  8
0
 10
272.03829161918441
 20
739.64501919889562
 30
0.0
 40
1.0999959999999971
 50
204.99980300000141
 51
295.00019499999559
  0
ARC
  5
7BD0
  8
0
 10
347.28629261918428
 20
755.41601519889559
 30
0.0
 40
7.5999979999999958
 50
288.90001599999658
 51
0.0000179999992061
  0
ARC
  5
7BD1
  8
0
 10
281.8570936191843
 20
741.06701619889554
 30
0.0
 40
3.5999979999999989
 50
204.9991569999998
 51
269.09402099999909
  0
ARC
  5
7BD2
  8
0
 10
284.96359161918451
 20
937.44300819889565
 30
0.0
 40
200.0
 50
269.09405200000299
 51
288.9000030000019
  0
ARC
  5
7BD3
  8
0
 10
277.36669061918411
 20
739.81301919889552
 30
0.0
 40
0.9999979999999998
 50
24.999268000004911
 51
114.9993579999945
  0
ARC
  5
7BD4
  8
0
 10
356.88629061918431
 20
775.79002419889559
 30
0.0
 40
2.0
 50
115.00014999999451
 51
179.99998200000081
  0
ARC
  5
7BD5
  8
0
 10
350.80429061918431
 20
779.90202319889545
 30
0.0
 40
2.600006
 50
40.686130000000617
 51
90.0
  0
ARC
  5
7BD6
  8
0
 10
276.46119261918432
 20
775.10202019889562
 30
0.0
 40
1.0
 50
269.99894299999522
 51
0.0000179999992061
  0
ARC
  5
7BD7
  8
0
 10
276.46119261918432
 20
749.90202319889545
 30
0.0
 40
1.0
 50
0.0000179999992061
 51
90.0
  0
ARC
  5
7BD8
  8
0
 10
222.9048326191845
 20
805.10133419889553
 30
0.0
 40
2.0
 50
189.99999999999861
 51
270.0
  0
LINE
  5
7BD9
  8
0
 10
220.9352176191843
 20
804.7540381988955
 30
0.0
 11
217.9611886191843
 21
821.62059219889545
 31
0.0
  0
LINE
  5
7BDA
  8
0
 10
217.9611886191843
 20
821.62059219889545
 30
0.0
 11
219.02292761918429
 21
821.62059219889545
 31
0.0
  0
LINE
  5
7BDB
  8
0
 10
416.42532961918431
 20
973.67432119889543
 30
0.0
 11
416.96118861918433
 21
973.67432119889543
 31
0.0
  0
LINE
  5
7BDC
  8
0
 10
416.685720619184
 20
975.23657819889593
 30
0.0
 11
416.96118861918433
 21
975.23657819889593
 31
0.0
  0
LINE
  5
7BDD
  8
0
 10
418.63938761918399
 20
799.50201419889549
 30
0.0
 11
418.96118861918433
 21
799.50201419889549
 31
0.0
  0
LINE
  5
7BDE
  8
0
 10
414.78179361918433
 20
804.35002819889542
 30
0.0
 11
416.96118861918433
 21
804.35002819889542
 31
0.0
  0
LINE
  5
7BDF
  8
0
 10
415.78787661918398
 20
816.4555981988957
 30
0.0
 11
416.96118861918433
 21
816.4555981988957
 31
0.0
  0
LINE
  5
7BE0
  8
0
  6
AM_ISO08W050
 10
314.96118861918438
 20
779.84604919889534
 30
0.0
 11
314.96118861918438
 21
789.02776519889562
 31
0.0
  0
ARC
  5
7BE1
  8
0
 10
413.20406861918423
 20
976.51026219889582
 30
0.0
 40
2.0
 50
9.9999999999986073
 51
90.0
  0
ARC
  5
7BE2
  8
0
 10
413.27008561918421
 20
980.05106119889558
 30
0.0
 40
2.0
 50
9.9999999999986073
 51
90.0
  0
ARC
  5
7BE3
  8
0
 10
413.35600361918432
 20
982.60279819889547
 30
0.0
 40
2.0
 50
9.9999999999986073
 51
90.0
  0
ARC
  5
7BE4
  8
0
 10
413.38475261918421
 20
984.00201419889561
 30
0.0
 40
2.0
 50
9.9999999999986073
 51
90.0
  0
LINE
  5
7BE5
  8
0
 10
421.96119161918398
 20
972.50201419889584
 30
0.0
 11
418.96119161918432
 21
975.50201419889549
 31
0.0
  0
LINE
  5
7BE6
  8
0
 10
416.91438461918398
 20
975.50201419889549
 30
0.0
 11
418.96118861918433
 21
975.50201419889549
 31
0.0
  0
LINE
  5
7BE7
  8
0
 10
421.96118861918433
 20
802.50201419889572
 30
0.0
 11
418.96118861918433
 21
799.50201419889549
 31
0.0
  0
LINE
  5
7BE8
  8
0
 10
418.96118861918433
 20
799.50201419889549
 30
0.0
 11
418.96118861918433
 21
825.12240019889555
 31
0.0
  0
LINE
  5
7BE9
  8
0
 10
421.96118861918433
 20
802.50201419889572
 30
0.0
 11
421.96118861918433
 21
972.50201419889584
 31
0.0
  0
CIRCLE
  5
7BEA
  8
0
 10
314.96118861918438
 20
887.50201419889561
 30
0.0
 40
11.0
  0
LINE
  5
7BEB
  8
0
 10
222.24730861918431
 20
986.00201419889561
 30
0.0
 11
273.96118861918438
 21
986.00201419889561
 31
0.0
  0
LINE
  5
7BEC
  8
0
 10
353.96118861918433
 20
978.51026219889604
 30
0.0
 11
353.96118861918433
 21
984.00201419889561
 31
0.0
  0
LINE
  5
7BED
  8
0
 10
275.96118861918438
 20
978.51026219889604
 30
0.0
 11
275.96118861918438
 21
984.00201419889561
 31
0.0
  0
ARC
  5
7BEE
  8
0
 10
273.96118861918438
 20
984.00201419889561
 30
0.0
 40
2.0
 50
0.0
 51
90.0
  0
ARC
  5
7BEF
  8
0
 10
355.96118861918433
 20
984.00201419889561
 30
0.0
 40
2.0
 50
90.0
 51
180.0
  0
LINE
  5
7BF0
  8
0
 10
355.96118861918433
 20
986.00201419889561
 30
0.0
 11
413.38475261918421
 21
986.00201419889561
 31
0.0
  0
LINE
  5
7BF1
  8
0
 10
413.35600361918432
 20
984.60279819889547
 30
0.0
 11
355.96118861918433
 21
984.60279819889547
 31
0.0
  0
LINE
  5
7BF2
  8
0
 10
416.96118861918433
 20
973.67432119889543
 30
0.0
 11
415.32561961918418
 21
982.9500941988955
 31
0.0
  0
LINE
  5
7BF3
  8
0
 10
416.96118861918433
 20
975.23657819889593
 30
0.0
 11
415.35436761918419
 21
984.34931019889541
 31
0.0
  0
LINE
  5
7BF4
  8
0
 10
217.9611886191843
 20
971.21176019889549
 30
0.0
 11
220.2776936191843
 21
984.34931019889541
 31
0.0
  0
ARC
  5
7BF5
  8
0
 10
222.24730861918431
 20
984.00201419889561
 30
0.0
 40
2.0
 50
90.0
 51
170.00000000000139
  0
LINE
  5
7BF6
  8
0
 10
217.9611886191843
 20
969.55269919889554
 30
0.0
 11
220.3235106191843
 21
982.9500941988955
 31
0.0
  0
ARC
  5
7BF7
  8
0
 10
222.29312661918439
 20
982.60279819889547
 30
0.0
 40
2.0
 50
90.0
 51
170.00000000000139
  0
ARC
  5
7BF8
  8
0
 10
273.96118861918438
 20
982.60279819889547
 30
0.0
 40
2.0
 50
0.0
 51
90.0
  0
ARC
  5
7BF9
  8
0
 10
355.96118861918433
 20
982.60279819889547
 30
0.0
 40
2.0
 50
90.0
 51
180.0
  0
LINE
  5
7BFA
  8
0
 10
273.96118861918438
 20
984.60279819889547
 30
0.0
 11
222.29312661918439
 21
984.60279819889547
 31
0.0
  0
LINE
  5
7BFB
  8
0
 10
413.27008561918421
 20
982.05106119889558
 30
0.0
 11
355.96118861918433
 21
982.05106119889558
 31
0.0
  0
LINE
  5
7BFC
  8
0
 10
416.83240861918432
 20
971.3656631988955
 30
0.0
 11
415.23970061918442
 21
980.39835819889572
 31
0.0
  0
LINE
  5
7BFD
  8
0
 10
217.9611886191843
 20
966.33190819889546
 30
0.0
 11
220.4414836191844
 21
980.39835819889572
 31
0.0
  0
ARC
  5
7BFE
  8
0
 10
222.4110986191844
 20
980.05106119889558
 30
0.0
 40
2.0
 50
90.0
 51
170.00000000000139
  0
ARC
  5
7BFF
  8
0
 10
273.96118861918438
 20
980.05106119889558
 30
0.0
 40
2.0
 50
0.0
 51
90.0
  0
ARC
  5
7C00
  8
0
 10
355.96118861918433
 20
980.05106119889558
 30
0.0
 40
2.0
 50
90.0
 51
180.0
  0
LINE
  5
7C01
  8
0
 10
273.96118861918438
 20
982.05106119889558
 30
0.0
 11
222.4110986191844
 21
982.05106119889558
 31
0.0
  0
LINE
  5
7C02
  8
0
 10
413.20406861918423
 20
978.51026219889604
 30
0.0
 11
222.5726076191844
 21
978.51026219889604
 31
0.0
  0
LINE
  5
7C03
  8
0
 10
416.14205361918431
 20
971.3656631988955
 30
0.0
 11
415.1736846191842
 21
976.85755819889562
 31
0.0
  0
LINE
  5
7C04
  8
0
 10
217.9611886191843
 20
961.87514819889554
 30
0.0
 11
220.60299161918431
 21
976.85755819889562
 31
0.0
  0
ARC
  5
7C05
  8
0
 10
222.5726076191844
 20
976.51026219889582
 30
0.0
 40
2.0
 50
90.0
 51
170.00000000000139
  0
LINE
  5
7C06
  8
0
 10
347.01754461918409
 20
971.90269419889546
 30
0.0
 11
222.9048326191845
 21
971.90269419889546
 31
0.0
  0
LINE
  5
7C07
  8
0
 10
351.96118861918433
 20
953.38343619889542
 30
0.0
 11
348.9871596191843
 21
970.24999019889549
 31
0.0
  0
ARC
  5
7C08
  8
0
 10
347.01754461918409
 20
969.90269419889557
 30
0.0
 40
2.0
 50
9.9999999999986073
 51
90.0
  0
LINE
  5
7C09
  8
0
 10
217.9611886191843
 20
953.38343619889542
 30
0.0
 11
220.9352176191843
 21
970.24999019889549
 31
0.0
  0
ARC
  5
7C0A
  8
0
 10
222.9048326191845
 20
969.90269419889557
 30
0.0
 40
2.0
 50
90.0
 51
170.00000000000139
  0
LINE
  5
7C0B
  8
0
 10
346.68728061918432
 20
966.50065019889553
 30
0.0
 11
223.23509661918411
 21
966.50065019889553
 31
0.0
  0
LINE
  5
7C0C
  8
0
 10
351.74013761918428
 20
947.36201419889562
 30
0.0
 11
348.65689661918429
 21
964.84794719889555
 31
0.0
  0
ARC
  5
7C0D
  8
0
 10
346.68728061918432
 20
964.50065019889553
 30
0.0
 40
2.0
 50
9.9999999999986073
 51
90.0
  0
LINE
  5
7C0E
  8
0
 10
218.23818261918441
 20
947.67928219889541
 30
0.0
 11
221.26548061918439
 21
964.84794719889555
 31
0.0
  0
ARC
  5
7C0F
  8
0
 10
223.23509661918411
 20
964.50065019889553
 30
0.0
 40
2.0
 50
90.0
 51
170.00000000000139
  0
LINE
  5
7C10
  8
0
 10
416.96118861918433
 20
892.53216619889565
 30
0.0
 11
416.96118861918433
 21
895.47985819889561
 31
0.0
  0
LINE
  5
7C11
  8
0
 10
416.96118861918433
 20
902.5316421988955
 30
0.0
 11
416.96118861918433
 21
905.49312119889555
 31
0.0
  0
LINE
  5
7C12
  8
0
 10
416.96118861918433
 20
913.52382219889557
 30
0.0
 11
416.96118861918433
 21
916.51644919889554
 31
0.0
  0
LINE
  5
7C13
  8
0
 10
416.96118861918433
 20
924.50661719889536
 30
0.0
 11
416.96118861918433
 21
927.55232319889535
 31
0.0
  0
LINE
  5
7C14
  8
0
 10
416.96118861918433
 20
935.47649619889546
 30
0.0
 11
416.96118861918433
 21
938.60740919889554
 31
0.0
  0
LINE
  5
7C15
  8
0
 10
416.96118861918433
 20
944.43497219889582
 30
0.0
 11
416.96118861918433
 21
947.67928219889541
 31
0.0
  0
LINE
  5
7C16
  8
0
 10
366.96118861918433
 20
961.87514819889554
 30
0.0
 11
350.46387061918432
 21
961.87514819889554
 31
0.0
  0
LINE
  5
7C17
  8
0
 10
398.74796561918441
 20
966.72011619889554
 30
0.0
 11
382.96118861918433
 21
966.72011619889554
 31
0.0
  0
LINE
  5
7C18
  8
0
 10
366.96118861918433
 20
961.87514819889554
 30
0.0
 11
382.96118861918433
 21
966.72011619889554
 31
0.0
  0
LINE
  5
7C19
  8
0
 10
382.96118861918433
 20
966.72011619889554
 30
0.0
 11
382.96118861918433
 21
963.35480119889542
 31
0.0
  0
LINE
  5
7C1A
  8
0
 10
366.96118861918433
 20
961.87514819889554
 30
0.0
 11
366.96118861918433
 21
947.67928219889541
 31
0.0
  0
LINE
  5
7C1B
  8
0
 10
402.46118861918433
 20
950.56797619889562
 30
0.0
 11
402.46118861918433
 21
969.36566319889562
 31
0.0
  0
ARC
  5
7C1C
  8
0
 10
404.46118861918433
 20
969.36566319889562
 30
0.0
 40
2.0
 50
90.0
 51
180.0
  0
LINE
  5
7C1D
  8
0
 10
402.46118861918433
 20
954.95807419889593
 30
0.0
 11
382.96118861918433
 21
954.95807419889593
 31
0.0
  0
LINE
  5
7C1E
  8
0
 10
397.06119461918422
 20
963.35480119889542
 30
0.0
 11
382.96118861918433
 21
963.35480119889542
 31
0.0
  0
LINE
  5
7C1F
  8
0
 10
382.96118861918433
 20
954.95807419889593
 30
0.0
 11
382.96118861918433
 21
947.67928219889541
 31
0.0
  0
LINE
  5
7C21
  8
0
 10
421.96118861918433
 20
971.3656631988955
 30
0.0
 11
404.46118861918433
 21
971.3656631988955
 31
0.0
  0
LINE
  5
7C22
  8
0
 10
421.96118861918433
 20
949.56797619889585
 30
0.0
 11
401.46118861918421
 21
949.56797619889585
 31
0.0
  0
ARC
  5
7C23
  8
0
 10
401.46118861918421
 20
950.56797619889562
 30
0.0
 40
1.0
 50
270.0
 51
0.0
  0
LINE
  5
7C24
  8
0
 10
421.96118861918433
 20
963.24165819889549
 30
0.0
 11
404.46118861918433
 21
963.24165819889549
 31
0.0
  0
LINE
  5
7C25
  8
0
 10
214.4611886191843
 20
971.50201419889561
 30
0.0
 11
217.9611886191843
 21
971.50201419889561
 31
0.0
  0
ARC
  5
7C26
  8
0
 10
418.63938761918399
 20
797.50201419889561
 30
0.0
 40
2.0
 50
90.0
 51
170.00000000000139
  0
ARC
  5
7C27
  8
0
 10
354.70383061918432
 20
792.50835719889562
 30
0.0
 40
1.9936590000000001
 50
90.075931000003493
 51
178.17025399999861
  0
LINE
  5
7C28
  8
0
 10
354.70118861918428
 20
794.50201419889561
 30
0.0
 11
414.4013546191843
 21
794.50201419889561
 31
0.0
  0
LINE
  5
7C29
  8
0
 10
352.46118861918433
 20
785.50201419889561
 30
0.0
 11
353.07721761918441
 21
803.10133419889564
 31
0.0
  0
LINE
  5
7C2A
  8
0
 10
416.66977261918402
 20
797.84931019889552
 30
0.0
 11
416.37096961918422
 21
796.15471819889535
 31
0.0
  0
ARC
  5
7C2B
  8
0
 10
414.4013546191843
 20
796.50201419889561
 30
0.0
 40
2.0
 50
270.0
 51
350.00000000000148
  0
LINE
  5
7C2C
  8
0
 10
218.53853861918429
 20
802.50201419889572
 30
0.0
 11
225.75541761918419
 21
790.00201419889561
 31
0.0
  0
LINE
  5
7C2D
  8
0
 10
227.48746761918429
 20
789.00201419889561
 30
0.0
 11
275.40615961918439
 21
789.00201419889561
 31
0.0
  0
LINE
  5
7C2E
  8
0
 10
277.46118861918438
 20
785.50201419889561
 30
0.0
 11
277.40487661918439
 21
787.07362919889545
 31
0.0
  0
ARC
  5
7C2F
  8
0
 10
216.8064876191844
 20
801.50201419889549
 30
0.0
 40
2.0
 50
30.000000000000551
 51
90.0
  0
ARC
  5
7C30
  8
0
 10
227.48746761918429
 20
791.00201419889549
 30
0.0
 40
2.0
 50
210.0000000000004
 51
270.0
  0
ARC
  5
7C31
  8
0
 10
275.40615961918439
 20
787.00201419889549
 30
0.0
 40
2.0
 50
2.052064999998533
 51
90.0
  0
LINE
  5
7C32
  8
0
 10
277.46118861918438
 20
785.50201419889561
 30
0.0
 11
352.46118861918433
 21
785.50201419889561
 31
0.0
  0
LINE
  5
7C33
  8
0
 10
226.48746761918429
 20
789.26996319889554
 30
0.0
 11
226.48746761918429
 21
803.10133419889564
 31
0.0
  0
LINE
  5
7C34
  8
0
 10
412.92827261918433
 20
803.10133419889564
 30
0.0
 11
222.9048326191845
 21
803.10133419889564
 31
0.0
  0
LINE
  5
7C35
  8
0
 10
412.70748661918418
 20
808.50337819889558
 30
0.0
 11
223.0140456191842
 21
808.50337819889558
 31
0.0
  0
LINE
  5
7C36
  8
0
 10
416.96118861918433
 20
823.10978019889581
 30
0.0
 11
382.96118861918433
 21
823.10978019889581
 31
0.0
  0
LINE
  5
7C37
  8
0
 10
416.96118861918433
 20
823.10978019889581
 30
0.0
 11
414.67710161918433
 21
810.15608119889555
 31
0.0
  0
ARC
  5
7C38
  8
0
 10
412.70748661918418
 20
810.50337819889592
 30
0.0
 40
2.0
 50
270.0
 51
350.00000000000148
  0
LINE
  5
7C39
  8
0
 10
416.96118861918433
 20
816.4555981988957
 30
0.0
 11
414.89788761918442
 21
804.7540381988955
 31
0.0
  0
ARC
  5
7C3A
  8
0
 10
412.92827261918433
 20
805.10133419889553
 30
0.0
 40
2.0
 50
270.0
 51
350.00000000000148
  0
LINE
  5
7C3B
  8
0
 10
221.7039266191845
 20
803.50201419889561
 30
0.0
 11
214.4611886191843
 21
803.50201419889561
 31
0.0
  0
LINE
  5
7C3C
  8
0
 10
416.96118861918433
 20
804.35002819889542
 30
0.0
 11
415.51613461918402
 21
796.15471819889535
 31
0.0
  0
ARC
  5
7C3D
  8
0
 10
413.54651861918433
 20
796.50201419889561
 30
0.0
 40
2.0
 50
270.0
 51
350.00000000000148
  0
LINE
  5
7C3E
  8
0
 10
351.96118861918433
 20
839.34201419889541
 30
0.0
 11
351.96118861918433
 21
836.64201419889548
 31
0.0
  0
LINE
  5
7C3F
  8
0
 10
421.96118861918433
 20
825.29237719889545
 30
0.0
 11
404.46118861918433
 21
825.29237719889545
 31
0.0
  0
LINE
  5
7C40
  8
0
 10
421.96118861918433
 20
837.60001619889545
 30
0.0
 11
404.46118861918433
 21
837.60001619889545
 31
0.0
  0
LINE
  5
7C41
  8
0
 10
421.96118861918433
 20
847.77930819889559
 30
0.0
 11
416.96118861918433
 21
847.77930819889559
 31
0.0
  0
LINE
  5
7C42
  8
0
 10
402.46118861918433
 20
846.77930819889559
 30
0.0
 11
402.46118861918433
 21
827.29237719889545
 31
0.0
  0
ARC
  5
7C43
  8
0
 10
401.46118861918421
 20
846.77930819889559
 30
0.0
 40
1.0
 50
0.0
 51
42.252324000004279
  0
ARC
  5
7C44
  8
0
 10
404.46118861918433
 20
827.29237719889545
 30
0.0
 40
2.0
 50
180.0
 51
270.0
  0
LINE
  5
7C45
  8
0
 10
366.96118861918433
 20
944.43497219889582
 30
0.0
 11
366.96118861918433
 21
938.60740919889554
 31
0.0
  0
LINE
  5
7C46
  8
0
 10
382.96118861918433
 20
944.43497219889582
 30
0.0
 11
382.96118861918433
 21
938.60740919889554
 31
0.0
  0
LINE
  5
7C47
  8
0
 10
366.96118861918433
 20
935.47649619889546
 30
0.0
 11
366.96118861918433
 21
927.55232319889535
 31
0.0
  0
LINE
  5
7C48
  8
0
 10
366.96118861918433
 20
924.50661719889536
 30
0.0
 11
366.96118861918433
 21
916.51644919889554
 31
0.0
  0
LINE
  5
7C49
  8
0
 10
366.96118861918433
 20
913.52382219889557
 30
0.0
 11
366.96118861918433
 21
905.49312119889555
 31
0.0
  0
LINE
  5
7C4A
  8
0
 10
366.96118861918433
 20
902.5316421988955
 30
0.0
 11
366.96118861918433
 21
895.47985819889561
 31
0.0
  0
LINE
  5
7C4B
  8
0
 10
366.96118861918433
 20
892.66201419889592
 30
0.0
 11
366.96118861918433
 21
882.47186219889545
 31
0.0
  0
LINE
  5
7C4C
  8
0
 10
382.96118861918433
 20
892.66201419889592
 30
0.0
 11
382.96118861918433
 21
882.47186219889545
 31
0.0
  0
LINE
  5
7C4D
  8
0
 10
382.96118861918433
 20
902.5316421988955
 30
0.0
 11
382.96118861918433
 21
895.47985819889561
 31
0.0
  0
LINE
  5
7C4E
  8
0
 10
382.96118861918433
 20
913.52382219889557
 30
0.0
 11
382.96118861918433
 21
905.49312119889555
 31
0.0
  0
LINE
  5
7C4F
  8
0
 10
382.96118861918433
 20
924.50661719889536
 30
0.0
 11
382.96118861918433
 21
916.51644919889554
 31
0.0
  0
LINE
  5
7C50
  8
0
 10
382.96118861918433
 20
935.47649619889546
 30
0.0
 11
382.96118861918433
 21
927.55232319889535
 31
0.0
  0
LINE
  5
7C51
  8
0
 10
366.96118861918433
 20
879.5241701988956
 30
0.0
 11
366.96118861918433
 21
872.47238619889549
 31
0.0
  0
LINE
  5
7C52
  8
0
 10
382.96118861918433
 20
879.5241701988956
 30
0.0
 11
382.96118861918433
 21
872.47238619889549
 31
0.0
  0
LINE
  5
7C53
  8
0
 10
382.96118861918433
 20
869.51090719889555
 30
0.0
 11
382.96118861918433
 21
861.48020619889553
 31
0.0
  0
LINE
  5
7C54
  8
0
 10
366.96118861918433
 20
869.51090719889555
 30
0.0
 11
366.96118861918433
 21
861.48020619889553
 31
0.0
  0
LINE
  5
7C55
  8
0
 10
366.96118861918433
 20
858.48757919889556
 30
0.0
 11
366.96118861918433
 21
850.49741119889552
 31
0.0
  0
LINE
  5
7C56
  8
0
 10
382.96118861918433
 20
858.48757919889556
 30
0.0
 11
382.96118861918433
 21
850.49741119889552
 31
0.0
  0
LINE
  5
7C57
  8
0
 10
397.51058361918427
 20
831.4812181988957
 30
0.0
 11
382.96118761918422
 21
831.4812181988957
 31
0.0
  0
LINE
  5
7C58
  8
0
 10
402.46118861918433
 20
842.89356819889554
 30
0.0
 11
382.96118761918422
 21
842.89356819889554
 31
0.0
  0
LINE
  5
7C59
  8
0
 10
366.96118861918433
 20
847.45170519889552
 30
0.0
 11
366.96118861918433
 21
827.45170519889541
 31
0.0
  0
LINE
  5
7C5A
  8
0
 10
418.96118861918433
 20
971.3656631988955
 30
0.0
 11
418.96118861918433
 21
975.50201419889549
 31
0.0
  0
LINE
  5
7C5B
  8
0
 10
416.96118861918433
 20
801.30027019889565
 30
0.0
 11
416.05388861918419
 21
796.15471819889535
 31
0.0
  0
ARC
  5
7C5C
  8
0
 10
414.08427361918399
 20
796.50201419889561
 30
0.0
 40
2.0
 50
270.0
 51
350.00000000000148
  0
LINE
  5
7C5D
  8
0
 10
382.96118861918433
 20
847.45170519889552
 30
0.0
 11
382.96118861918433
 21
842.89356819889554
 31
0.0
  0
LINE
  5
7C5E
  8
0
 10
418.96118861918433
 20
847.77930819889559
 30
0.0
 11
418.96118861918433
 21
949.56797619889585
 31
0.0
  0
LINE
  5
7C5F
  8
0
 10
217.9611886191843
 20
827.64201419889548
 30
0.0
 11
221.0444306191842
 21
810.15608119889555
 31
0.0
  0
ARC
  5
7C60
  8
0
 10
223.0140456191842
 20
810.50337819889592
 30
0.0
 40
2.0
 50
189.99999999999861
 51
270.0
  0
LINE
  5
7C61
  8
0
 10
367.66658561918427
 20
836.19630819889574
 30
0.0
 11
382.96118861918433
 21
831.4812181988957
 31
0.0
  0
LINE
  5
7C62
  8
0
 10
382.96118861918433
 20
842.89356819889554
 30
0.0
 11
367.92524761918452
 21
842.35281719889554
 31
0.0
  0
LINE
  5
7C63
  8
0
 10
382.96118861918433
 20
831.4812181988957
 30
0.0
 11
382.96118861918433
 21
823.10978019889581
 31
0.0
  0
ARC
  5
7C64
  8
0
 10
367.96118861918433
 20
841.3534631988955
 30
0.0
 40
1.0
 50
92.059691000003568
 51
180.0
  0
ARC
  5
7C65
  8
0
 10
367.96118861918433
 20
837.15192819889592
 30
0.0
 40
1.0
 50
180.0
 51
252.8662750000021
  0
LINE
  5
7C66
  8
0
 10
382.96118861918433
 20
963.35480119889542
 30
0.0
 11
367.66072961918451
 21
958.5349351988956
 31
0.0
  0
LINE
  5
7C67
  8
0
 10
368.00974361918429
 20
954.2312541988955
 30
0.0
 11
382.96118861918433
 21
954.95807419889593
 31
0.0
  0
ARC
  5
7C68
  8
0
 10
367.96118861918433
 20
957.58114019889547
 30
0.0
 40
1.0
 50
107.485179
 51
180.0
  0
ARC
  5
7C69
  8
0
 10
367.96118861918433
 20
955.23007519889552
 30
0.0
 40
1.0
 50
180.0
 51
270.0
  0
LINE
  5
7C6B
  8
0
 10
416.96118861918433
 20
947.67928219889541
 30
0.0
 11
217.9611886191843
 21
947.67928219889541
 31
0.0
  0
LINE
  5
7C6C
  8
0
 10
416.96118861918433
 20
944.43497219889582
 30
0.0
 11
217.9611886191843
 21
944.43497219889582
 31
0.0
  0
LINE
  5
7C6D
  8
0
 10
416.96118861918433
 20
938.60740919889554
 30
0.0
 11
217.9611886191843
 21
938.60740919889554
 31
0.0
  0
LINE
  5
7C6E
  8
0
 10
416.96118861918433
 20
935.47649619889546
 30
0.0
 11
217.9611886191843
 21
935.47649619889546
 31
0.0
  0
LINE
  5
7C6F
  8
0
 10
416.96118861918433
 20
927.55232319889535
 30
0.0
 11
217.9611886191843
 21
927.55232319889535
 31
0.0
  0
LINE
  5
7C70
  8
0
 10
416.96118861918433
 20
924.50661719889536
 30
0.0
 11
217.9611886191843
 21
924.50661719889536
 31
0.0
  0
LINE
  5
7C71
  8
0
 10
416.96118861918433
 20
916.51644919889554
 30
0.0
 11
217.9611886191843
 21
916.51644919889554
 31
0.0
  0
LINE
  5
7C72
  8
0
 10
416.96118861918433
 20
913.52382219889557
 30
0.0
 11
217.9611886191843
 21
913.52382219889557
 31
0.0
  0
LINE
  5
7C73
  8
0
 10
416.96118861918433
 20
905.49312119889555
 30
0.0
 11
217.9611886191843
 21
905.49312119889555
 31
0.0
  0
LINE
  5
7C74
  8
0
 10
416.96118861918433
 20
902.5316421988955
 30
0.0
 11
217.9611886191843
 21
902.5316421988955
 31
0.0
  0
LINE
  5
7C75
  8
0
 10
416.96118861918433
 20
895.47985819889561
 30
0.0
 11
322.53443161918437
 21
895.47985819889561
 31
0.0
  0
LINE
  5
7C76
  8
0
 10
416.96118861918433
 20
892.53216619889565
 30
0.0
 11
329.34683561918428
 21
892.53216619889565
 31
0.0
  0
LINE
  5
7C77
  8
0
 10
414.88226761918418
 20
947.00201419889549
 30
0.0
 11
414.88226761918418
 21
945.00201419889561
 31
0.0
  0
LINE
  5
7C78
  8
0
 10
220.04010961918439
 20
945.00201419889561
 30
0.0
 11
414.88226761918418
 21
945.00201419889561
 31
0.0
  0
LINE
  5
7C79
  8
0
 10
220.04010961918439
 20
947.00201419889549
 30
0.0
 11
414.88226761918418
 21
947.00201419889549
 31
0.0
  0
LINE
  5
7C7A
  8
0
 10
220.04010961918439
 20
936.00201419889561
 30
0.0
 11
414.88226761918418
 21
936.00201419889561
 31
0.0
  0
LINE
  5
7C7B
  8
0
 10
220.04010961918439
 20
938.00201419889549
 30
0.0
 11
414.88226761918418
 21
938.00201419889549
 31
0.0
  0
LINE
  5
7C7C
  8
0
 10
220.04010961918439
 20
925.00201419889561
 30
0.0
 11
414.88226761918418
 21
925.00201419889561
 31
0.0
  0
LINE
  5
7C7D
  8
0
 10
220.04010961918439
 20
927.00201419889584
 30
0.0
 11
414.88226761918418
 21
927.00201419889584
 31
0.0
  0
LINE
  5
7C7E
  8
0
 10
220.04010961918439
 20
914.00201419889549
 30
0.0
 11
414.88226761918418
 21
914.00201419889549
 31
0.0
  0
LINE
  5
7C7F
  8
0
 10
220.04010961918439
 20
916.00201419889561
 30
0.0
 11
414.88226761918418
 21
916.00201419889561
 31
0.0
  0
LINE
  5
7C80
  8
0
 10
220.04010961918439
 20
903.00201419889561
 30
0.0
 11
414.88226761918418
 21
903.00201419889561
 31
0.0
  0
LINE
  5
7C81
  8
0
 10
220.04010961918439
 20
905.00201419889549
 30
0.0
 11
414.88226761918418
 21
905.00201419889549
 31
0.0
  0
LINE
  5
7C82
  8
0
 10
328.73616561918408
 20
893.00201419889584
 30
0.0
 11
414.88226761918418
 21
893.00201419889584
 31
0.0
  0
LINE
  5
7C83
  8
0
 10
323.00792661918439
 20
895.00201419889561
 30
0.0
 11
414.88226761918418
 21
895.00201419889561
 31
0.0
  0
LINE
  5
7C84
  8
0
 10
414.88226761918418
 20
947.00201419889549
 30
0.0
 11
416.96118861918433
 21
947.67928219889541
 31
0.0
  0
LINE
  5
7C85
  8
0
 10
414.88226761918418
 20
945.00201419889561
 30
0.0
 11
416.96118861918433
 21
944.43497219889582
 31
0.0
  0
LINE
  5
7C86
  8
0
 10
414.88226761918418
 20
938.00201419889549
 30
0.0
 11
416.96118861918433
 21
938.60740919889554
 31
0.0
  0
LINE
  5
7C87
  8
0
 10
414.88226761918418
 20
936.00201419889561
 30
0.0
 11
416.96118861918433
 21
935.47649619889546
 31
0.0
  0
LINE
  5
7C88
  8
0
 10
414.88226761918418
 20
927.00201419889584
 30
0.0
 11
416.96118861918433
 21
927.55232319889535
 31
0.0
  0
LINE
  5
7C89
  8
0
 10
414.88226761918418
 20
925.00201419889561
 30
0.0
 11
416.96118861918433
 21
924.50661719889536
 31
0.0
  0
LINE
  5
7C8A
  8
0
 10
414.88226761918418
 20
916.00201419889561
 30
0.0
 11
416.96118861918433
 21
916.51644919889554
 31
0.0
  0
LINE
  5
7C8B
  8
0
 10
414.88226761918418
 20
914.00201419889549
 30
0.0
 11
416.96118861918433
 21
913.52382219889557
 31
0.0
  0
LINE
  5
7C8C
  8
0
 10
414.88226761918418
 20
905.00201419889549
 30
0.0
 11
416.96118861918433
 21
905.49312119889555
 31
0.0
  0
LINE
  5
7C8D
  8
0
 10
414.88226761918418
 20
903.00201419889561
 30
0.0
 11
416.96118861918433
 21
902.5316421988955
 31
0.0
  0
LINE
  5
7C8E
  8
0
 10
414.88226761918418
 20
895.00201419889561
 30
0.0
 11
416.96118861918433
 21
895.47985819889561
 31
0.0
  0
LINE
  5
7C8F
  8
0
 10
414.88226761918418
 20
893.00201419889584
 30
0.0
 11
416.96118861918433
 21
892.53216619889565
 31
0.0
  0
LINE
  5
7C90
  8
0
 10
414.88226761918418
 20
938.00201419889549
 30
0.0
 11
414.88226761918418
 21
936.00201419889561
 31
0.0
  0
LINE
  5
7C91
  8
0
 10
414.88226761918418
 20
927.00201419889584
 30
0.0
 11
414.88226761918418
 21
925.00201419889561
 31
0.0
  0
LINE
  5
7C92
  8
0
 10
414.88226761918418
 20
916.00201419889561
 30
0.0
 11
414.88226761918418
 21
914.00201419889549
 31
0.0
  0
LINE
  5
7C93
  8
0
 10
414.88226761918418
 20
905.00201419889549
 30
0.0
 11
414.88226761918418
 21
903.00201419889561
 31
0.0
  0
LINE
  5
7C94
  8
0
 10
414.88226761918418
 20
895.00201419889561
 30
0.0
 11
414.88226761918418
 21
893.00201419889584
 31
0.0
  0
ARC
  5
7C95
  8
0
 10
328.73616561918408
 20
890.00201419889572
 30
0.0
 40
3.0
 50
90.0
 51
190.2865610000006
  0
ARC
  5
7C96
  8
0
 10
329.34683561918428
 20
889.06216619889574
 30
0.0
 40
3.4700000000000002
 50
90.0
 51
186.1896490000004
  0
LINE
  5
7C97
  8
0
 10
235.04010961918439
 20
895.00201419889561
 30
0.0
 11
235.04010961918439
 21
893.00201419889584
 31
0.0
  0
LINE
  5
7C98
  8
0
 10
220.04010961918439
 20
905.00201419889549
 30
0.0
 11
220.04010961918439
 21
903.00201419889561
 31
0.0
  0
LINE
  5
7C99
  8
0
 10
220.04010961918439
 20
916.00201419889561
 30
0.0
 11
220.04010961918439
 21
914.00201419889549
 31
0.0
  0
LINE
  5
7C9A
  8
0
 10
220.04010961918439
 20
927.00201419889584
 30
0.0
 11
220.04010961918439
 21
925.00201419889561
 31
0.0
  0
LINE
  5
7C9B
  8
0
 10
220.04010961918439
 20
938.00201419889549
 30
0.0
 11
220.04010961918439
 21
936.00201419889561
 31
0.0
  0
LINE
  5
7C9C
  8
0
 10
235.04010961918439
 20
893.00201419889584
 30
0.0
 11
232.9611886191843
 21
892.53216619889565
 31
0.0
  0
LINE
  5
7C9D
  8
0
 10
235.04010961918439
 20
895.00201419889561
 30
0.0
 11
232.9611886191843
 21
895.47985819889561
 31
0.0
  0
LINE
  5
7C9E
  8
0
 10
220.04010961918439
 20
903.00201419889561
 30
0.0
 11
217.9611886191843
 21
902.5316421988955
 31
0.0
  0
LINE
  5
7C9F
  8
0
 10
220.04010961918439
 20
905.00201419889549
 30
0.0
 11
217.9611886191843
 21
905.49312119889555
 31
0.0
  0
LINE
  5
7CA0
  8
0
 10
220.04010961918439
 20
914.00201419889549
 30
0.0
 11
217.9611886191843
 21
913.52382219889557
 31
0.0
  0
LINE
  5
7CA1
  8
0
 10
220.04010961918439
 20
916.00201419889561
 30
0.0
 11
217.9611886191843
 21
916.51644919889554
 31
0.0
  0
LINE
  5
7CA2
  8
0
 10
220.04010961918439
 20
925.00201419889561
 30
0.0
 11
217.9611886191843
 21
924.50661719889536
 31
0.0
  0
LINE
  5
7CA3
  8
0
 10
220.04010961918439
 20
927.00201419889584
 30
0.0
 11
217.9611886191843
 21
927.55232319889535
 31
0.0
  0
LINE
  5
7CA4
  8
0
 10
220.04010961918439
 20
936.00201419889561
 30
0.0
 11
217.9611886191843
 21
935.47649619889546
 31
0.0
  0
LINE
  5
7CA5
  8
0
 10
220.04010961918439
 20
938.00201419889549
 30
0.0
 11
217.9611886191843
 21
938.60740919889554
 31
0.0
  0
LINE
  5
7CA6
  8
0
 10
220.04010961918439
 20
945.00201419889561
 30
0.0
 11
217.9611886191843
 21
944.43497219889582
 31
0.0
  0
LINE
  5
7CA7
  8
0
 10
220.04010961918439
 20
947.00201419889549
 30
0.0
 11
217.9611886191843
 21
947.67928219889541
 31
0.0
  0
LINE
  5
7CA8
  8
0
 10
220.04010961918439
 20
947.00201419889549
 30
0.0
 11
220.04010961918439
 21
945.00201419889561
 31
0.0
  0
LINE
  5
7CA9
  8
0
 10
217.9611886191843
 20
944.43497219889582
 30
0.0
 11
217.9611886191843
 21
947.67928219889541
 31
0.0
  0
LINE
  5
7CAA
  8
0
 10
217.9611886191843
 20
935.47649619889546
 30
0.0
 11
217.9611886191843
 21
938.60740919889554
 31
0.0
  0
LINE
  5
7CAB
  8
0
 10
217.9611886191843
 20
924.50661719889536
 30
0.0
 11
217.9611886191843
 21
927.55232319889535
 31
0.0
  0
LINE
  5
7CAC
  8
0
 10
217.9611886191843
 20
913.52382219889557
 30
0.0
 11
217.9611886191843
 21
916.51644919889554
 31
0.0
  0
LINE
  5
7CAD
  8
0
 10
217.9611886191843
 20
902.5316421988955
 30
0.0
 11
217.9611886191843
 21
905.49312119889555
 31
0.0
  0
LINE
  5
7CAE
  8
0
 10
232.9611886191843
 20
892.53216619889565
 30
0.0
 11
232.9611886191843
 21
895.47985819889561
 31
0.0
  0
LINE
  5
7CAF
  8
0
 10
232.9611886191843
 20
895.47985819889561
 30
0.0
 11
307.38794561918428
 21
895.47985819889561
 31
0.0
  0
LINE
  5
7CB0
  8
0
 10
232.9611886191843
 20
892.53216619889565
 30
0.0
 11
300.57554161918449
 21
892.53216619889565
 31
0.0
  0
LINE
  5
7CB1
  8
0
 10
301.18621161918452
 20
893.00201419889584
 30
0.0
 11
235.04010961918439
 21
893.00201419889584
 31
0.0
  0
LINE
  5
7CB2
  8
0
 10
306.91445061918432
 20
895.00201419889561
 30
0.0
 11
235.04010961918439
 21
895.00201419889561
 31
0.0
  0
ARC
  5
7CB3
  8
0
 10
301.18621161918452
 20
890.00201419889572
 30
0.0
 40
3.0
 50
349.71343899999948
 51
90.0
  0
ARC
  5
7CB4
  8
0
 10
300.57554161918449
 20
889.06216619889574
 30
0.0
 40
3.4700000000000002
 50
353.81035099999951
 51
90.0
  0
LINE
  5
7CB5
  8
0
 10
416.96118861918433
 20
847.45170519889552
 30
0.0
 11
217.9611886191843
 21
847.45170519889552
 31
0.0
  0
LINE
  5
7CB6
  8
0
 10
416.96118861918433
 20
850.49741119889552
 30
0.0
 11
217.9611886191843
 21
850.49741119889552
 31
0.0
  0
LINE
  5
7CB7
  8
0
 10
416.96118861918433
 20
858.48757919889556
 30
0.0
 11
217.9611886191843
 21
858.48757919889556
 31
0.0
  0
LINE
  5
7CB8
  8
0
 10
416.96118861918433
 20
861.48020619889553
 30
0.0
 11
217.9611886191843
 21
861.48020619889553
 31
0.0
  0
LINE
  5
7CB9
  8
0
 10
416.96118861918433
 20
869.51090719889555
 30
0.0
 11
217.9611886191843
 21
869.51090719889555
 31
0.0
  0
LINE
  5
7CBA
  8
0
 10
416.96118861918433
 20
872.47238619889549
 30
0.0
 11
217.9611886191843
 21
872.47238619889549
 31
0.0
  0
LINE
  5
7CBB
  8
0
 10
220.04010961918439
 20
850.00201419889561
 30
0.0
 11
414.88226761918418
 21
850.00201419889561
 31
0.0
  0
LINE
  5
7CBC
  8
0
 10
220.04010961918439
 20
848.00201419889549
 30
0.0
 11
414.88226761918418
 21
848.00201419889549
 31
0.0
  0
LINE
  5
7CBD
  8
0
 10
220.04010961918439
 20
861.00201419889561
 30
0.0
 11
414.88226761918418
 21
861.00201419889561
 31
0.0
  0
LINE
  5
7CBE
  8
0
 10
220.04010961918439
 20
859.00201419889561
 30
0.0
 11
414.88226761918418
 21
859.00201419889561
 31
0.0
  0
LINE
  5
7CBF
  8
0
 10
220.04010961918439
 20
872.00201419889549
 30
0.0
 11
414.88226761918418
 21
872.00201419889549
 31
0.0
  0
LINE
  5
7CC0
  8
0
 10
220.04010961918439
 20
870.00201419889561
 30
0.0
 11
414.88226761918418
 21
870.00201419889561
 31
0.0
  0
LINE
  5
7CC1
  8
0
 10
232.9611886191843
 20
879.5241701988956
 30
0.0
 11
307.38794561918428
 21
879.5241701988956
 31
0.0
  0
LINE
  5
7CC2
  8
0
 10
232.9611886191843
 20
882.47186219889545
 30
0.0
 11
300.57554161918449
 21
882.47186219889545
 31
0.0
  0
LINE
  5
7CC3
  8
0
 10
301.18621161918452
 20
882.00201419889572
 30
0.0
 11
235.04010961918439
 21
882.00201419889572
 31
0.0
  0
LINE
  5
7CC4
  8
0
 10
306.91445061918432
 20
880.00201419889549
 30
0.0
 11
235.04010961918439
 21
880.00201419889549
 31
0.0
  0
LINE
  5
7CC5
  8
0
 10
232.9611886191843
 20
882.47186219889545
 30
0.0
 11
232.9611886191843
 21
879.5241701988956
 31
0.0
  0
LINE
  5
7CC6
  8
0
 10
217.9611886191843
 20
872.47238619889549
 30
0.0
 11
217.9611886191843
 21
869.51090719889555
 31
0.0
  0
LINE
  5
7CC7
  8
0
 10
217.9611886191843
 20
861.48020619889553
 30
0.0
 11
217.9611886191843
 21
858.48757919889556
 31
0.0
  0
LINE
  5
7CC8
  8
0
 10
217.9611886191843
 20
850.49741119889552
 30
0.0
 11
217.9611886191843
 21
847.45170519889552
 31
0.0
  0
LINE
  5
7CC9
  8
0
 10
220.04010961918439
 20
848.00201419889549
 30
0.0
 11
217.9611886191843
 21
847.45170519889552
 31
0.0
  0
LINE
  5
7CCA
  8
0
 10
220.04010961918439
 20
850.00201419889561
 30
0.0
 11
217.9611886191843
 21
850.49741119889552
 31
0.0
  0
LINE
  5
7CCB
  8
0
 10
220.04010961918439
 20
859.00201419889561
 30
0.0
 11
217.9611886191843
 21
858.48757919889556
 31
0.0
  0
LINE
  5
7CCC
  8
0
 10
220.04010961918439
 20
861.00201419889561
 30
0.0
 11
217.9611886191843
 21
861.48020619889553
 31
0.0
  0
LINE
  5
7CCD
  8
0
 10
220.04010961918439
 20
870.00201419889561
 30
0.0
 11
217.9611886191843
 21
869.51090719889555
 31
0.0
  0
LINE
  5
7CCE
  8
0
 10
220.04010961918439
 20
872.00201419889549
 30
0.0
 11
217.9611886191843
 21
872.47238619889549
 31
0.0
  0
LINE
  5
7CCF
  8
0
 10
235.04010961918439
 20
880.00201419889549
 30
0.0
 11
232.9611886191843
 21
879.5241701988956
 31
0.0
  0
LINE
  5
7CD0
  8
0
 10
235.04010961918439
 20
882.00201419889572
 30
0.0
 11
232.9611886191843
 21
882.47186219889545
 31
0.0
  0
LINE
  5
7CD1
  8
0
 10
220.04010961918439
 20
848.00201419889549
 30
0.0
 11
220.04010961918439
 21
850.00201419889561
 31
0.0
  0
LINE
  5
7CD2
  8
0
 10
220.04010961918439
 20
859.00201419889561
 30
0.0
 11
220.04010961918439
 21
861.00201419889561
 31
0.0
  0
LINE
  5
7CD3
  8
0
 10
220.04010961918439
 20
870.00201419889561
 30
0.0
 11
220.04010961918439
 21
872.00201419889549
 31
0.0
  0
LINE
  5
7CD4
  8
0
 10
235.04010961918439
 20
880.00201419889549
 30
0.0
 11
235.04010961918439
 21
882.00201419889572
 31
0.0
  0
ARC
  5
7CD5
  8
0
 10
301.18621161918452
 20
885.00201419889584
 30
0.0
 40
3.0
 50
270.0
 51
10.286561000000651
  0
ARC
  5
7CD6
  8
0
 10
300.57554161918449
 20
885.94186219889559
 30
0.0
 40
3.4700000000000002
 50
270.0
 51
6.1896490000005366
  0
LINE
  5
7CD7
  8
0
 10
416.96118861918433
 20
879.5241701988956
 30
0.0
 11
322.53443161918437
 21
879.5241701988956
 31
0.0
  0
LINE
  5
7CD8
  8
0
 10
416.96118861918433
 20
882.47186219889545
 30
0.0
 11
329.34683561918428
 21
882.47186219889545
 31
0.0
  0
LINE
  5
7CD9
  8
0
 10
328.73616561918408
 20
882.00201419889572
 30
0.0
 11
414.88226761918418
 21
882.00201419889572
 31
0.0
  0
LINE
  5
7CDA
  8
0
 10
323.00792661918439
 20
880.00201419889549
 30
0.0
 11
414.88226761918418
 21
880.00201419889549
 31
0.0
  0
ARC
  5
7CDB
  8
0
 10
328.73616561918408
 20
885.00201419889584
 30
0.0
 40
3.0
 50
169.71343899999931
 51
270.0
  0
ARC
  5
7CDC
  8
0
 10
329.34683561918428
 20
885.94186219889559
 30
0.0
 40
3.4700000000000002
 50
173.8103509999994
 51
270.0
  0
LINE
  5
7CDD
  8
0
 10
414.88226761918418
 20
880.00201419889549
 30
0.0
 11
414.88226761918418
 21
882.00201419889572
 31
0.0
  0
LINE
  5
7CDE
  8
0
 10
414.88226761918418
 20
870.00201419889561
 30
0.0
 11
414.88226761918418
 21
872.00201419889549
 31
0.0
  0
LINE
  5
7CDF
  8
0
 10
414.88226761918418
 20
859.00201419889561
 30
0.0
 11
414.88226761918418
 21
861.00201419889561
 31
0.0
  0
LINE
  5
7CE0
  8
0
 10
414.88226761918418
 20
848.00201419889549
 30
0.0
 11
414.88226761918418
 21
850.00201419889561
 31
0.0
  0
LINE
  5
7CE1
  8
0
 10
414.88226761918418
 20
882.00201419889572
 30
0.0
 11
416.96118861918433
 21
882.47186219889545
 31
0.0
  0
LINE
  5
7CE2
  8
0
 10
414.88226761918418
 20
880.00201419889549
 30
0.0
 11
416.96118861918433
 21
879.5241701988956
 31
0.0
  0
LINE
  5
7CE3
  8
0
 10
414.88226761918418
 20
872.00201419889549
 30
0.0
 11
416.96118861918433
 21
872.47238619889549
 31
0.0
  0
LINE
  5
7CE4
  8
0
 10
414.88226761918418
 20
870.00201419889561
 30
0.0
 11
416.96118861918433
 21
869.51090719889555
 31
0.0
  0
LINE
  5
7CE5
  8
0
 10
414.88226761918418
 20
861.00201419889561
 30
0.0
 11
416.96118861918433
 21
861.48020619889553
 31
0.0
  0
LINE
  5
7CE6
  8
0
 10
414.88226761918418
 20
859.00201419889561
 30
0.0
 11
416.96118861918433
 21
858.48757919889556
 31
0.0
  0
LINE
  5
7CE7
  8
0
 10
414.88226761918418
 20
850.00201419889561
 30
0.0
 11
416.96118861918433
 21
850.49741119889552
 31
0.0
  0
LINE
  5
7CE8
  8
0
 10
414.88226761918418
 20
848.00201419889549
 30
0.0
 11
416.96118861918433
 21
847.45170519889552
 31
0.0
  0
LINE
  5
7CE9
  8
0
 10
416.96118861918433
 20
850.49741119889552
 30
0.0
 11
416.96118861918433
 21
847.45170519889552
 31
0.0
  0
LINE
  5
7CEA
  8
0
 10
416.96118861918433
 20
861.48020619889553
 30
0.0
 11
416.96118861918433
 21
858.48757919889556
 31
0.0
  0
LINE
  5
7CEB
  8
0
 10
416.96118861918433
 20
872.47238619889549
 30
0.0
 11
416.96118861918433
 21
869.51090719889555
 31
0.0
  0
LINE
  5
7CEC
  8
0
 10
416.96118861918433
 20
882.47186219889545
 30
0.0
 11
416.96118861918433
 21
879.5241701988956
 31
0.0
  0
LINE
  5
7CED
  8
0
 10
349.88226761918429
 20
839.00201419889549
 30
0.0
 11
351.96118861918433
 21
839.49741119889541
 31
0.0
  0
LINE
  5
7CEE
  8
0
 10
351.96118861918433
 20
839.49741119889541
 30
0.0
 11
217.9611886191843
 21
839.49741119889541
 31
0.0
  0
LINE
  5
7CEF
  8
0
 10
220.04010961918439
 20
839.00201419889549
 30
0.0
 11
349.88226761918429
 21
839.00201419889549
 31
0.0
  0
LINE
  5
7CF0
  8
0
 10
349.88226761918429
 20
837.00201419889549
 30
0.0
 11
349.88226761918429
 21
839.00201419889549
 31
0.0
  0
LINE
  5
7CF1
  8
0
 10
351.96118861918433
 20
836.45170519889541
 30
0.0
 11
217.9611886191843
 21
836.45170519889541
 31
0.0
  0
LINE
  5
7CF2
  8
0
 10
220.04010961918439
 20
837.00201419889549
 30
0.0
 11
349.88226761918429
 21
837.00201419889549
 31
0.0
  0
LINE
  5
7CF3
  8
0
 10
349.88226761918429
 20
837.00201419889549
 30
0.0
 11
351.96118861918433
 21
836.45170519889541
 31
0.0
  0
LINE
  5
7CF4
  8
0
 10
351.96118861918433
 20
830.49741119889541
 30
0.0
 11
217.9611886191843
 21
830.49741119889541
 31
0.0
  0
LINE
  5
7CF5
  8
0
 10
220.04010961918439
 20
830.00201419889549
 30
0.0
 11
349.88226761918429
 21
830.00201419889549
 31
0.0
  0
LINE
  5
7CF6
  8
0
 10
351.96118861918433
 20
827.45170519889541
 30
0.0
 11
217.9947456191843
 21
827.45170519889541
 31
0.0
  0
LINE
  5
7CF7
  8
0
 10
220.04010961918439
 20
828.00201419889561
 30
0.0
 11
349.88226761918429
 21
828.00201419889561
 31
0.0
  0
LINE
  5
7CF8
  8
0
 10
349.88226761918429
 20
828.00201419889561
 30
0.0
 11
351.96118861918433
 21
827.45170519889541
 31
0.0
  0
LINE
  5
7CF9
  8
0
 10
351.96118861918433
 20
830.49741119889541
 30
0.0
 11
351.96118861918433
 21
827.45170519889541
 31
0.0
  0
LINE
  5
7CFA
  8
0
 10
349.88226761918429
 20
828.00201419889561
 30
0.0
 11
349.88226761918429
 21
830.00201419889549
 31
0.0
  0
LINE
  5
7CFB
  8
0
 10
349.88226761918429
 20
830.00201419889549
 30
0.0
 11
351.96118861918433
 21
830.49741119889541
 31
0.0
  0
LINE
  5
7CFC
  8
0
 10
351.96118861918433
 20
827.45170519889541
 30
0.0
 11
366.96118861918433
 21
827.45170519889541
 31
0.0
  0
LINE
  5
7CFD
  8
0
 10
366.96118861918433
 20
827.45170519889541
 30
0.0
 11
382.96118861918433
 21
823.10978019889581
 31
0.0
  0
LINE
  5
7CFE
  8
0
 10
217.9611886191843
 20
839.49741119889541
 30
0.0
 11
217.9611886191843
 21
836.45170519889541
 31
0.0
  0
LINE
  5
7CFF
  8
0
 10
217.9611886191843
 20
830.49741119889541
 30
0.0
 11
217.9611886191843
 21
827.45170519889541
 31
0.0
  0
LINE
  5
7D00
  8
0
 10
220.04010961918439
 20
837.00201419889549
 30
0.0
 11
220.04010961918439
 21
839.00201419889549
 31
0.0
  0
LINE
  5
7D01
  8
0
 10
220.04010961918439
 20
839.00201419889549
 30
0.0
 11
217.9611886191843
 21
839.49741119889541
 31
0.0
  0
LINE
  5
7D02
  8
0
 10
220.04010961918439
 20
837.00201419889549
 30
0.0
 11
217.9611886191843
 21
836.45170519889541
 31
0.0
  0
LINE
  5
7D03
  8
0
 10
220.04010961918439
 20
830.00201419889549
 30
0.0
 11
217.9611886191843
 21
830.49741119889541
 31
0.0
  0
LINE
  5
7D04
  8
0
 10
220.04010961918439
 20
828.00201419889561
 30
0.0
 11
220.04010961918439
 21
830.00201419889549
 31
0.0
  0
LINE
  5
7D05
  8
0
 10
220.04010961918439
 20
828.00201419889561
 30
0.0
 11
217.9611886191843
 21
827.45170519889541
 31
0.0
  0
LINE
  5
7D06
  8
0
 10
214.4611886191843
 20
895.14578519889574
 30
0.0
 11
220.9611886191843
 21
895.14578519889574
 31
0.0
  0
LINE
  5
7D07
  8
0
 10
214.4611886191843
 20
895.47986319889549
 30
0.0
 11
221.64118861918439
 21
895.47986319889549
 31
0.0
  0
LINE
  5
7D08
  8
0
 10
222.9611886191843
 20
893.14578519889551
 30
0.0
 11
222.9611886191843
 21
887.5020181988956
 31
0.0
  0
LINE
  5
7D09
  8
0
 10
224.64118861918439
 20
898.4798631988956
 30
0.0
 11
224.64118861918439
 21
887.5020181988956
 31
0.0
  0
ARC
  5
7D0A
  8
0
 10
221.64118861918439
 20
898.4798631988956
 30
0.0
 40
3.0
 50
270.0
 51
0.0
  0
LINE
  5
7D0B
  8
0
 10
214.4611886191843
 20
879.85825019889558
 30
0.0
 11
220.9611886191843
 21
879.85825019889558
 31
0.0
  0
LINE
  5
7D0C
  8
0
 10
214.4611886191843
 20
879.5241721988956
 30
0.0
 11
221.64118861918439
 21
879.5241721988956
 31
0.0
  0
LINE
  5
7D0D
  8
0
 10
222.9611886191843
 20
881.85825019889558
 30
0.0
 11
222.9611886191843
 21
887.5020181988956
 31
0.0
  0
LINE
  5
7D0E
  8
0
 10
224.64118861918439
 20
876.52417219889549
 30
0.0
 11
224.64118861918439
 21
887.5020181988956
 31
0.0
  0
ARC
  5
7D0F
  8
0
 10
221.64118861918439
 20
876.52417219889549
 30
0.0
 40
3.0
 50
359.99999799999722
 51
89.999997999997177
  0
ARC
  5
7D10
  8
0
  6
CONTINUOUS
 10
418.47082098643119
 20
983.08256594291845
 30
0.0
 40
4.009623975330336
 50
234.71826527751921
 51
267.91553376499922
  0
ARC
  5
7D11
  8
0
  6
CONTINUOUS
 10
399.66098761918443
 20
958.98528019889534
 30
0.0
 40
2.600398999999999
 50
179.99998200000081
 51
269.99997799999852
  0
ARC
  5
7D12
  8
0
  6
CONTINUOUS
 10
399.66098761918443
 20
964.28526819889555
 30
0.0
 40
2.600403
 50
90.0
 51
179.99998200000081
  0
LINE
  5
7D13
  8
0
  6
CONTINUOUS
 10
402.46118861918433
 20
961.70129919889553
 30
0.0
 11
400.96118861918433
 21
960.83527419889549
 31
0.0
  0
LINE
  5
7D14
  8
0
  6
CONTINUOUS
 10
402.46118861918433
 20
962.70129919889553
 30
0.0
 11
400.96118861918433
 21
961.83527419889549
 31
0.0
  0
LINE
  5
7D15
  8
0
  6
CONTINUOUS
 10
402.46118861918433
 20
967.73527419889558
 30
0.0
 11
402.46118861918433
 21
955.53527419889542
 31
0.0
  0
LINE
  5
7D16
  8
0
  6
CONTINUOUS
 10
400.96118861918433
 20
967.73527419889558
 30
0.0
 11
402.46118861918433
 21
967.73527419889558
 31
0.0
  0
LINE
  5
7D17
  8
0
  6
CONTINUOUS
 10
400.96118861918433
 20
955.53527419889542
 30
0.0
 11
402.46118861918433
 21
955.53527419889542
 31
0.0
  0
LINE
  5
7D18
  8
0
  6
CONTINUOUS
 10
397.06119461918428
 20
964.28526819889555
 30
0.0
 11
397.06119461918428
 21
958.98528019889534
 31
0.0
  0
LINE
  5
7D19
  8
0
  6
CONTINUOUS
 10
400.96118861918433
 20
967.73527419889558
 30
0.0
 11
400.96118861918433
 21
955.53527419889542
 31
0.0
  0
LINE
  5
7D1A
  8
0
  6
CONTINUOUS
 10
400.96118861918433
 20
956.38527419889556
 30
0.0
 11
399.66098761918443
 21
956.38527419889556
 31
0.0
  0
LINE
  5
7D1B
  8
0
  6
CONTINUOUS
 10
400.96118861918433
 20
966.88527419889544
 30
0.0
 11
399.66098761918443
 21
966.88527419889544
 31
0.0
  0
ARC
  5
7D1C
  8
0
  6
CONTINUOUS
 10
399.66098761918443
 20
832.94335319889592
 30
0.0
 40
2.600398999999999
 50
179.99998200000081
 51
269.99997799999852
  0
ARC
  5
7D1D
  8
0
  6
CONTINUOUS
 10
399.66098761918443
 20
838.24334119889545
 30
0.0
 40
2.600403
 50
90.0
 51
179.99998200000081
  0
LINE
  5
7D1E
  8
0
  6
CONTINUOUS
 10
402.46118861918433
 20
835.65937219889554
 30
0.0
 11
400.96118861918433
 21
834.7933471988955
 31
0.0
  0
LINE
  5
7D1F
  8
0
  6
CONTINUOUS
 10
402.46118861918433
 20
836.65937219889554
 30
0.0
 11
400.96118861918433
 21
835.7933471988955
 31
0.0
  0
LINE
  5
7D20
  8
0
  6
CONTINUOUS
 10
402.46118861918433
 20
841.69334719889559
 30
0.0
 11
402.46118861918433
 21
829.49334719889544
 31
0.0
  0
LINE
  5
7D21
  8
0
  6
CONTINUOUS
 10
400.96118861918433
 20
841.69334719889559
 30
0.0
 11
402.46118861918433
 21
841.69334719889559
 31
0.0
  0
LINE
  5
7D22
  8
0
  6
CONTINUOUS
 10
400.96118861918433
 20
829.49334719889544
 30
0.0
 11
402.46118861918433
 21
829.49334719889544
 31
0.0
  0
LINE
  5
7D23
  8
0
  6
CONTINUOUS
 10
397.06119461918428
 20
838.24334119889545
 30
0.0
 11
397.06119461918428
 21
832.94335319889592
 31
0.0
  0
LINE
  5
7D24
  8
0
  6
CONTINUOUS
 10
400.96118861918433
 20
841.69334719889559
 30
0.0
 11
400.96118861918433
 21
829.49334719889544
 31
0.0
  0
LINE
  5
7D25
  8
0
  6
CONTINUOUS
 10
400.96118861918433
 20
830.34334719889557
 30
0.0
 11
399.66098761918443
 21
830.34334719889557
 31
0.0
  0
LINE
  5
7D26
  8
0
  6
CONTINUOUS
 10
400.96118861918433
 20
840.84334719889546
 30
0.0
 11
399.66098761918443
 21
840.84334719889546
 31
0.0
  0
LINE
  5
7E95
  8
0
  6
CENTER
 62
     0
 10
472.46121861918402
 20
870.79364419889555
 30
0.0
 11
472.46121861918402
 21
902.1068741988953
 31
0.0
  0
LINE
  5
7E96
  8
0
  6
CONTINUOUS
 62
     0
 10
455.96121861918402
 20
883.50195419889485
 30
0.0
 11
488.96121861918419
 21
883.50195419889485
 31
0.0
  0
LINE
  5
7E97
  8
0
  6
CONTINUOUS
 62
     0
 10
455.96121861918402
 20
891.50195419889485
 30
0.0
 11
488.96121861918419
 21
891.50195419889485
 31
0.0
  0
LINE
  5
7E98
  8
0
  6
CONTINUOUS
 62
     0
 10
457.60073861918431
 20
802.34473419889525
 30
0.0
 11
421.96118861918421
 21
803.58925433832394
 31
0.0
  0
LINE
  5
7E99
  8
0
  6
CONTINUOUS
 62
     0
 10
457.60079861918399
 20
972.65924419889484
 30
0.0
 11
421.96118861918421
 21
971.41464893676743
 31
0.0
  0
ARC
  5
7E9A
  8
0
  6
CONTINUOUS
 62
     0
 10
472.46121861918402
 20
887.50201419889561
 30
0.0
 40
10.0
 50
23.578037000006329
 51
156.42195999999231
  0
ARC
  5
7E9B
  8
0
  6
CONTINUOUS
 62
     0
 10
455.96121861918402
 20
887.50195419889485
 30
0.0
 40
3.9999962
 50
90.000002999984659
 51
270.0
  0
ARC
  5
7E9C
  8
0
  6
CONTINUOUS
 62
     0
 10
488.96121861918419
 20
887.50195419889485
 30
0.0
 40
3.9999962
 50
270.0
 51
90.000002999984659
  0
ARC
  5
7E9D
  8
0
  6
CONTINUOUS
 62
     0
 10
472.46121861918402
 20
887.50201419889561
 30
0.0
 40
10.0
 50
203.57826999999989
 51
336.4217200000013
  0
ARC
  5
7E9E
  8
0
  6
CONTINUOUS
 62
     0
 10
457.46121861918402
 20
798.34717419889557
 30
0.0
 40
4.0
 50
0.0
 51
87.999999999996248
  0
ARC
  5
7E9F
  8
0
  6
CONTINUOUS
 62
     0
 10
457.46121861918402
 20
976.65680419889554
 30
0.0
 40
4.0
 50
272.00000000000369
 51
0.0
  0
LINE
  5
7EA1
  8
0
  6
CONTINUOUS
 10
421.96118861918433
 20
963.24165819889549
 30
0.0
 11
461.46119861918328
 21
963.24165819889549
 31
0.0
  0
LINE
  5
7EA2
  8
0
  6
CONTINUOUS
 10
421.96118861918433
 20
949.56797619889585
 30
0.0
 11
461.46119861918328
 21
949.56797619889585
 31
0.0
  0
LINE
  5
7EA3
  8
0
  6
CONTINUOUS
 10
421.96118861918433
 20
825.29237719889545
 30
0.0
 11
461.46119861918328
 21
825.29237719889545
 31
0.0
  0
LINE
  5
7EA4
  8
0
  6
CONTINUOUS
 10
421.96118861918433
 20
837.60001619889545
 30
0.0
 11
461.46119861918328
 21
837.60001619889545
 31
0.0
  0
LINE
  5
7EA5
  8
0
  6
CONTINUOUS
 10
421.96118861918433
 20
847.77930819889559
 30
0.0
 11
461.46119861918328
 21
847.77930819889559
 31
0.0
  0
TEXT
  5
84C9
  8
0
  6
CONTINUOUS
 62
     0
 10
766.82533322842255
 20
881.82394788907698
 30
0.0
 40
15.0
  1
VX15-060EM~VX15-100EM
  0
ENDSEC
  0
EOF
