  0
SECTION
  2
HEADER
  9
$ACADVER
  1
AC1009
  9
$INSBASE
 10
0.0
 20
0.0
 30
0.0
  9
$EXTMIN
 10
172.52626641345341
 20
432.77320587314807
 30
-0.0000000000112498
  9
$EXTMAX
 10
1187.30775974823
 20
1214.9670138546489
 30
0.0000000000002956
  9
$LIMMIN
 10
0.0186175848889434
 20
0.1428173666272414
  9
$LIMMAX
 10
1707.0186175848889
 20
1110.142817366627
  9
$ORTHOMODE
 70
     1
  9
$REGENMODE
 70
     1
  9
$FILLMODE
 70
     1
  9
$QTEXTMODE
 70
     0
  9
$MIRRTEXT
 70
     0
  9
$DRAGMODE
 70
     2
  9
$LTSCALE
 40
1.0
  9
$OSMODE
 70
   551
  9
$ATTMODE
 70
     1
  9
$TEXTSIZE
 40
2.5
  9
$TRACEWID
 40
1.0
  9
$TEXTSTYLE
  7
STANDARD
  9
$CLAYER
  8
0
  9
$CELTYPE
  6
BYLAYER
  9
$CECOLOR
 62
   256
  9
$DIMSCALE
 40
1.0
  9
$DIMASZ
 40
2.0
  9
$DIMEXO
 40
1.0
  9
$DIMDLI
 40
8.0
  9
$DIMRND
 40
0.0
  9
$DIMDLE
 40
0.0
  9
$DIMEXE
 40
1.0
  9
$DIMTP
 40
-0.025
  9
$DIMTM
 40
0.043
  9
$DIMTXT
 40
2.5
  9
$DIMCEN
 40
0.0
  9
$DIMTSZ
 40
0.0
  9
$DIMTOL
 70
     0
  9
$DIMLIM
 70
     0
  9
$DIMTIH
 70
     0
  9
$DIMTOH
 70
     0
  9
$DIMSE1
 70
     0
  9
$DIMSE2
 70
     0
  9
$DIMTAD
 70
     3
  9
$DIMZIN
 70
     8
  9
$DIMBLK
  1

  9
$DIMASO
 70
     1
  9
$DIMSHO
 70
     1
  9
$DIMPOST
  1

  9
$DIMAPOST
  1
"
  9
$DIMALT
 70
     0
  9
$DIMALTD
 70
     2
  9
$DIMALTF
 40
0.0393701
  9
$DIMLFAC
 40
1.0
  9
$DIMTOFL
 70
     1
  9
$DIMTVP
 40
0.0
  9
$DIMTIX
 70
     0
  9
$DIMSOXD
 70
     0
  9
$DIMSAH
 70
     0
  9
$DIMBLK1
  1

  9
$DIMBLK2
  1

  9
$DIMSTYLE
  2
AM_JIS
  9
$DIMCLRD
 70
     2
  9
$DIMCLRE
 70
     2
  9
$DIMCLRT
 70
     4
  9
$DIMTFAC
 40
0.71
  9
$DIMGAP
 40
1.5
  9
$LUNITS
 70
     2
  9
$LUPREC
 70
     2
  9
$SKETCHINC
 40
1.0
  9
$FILLETRAD
 40
0.0
  9
$AUNITS
 70
     0
  9
$AUPREC
 70
     0
  9
$MENU
  1
.
  9
$ELEVATION
 40
0.0
  9
$PELEVATION
 40
0.0
  9
$THICKNESS
 40
0.0
  9
$LIMCHECK
 70
     0
  9
$BLIPMODE
 70
     0
  9
$CHAMFERA
 40
3.0
  9
$CHAMFERB
 40
3.0
  9
$SKPOLY
 70
     0
  9
$TDCREATE
 40
2456829.3841110538
  9
$TDUPDATE
 40
2458540.684434155
  9
$TDINDWG
 40
0.5739496528
  9
$TDUSRTIMER
 40
0.5739494329
  9
$USRTIMER
 70
     1
  9
$ANGBASE
 50
0.0
  9
$ANGDIR
 70
     0
  9
$PDMODE
 70
     0
  9
$PDSIZE
 40
0.0
  9
$PLINEWID
 40
0.0
  9
$COORDS
 70
     1
  9
$SPLFRAME
 70
     0
  9
$SPLINETYPE
 70
     6
  9
$SPLINESEGS
 70
     8
  9
$ATTDIA
 70
     1
  9
$ATTREQ
 70
     1
  9
$HANDLING
 70
     1
  9
$HANDSEED
  5
A340
  9
$SURFTAB1
 70
     6
  9
$SURFTAB2
 70
     6
  9
$SURFTYPE
 70
     6
  9
$SURFU
 70
     6
  9
$SURFV
 70
     6
  9
$UCSNAME
  2

  9
$UCSORG
 10
0.0
 20
0.0
 30
0.0
  9
$UCSXDIR
 10
1.0
 20
0.0
 30
0.0
  9
$UCSYDIR
 10
0.0
 20
1.0
 30
0.0
  9
$PUCSNAME
  2

  9
$PUCSORG
 10
0.0
 20
0.0
 30
0.0
  9
$PUCSXDIR
 10
1.0
 20
0.0
 30
0.0
  9
$PUCSYDIR
 10
0.0
 20
1.0
 30
0.0
  9
$USERI1
 70
     0
  9
$USERI2
 70
     0
  9
$USERI3
 70
     0
  9
$USERI4
 70
     0
  9
$USERI5
 70
     0
  9
$USERR1
 40
0.0
  9
$USERR2
 40
0.0
  9
$USERR3
 40
0.0
  9
$USERR4
 40
0.0
  9
$USERR5
 40
0.0
  9
$WORLDVIEW
 70
     1
  9
$SHADEDGE
 70
     3
  9
$SHADEDIF
 70
    70
  9
$TILEMODE
 70
     1
  9
$MAXACTVP
 70
    64
  9
$PLIMCHECK
 70
     0
  9
$PEXTMIN
 10
1.0000000000000000E+020
 20
1.0000000000000000E+020
 30
1.0000000000000000E+020
  9
$PEXTMAX
 10
-1.0000000000000000E+020
 20
-1.0000000000000000E+020
 30
-1.0000000000000000E+020
  9
$PLIMMIN
 10
0.0
 20
0.0
  9
$PLIMMAX
 10
420.0
 20
297.0
  9
$UNITMODE
 70
     0
  9
$VISRETAIN
 70
     1
  9
$PLINEGEN
 70
     0
  9
$PSLTSCALE
 70
     1
  0
ENDSEC
  0
SECTION
  2
TABLES
  0
TABLE
  2
VPORT
 70
     1
  0
VPORT
  2
*ACTIVE
 70
     0
 10
0.0
 20
0.0
 11
1.0
 21
1.0
 12
679.91701308084157
 22
823.87010986389873
 13
0.0
 23
0.0
 14
15.0
 24
15.0
 15
60.0
 25
60.0
 16
0.0
 26
0.0
 36
1.0
 17
0.0
 27
0.0
 37
0.0
 40
787.56355952370859
 41
1.7571592210767459
 42
50.0
 43
0.0
 44
0.0
 50
0.0
 51
0.0
 71
    16
 72
  1000
 73
     1
 74
     3
 75
     0
 76
     0
 77
     0
 78
     0
  0
ENDTAB
  0
TABLE
  2
LTYPE
 70
    24
  0
LTYPE
  2
CONTINUOUS
 70
     0
  3
Solid line
 72
    65
 73
     0
 40
0.0
  0
LTYPE
  2
CENTER
 70
     0
  3
Center ____ _ ____ _ ____ _ ____ _ ____ _ ____
 72
    65
 73
     4
 40
50.799999999999997
 49
31.75
 49
-6.349999999999997
 49
6.349999999999997
 49
-6.349999999999997
  0
LTYPE
  2
AM_ISO02W050
 70
     0
  3
__ __ __ __ __ __ __ __ __ __ __ __ __ __ __
 72
    65
 73
     2
 40
7.5
 49
6.0
 49
-1.5
  0
LTYPE
  2
AM_ISO08W050
 70
     0
  3
____ . ____ . ____ . ____ . ____ . ____ . ____
 72
    65
 73
     4
 40
18.0
 49
12.0
 49
-1.5
 49
3.0
 49
-1.5
  0
LTYPE
  2
AM_ISO09W050
 70
     0
  3
_____ . . _____ . . _____ . . ____ .. ____
 72
    65
 73
     6
 40
22.5
 49
12.0
 49
-1.5
 49
3.0
 49
-1.5
 49
3.0
 49
-1.5
  0
LTYPE
  2
AMCONSTR
 70
     0
  3
_______________________
 72
    65
 73
     2
 40
9999.0
 49
9999.0
 49
0.0
  0
LTYPE
  2
AM_ISO08W050X2
 70
     0
  3
__ . __ . __ . __ . __ . __
 72
    65
 73
     4
 40
9.0
 49
6.0
 49
-0.75
 49
1.5
 49
-0.75
  0
LTYPE
  2
AM_ISO02W050X2
 70
     0
  3
 _ _ _ _ _ _ _ _ _ _ _ _
 72
    65
 73
     2
 40
3.75
 49
3.0
 49
-0.75
  0
LTYPE
  2
AMZIGZAG
 70
     0
  3
/\/-/\/-/\/-/\/-/\/-/\/
 72
    65
 73
     2
 40
11.0001
 49
0.0001
 49
-11.0
  0
LTYPE
  2
ACANSTGBM
 70
     0
  3
__ . . __ . .
 72
    65
 73
     6
 40
9.0
 49
4.0
 49
-1.0
 49
1.0
 49
-1.0
 49
1.0
 49
-1.0
  0
LTYPE
  2
ACANSTGLM
 70
     0
  3
_ _ _ _ _
 72
    65
 73
     2
 40
3.0
 49
2.0
 49
-1.0
  0
LTYPE
  2
ACISOWELD
 70
     0
  3
_ _ _ _ _
 72
    65
 73
     2
 40
2.0
 49
2.0
 49
-1.0
  0
LTYPE
  2
ACISOTGB
 70
     0
  3
__ . . __ . .
 72
    65
 73
     6
 40
9.0
 49
4.0
 49
-1.0
 49
1.0
 49
-1.0
 49
1.0
 49
-1.0
  0
LTYPE
  2
ACISOTGL
 70
     0
  3
_ _ _ _ _
 72
    65
 73
     2
 40
3.0
 49
2.0
 49
-1.0
  0
LTYPE
  2
ACJISTGB
 70
     0
  3
__ . . __ . .
 72
    65
 73
     6
 40
9.0
 49
4.0
 49
-1.0
 49
1.0
 49
-1.0
 49
1.0
 49
-1.0
  0
LTYPE
  2
ACJISTGL
 70
     0
  3
_ _ _ _ _
 72
    65
 73
     2
 40
3.0
 49
2.0
 49
-1.0
  0
LTYPE
  2
HIDDEN
 70
     0
  3
Hidden __ __ __ __ __ __ __ __ __ __ __ __ __ _
 72
    65
 73
     2
 40
9.5249999999999968
 49
6.349999999999997
 49
-3.174999999999998
  0
LTYPE
  2
PHANTOM2
 70
     0
  3
Phantom (.5x) ___ _ _ ___ _ _ ___ _ _ ___ _ _
 72
    65
 73
     6
 40
31.75
 49
15.875
 49
-3.174999999999998
 49
3.174999999999998
 49
-3.174999999999998
 49
3.174999999999998
 49
-3.174999999999998
  0
LTYPE
  2
CENTER2
 70
     0
  3
Center (.5x) ___ _ ___ _ ___ _ ___ _ ___ _ ___
 72
    65
 73
     4
 40
1.125
 49
0.75
 49
-0.125
 49
0.125
 49
-0.125
  0
LTYPE
  2
HIDDEN2
 70
     0
  3
Hidden (.5x) _ _ _ _ _ _ _ _ _ _ _ _ _ _ _ _ _
 72
    65
 73
     2
 40
0.1875
 49
0.125
 49
-0.0625
  0
LTYPE
  2
AMZIGZAG2
 70
     0
  3
/\/-/\/-/\/-/\/-/\/-/\/
 72
    65
 73
     2
 40
0.4401
 49
0.0001
 49
-0.4400000000000001
  0
LTYPE
  2
ACANSTGB
 70
     0
  3
__ . . __ . .
 72
    65
 73
     6
 40
0.35433070866
 49
0.15748031496
 49
-0.03937007874
 49
0.03937007874
 49
-0.03937007874
 49
0.03937007874
 49
-0.03937007874
  0
LTYPE
  2
ACANSTGL
 70
     0
  3
_ _ _ _ _
 72
    65
 73
     2
 40
0.11811023622
 49
0.07874015748
 49
-0.03937007874
  0
ENDTAB
  0
TABLE
  2
LAYER
 70
     4
  0
LAYER
  2
0
 70
     0
 62
     7
  6
CONTINUOUS
  0
LAYER
  2
DEFPOINTS
 70
     0
 62
     7
  6
CONTINUOUS
  0
LAYER
  2
AM_CL
 70
     0
 62
     1
  6
AMCONSTR
  0
LAYER
  2
AM_5
 70
     0
 62
     2
  6
CONTINUOUS
  0
ENDTAB
  0
TABLE
  2
STYLE
 70
    10
  0
STYLE
  2
STANDARD
 70
     0
 40
0.0
 41
0.7400000000000003
 50
0.0
 71
     0
 42
2.5
  3
txt.shx
  4
bigfont.shx
  0
STYLE
  2
ANNOTATIVE
 70
     0
 40
0.0
 41
1.0
 50
0.0
 71
     0
 42
0.2
  3
txt
  4

  0
STYLE
  2

 70
     1
 40
0.0
 41
1.0
 50
0.0
 71
     0
 42
2.5
  3
ltypeshp.shx
  4

  0
STYLE
  2
ACANSTS
 70
     0
 40
1.0
 41
1.0
 50
0.0
 71
     0
 42
2.5
  3
romans.shx
  4
bigfont.shx
  0
STYLE
  2
ACANSGDT
 70
     0
 40
0.0
 41
1.0
 50
0.0
 71
     0
 42
2.5
  3
amgdt.shx
  4

  0
STYLE
  2
ACISOTS
 70
     0
 40
1.0
 41
1.0
 50
0.0
 71
     0
 42
2.5
  3
isocp.shx
  4
extfont.shx
  0
STYLE
  2
ACISOGDT
 70
     0
 40
0.0
 41
1.0
 50
0.0
 71
     0
 42
2.5
  3
amgdt.shx
  4

  0
STYLE
  2
ACJISGDT
 70
     0
 40
0.0
 41
1.0
 50
0.0
 71
     0
 42
2.5
  3
amgdt.shx
  4

  0
STYLE
  2
ACJISTS
 70
     0
 40
1.0
 41
1.0
 50
0.0
 71
     0
 42
2.5
  3
isocp.shx
  4
extfont.shx
  0
STYLE
  2

 70
     1
 40
0.0
 41
1.0
 50
0.0
 71
     0
 42
2.5
  3
genltshp.shx
  4

  0
ENDTAB
  0
TABLE
  2
VIEW
 70
     6
  0
VIEW
  2
AM_VIEW1
 70
     0
 40
555.00000000000011
 10
586.62004107243342
 20
832.64281736662736
 41
1173.202846975089
 11
0.0
 21
0.0
 31
1.0
 12
0.0
 22
0.0
 32
0.0
 42
50.0
 43
0.0
 44
0.0
 50
0.0
 71
    16
  0
VIEW
  2
AM_VIEW2
 70
     0
 40
555.00000000000011
 10
1120.417194097344
 20
832.64281736662736
 41
1173.202846975089
 11
0.0
 21
0.0
 31
1.0
 12
0.0
 22
0.0
 32
0.0
 42
50.0
 43
0.0
 44
0.0
 50
0.0
 71
    16
  0
VIEW
  2
AM_VIEW3
 70
     0
 40
555.00000000000011
 10
586.62004107243342
 20
277.6428173666273
 41
1173.202846975089
 11
0.0
 21
0.0
 31
1.0
 12
0.0
 22
0.0
 32
0.0
 42
50.0
 43
0.0
 44
0.0
 50
0.0
 71
    16
  0
VIEW
  2
AM_VIEW4
 70
     0
 40
555.00000000000011
 10
1120.417194097344
 20
277.6428173666273
 41
1173.202846975089
 11
0.0
 21
0.0
 31
1.0
 12
0.0
 22
0.0
 32
0.0
 42
50.0
 43
0.0
 44
0.0
 50
0.0
 71
    16
  0
VIEW
  2
AM_VIEW5
 70
     0
 40
555.00000000000011
 10
853.51861758488894
 20
555.14281736662736
 41
1173.202846975089
 11
0.0
 21
0.0
 31
1.0
 12
0.0
 22
0.0
 32
0.0
 42
50.0
 43
0.0
 44
0.0
 50
0.0
 71
    16
  0
VIEW
  2
AM_VIEW6
 70
     0
 40
1109.9889000000001
 10
853.51861758488894
 20
555.14281736662724
 41
2346.3822298932391
 11
0.0
 21
0.0
 31
1.0
 12
0.0
 22
0.0
 32
0.0
 42
50.0
 43
0.0
 44
0.0
 50
0.0
 71
    16
  0
ENDTAB
  0
TABLE
  2
UCS
 70
     0
  0
ENDTAB
  0
TABLE
  2
APPID
 70
   162
  0
APPID
  2
ACAD
 70
     0
  0
APPID
  2
ACADANNOTATIVE
 70
     0
  0
APPID
  2
ACAD_MLEADERVER
 70
     0
  0
APPID
  2
MCAD_NO_VIS
 70
     0
  0
APPID
  2
ACAD_TEMP_GRAPHIC
 70
     0
  0
APPID
  2
AD_DRAW
 70
     0
  0
APPID
  2
ACATTRIBSERVICES
 70
     0
  0
APPID
  2
DESIGNERASSEMBLIES
 70
     0
  0
APPID
  2
ACADM_DIM_EDIT
 70
     0
  0
APPID
  2
AMDT_DM_ADJ
 70
     0
  0
APPID
  2
GENIUS_GENDIMSH_14
 70
     0
  0
APPID
  2
GEVID1057795304
 70
     0
  0
APPID
  2
GEVDC
 70
     0
  0
APPID
  2
GEVCON
 70
     0
  0
APPID
  2
GENIUS_GENBH_13
 70
     0
  0
APPID
  2
GENIUS_GENOENT_13
 70
     0
  0
APPID
  2
GENIUS_GENOBJ-NBEHI-BHF_13
 70
     0
  0
APPID
  2
GENIUS_GENOLIS_13
 70
     0
  0
APPID
  2
GENIUS_GENODEF_13
 70
     0
  0
APPID
  2
GENIUS_GENOREF_13
 70
     0
  0
APPID
  2
GENIUS_GENOBJ-NBEHI-BHB_13
 70
     0
  0
APPID
  2
GENIUS_GENOBJ-F-SCPASSM_13
 70
     0
  0
APPID
  2
GENIUS_GENDTOL_13
 70
     0
  0
APPID
  2
GENIUS_GENTRA_14
 70
     0
  0
APPID
  2
ASURF_PCURVE_APPNAME
 70
     0
  0
APPID
  2
GENIUS_GENCFG_13
 70
     0
  0
APPID
  2
GENIUS_GE3CFG0_13
 70
     0
  0
APPID
  2
GENIUS_GENCFG0_13
 70
     0
  0
APPID
  2
GENIUS_GENCFG1_13
 70
     0
  0
APPID
  2
GENIUS_GENCFG2_13
 70
     0
  0
APPID
  2
GENIUS_GENCFG3_13
 70
     0
  0
APPID
  2
GENIUS_GENCFG4_13
 70
     0
  0
APPID
  2
GENIUS_GEVCFG0_13
 70
     0
  0
APPID
  2
GENIUS_GENOBJ-N-TIT_13
 70
     0
  0
APPID
  2
GENIUS_GENTITLE_13
 70
     0
  0
APPID
  2
GENIUS_GENSCREG_15
 70
     0
  0
APPID
  2
GENIUS_GENOBJ-N-SDF_13
 70
     0
  0
APPID
  2
GENIUS_GENFIL_13
 70
     0
  0
APPID
  2
GENIUS_GENOBJ-N-CHA_13
 70
     0
  0
APPID
  2
GENIUS_GEFSH_13
 70
     0
  0
APPID
  2
GENIUS_GENOBJ-F-SHS_13
 70
     0
  0
APPID
  2
GENIUS_GENOBJ-N-CEN_13
 70
     0
  0
APPID
  2
GENIUS_GENREC_14
 70
     0
  0
APPID
  2
GENIUS_GENOBJ-N-REC_13
 70
     0
  0
APPID
  2
GENIUS_GENOBJ-N-HTC_13
 70
     0
  0
APPID
  2
GENIUS_GENHATCH_13
 70
     0
  0
APPID
  2
ACAD_PSEXT
 70
     0
  0
APPID
  2
ACAD_EXEMPT_FROM_CAD_STANDARDS
 70
     0
  0
APPID
  2
ACAECLAYERSTANDARD
 70
     0
  0
APPID
  2
GENIUS_GENCEN_19
 70
     0
  0
APPID
  2
ACAD_DSTYLE_DIMINSPECT
 70
     0
  0
APPID
  2
ACAD_DSTYLE_DIMANGULAR_EXT
 70
     0
  0
APPID
  2
ACADANNOPO
 70
     0
  0
APPID
  2
ACAD_NAV_VCDISPLAY
 70
     0
  0
APPID
  2
GENIUS_GENOBJ-N-FIL_13
 70
     0
  0
APPID
  2
ACAUTHENVIRON
 70
     0
  0
APPID
  2
ACDBDYNAMICBLOCKTRUENAME
 70
     0
  0
APPID
  2
ACDBDYNAMICBLOCKGUID
 70
     0
  0
APPID
  2
ACDBBLOCKREPETAG
 70
     0
  0
APPID
  2
ACAD_DSTYLE_DIMBREAK
 70
     0
  0
APPID
  2
ACAD_DSTYLE_DIMJAG
 70
     0
  0
APPID
  2
GENIUS_GENHINW_13
 70
     0
  0
APPID
  2
GENIUS_FIRSTVISTXT_14
 70
     0
  0
APPID
  2
GENIUS_GENOBJ-N-LEADER_13
 70
     0
  0
APPID
  2
ACAD_DSTYLE_DIMRADIAL_EXTENSION
 70
     0
  0
APPID
  2
DCO15
 70
     0
  0
APPID
  2
GENIUS_DUMCFG0_13
 70
     0
  0
APPID
  2
ACAD_DSTYLE_DIMTEXT_FILL
 70
     0
  0
APPID
  2
AMG_2DHIDE
 70
     0
  0
APPID
  2
GENIUS_GEFSHEP_13
 70
     0
  0
APPID
  2
GENIUS_GENOBJ-F-SHE_13
 70
     0
  0
APPID
  2
GENIUS_GEFSHE_13
 70
     0
  0
APPID
  2
ACAD_DIMASSOC_DIMLFAC
 70
     0
  0
APPID
  2
ACAD_DIMASSOC_CALC_DIMLFAC
 70
     0
  0
APPID
  2
ACAD_DIMASSOC_OVERRIDDEN_D
 70
     0
  0
APPID
  2
GENIUS_GENOBJ-F-SHSV_13
 70
     0
  0
APPID
  2
GENIUS_GEFWELD_13
 70
     0
  0
APPID
  2
GENIUS_GENOBJ-N-CRS_13
 70
     0
  0
APPID
  2
GENIUS_GENOBJ-N-RSBK_13
 70
     0
  0
APPID
  2
GENIUS_GENOBJ-N-LIB_13
 70
     0
  0
APPID
  2
GENIUS_GENSCALE_13
 70
     0
  0
APPID
  2
GENIUS_GENDREL_13
 70
     0
  0
APPID
  2
GEVPT
 70
     0
  0
APPID
  2
GEVIT
 70
     0
  0
APPID
  2
VCC
 70
     0
  0
APPID
  2
GENBH
 70
     0
  0
APPID
  2
GEVMK
 70
     0
  0
APPID
  2
GENIUS_GENOBJ-F-DESC_13
 70
     0
  0
APPID
  2
GENIUS_GEFDESC_14
 70
     0
  0
APPID
  2
GENIUS_GENOBJ-F-FEAT_13
 70
     0
  0
APPID
  2
GENIUS_GEFFEAT_14
 70
     0
  0
APPID
  2
GENIUS_GEFPARTINS_13
 70
     0
  0
APPID
  2
GENIUS_GENSCREG_13
 70
     0
  0
APPID
  2
GENIUS_GEFSHP_13
 70
     0
  0
APPID
  2
GEVID1025574798
 70
     0
  0
APPID
  2
GEVID1025574769
 70
     0
  0
APPID
  2
GEVID1025757451
 70
     0
  0
APPID
  2
GEVID1240528327
 70
     0
  0
APPID
  2
AMG_2DSTRUCT_BTR
 70
     0
  0
APPID
  2
ACADM_2DVIEW_IGN_NOTIFY
 70
     0
  0
APPID
  2
GEVID1240528328
 70
     0
  0
APPID
  2
GEVID1240528329
 70
     0
  0
APPID
  2
GEVRADREF
 70
     0
  0
APPID
  2
GEVID1240528330
 70
     0
  0
APPID
  2
GEVID1240528331
 70
     0
  0
APPID
  2
GEVID1240528332
 70
     0
  0
APPID
  2
GEVID1240791080
 70
     0
  0
APPID
  2
GEVID1240791081
 70
     0
  0
APPID
  2
GEVID1240791082
 70
     0
  0
APPID
  2
GEVID1240791083
 70
     0
  0
APPID
  2
GEVID1240791084
 70
     0
  0
APPID
  2
GEVID1240791085
 70
     0
  0
APPID
  2
GEVID1240791086
 70
     0
  0
APPID
  2
GEVID1240791087
 70
     0
  0
APPID
  2
GEVID1240791088
 70
     0
  0
APPID
  2
GEVID1240791089
 70
     0
  0
APPID
  2
GEVID1240791090
 70
     0
  0
APPID
  2
GEVID1240791091
 70
     0
  0
APPID
  2
GEVID1240791092
 70
     0
  0
APPID
  2
GEVID1240791093
 70
     0
  0
APPID
  2
GEVID1240791094
 70
     0
  0
APPID
  2
GEVID1240791095
 70
     0
  0
APPID
  2
GEVID1240791096
 70
     0
  0
APPID
  2
GEVID1240791097
 70
     0
  0
APPID
  2
GEVID1240791098
 70
     0
  0
APPID
  2
GEVID1240791099
 70
     0
  0
APPID
  2
GEVID1240791100
 70
     0
  0
APPID
  2
GEVID1240791101
 70
     0
  0
APPID
  2
GEVID1240791102
 70
     0
  0
APPID
  2
GEVID1240791103
 70
     0
  0
APPID
  2
GEVID1240791104
 70
     0
  0
APPID
  2
GEVID1240791105
 70
     0
  0
APPID
  2
GEVID1240875381
 70
     0
  0
APPID
  2
GEVID1240875382
 70
     0
  0
APPID
  2
GEVID1240875383
 70
     0
  0
APPID
  2
GEVID1240875384
 70
     0
  0
APPID
  2
GEVID1240875385
 70
     0
  0
APPID
  2
GEVID1240875386
 70
     0
  0
APPID
  2
GEVID1240875387
 70
     0
  0
APPID
  2
GEVID1240875388
 70
     0
  0
APPID
  2
GEVID1240875389
 70
     0
  0
APPID
  2
GEVID1240875390
 70
     0
  0
APPID
  2
GEVID1240875391
 70
     0
  0
APPID
  2
GEVID1240875392
 70
     0
  0
APPID
  2
GEVID1240875393
 70
     0
  0
APPID
  2
GEVID1240875394
 70
     0
  0
APPID
  2
GEVID1240875395
 70
     0
  0
APPID
  2
GEVID1240875396
 70
     0
  0
APPID
  2
GEVID1240875397
 70
     0
  0
APPID
  2
GEVID1240875398
 70
     0
  0
APPID
  2
GEVID1240875399
 70
     0
  0
APPID
  2
GEVID1240908996
 70
     0
  0
APPID
  2
GEVID1240908997
 70
     0
  0
APPID
  2
GEVID1240908998
 70
     0
  0
APPID
  2
GEVID1240908999
 70
     0
  0
APPID
  2
GEVID1240909000
 70
     0
  0
APPID
  2
GENIUS_GENOBJ-N-ZOO_13
 70
     0
  0
APPID
  2
GENIUS_GENZOO_17
 70
     0
  0
APPID
  2
GENIUS_GE3SECT_13
 70
     0
  0
APPID
  2
GEV_VCCNULL_SWITCH_OFF
 70
     0
  0
APPID
  2
ACAD_DSTYLE_DIMTALN
 70
     0
  0
APPID
  2
CONTENTBLOCKDESCRIPTION
 70
     0
  0
ENDTAB
  0
TABLE
  2
DIMSTYLE
 70
    23
  0
DIMSTYLE
  2
STANDARD
 70
     0
  3

  4

  5

  6

  7

 40
1.0
 41
0.18
 42
0.0625
 43
0.38
 44
0.18
 45
0.0
 46
0.0
 47
0.0
 48
0.0
140
0.18
141
0.09
142
0.0
143
25.399999999999999
144
1.0
145
0.0
146
1.0
147
0.09
 71
     0
 72
     0
 73
     1
 74
     1
 75
     0
 76
     0
 77
     0
 78
     0
170
     0
171
     2
172
     0
173
     0
174
     0
175
     0
176
     0
177
     0
178
     0
  0
DIMSTYLE
  2
ANNOTATIVE
 70
     0
  3

  4

  5

  6

  7

 40
1.0
 41
0.18
 42
0.0625
 43
0.38
 44
0.18
 45
0.0
 46
0.0
 47
0.0
 48
0.0
140
0.18
141
0.09
142
0.0
143
25.399999999999999
144
1.0
145
0.0
146
1.0
147
0.09
 71
     0
 72
     0
 73
     1
 74
     1
 75
     0
 76
     0
 77
     0
 78
     0
170
     0
171
     2
172
     0
173
     0
174
     0
175
     0
176
     0
177
     0
178
     0
  0
DIMSTYLE
  2
AM_ANSI
 70
     0
  3

  4
"
  5

  6

  7

 40
1.0
 41
2.5
 42
1.0
 43
10.0
 44
1.0
 45
0.0
 46
0.0
 47
0.1
 48
0.1
140
3.5
141
0.0
142
0.0
143
0.0393701
144
1.0
145
0.0
146
0.71
147
1.5
 71
     0
 72
     0
 73
     1
 74
     1
 75
     0
 76
     0
 77
     0
 78
     8
170
     0
171
     2
172
     0
173
     0
174
     0
175
     0
176
     2
177
     2
178
     4
  0
DIMSTYLE
  2
AM_ANSI$3
 70
     0
  3

  4
"
  5

  6

  7

 40
1.0
 41
2.5
 42
1.0
 43
10.0
 44
1.0
 45
0.0
 46
0.0
 47
0.1
 48
0.1
140
3.5
141
0.0
142
0.0
143
0.0393701
144
1.0
145
0.0
146
0.71
147
1.5
 71
     0
 72
     0
 73
     1
 74
     1
 75
     0
 76
     0
 77
     0
 78
     8
170
     0
171
     2
172
     0
173
     0
174
     0
175
     0
176
     2
177
     2
178
     4
  0
DIMSTYLE
  2
AM_ANSI$4
 70
     0
  3

  4
"
  5

  6

  7

 40
1.0
 41
2.5
 42
1.0
 43
10.0
 44
1.0
 45
0.0
 46
0.0
 47
0.1
 48
0.1
140
3.5
141
0.0
142
0.0
143
0.0393701
144
1.0
145
0.0
146
0.71
147
1.5
 71
     0
 72
     0
 73
     1
 74
     1
 75
     0
 76
     0
 77
     0
 78
     8
170
     0
171
     2
172
     0
173
     0
174
     0
175
     0
176
     2
177
     2
178
     4
  0
DIMSTYLE
  2
AM_ANSI$7
 70
     0
  3

  4
"
  5

  6

  7

 40
1.0
 41
2.5
 42
1.0
 43
10.0
 44
1.0
 45
0.0
 46
0.0
 47
0.1
 48
0.1
140
5.0
141
0.0
142
0.0
143
0.0393701
144
1.0
145
0.0
146
0.71
147
1.5
 71
     0
 72
     0
 73
     1
 74
     1
 75
     0
 76
     0
 77
     0
 78
     8
170
     0
171
     2
172
     0
173
     0
174
     0
175
     0
176
     2
177
     2
178
     4
  0
DIMSTYLE
  2
AM_ANSI$SF
 70
     0
  3

  4
"
  5

  6

  7

 40
1.0
 41
2.5
 42
1.0
 43
10.0
 44
1.0
 45
0.0
 46
0.0
 47
0.1
 48
0.1
140
3.5
141
0.0
142
0.0
143
0.0393701
144
1.0
145
0.0
146
0.71
147
1.5
 71
     0
 72
     0
 73
     1
 74
     1
 75
     1
 76
     1
 77
     0
 78
     8
170
     0
171
     2
172
     0
173
     0
174
     0
175
     0
176
     2
177
     2
178
     4
  0
DIMSTYLE
  2
AM_ANSI$SH
 70
     0
  3

  4
"
  5

  6

  7

 40
1.0
 41
2.5
 42
1.0
 43
10.0
 44
1.0
 45
0.0
 46
0.0
 47
0.1
 48
0.1
140
3.5
141
0.0
142
0.0
143
0.0393701
144
1.0
145
0.0
146
0.71
147
1.5
 71
     0
 72
     0
 73
     1
 74
     1
 75
     1
 76
     1
 77
     0
 78
     8
170
     0
171
     2
172
     0
173
     1
174
     0
175
     0
176
     2
177
     2
178
     4
  0
DIMSTYLE
  2
AM_ISO
 70
     0
  3

  4
"
  5

  6

  7

 40
1.0
 41
2.5
 42
1.0
 43
10.0
 44
1.0
 45
0.0
 46
0.0
 47
0.1
 48
0.1
140
3.5
141
0.0
142
0.0
143
0.0393701
144
1.0
145
0.0
146
0.71
147
1.5
 71
     0
 72
     0
 73
     0
 74
     0
 75
     0
 76
     0
 77
     1
 78
     8
170
     0
171
     2
172
     1
173
     0
174
     0
175
     0
176
   256
177
   256
178
     2
  0
DIMSTYLE
  2
AM_ISO$3
 70
     0
  3

  4
"
  5

  6

  7

 40
1.0
 41
2.5
 42
1.0
 43
10.0
 44
1.0
 45
0.0
 46
0.0
 47
0.1
 48
0.1
140
3.5
141
0.0
142
0.0
143
0.0393701
144
1.0
145
0.0
146
0.71
147
1.5
 71
     0
 72
     0
 73
     0
 74
     1
 75
     0
 76
     0
 77
     1
 78
     8
170
     0
171
     2
172
     0
173
     0
174
     0
175
     0
176
   256
177
   256
178
     2
  0
DIMSTYLE
  2
AM_ISO$4
 70
     0
  3

  4
"
  5

  6

  7

 40
1.0
 41
2.5
 42
1.0
 43
10.0
 44
1.0
 45
0.0
 46
0.0
 47
0.1
 48
0.1
140
3.5
141
0.0
142
0.0
143
0.0393701
144
1.0
145
0.0
146
0.71
147
1.5
 71
     0
 72
     0
 73
     0
 74
     1
 75
     0
 76
     0
 77
     1
 78
     8
170
     0
171
     2
172
     0
173
     0
174
     0
175
     0
176
   256
177
   256
178
     2
  0
DIMSTYLE
  2
AM_ISO$6
 70
     0
  3

  4
"
  5

  6

  7

 40
1.0
 41
2.5
 42
1.0
 43
10.0
 44
1.0
 45
0.0
 46
0.0
 47
0.1
 48
0.1
140
3.5
141
0.0
142
0.0
143
0.0393701
144
1.0
145
0.0
146
0.71
147
1.5
 71
     0
 72
     0
 73
     0
 74
     0
 75
     0
 76
     0
 77
     0
 78
     8
170
     0
171
     2
172
     1
173
     0
174
     0
175
     0
176
   256
177
   256
178
     2
  0
DIMSTYLE
  2
AM_ISO$7
 70
     0
  3

  4
"
  5

  6

  7

 40
1.0
 41
2.5
 42
1.0
 43
10.0
 44
1.0
 45
0.0
 46
0.0
 47
0.1
 48
0.1
140
5.0
141
0.0
142
0.0
143
0.0393701
144
1.0
145
0.0
146
0.71
147
1.5
 71
     0
 72
     0
 73
     0
 74
     0
 75
     0
 76
     0
 77
     1
 78
     8
170
     0
171
     2
172
     1
173
     0
174
     0
175
     0
176
   256
177
   256
178
     2
  0
DIMSTYLE
  2
AM_ISO$SF
 70
     0
  3

  4
"
  5

  6

  7

 40
1.0
 41
2.5
 42
1.0
 43
10.0
 44
1.0
 45
0.0
 46
0.0
 47
0.1
 48
0.1
140
3.5
141
0.0
142
0.0
143
0.0393701
144
1.0
145
0.0
146
0.71
147
1.5
 71
     0
 72
     0
 73
     0
 74
     0
 75
     1
 76
     1
 77
     1
 78
     8
170
     0
171
     2
172
     1
173
     0
174
     0
175
     0
176
   256
177
   256
178
     2
  0
DIMSTYLE
  2
AM_ISO$SH
 70
     0
  3

  4
"
  5

  6

  7

 40
1.0
 41
2.5
 42
1.0
 43
10.0
 44
1.0
 45
0.0
 46
0.0
 47
0.1
 48
0.1
140
3.5
141
0.0
142
0.0
143
0.0393701
144
2.0
145
0.0
146
0.71
147
1.5
 71
     0
 72
     0
 73
     0
 74
     0
 75
     1
 76
     1
 77
     1
 78
     8
170
     0
171
     2
172
     1
173
     1
174
     0
175
     0
176
   256
177
   256
178
     2
  0
DIMSTYLE
  2
AM_JIS
 70
     0
  3

  4
"
  5

  6

  7

 40
1.0
 41
2.0
 42
1.0
 43
8.0
 44
1.0
 45
0.0
 46
0.0
 47
0.1
 48
0.1
140
2.5
141
0.0
142
0.0
143
0.0393701
144
1.0
145
0.0
146
0.71
147
1.5
 71
     0
 72
     0
 73
     0
 74
     0
 75
     0
 76
     0
 77
     3
 78
     8
170
     0
171
     2
172
     1
173
     0
174
     0
175
     0
176
     2
177
     2
178
     4
  0
DIMSTYLE
  2
AM_JIS$3
 70
     0
  3

  4
"
  5

  6

  7

 40
1.0
 41
2.0
 42
1.0
 43
10.0
 44
1.0
 45
0.0
 46
0.0
 47
0.1
 48
0.1
140
2.5
141
0.0
142
0.0
143
0.0393701
144
1.0
145
0.0
146
0.71
147
1.5
 71
     0
 72
     0
 73
     0
 74
     1
 75
     0
 76
     0
 77
     3
 78
     8
170
     0
171
     2
172
     0
173
     0
174
     0
175
     0
176
     2
177
     2
178
     4
  0
DIMSTYLE
  2
AM_JIS$4
 70
     0
  3

  4
"
  5

  6

  7

 40
1.0
 41
2.0
 42
1.0
 43
10.0
 44
1.0
 45
0.0
 46
0.0
 47
0.1
 48
0.1
140
2.5
141
0.0
142
0.0
143
0.0393701
144
1.0
145
0.0
146
0.71
147
1.5
 71
     0
 72
     0
 73
     0
 74
     0
 75
     0
 76
     0
 77
     3
 78
     8
170
     0
171
     2
172
     0
173
     0
174
     0
175
     0
176
     2
177
     2
178
     4
  0
DIMSTYLE
  2
AM_JIS$6
 70
     0
  3

  4
"
  5

  6

  7

 40
1.0
 41
2.0
 42
1.0
 43
10.0
 44
1.0
 45
0.0
 46
0.0
 47
0.1
 48
0.1
140
2.5
141
0.0
142
0.0
143
0.0393701
144
1.0
145
0.0
146
0.71
147
1.5
 71
     0
 72
     0
 73
     0
 74
     0
 75
     0
 76
     0
 77
     0
 78
     8
170
     0
171
     2
172
     1
173
     0
174
     0
175
     0
176
     2
177
     2
178
     4
  0
DIMSTYLE
  2
AM_JIS$7
 70
     0
  3

  4
"
  5

  6

  7

 40
1.0
 41
2.0
 42
1.0
 43
10.0
 44
1.0
 45
0.0
 46
0.0
 47
0.1
 48
0.1
140
2.5
141
0.0
142
0.0
143
0.0393701
144
1.0
145
0.0
146
0.71
147
1.5
 71
     0
 72
     0
 73
     0
 74
     0
 75
     0
 76
     0
 77
     3
 78
     8
170
     0
171
     2
172
     1
173
     0
174
     0
175
     0
176
     2
177
     2
178
     4
  0
DIMSTYLE
  2
AM_JIS$SF
 70
     0
  3

  4
"
  5

  6

  7

 40
1.0
 41
2.0
 42
1.0
 43
10.0
 44
1.0
 45
0.0
 46
0.0
 47
0.1
 48
0.1
140
2.5
141
0.0
142
0.0
143
0.0393701
144
1.0
145
0.0
146
0.71
147
1.5
 71
     0
 72
     0
 73
     0
 74
     0
 75
     1
 76
     1
 77
     3
 78
     8
170
     0
171
     2
172
     1
173
     0
174
     0
175
     0
176
     2
177
     2
178
     4
  0
DIMSTYLE
  2
AM_JIS$SH
 70
     0
  3

  4
"
  5

  6

  7

 40
1.0
 41
2.0
 42
1.0
 43
10.0
 44
1.0
 45
0.0
 46
0.0
 47
0.1
 48
0.1
140
2.5
141
0.0
142
0.0
143
0.0393701
144
2.0
145
0.0
146
0.71
147
1.5
 71
     0
 72
     0
 73
     0
 74
     0
 75
     1
 76
     1
 77
     3
 78
     8
170
     0
171
     2
172
     1
173
     1
174
     0
175
     0
176
     2
177
     2
178
     4
  0
DIMSTYLE
  2
AM_JIS$0
 70
     0
  3

  4
"
  5

  6

  7

 40
1.0
 41
2.0
 42
1.0
 43
8.0
 44
1.0
 45
0.0
 46
0.0
 47
0.1
 48
0.1
140
2.5
141
0.0
142
0.0
143
0.0393701
144
1.0
145
0.0
146
0.71
147
1.5
 71
     0
 72
     0
 73
     0
 74
     0
 75
     0
 76
     0
 77
     3
 78
     8
170
     0
171
     2
172
     1
173
     0
174
     0
175
     0
176
     2
177
     2
178
     4
  0
ENDTAB
  0
ENDSEC
  0
SECTION
  2
BLOCKS
  0
BLOCK
  8
0
  2
$MODEL_SPACE
 70
     0
 10
0.0
 20
0.0
 30
0.0
  3
$MODEL_SPACE
  1

  0
ENDBLK
  5
A187
  8
0
  0
BLOCK
 67
     1
  8
0
  2
$PAPER_SPACE
 70
     0
 10
0.0
 20
0.0
 30
0.0
  3
$PAPER_SPACE
  1

  0
ENDBLK
  5
A183
 67
     1
  8
0
  0
BLOCK
  8
0
  2
GENAXEH
 70
     0
 10
0.0
 20
0.0
 30
0.0
  3
GENAXEH
  1

  0
LINE
  5
9D41
  8
0
 10
-1.0
 20
0.0
 30
0.0
 11
1.0
 21
0.0
 31
0.0
  0
ENDBLK
  5
9D42
  8
0
  0
BLOCK
  8
0
  2
_OPEN30
 70
     0
 10
0.0
 20
0.0
 30
0.0
  3
_OPEN30
  1

  0
LINE
  5
9D88
  8
0
  6
BYBLOCK
 62
     0
 10
-1.0
 20
0.26794919
 30
0.0
 11
0.0
 21
0.0
 31
0.0
  0
LINE
  5
9D89
  8
0
  6
BYBLOCK
 62
     0
 10
0.0
 20
0.0
 30
0.0
 11
-1.0
 21
-0.26794919
 31
0.0
  0
LINE
  5
9D8A
  8
0
  6
BYBLOCK
 62
     0
 10
0.0
 20
0.0
 30
0.0
 11
-1.0
 21
0.0
 31
0.0
  0
ENDBLK
  5
9D8B
  8
0
  0
BLOCK
  8
0
  2
*U4
 70
     1
 10
0.0
 20
0.0
 30
0.0
  3
*U4
  1

  0
TEXT
  5
A110
  8
0
 62
     0
 10
5.1211371559201639
 20
5.9826223594979648
 30
0.0
 40
15.0
  1
ＶＸ０８－００３ＥＭ～ＶＸ０８－０３０ＥＭ
 41
0.7400000000000003
  0
ENDBLK
  5
A112
  8
0
  0
BLOCK
  8
0
  2
*U5
 70
     1
 10
0.0
 20
0.0
 30
0.0
  3
*U5
  1

  0
TEXT
  5
A114
  8
0
 62
     0
 10
874.81195532448555
 20
922.59438086247815
 30
0.0
 40
15.0
  1
ＶＸ１５－１２０ＥＭ～ＶＸ１５－２００ＥＭ
 41
0.7400000000000003
  0
ENDBLK
  5
A116
  8
0
  0
BLOCK
  8
0
  2
_ACMFILLEDHALF
 70
     0
 10
0.0
 20
0.0
 30
0.0
  3
_ACMFILLEDHALF
  1

  0
TRACE
  5
A2C5
  8
0
 62
     0
 10
-0.8
 20
0.0
 30
0.0
 11
-1.0
 21
0.166666666
 31
0.0
 12
0.0
 22
0.0
 32
0.0
 13
0.0
 23
0.0
 33
0.0
  0
LINE
  5
A2C6
  8
0
 62
     0
 10
-1.0
 20
0.0
 30
0.0
 11
-0.8
 21
0.0
 31
0.0
  0
ENDBLK
  5
A2C4
  8
0
  0
ENDSEC
  0
SECTION
  2
ENTITIES
  0
LINE
  5
7CF0
  8
0
  6
AM_ISO08W050
 10
531.62253992565684
 20
638.85763429805695
 30
0.0
 11
785.06125338246022
 21
638.85763429805695
 31
0.0
  0
LINE
  5
7CF1
  8
0
 10
1027.2597788372909
 20
770.86636929805718
 30
0.0
 11
1031.7378388372931
 21
769.97861929805663
 31
0.0
  0
LINE
  5
7CF2
  8
0
 10
1012.781718837292
 20
769.97861929805663
 30
0.0
 11
1017.259778837291
 21
770.86636929805718
 31
0.0
  0
LINE
  5
7CF3
  8
0
 10
1009.6137538372921
 20
760.31266929805656
 30
0.0
 11
1012.010268837293
 21
769.2565192980569
 31
0.0
  0
LINE
  5
7CF4
  8
0
 10
1034.9058038372921
 20
760.31266929805656
 30
0.0
 11
1032.5092888372919
 21
769.25656929805655
 31
0.0
  0
LINE
  5
7CF5
  8
0
 10
1027.259808837292
 20
806.85761929805722
 30
0.0
 11
1027.259808837292
 21
764.8576192980571
 31
0.0
  0
LINE
  5
7CF6
  8
0
 10
1017.259808837292
 20
806.85761929805722
 30
0.0
 11
1017.259808837292
 21
764.8576192980571
 31
0.0
  0
LINE
  5
7CF7
  8
0
 10
717.6324033824601
 20
670.35763429805706
 30
0.0
 11
717.6324033824601
 21
666.35763429805695
 31
0.0
  0
LINE
  5
7CF8
  8
0
 10
717.6324033824601
 20
670.35763429805706
 30
0.0
 11
779.63240338246021
 21
670.35763429805706
 31
0.0
  0
LINE
  5
7CF9
  8
0
 10
697.63240338246021
 20
611.35763429805672
 30
0.0
 11
779.63240338246021
 21
611.35763429805672
 31
0.0
  0
LINE
  5
7CFA
  8
0
 10
779.63240338246021
 20
670.35763429805706
 30
0.0
 11
779.63240338246021
 21
611.35763429805672
 31
0.0
  0
LINE
  5
7CFB
  8
0
 10
697.63240338246021
 20
668.85763429805695
 30
0.0
 11
697.63240338246021
 21
608.85763429805695
 31
0.0
  0
LINE
  5
7CFC
  8
0
 10
697.63240338246021
 20
666.35763429805695
 30
0.0
 11
779.63240338246021
 21
666.35763429805695
 31
0.0
  0
LINE
  5
7CFD
  8
0
 10
691.63240338246021
 20
668.85763429805695
 30
0.0
 11
697.63240338246021
 21
668.85763429805695
 31
0.0
  0
LINE
  5
7CFE
  8
0
 10
691.63240338246021
 20
608.85763429805695
 30
0.0
 11
697.63240338246021
 21
608.85763429805695
 31
0.0
  0
LINE
  5
7CFF
  8
0
 10
1014.259778837291
 20
660.35763429805695
 30
0.0
 11
1030.25977883729
 21
660.35763429805695
 31
0.0
  0
LINE
  5
7D00
  8
0
 10
1014.259778837291
 20
670.35763429805706
 30
0.0
 11
1030.25977883729
 21
670.35763429805706
 31
0.0
  0
LINE
  5
7D01
  8
0
 10
1014.259778837291
 20
660.35763429805695
 30
0.0
 11
1014.259778837291
 21
670.35763429805706
 31
0.0
  0
LINE
  5
7D02
  8
0
 10
1030.25977883729
 20
660.35763429805695
 30
0.0
 11
1030.25977883729
 21
670.35763429805706
 31
0.0
  0
LINE
  5
7D03
  8
0
 10
889.25978883729249
 20
647.32403429805663
 30
0.0
 11
889.25978883729249
 21
633.48333429805712
 31
0.0
  0
LINE
  5
7D04
  8
0
 10
922.25980883729221
 20
480.85759929805693
 30
0.0
 11
922.25980883729221
 21
623.85763429805638
 31
0.0
  0
LINE
  5
7D05
  8
0
 10
549.63240338246044
 20
630.96361929805676
 30
0.0
 11
569.63240338246044
 21
630.96361929805676
 31
0.0
  0
LINE
  5
7D06
  8
0
 10
688.56265338246021
 20
698.96481929805691
 30
0.0
 11
689.70225338246064
 21
698.925069298057
 31
0.0
  0
LINE
  5
7D07
  8
0
 10
668.76080338245993
 20
725.42121929805683
 30
0.0
 11
682.06815338246042
 21
724.2569692980569
 31
0.0
  0
LINE
  5
7D08
  8
0
 10
880.25978883729147
 20
468.85762929805622
 30
0.0
 11
880.25978883729147
 21
438.85762929805662
 31
0.0
  0
LINE
  5
7D09
  8
0
 10
899.25977883729172
 20
468.85762929805622
 30
0.0
 11
899.25977883729172
 21
438.85762929805662
 31
0.0
  0
LINE
  5
7D0A
  8
0
 10
857.25978883729294
 20
468.85762929805622
 30
0.0
 11
857.25978883729294
 21
438.85762929805662
 31
0.0
  0
LINE
  5
7D0B
  8
0
 10
922.25980883729221
 20
468.85762929805622
 30
0.0
 11
862.25978883729147
 21
468.85762929805622
 31
0.0
  0
LINE
  5
7D0C
  8
0
 10
927.25980883729255
 20
438.85762929805662
 30
0.0
 11
857.25978883729294
 21
438.85762929805662
 31
0.0
  0
LINE
  5
7D0D
  8
0
 10
1022.259808837292
 20
445.85759929805681
 30
0.0
 11
932.25980883729153
 21
445.85759929805681
 31
0.0
  0
LINE
  5
7D0E
  8
0
  6
AM_ISO08W050
 10
889.75978883729135
 20
473.51888429805638
 30
0.0
 11
889.75978883729135
 21
435.85762929805639
 31
0.0
  0
LINE
  5
7D0F
  8
0
 10
686.6324033824601
 20
719.27591929805681
 30
0.0
 11
686.6324033824601
 21
472.51787929805693
 31
0.0
  0
LINE
  5
7D10
  8
0
 10
636.6324033824601
 20
468.85762929805651
 30
0.0
 11
686.6324033824601
 21
468.85762929805651
 31
0.0
  0
LINE
  5
7D11
  8
0
  6
AM_ISO08W050
 10
661.6324033824601
 20
472.76549929805668
 30
0.0
 11
661.6324033824601
 21
435.85762929805651
 31
0.0
  0
LINE
  5
7D12
  8
0
 10
691.63240338246021
 20
463.85762929805668
 30
0.0
 11
691.63240338246021
 21
438.85762929805668
 31
0.0
  0
LINE
  5
7D13
  8
0
 10
544.63240338246044
 20
760.8576192980571
 30
0.0
 11
564.80690338246029
 21
760.15311929805694
 31
0.0
  0
LINE
  5
7D14
  8
0
  6
AM_ISO08W050
 10
491.63240338246032
 20
473.59778948468079
 30
0.0
 11
491.63240338246032
 21
435.85762929805651
 31
0.0
  0
LINE
  5
7D15
  8
0
 10
691.63240338246021
 20
696.92626929805692
 30
0.0
 11
691.63240338246021
 21
580.78902929805713
 31
0.0
  0
LINE
  5
7D16
  8
0
 10
671.1324033824601
 20
468.85762929805651
 30
0.0
 11
671.1324033824601
 21
438.85762929805668
 31
0.0
  0
LINE
  5
7D17
  8
0
 10
652.13240338245998
 20
468.85762929805651
 30
0.0
 11
652.13240338245998
 21
438.85762929805668
 31
0.0
  0
LINE
  5
7D18
  8
0
 10
572.66070338246038
 20
755.8789192980571
 30
0.0
 11
649.98145338246013
 21
753.17876929805664
 31
0.0
  0
LINE
  5
7D19
  8
0
 10
482.1324033824605
 20
468.85762929805651
 30
0.0
 11
482.1324033824605
 21
438.85762929805668
 31
0.0
  0
LINE
  5
7D1A
  8
0
 10
461.63240338246032
 20
438.85762929805668
 30
0.0
 11
691.63240338246021
 21
438.85762929805668
 31
0.0
  0
LINE
  5
7D1B
  8
0
 10
688.56260338246022
 20
578.75039429805702
 30
0.0
 11
689.7021533824601
 21
578.79021929805697
 31
0.0
  0
LINE
  5
7D1C
  8
0
 10
461.63240338246032
 20
463.85762929805668
 30
0.0
 11
461.63240338246032
 21
438.85762929805668
 31
0.0
  0
LINE
  5
7D1D
  8
0
  6
AM_ISO08W050
 10
1022.259808837292
 20
432.857614298057
 30
0.0
 11
1022.259808837292
 21
815.98530881874956
 31
0.0
  0
LINE
  5
7D1E
  8
0
 10
466.63240338246032
 20
468.85762929805651
 30
0.0
 11
513.4618033824604
 21
468.85762929805651
 31
0.0
  0
LINE
  5
7D1F
  8
0
 10
569.63240338246044
 20
755.15616929805719
 30
0.0
 11
569.63240338246044
 21
630.96361929805676
 31
0.0
  0
LINE
  5
7D20
  8
0
 10
549.63240338246044
 20
630.96361929805676
 30
0.0
 11
549.63240338246044
 21
541.09661429805669
 31
0.0
  0
LINE
  5
7D21
  8
0
 10
501.1324033824601
 20
468.85762929805651
 30
0.0
 11
501.1324033824601
 21
438.85762929805668
 31
0.0
  0
LINE
  5
7D22
  8
0
 10
659.63240338246078
 20
743.1848192980566
 30
0.0
 11
659.63240338246078
 21
495.16463929805701
 31
0.0
  0
LINE
  5
7D23
  8
0
 10
905.25977883729149
 20
545.82152929805648
 30
0.0
 11
905.25977883729149
 21
689.79141929805667
 31
0.0
  0
LINE
  5
7D24
  8
0
 10
641.6324033824601
 20
690.81526929805614
 30
0.0
 11
659.63240338246078
 21
690.81526929805614
 31
0.0
  0
LINE
  5
7D25
  8
0
 10
626.63240338245998
 20
485.16463929805673
 30
0.0
 11
649.6324033824601
 21
485.16463929805673
 31
0.0
  0
LINE
  5
7D26
  8
0
 10
626.63240338245998
 20
675.81527429805692
 30
0.0
 11
626.63240338245998
 21
478.85762929805651
 31
0.0
  0
LINE
  5
7D27
  8
0
 10
927.25980883729255
 20
463.85762929805662
 30
0.0
 11
927.25980883729255
 21
438.85762929805662
 31
0.0
  0
LINE
  5
7D28
  8
0
 10
857.25978883729294
 20
468.85762929805622
 30
0.0
 11
895.45716383729155
 21
665.36593429805703
 31
0.0
  0
LINE
  5
7D29
  8
0
 10
517.98445338246029
 20
471.72551929805712
 30
0.0
 11
548.67770338246044
 21
536.83239429805656
 31
0.0
  0
LINE
  5
7D2A
  8
0
 10
1022.259808837292
 20
454.85762929805662
 30
0.0
 11
963.25046883729158
 21
454.85762929805662
 31
0.0
  0
LINE
  5
7D2B
  8
0
 10
930.18870383729245
 20
451.78655429805639
 30
0.0
 11
938.3791938372915
 21
459.9770442980568
 31
0.0
  0
LINE
  5
7D2C
  8
0
 10
957.51469383729125
 20
456.66609929805651
 30
0.0
 11
951.1860188372915
 21
461.0974992980569
 31
0.0
  0
LINE
  5
7D2D
  8
0
 10
544.63240338246044
 20
760.8576192980571
 30
0.0
 11
544.63240338246044
 21
528.25154929805683
 31
0.0
  0
LINE
  5
7D2E
  8
0
 10
1155.2597988372911
 20
647.32403429805663
 30
0.0
 11
1155.2597988372911
 21
633.48333429805712
 31
0.0
  0
LINE
  5
7D2F
  8
0
  6
AM_ISO08W050
 10
1101.9290896456721
 20
638.85763429805695
 30
0.0
 11
942.99181458824353
 21
638.85763429805695
 31
0.0
  0
LINE
  5
7D30
  8
0
 10
1122.25977883729
 20
480.85759929805693
 30
0.0
 11
1122.25977883729
 21
623.85763429805638
 31
0.0
  0
LINE
  5
7D31
  8
0
 10
1164.2597788372909
 20
468.85762929805622
 30
0.0
 11
1164.2597788372909
 21
438.85762929805662
 31
0.0
  0
LINE
  5
7D32
  8
0
 10
1145.259793837291
 20
468.85762929805622
 30
0.0
 11
1145.259793837291
 21
438.85762929805662
 31
0.0
  0
LINE
  5
7D33
  8
0
 10
1187.2597838372919
 20
468.85762929805622
 30
0.0
 11
1187.2597838372919
 21
438.85762929805662
 31
0.0
  0
LINE
  5
7D34
  8
0
 10
1122.25977883729
 20
468.85762929805622
 30
0.0
 11
1182.2597838372919
 21
468.85762929805622
 31
0.0
  0
LINE
  5
7D35
  8
0
 10
1117.2597788372909
 20
438.85762929805662
 30
0.0
 11
1187.2597838372919
 21
438.85762929805662
 31
0.0
  0
LINE
  5
7D36
  8
0
 10
1022.259808837292
 20
445.85759929805681
 30
0.0
 11
1112.25977883729
 21
445.85759929805681
 31
0.0
  0
LINE
  5
7D37
  8
0
  6
AM_ISO08W050
 10
1154.75977883729
 20
473.51888429805638
 30
0.0
 11
1154.75977883729
 21
435.85762929805639
 31
0.0
  0
LINE
  5
7D38
  8
0
 10
1139.25977883729
 20
545.82152929805648
 30
0.0
 11
1139.25977883729
 21
689.79141929805667
 31
0.0
  0
LINE
  5
7D39
  8
0
 10
1117.2597788372909
 20
463.85762929805662
 30
0.0
 11
1117.2597788372909
 21
438.85762929805662
 31
0.0
  0
LINE
  5
7D3A
  8
0
 10
1187.2597838372919
 20
468.85762929805622
 30
0.0
 11
1149.062438837293
 21
665.36593429805703
 31
0.0
  0
LINE
  5
7D3B
  8
0
 10
1022.259808837292
 20
454.85762929805662
 30
0.0
 11
1081.269118837291
 21
454.85762929805662
 31
0.0
  0
LINE
  5
7D3C
  8
0
 10
1114.330853837291
 20
451.78655429805639
 30
0.0
 11
1106.140363837291
 21
459.9770442980568
 31
0.0
  0
LINE
  5
7D3D
  8
0
 10
1087.0048688372931
 20
456.66613429805648
 30
0.0
 11
1093.3335388372921
 21
461.0974992980569
 31
0.0
  0
LINE
  5
7D3E
  8
0
 10
510.65020338245972
 20
730.4816192980561
 30
0.0
 11
496.5969033824602
 21
711.50956929805693
 31
0.0
  0
LINE
  5
7D3F
  8
0
  6
CONTINUOUS
 62
     0
 10
476.1324033824601
 20
678.85762929805674
 30
0.0
 11
489.80685338245968
 21
679.33516429805672
 31
0.0
  0
LINE
  5
7D40
  8
0
 10
513.6324033824601
 20
760.8576192980571
 30
0.0
 11
544.63240338246044
 21
760.8576192980571
 31
0.0
  0
LINE
  5
7D41
  8
0
 10
511.63240338246032
 20
758.85766929805663
 30
0.0
 11
511.63240338246032
 21
733.45776929805709
 31
0.0
  0
LINE
  5
7D42
  8
0
 10
516.56260338246045
 20
759.87736929805715
 30
0.0
 11
544.63240338246044
 21
760.8576192980571
 31
0.0
  0
LINE
  5
7D43
  8
0
 10
514.63240338246044
 20
757.87866929805659
 30
0.0
 11
514.63240338246044
 21
468.99660929805668
 31
0.0
  0
LINE
  5
7D44
  8
0
  6
CONTINUOUS
 62
     0
 10
494.6324033824605
 20
705.557319298057
 30
0.0
 11
494.6324033824605
 21
494.64507429805712
 31
0.0
  0
LINE
  5
7D45
  8
0
 10
494.6324033824605
 20
494.64507429805712
 30
0.0
 11
494.6324033824605
 21
484.7853342980568
 31
0.0
  0
LINE
  5
7D46
  8
0
 10
476.1324033824601
 20
508.85762929805679
 30
0.0
 11
489.80695338246051
 21
508.38012429805661
 31
0.0
  0
LINE
  5
7D47
  8
0
 10
506.13990338246049
 20
468.8576592980566
 30
0.0
 11
497.45020338246042
 21
477.82720429805659
 31
0.0
  0
LINE
  5
7D48
  8
0
 10
513.65020338245984
 20
734.53161929805731
 30
0.0
 11
510.65020338245972
 21
730.4816192980561
 31
0.0
  0
LINE
  5
7D49
  8
0
 10
516.83835338246035
 20
769.8576192980571
 30
0.0
 11
536.42640338246065
 21
769.8576192980571
 31
0.0
  0
LINE
  5
7D4A
  8
0
 10
514.13240338245998
 20
760.8576192980571
 30
0.0
 11
516.38290338246043
 21
769.2565192980569
 31
0.0
  0
LINE
  5
7D4B
  8
0
 10
539.1324533824602
 20
760.8576192980571
 30
0.0
 11
536.88195338245976
 21
769.25656929805655
 31
0.0
  0
LINE
  5
7D4C
  8
0
 10
517.15435338246061
 20
769.97861929805674
 30
0.0
 11
526.63240338245998
 21
771.85766929805663
 31
0.0
  0
LINE
  5
7D4D
  8
0
 10
526.63240338245998
 20
771.85761929805676
 30
0.0
 11
536.11050338246059
 21
769.97861929805674
 31
0.0
  0
LINE
  5
7D4E
  8
0
  6
AM_ISO08W050
 10
182.99480463918371
 20
593.85762929805674
 30
0.0
 11
541.77509874254054
 21
593.85762929805674
 31
0.0
  0
ARC
  5
7D4F
  8
0
 10
1015.259778837291
 20
764.8576192980571
 30
0.0
 40
2.0000000500000001
 50
270.0
 51
0.0
  0
ARC
  5
7D50
  8
0
 10
1029.2597788372909
 20
764.8576192980571
 30
0.0
 40
2.0000000500000001
 50
179.999989999999
 51
270.0
  0
ARC
  5
7D51
  8
0
 10
1031.543348837291
 20
768.99771929805684
 30
0.0
 40
1.0
 50
14.99999999999442
 51
78.786710000008199
  0
ARC
  5
7D52
  8
0
 10
1012.976208837292
 20
768.99771929805684
 30
0.0
 40
1.0
 50
101.2132899999918
 51
164.99998999998439
  0
ARC
  5
7D53
  8
0
 10
1022.259808837292
 20
806.85761929805722
 30
0.0
 40
5.0
 50
359.999989999999
 51
179.999989999999
  0
ARC
  5
7D54
  8
0
 10
1022.259808837292
 20
638.85763429805695
 30
0.0
 40
27.500000499999999
 50
106.9123899999924
 51
73.087596999998752
  0
ARC
  5
7D55
  8
0
 10
688.6324033824601
 20
576.75167429805674
 30
0.0
 40
2.0000000500000001
 50
91.999997999994051
 51
180.00001000000091
  0
ARC
  5
7D56
  8
0
 10
686.6324033824601
 20
463.85762929805668
 30
0.0
 40
5.0
 50
0.0
 51
90.00000299999769
  0
ARC
  5
7D57
  8
0
 10
513.4618033824604
 20
473.85762929805651
 30
0.0
 40
5.0
 50
270.0
 51
334.75946999998939
  0
ARC
  5
7D58
  8
0
 10
688.6324033824601
 20
700.96361929805676
 30
0.0
 40
2.0000000500000001
 50
179.999989999999
 51
268.00000999999207
  0
ARC
  5
7D59
  8
0
 10
649.6324033824601
 20
743.1848192980566
 30
0.0
 40
10.0
 50
0.0
 51
87.999999999996334
  0
ARC
  5
7D5A
  8
0
 10
1022.259808837292
 20
623.85763429805638
 30
0.0
 40
100.0
 50
90.00000299999769
 51
180.00001000000091
  0
ARC
  5
7D5B
  8
0
 10
681.63240338245998
 20
719.27591929805681
 30
0.0
 40
5.0
 50
0.0
 51
84.999996999997919
  0
ARC
  5
7D5C
  8
0
 10
689.63240338246021
 20
696.92626929805692
 30
0.0
 40
2.0000000500000001
 50
0.0
 51
87.999999999996334
  0
ARC
  5
7D5D
  8
0
 10
862.25978883729147
 20
463.85762929805662
 30
0.0
 40
5.0
 50
90.00000299999769
 51
180.00001000000091
  0
ARC
  5
7D5E
  8
0
 10
1022.259808837292
 20
613.85763429805695
 30
0.0
 40
147.0
 50
90.00000299999769
 51
134.5979600000037
  0
ARC
  5
7D5F
  8
0
 10
1022.259808837292
 20
613.85763429805695
 30
0.0
 40
142.0
 50
90.00000299999769
 51
136.44564000000301
  0
ARC
  5
7D60
  8
0
 10
1022.259808837292
 20
638.85763429805695
 30
0.0
 40
60.0
 50
90.00000299999769
 51
270.0
  0
ARC
  5
7D61
  8
0
 10
636.6324033824601
 20
478.85762929805651
 30
0.0
 40
10.0
 50
179.999989999999
 51
270.0
  0
ARC
  5
7D62
  8
0
 10
689.63240338246021
 20
580.78902929805713
 30
0.0
 40
2.0000000500000001
 50
272.00000000000369
 51
0.0
  0
ARC
  5
7D63
  8
0
 10
572.83520338245989
 20
760.87586929805695
 30
0.0
 40
5.0
 50
214.88734000000099
 51
267.99999999999642
  0
ARC
  5
7D64
  8
0
 10
564.63240338246044
 20
755.15616929805719
 30
0.0
 40
5.0
 50
34.887350000018742
 51
87.999999999996334
  0
ARC
  5
7D65
  8
0
 10
641.6324033824601
 20
675.81527429805692
 30
0.0
 40
15.0
 50
90.00000299999769
 51
180.00001000000091
  0
ARC
  5
7D66
  8
0
 10
1022.259808837292
 20
545.85759929805727
 30
0.0
 40
117.0
 50
179.999989999999
 51
211.2733000000126
  0
ARC
  5
7D67
  8
0
 10
910.25977883729161
 20
480.85759929805693
 30
0.0
 40
12.0
 50
270.0
 51
0.0
  0
ARC
  5
7D68
  8
0
 10
649.6324033824601
 20
495.16463929805701
 30
0.0
 40
10.0
 50
270.0
 51
0.0
  0
ARC
  5
7D69
  8
0
 10
986.74848883729123
 20
647.62072429805698
 30
0.0
 40
93.0
 50
136.44564000000301
 51
168.99999999998801
  0
ARC
  5
7D6A
  8
0
 10
669.6324033824601
 20
735.38311929805684
 30
0.0
 40
10.0
 50
179.999989999999
 51
265.00000000000028
  0
ARC
  5
7D6B
  8
0
 10
932.25980883729153
 20
440.8575992980567
 30
0.0
 40
5.0
 50
90.00000299999769
 51
180.00001000000091
  0
ARC
  5
7D6C
  8
0
 10
922.25980883729221
 20
463.85762929805662
 30
0.0
 40
5.0
 50
0.0
 51
90.00000299999769
  0
ARC
  5
7D6D
  8
0
 10
539.63240338246044
 20
541.09661429805669
 30
0.0
 40
10.0
 50
334.75946999998939
 51
0.0
  0
ARC
  5
7D6E
  8
0
 10
915.25977883729149
 20
689.79141929805667
 30
0.0
 40
10.0
 50
149.46392000000651
 51
180.00001000000091
  0
ARC
  5
7D6F
  8
0
 10
466.63240338246032
 20
463.85762929805668
 30
0.0
 40
5.0
 50
90.00000299999769
 51
180.00001000000091
  0
ARC
  5
7D70
  8
0
 10
691.63240338246021
 20
472.51787929805693
 30
0.0
 40
5.0
 50
179.999989999999
 51
240.0000100000089
  0
ARC
  5
7D71
  8
0
 10
989.25977883729149
 20
647.32403429805663
 30
0.0
 40
100.0
 50
134.5979600000037
 51
180.00001000000091
  0
ARC
  5
7D72
  8
0
 10
963.25046883729158
 20
464.85762929805622
 30
0.0
 40
10.0
 50
235.00000000002089
 51
270.0
  0
ARC
  5
7D73
  8
0
 10
937.25980883729244
 20
444.71547929805672
 30
0.0
 40
10.0
 50
134.99999999999119
 51
180.00001000000091
  0
ARC
  5
7D74
  8
0
 10
945.45026883729133
 20
452.90593929805681
 30
0.0
 40
10.0
 50
54.99999899997799
 51
134.99999999999119
  0
ARC
  5
7D75
  8
0
 10
1022.259808837292
 20
623.85763429805638
 30
0.0
 40
100.0
 50
0.0
 51
90.00000299999769
  0
ARC
  5
7D76
  8
0
 10
1182.2597838372919
 20
463.85762929805662
 30
0.0
 40
5.0
 50
0.0
 51
90.00000299999769
  0
ARC
  5
7D77
  8
0
 10
1022.259808837292
 20
613.85763429805695
 30
0.0
 40
147.0
 50
45.402043000017152
 51
90.00000299999769
  0
ARC
  5
7D78
  8
0
 10
1022.259808837292
 20
613.85763429805695
 30
0.0
 40
142.0
 50
43.554364000004952
 51
90.00000299999769
  0
ARC
  5
7D79
  8
0
 10
1022.259808837292
 20
638.85763429805695
 30
0.0
 40
60.0
 50
270.0
 51
90.00000299999769
  0
ARC
  5
7D7A
  8
0
 10
1022.259808837292
 20
545.85759929805727
 30
0.0
 40
117.0
 50
328.72669999998737
 51
0.0
  0
ARC
  5
7D7B
  8
0
 10
1134.2597788372909
 20
480.85759929805693
 30
0.0
 40
12.0
 50
180.00001000000091
 51
270.0
  0
ARC
  5
7D7C
  8
0
 10
1057.771068837292
 20
647.62072429805698
 30
0.0
 40
93.0
 50
11.000000000011999
 51
43.554364000004952
  0
ARC
  5
7D7D
  8
0
 10
1112.25977883729
 20
440.8575992980567
 30
0.0
 40
5.0
 50
0.0
 51
90.00000299999769
  0
ARC
  5
7D7E
  8
0
 10
1122.25977883729
 20
463.85762929805662
 30
0.0
 40
5.0
 50
90.00000299999769
 51
180.00001000000091
  0
ARC
  5
7D7F
  8
0
 10
1129.25977883729
 20
689.79141929805667
 30
0.0
 40
10.0
 50
0.0
 51
30.53608499999001
  0
ARC
  5
7D80
  8
0
 10
1055.2597788372909
 20
647.32403429805663
 30
0.0
 40
100.0
 50
0.0
 51
45.402043000017152
  0
ARC
  5
7D81
  8
0
 10
1081.269118837291
 20
464.85762929805622
 30
0.0
 40
10.0
 50
270.0
 51
304.9999999999792
  0
ARC
  5
7D82
  8
0
 10
1107.2597788372921
 20
444.71547929805672
 30
0.0
 40
10.0
 50
0.0
 51
45.000001000012553
  0
ARC
  5
7D83
  8
0
 10
1099.069288837291
 20
452.90593929805681
 30
0.0
 40
10.0
 50
45.000001000012553
 51
124.9999999999792
  0
CIRCLE
  5
7D84
  8
0
 10
1022.259808837292
 20
638.85763429805695
 30
0.0
 40
6.0
  0
CIRCLE
  5
7D85
  8
0
 10
1022.259808837292
 20
638.85763429805695
 30
0.0
 40
4.500000049999997
  0
ARC
  5
7D86
  8
0
 10
509.6324033824605
 20
737.50776929805693
 30
0.0
 40
5.0
 50
323.47114000001892
 51
0.0
  0
ARC
  5
7D87
  8
0
 10
516.63240338246032
 20
757.87866929805659
 30
0.0
 40
2.0000000500000001
 50
91.999997999994051
 51
180.00001000000091
  0
ARC
  5
7D88
  8
0
 10
513.6324033824601
 20
758.85766929805663
 30
0.0
 40
2.0000000500000001
 50
90.00000299999769
 51
180.00001000000091
  0
ARC
  5
7D89
  8
0
 10
504.63240338246021
 20
484.7853342980568
 30
0.0
 40
10.0
 50
179.999989999999
 51
224.09221999999309
  0
ARC
  5
7D8A
  8
0
 10
506.63240338245981
 20
733.45776929805709
 30
0.0
 40
5.0
 50
323.47114000001892
 51
0.0
  0
ARC
  5
7D8B
  8
0
 10
504.63240338246021
 20
705.557319298057
 30
0.0
 40
10.0
 50
143.47114000001901
 51
180.00001000000091
  0
ARC
  5
7D8C
  8
0
 10
489.6324033824605
 20
503.38314429805672
 30
0.0
 40
5.0
 50
0.0
 51
87.999999999996334
  0
CIRCLE
  5
7D8D
  8
0
 10
526.63240338245998
 20
786.85761929805665
 30
0.0
 40
15.0
  0
ARC
  5
7D8E
  8
0
 10
526.63240338245998
 20
786.85761929805665
 30
0.0
 40
25.000000499999999
 50
306.46672000001831
 51
233.53328999998541
  0
ARC
  5
7D8F
  8
0
 10
517.34885338246045
 20
768.99771929805695
 30
0.0
 40
1.0
 50
101.2132899999926
 51
164.99998999998439
  0
ARC
  5
7D90
  8
0
 10
535.91605338246052
 20
768.99771929805695
 30
0.0
 40
1.0
 50
14.999999999994451
 51
78.786710000007389
  0
ARC
  5
7D91
  8
0
 10
508.2073533824605
 20
761.92731929805689
 30
0.0
 40
6.0
 50
349.7299499999861
 51
53.533291000004787
  0
ARC
  5
7D92
  8
0
 10
545.05740338246039
 20
761.92731929805689
 30
0.0
 40
6.0
 50
126.4666999999904
 51
190.2700599999921
  0
ARC
  5
7D93
  8
0
  6
CONTINUOUS
 62
     0
 10
489.6324033824605
 20
684.33211429805692
 30
0.0
 40
5.0
 50
272.00000000000369
 51
0.0
  0
LINE
  5
7E96
  8
0
 10
878.05901883729359
 20
633.89470929805645
 30
0.0
 11
882.0322088372925
 21
634.51305929805665
 31
0.0
  0
LINE
  5
7E97
  8
0
 10
887.22363883729236
 20
623.00815337921199
 30
0.0
 11
887.22363883729236
 21
626.72298929805675
 31
0.0
  0
LINE
  5
7E98
  8
0
 10
872.25980883729221
 20
561.76488929805646
 30
0.0
 11
872.25980883729221
 21
625.95155929805674
 31
0.0
  0
ARC
  5
7E99
  8
0
 10
894.5189788372935
 20
563.83690929805675
 30
0.0
 40
71.770743999999979
 50
93.897601009654437
 51
100.01937999999819
  0
ARC
  5
7E9A
  8
0
 10
892.75220883729355
 20
508.89223929805661
 30
0.0
 40
122.21539
 50
91.859957667365137
 51
98.019572999999482
  0
ARC
  5
7E9B
  8
0
 10
883.22363883729213
 20
626.72298929805675
 30
0.0
 40
4.0
 50
0.0
 51
94.623254999999546
  0
ARC
  5
7E9C
  8
0
 10
876.2598088372921
 20
625.95155929805674
 30
0.0
 40
4.0
 50
98.019572999999482
 51
180.00001000000091
  0
ARC
  5
7E9D
  8
0
 10
878.98169883729213
 20
627.96608929805643
 30
0.0
 40
6.0
 50
98.845930999998643
 51
177.2542099999954
  0
ARC
  5
7E9E
  8
0
 10
876.2598088372921
 20
561.76488929805646
 30
0.0
 40
4.0
 50
179.999989999999
 51
245.65314753241361
  0
ARC
  5
7E9F
  8
0
 10
878.98169883729213
 20
559.76219929805654
 30
0.0
 40
6.0
 50
182.8676818862462
 51
217.47864861749389
  0
ARC
  5
8E58
  8
0
  6
CONTINUOUS
 10
197.6324033824601
 20
494.65762929805692
 30
0.0
 40
2.0
 50
180.0
 51
270.0
  0
LINE
  5
8E5A
  8
0
  6
CONTINUOUS
 10
268.6324033824601
 20
694.6576292980568
 30
0.0
 11
268.6324033824601
 21
492.65762929805652
 31
0.0
  0
ARC
  5
8E5B
  8
0
  6
CONTINUOUS
 10
198.0324033824601
 20
679.63444429805668
 30
0.0
 40
2.399999999999999
 50
160.0000000000035
 51
180.0
  0
ARC
  5
8E5C
  8
0
  6
CONTINUOUS
 10
202.62686738246009
 20
692.25762929805683
 30
0.0
 40
2.399999999999999
 50
90.0
 51
160.0000000000035
  0
LINE
  5
8E5D
  8
0
  6
CONTINUOUS
 10
200.37160438246011
 20
693.07847729805644
 30
0.0
 11
195.77714138246
 21
680.45529329805674
 31
0.0
  0
LINE
  5
8E5E
  8
0
 10
200.94636838246021
 20
693.97108329805667
 30
0.0
 11
200.94636838246021
 21
492.65762929805652
 31
0.0
  0
LINE
  5
8E5F
  8
0
  6
CONTINUOUS
 10
195.6324033824601
 20
679.63444429805668
 30
0.0
 11
195.6324033824601
 21
494.65762929805692
 31
0.0
  0
LINE
  5
8E60
  8
0
  6
CONTINUOUS
 10
268.6324033824601
 20
694.6576292980568
 30
0.0
 11
202.62686738246009
 21
694.6576292980568
 31
0.0
  0
ARC
  5
8E61
  8
0
  6
CONTINUOUS
 10
369.1324033824601
 20
35.007653298056773
 30
0.0
 40
600.59997599999986
 50
86.033759999997372
 51
93.836910000000643
  0
ARC
  5
8E62
  8
0
  6
CONTINUOUS
 10
329.31700838246007
 20
628.67402829805644
 30
0.0
 40
5.5999980000000003
 50
93.837062000000614
 51
179.99998200000081
  0
ARC
  5
8E63
  8
0
  6
CONTINUOUS
 10
331.38080838245997
 20
628.80883129805648
 30
0.0
 40
5.5999980000000003
 50
93.638055999997604
 51
179.99998200000081
  0
ARC
  5
8E64
  8
0
  6
CONTINUOUS
 10
322.20900638246007
 20
593.85762929805674
 30
0.0
 40
15.000002
 50
310.58999199999971
 51
49.409702000001012
  0
ARC
  5
8E65
  8
0
  6
CONTINUOUS
 10
369.1324033824601
 20
35.007653298056773
 30
0.0
 40
596.09997599999986
 50
86.44328999999945
 51
93.315089000003056
  0
ARC
  5
8E66
  8
0
  6
CONTINUOUS
 10
325.16835138246017
 20
593.85762929805674
 30
0.0
 40
14.0
 50
317.10021800000243
 51
42.899781999997558
  0
ARC
  5
8E67
  8
0
  6
CONTINUOUS
 10
337.32860638246018
 20
605.15754929805667
 30
0.0
 40
2.6000000000000001
 50
180.0
 51
222.8997819999976
  0
LINE
  5
8E68
  8
0
  6
CONTINUOUS
 10
331.26990838246007
 20
626.51622929805671
 30
0.0
 11
331.26990838246007
 21
606.76712929805672
 31
0.0
  0
LINE
  5
8E69
  8
0
  6
CONTINUOUS
 10
334.72860638246021
 20
605.15754929805667
 30
0.0
 11
334.72860638246021
 21
623.43992729805666
 31
0.0
  0
ARC
  5
8E6A
  8
0
  6
CONTINUOUS
 10
334.8699063824601
 20
626.51622929805671
 30
0.0
 40
3.5999979999999989
 50
93.315005000002984
 51
179.99998200000081
  0
ARC
  5
8E6B
  8
0
  6
CONTINUOUS
 10
333.26990838246007
 20
606.76712929805672
 30
0.0
 40
1.999997
 50
179.99998200000081
 51
229.4100490000026
  0
LINE
  5
8E6C
  8
0
  6
CONTINUOUS
 10
323.71700538246
 20
628.67402929805644
 30
0.0
 11
323.71700538246
 21
559.04122529805647
 31
0.0
  0
LINE
  5
8E6D
  8
0
  6
CONTINUOUS
 10
325.78080638246013
 20
628.80883329805647
 30
0.0
 11
325.78080638246013
 21
558.90642529805655
 31
0.0
  0
LINE
  5
8E6E
  8
0
  6
CONTINUOUS
 10
334.72860638246021
 20
561.32543329805674
 30
0.0
 11
334.72860638246021
 21
582.55770929805669
 31
0.0
  0
LINE
  5
8E6F
  8
0
  6
CONTINUOUS
 10
331.26990838246007
 20
561.19489029805675
 30
0.0
 11
331.26990838246007
 21
580.94813329805675
 31
0.0
  0
ARC
  5
8E70
  8
0
  6
CONTINUOUS
 10
337.32860638246018
 20
582.55770929805669
 30
0.0
 40
2.6000000000000001
 50
137.1002180000024
 51
180.0
  0
ARC
  5
8E71
  8
0
  6
CONTINUOUS
 10
333.26990838246007
 20
580.94813329805675
 30
0.0
 40
2.0
 50
130.59005899999829
 51
179.99998200000081
  0
ARC
  5
8E72
  8
0
  6
CONTINUOUS
 10
369.1324033824601
 20
1152.707605298056
 30
0.0
 40
596.09997599999986
 50
266.6850579999973
 51
273.5570069999992
  0
ARC
  5
8E73
  8
0
  6
CONTINUOUS
 10
334.8699063824601
 20
561.19903329805675
 30
0.0
 40
3.6000009999999989
 50
180.00007799999869
 51
266.68501400000298
  0
ARC
  5
8E74
  8
0
  6
CONTINUOUS
 10
369.1324033824601
 20
1152.707605298056
 30
0.0
 40
600.59997599999986
 50
266.16305400000141
 51
273.96601299999787
  0
ARC
  5
8E75
  8
0
  6
CONTINUOUS
 10
329.31700838246007
 20
559.04123029805646
 30
0.0
 40
5.600000999999998
 50
180.00005699999531
 51
266.1630369999973
  0
ARC
  5
8E76
  8
0
  6
CONTINUOUS
 10
331.38080838245997
 20
558.90643029805665
 30
0.0
 40
5.599998999999996
 50
180.00005699999531
 51
266.36204099999878
  0
ARC
  5
8E77
  8
0
  6
CONTINUOUS
 10
410.42650938245998
 20
630.57763029805665
 30
0.0
 40
3.5999989999999982
 50
0.0000179999992061
 51
86.033744000000837
  0
LINE
  5
8E78
  8
0
  6
CONTINUOUS
 10
405.60950738245998
 20
560.55313229805665
 30
0.0
 11
405.60950738245998
 21
627.16213429805669
 31
0.0
  0
LINE
  5
8E79
  8
0
  6
CONTINUOUS
 10
408.92650938245998
 20
560.74993229805671
 30
0.0
 11
408.92650938245998
 21
626.96964629805643
 31
0.0
  0
ARC
  5
8E7A
  8
0
  6
CONTINUOUS
 10
405.92650938245998
 20
626.96533329805675
 30
0.0
 40
3.0000029999999982
 50
0.0000179999992061
 51
86.4432529999997
  0
ARC
  5
8E7B
  8
0
  6
CONTINUOUS
 10
402.60950738246009
 20
627.16213329805669
 30
0.0
 40
2.999998999999999
 50
0.0000179999992061
 51
86.764376000000055
  0
LINE
  5
8E7C
  8
0
  6
CONTINUOUS
 10
414.02649938245997
 20
557.12694829805673
 30
0.0
 11
414.02649938245997
 21
630.58549129805635
 31
0.0
  0
ARC
  5
8E7D
  8
0
  6
CONTINUOUS
 10
402.60950738246009
 20
560.55313229805665
 30
0.0
 40
3.0
 50
273.23604299999818
 51
0.0000179999992061
  0
ARC
  5
8E7E
  8
0
  6
CONTINUOUS
 10
410.42650938245998
 20
557.13742929805665
 30
0.0
 40
3.6000059999999969
 50
273.96599899999779
 51
0.0000179999992061
  0
ARC
  5
8E7F
  8
0
  6
CONTINUOUS
 10
405.92650938245998
 20
560.74993229805671
 30
0.0
 40
3.0
 50
273.55702100000269
 51
0.0000179999992061
  0
LINE
  5
8E80
  8
0
  6
CONTINUOUS
 10
421.08927938246012
 20
643.04262929805645
 30
0.0
 11
421.08927938246012
 21
622.67762929805667
 31
0.0
  0
LINE
  5
8E81
  8
0
  6
CONTINUOUS
 10
437.1324023824601
 20
643.04262929805645
 30
0.0
 11
437.1324023824601
 21
622.67762929805667
 31
0.0
  0
LINE
  5
8E82
  8
0
  6
CONTINUOUS
 10
451.68179838245987
 20
537.83683329805672
 30
0.0
 11
437.1324023824601
 21
537.83683329805672
 31
0.0
  0
LINE
  5
8E83
  8
0
  6
CONTINUOUS
 10
456.63240338245981
 20
549.24918329805678
 30
0.0
 11
437.1324023824601
 21
549.24918329805678
 31
0.0
  0
LINE
  5
8E84
  8
0
  6
CONTINUOUS
 10
421.83780038245999
 20
542.55192329805675
 30
0.0
 11
437.1324033824601
 21
537.83683329805672
 31
0.0
  0
LINE
  5
8E85
  8
0
  6
CONTINUOUS
 10
437.1324033824601
 20
549.24918329805678
 30
0.0
 11
422.09646238246012
 21
548.70843229805666
 31
0.0
  0
ARC
  5
8E86
  8
0
  6
CONTINUOUS
 10
422.13240338245998
 20
547.70907829805674
 30
0.0
 40
1.0
 50
92.059690999997088
 51
180.0
  0
ARC
  5
8E87
  8
0
  6
CONTINUOUS
 10
422.13240338245998
 20
543.5075432980567
 30
0.0
 40
1.0
 50
180.0
 51
252.8662750000021
  0
LINE
  5
8E88
  8
0
  6
CONTINUOUS
 10
437.1324033824601
 20
669.71041629805677
 30
0.0
 11
421.83194438246022
 21
664.89055029805672
 31
0.0
  0
ARC
  5
8E89
  8
0
  6
CONTINUOUS
 10
422.13240338245998
 20
663.93675529805671
 30
0.0
 40
1.0
 50
107.485179
 51
180.0
  0
ARC
  5
8E8A
  8
0
  6
CONTINUOUS
 10
422.13240338245998
 20
661.58569029805665
 30
0.0
 40
1.0
 50
180.0
 51
270.0
  0
LINE
  5
8E8B
  8
0
  6
CONTINUOUS
 10
422.18095838245972
 20
660.58686929805674
 30
0.0
 11
437.1324033824601
 21
661.31368929805672
 31
0.0
  0
LINE
  5
8E8C
  8
0
  6
CONTINUOUS
 10
456.63240338245981
 20
661.31368929805672
 30
0.0
 11
437.1324033824601
 21
661.31368929805672
 31
0.0
  0
LINE
  5
8E8D
  8
0
  6
CONTINUOUS
 10
380.1324033824601
 20
692.14412229805669
 30
0.0
 11
467.5795883824598
 21
692.14412229805669
 31
0.0
  0
ARC
  5
8E8E
  8
0
  6
CONTINUOUS
 10
291.39664838246011
 20
690.1441222980568
 30
0.0
 40
2.0
 50
90.0
 51
156.10180000000051
  0
ARC
  5
8E8F
  8
0
  6
CONTINUOUS
 10
467.5795883824598
 20
690.1441222980568
 30
0.0
 40
2.0
 50
10.000001999998901
 51
90.0
  0
LINE
  5
8E90
  8
0
  6
CONTINUOUS
 10
471.1324033824601
 20
681.51264629805667
 30
0.0
 11
469.54920338246012
 21
690.49141929805683
 31
0.0
  0
LINE
  5
8E91
  8
0
  6
CONTINUOUS
 10
470.8715953824601
 20
681.51264629805667
 30
0.0
 11
471.1324033824601
 21
681.51264629805667
 31
0.0
  0
ARC
  5
8E92
  8
0
  6
CONTINUOUS
 10
276.4636183824602
 20
688.95434829805674
 30
0.0
 40
2.0
 50
90.0
 51
169.99999800000111
  0
LINE
  5
8E93
  8
0
  6
CONTINUOUS
 10
272.1324033824601
 20
675.9083452980567
 30
0.0
 11
274.49400338246011
 21
689.30164529805666
 31
0.0
  0
ARC
  5
8E94
  8
0
  6
CONTINUOUS
 10
467.52856938246009
 20
688.95434829805674
 30
0.0
 40
2.0
 50
10.000001999998901
 51
90.0
  0
LINE
  5
8E95
  8
0
  6
CONTINUOUS
 10
471.1324033824601
 20
680.03352829805669
 30
0.0
 11
469.49818438245973
 21
689.30164529805666
 31
0.0
  0
LINE
  5
8E96
  8
0
  6
CONTINUOUS
 10
272.1324033824601
 20
675.9083452980567
 30
0.0
 11
272.70030938246009
 21
675.9083452980567
 31
0.0
  0
LINE
  5
8E97
  8
0
  6
CONTINUOUS
 10
470.5964323824598
 20
680.03352829805669
 30
0.0
 11
471.1324033824601
 21
680.03352829805669
 31
0.0
  0
ARC
  5
8E98
  8
0
  6
CONTINUOUS
 10
467.44271438245988
 20
686.40161429805676
 30
0.0
 40
2.0
 50
10.00000100000196
 51
90.0
  0
ARC
  5
8E99
  8
0
  6
CONTINUOUS
 10
276.58140938245998
 20
686.40161429805676
 30
0.0
 40
2.0
 50
90.0
 51
169.9999989999979
  0
LINE
  5
8E9A
  8
0
  6
CONTINUOUS
 10
272.1324033824601
 20
672.68758929805665
 30
0.0
 11
274.61179338246018
 21
686.74891029805667
 31
0.0
  0
ARC
  5
8E9B
  8
0
  6
CONTINUOUS
 10
276.76255038246001
 20
682.43642929805674
 30
0.0
 40
2.0
 50
90.0
 51
170.00000000000139
  0
LINE
  5
8E9C
  8
0
  6
CONTINUOUS
 10
272.1324033824601
 20
667.69510429805644
 30
0.0
 11
274.79293438246009
 21
682.78372529805665
 31
0.0
  0
ARC
  5
8E9D
  8
0
  6
CONTINUOUS
 10
277.04377838246012
 20
676.85900129805668
 30
0.0
 40
2.0
 50
90.0
 51
170.00000000000139
  0
LINE
  5
8E9E
  8
0
  6
CONTINUOUS
 10
272.1324033824601
 20
660.52275229805673
 30
0.0
 11
275.07416238245997
 21
677.20629829805671
 31
0.0
  0
ARC
  5
8E9F
  8
0
  6
CONTINUOUS
 10
277.13904238245999
 20
670.85833429805643
 30
0.0
 40
2.0
 50
90.0
 51
169.9999989999979
  0
LINE
  5
8EA0
  8
0
  6
CONTINUOUS
 10
272.1324033824601
 20
653.98181629805674
 30
0.0
 11
275.16942638246019
 21
671.20563029805669
 31
0.0
  0
LINE
  5
8EA1
  8
0
  6
CONTINUOUS
 10
471.00414438245969
 20
677.72127829805675
 30
0.0
 11
469.41232938246009
 21
686.74891029805667
 31
0.0
  0
LINE
  5
8EA2
  8
0
  6
CONTINUOUS
 10
272.1324033824601
 20
672.68758929805665
 30
0.0
 11
273.01271338246011
 21
672.68758929805665
 31
0.0
  0
ARC
  5
8EA3
  8
0
  6
CONTINUOUS
 10
467.31333638245968
 20
682.43642929805674
 30
0.0
 40
2.0
 50
9.9999999999986073
 51
90.0
  0
LINE
  5
8EA4
  8
0
  6
CONTINUOUS
 10
470.17559838246012
 20
677.72127829805675
 30
0.0
 11
469.28295238246011
 21
682.78372529805665
 31
0.0
  0
ARC
  5
8EA5
  8
0
  6
CONTINUOUS
 10
402.52142138245972
 20
676.85900129805668
 30
0.0
 40
2.0
 50
5.5986529999989587
 51
90.0
  0
ARC
  5
8EA6
  8
0
  6
CONTINUOUS
 10
402.51946638246011
 20
670.85833429805643
 30
0.0
 40
2.0
 50
5.4290190000020546
 51
90.0
  0
LINE
  5
8EA7
  8
0
  6
CONTINUOUS
 10
473.13240338245981
 20
554.13492329805672
 30
0.0
 11
473.13240338245981
 21
655.92356229805648
 31
0.0
  0
LINE
  5
8EA8
  8
0
  6
CONTINUOUS
 10
473.13240338245981
 20
677.72127829805675
 30
0.0
 11
473.13240338245981
 21
681.85762929805674
 31
0.0
  0
LINE
  5
8EA9
  8
0
  6
CONTINUOUS
 10
421.08927938246012
 20
667.69510429805644
 30
0.0
 11
437.1324023824601
 21
672.29496629805669
 31
0.0
  0
LINE
  5
8EAA
  8
0
  6
CONTINUOUS
 10
405.42931838246011
 20
667.69510429805644
 30
0.0
 11
421.08927938246012
 21
667.69510429805644
 31
0.0
  0
LINE
  5
8EAB
  8
0
  6
CONTINUOUS
 10
437.1324023824601
 20
672.29496629805669
 30
0.0
 11
451.82568638245982
 21
672.29496629805669
 31
0.0
  0
ARC
  5
8EAC
  8
0
  6
CONTINUOUS
 10
453.83220238246003
 20
665.34089529805669
 30
0.0
 40
2.600398999999999
 50
179.9999819999943
 51
269.99997799999852
  0
ARC
  5
8EAD
  8
0
  6
CONTINUOUS
 10
453.83220238246003
 20
670.64088329805645
 30
0.0
 40
2.600403
 50
90.0
 51
179.9999819999943
  0
LINE
  5
8EAE
  8
0
  6
CONTINUOUS
 10
456.63240338245981
 20
668.05691429805677
 30
0.0
 11
455.1324033824601
 21
667.19088929805673
 31
0.0
  0
LINE
  5
8EAF
  8
0
  6
CONTINUOUS
 10
456.63240338245981
 20
669.05691429805665
 30
0.0
 11
455.1324033824601
 21
668.19088929805673
 31
0.0
  0
LINE
  5
8EB0
  8
0
  6
CONTINUOUS
 10
456.63240338245981
 20
674.0908892980566
 30
0.0
 11
456.63240338245981
 21
661.89088929805666
 31
0.0
  0
LINE
  5
8EB1
  8
0
  6
CONTINUOUS
 10
455.13240338245981
 20
674.0908892980566
 30
0.0
 11
456.63240338245981
 21
674.0908892980566
 31
0.0
  0
LINE
  5
8EB2
  8
0
  6
CONTINUOUS
 10
455.1324033824601
 20
661.89088929805666
 30
0.0
 11
456.63240338245981
 21
661.89088929805666
 31
0.0
  0
LINE
  5
8EB3
  8
0
  6
CONTINUOUS
 10
451.23240938245988
 20
670.64088329805645
 30
0.0
 11
451.23240938245988
 21
665.34089529805669
 31
0.0
  0
LINE
  5
8EB4
  8
0
  6
CONTINUOUS
 10
455.13240338245981
 20
674.0908892980566
 30
0.0
 11
455.1324033824601
 21
661.89088929805666
 31
0.0
  0
LINE
  5
8EB5
  8
0
  6
CONTINUOUS
 10
455.1324033824601
 20
662.74088929805646
 30
0.0
 11
453.83220238246003
 21
662.74088929805646
 31
0.0
  0
LINE
  5
8EB6
  8
0
  6
CONTINUOUS
 10
455.13240338245981
 20
673.24088929805669
 30
0.0
 11
453.83220238246003
 21
673.24088929805669
 31
0.0
  0
ARC
  5
8EB7
  8
0
  6
CONTINUOUS
 10
453.83220238246003
 20
539.29896829805671
 30
0.0
 40
2.600398999999999
 50
179.9999819999943
 51
269.99997799999852
  0
ARC
  5
8EB8
  8
0
  6
CONTINUOUS
 10
453.83220238246003
 20
544.59895629805669
 30
0.0
 40
2.600403
 50
90.0
 51
179.9999819999943
  0
LINE
  5
8EB9
  8
0
  6
CONTINUOUS
 10
456.63240338245981
 20
542.01498729805655
 30
0.0
 11
455.1324033824601
 21
541.14896229805663
 31
0.0
  0
LINE
  5
8EBA
  8
0
  6
CONTINUOUS
 10
456.63240338245981
 20
543.01498729805667
 30
0.0
 11
455.1324033824601
 21
542.14896229805663
 31
0.0
  0
LINE
  5
8EBB
  8
0
  6
CONTINUOUS
 10
456.63240338245981
 20
548.04896229805672
 30
0.0
 11
456.63240338245981
 21
535.84896229805668
 31
0.0
  0
LINE
  5
8EBC
  8
0
  6
CONTINUOUS
 10
455.13240338245981
 20
548.04896229805672
 30
0.0
 11
456.63240338245981
 21
548.04896229805672
 31
0.0
  0
LINE
  5
8EBD
  8
0
  6
CONTINUOUS
 10
455.1324033824601
 20
535.84896229805668
 30
0.0
 11
456.63240338245981
 21
535.84896229805668
 31
0.0
  0
LINE
  5
8EBE
  8
0
  6
CONTINUOUS
 10
451.23240938245988
 20
544.59895629805669
 30
0.0
 11
451.23240938245988
 21
539.29896829805671
 31
0.0
  0
LINE
  5
8EBF
  8
0
  6
CONTINUOUS
 10
455.13240338245981
 20
548.04896229805672
 30
0.0
 11
455.1324033824601
 21
535.84896229805668
 31
0.0
  0
LINE
  5
8EC0
  8
0
  6
CONTINUOUS
 10
455.1324033824601
 20
536.69896229805659
 30
0.0
 11
453.83220238246003
 21
536.69896229805659
 31
0.0
  0
LINE
  5
8EC1
  8
0
  6
CONTINUOUS
 10
455.13240338245981
 20
547.19896229805681
 30
0.0
 11
453.83220238246003
 21
547.19896229805681
 31
0.0
  0
LINE
  5
8EC2
  8
0
  6
CONTINUOUS
 10
471.07157338245969
 20
681.85762929805674
 30
0.0
 11
473.13240338245981
 21
681.85762929805674
 31
0.0
  0
LINE
  5
8EC3
  8
0
  6
CONTINUOUS
 10
276.76255038246001
 20
684.43642929805674
 30
0.0
 11
467.31333638245968
 21
684.43642929805674
 31
0.0
  0
LINE
  5
8EC4
  8
0
  6
CONTINUOUS
 10
276.58140938245998
 20
688.40161429805676
 30
0.0
 11
467.44271438245988
 21
688.40161429805676
 31
0.0
  0
LINE
  5
8EC5
  8
0
  6
CONTINUOUS
 10
276.4636183824602
 20
690.95434829805674
 30
0.0
 11
467.52856938246009
 21
690.95434829805674
 31
0.0
  0
LINE
  5
8EC6
  8
0
  6
CONTINUOUS
 10
268.6324033824601
 20
687.35762929805685
 30
0.0
 11
274.15122138246011
 21
687.35762929805685
 31
0.0
  0
LINE
  5
8EC7
  8
0
  6
CONTINUOUS
 10
291.39664838246011
 20
692.14412229805669
 30
0.0
 11
358.1324033824601
 21
692.14412229805669
 31
0.0
  0
LINE
  5
8EC8
  8
0
  6
CONTINUOUS
 10
437.1324023824601
 20
651.0176292980567
 30
0.0
 11
437.1324023824601
 21
645.67262929805645
 31
0.0
  0
LINE
  5
8EC9
  8
0
  6
CONTINUOUS
 10
421.08927938246012
 20
651.0176292980567
 30
0.0
 11
421.08927938246012
 21
645.67262929805645
 31
0.0
  0
LINE
  5
8ECA
  8
0
  6
CONTINUOUS
 10
437.1324023824601
 20
661.31368929805672
 30
0.0
 11
437.1324023824601
 21
653.71762929805675
 31
0.0
  0
LINE
  5
8ECB
  8
0
  6
CONTINUOUS
 10
437.1324023824601
 20
669.71041629805677
 30
0.0
 11
451.23240938245988
 21
669.71041629805677
 31
0.0
  0
LINE
  5
8ECC
  8
0
  6
CONTINUOUS
 10
272.1324033824601
 20
653.98181629805674
 30
0.0
 11
406.13240338245998
 21
653.98181629805674
 31
0.0
  0
LINE
  5
8ECD
  8
0
  6
CONTINUOUS
 10
405.45477638246018
 20
660.52275229805673
 30
0.0
 11
406.13240338245998
 21
660.52275229805673
 31
0.0
  0
LINE
  5
8ECE
  8
0
  6
CONTINUOUS
 10
277.13904238245999
 20
672.85833429805666
 30
0.0
 11
402.51946638246011
 21
672.85833429805666
 31
0.0
  0
LINE
  5
8ECF
  8
0
  6
CONTINUOUS
 10
272.1324033824601
 20
660.52275229805673
 30
0.0
 11
273.2857463824601
 21
660.52275229805673
 31
0.0
  0
LINE
  5
8ED0
  8
0
  6
CONTINUOUS
 10
277.04377838246012
 20
678.85900129805646
 30
0.0
 11
402.52142138245972
 21
678.85900129805646
 31
0.0
  0
LINE
  5
8ED1
  8
0
  6
CONTINUOUS
 10
473.13240338245981
 20
655.92356229805648
 30
0.0
 11
476.1324033824601
 21
654.19151129805675
 31
0.0
  0
ARC
  5
8ED2
  8
0
  6
CONTINUOUS
 10
455.63240338245993
 20
656.92356229805671
 30
0.0
 40
1.0
 50
270.0
 51
0.0
  0
ARC
  5
8ED3
  8
0
  6
CONTINUOUS
 10
458.6324033824601
 20
675.72127829805675
 30
0.0
 40
2.0
 50
90.0
 51
180.0
  0
ARC
  5
8ED4
  8
0
  6
CONTINUOUS
 10
458.6324033824601
 20
671.59727329805673
 30
0.0
 40
2.0
 50
180.0
 51
270.0
  0
ARC
  5
8ED5
  8
0
  6
CONTINUOUS
 10
458.6324033824601
 20
667.59727329805673
 30
0.0
 40
2.0
 50
90.0
 51
180.0
  0
LINE
  5
8ED6
  8
0
  6
CONTINUOUS
 10
458.6324033824601
 20
677.72127829805675
 30
0.0
 11
476.1324033824601
 21
677.72127829805675
 31
0.0
  0
LINE
  5
8ED7
  8
0
  6
CONTINUOUS
 10
456.63240338245981
 20
655.92356229805648
 30
0.0
 11
473.13240338245981
 21
655.92356229805648
 31
0.0
  0
LINE
  5
8ED8
  8
0
  6
CONTINUOUS
 10
458.6324033824601
 20
669.59727329805673
 30
0.0
 11
476.1324033824601
 21
669.59727329805673
 31
0.0
  0
LINE
  5
8ED9
  8
0
  6
CONTINUOUS
 10
456.63240338245981
 20
656.92356229805671
 30
0.0
 11
456.63240338245981
 21
675.72127829805675
 31
0.0
  0
LINE
  5
8EDA
  8
0
  6
CONTINUOUS
 10
272.1324033824601
 20
509.85762929805668
 30
0.0
 11
268.6324033824601
 21
509.85762929805668
 31
0.0
  0
LINE
  5
8EDB
  8
0
  6
CONTINUOUS
 10
272.1324033824601
 20
559.49884029805673
 30
0.0
 11
276.73977938245997
 21
553.06723429805675
 31
0.0
  0
LINE
  5
8EDC
  8
0
  6
CONTINUOUS
 10
276.73977938245997
 20
553.06723429805675
 30
0.0
 11
277.59557938246007
 21
555.69415429805645
 31
0.0
  0
LINE
  5
8EDD
  8
0
  6
CONTINUOUS
 10
272.1324033824601
 20
559.49884029805673
 30
0.0
 11
277.59557938246007
 21
555.69415429805645
 31
0.0
  0
LINE
  5
8EDE
  8
0
  6
CONTINUOUS
 10
277.59557938246007
 20
555.69415429805645
 30
0.0
 11
278.80750938246001
 21
555.13819429805665
 31
0.0
  0
LINE
  5
8EDF
  8
0
  6
CONTINUOUS
 10
268.6324033824601
 20
553.06723429805675
 30
0.0
 11
276.73977938245997
 21
553.06723429805675
 31
0.0
  0
LINE
  5
8EE0
  8
0
  6
CONTINUOUS
 10
268.6324033824601
 20
559.49884029805673
 30
0.0
 11
272.1324033824601
 21
559.49884029805673
 31
0.0
  0
LINE
  5
8EE1
  8
0
  6
CONTINUOUS
 10
272.1324033824601
 20
536.92545429805659
 30
0.0
 11
272.1324033824601
 21
533.7325602980568
 31
0.0
  0
LINE
  5
8EE2
  8
0
  6
CONTINUOUS
 10
273.89240338246009
 20
536.35702029805645
 30
0.0
 11
273.89240338246009
 21
534.35823829805645
 31
0.0
  0
LINE
  5
8EE3
  8
0
  6
CONTINUOUS
 10
288.8924033824602
 20
545.35762929805685
 30
0.0
 11
288.8924033824602
 21
543.35823829805645
 31
0.0
  0
LINE
  5
8EE4
  8
0
  6
CONTINUOUS
 10
287.13240338246021
 20
545.81917129805674
 30
0.0
 11
287.13240338246021
 21
542.75143629805655
 31
0.0
  0
LINE
  5
8EE5
  8
0
  6
CONTINUOUS
 10
287.13240338246021
 20
545.81917129805674
 30
0.0
 11
369.1324033824601
 21
545.81917129805674
 31
0.0
  0
LINE
  5
8EE6
  8
0
  6
CONTINUOUS
 10
287.13240338246021
 20
542.75143629805655
 30
0.0
 11
369.1324033824601
 21
542.75143629805655
 31
0.0
  0
LINE
  5
8EE7
  8
0
  6
CONTINUOUS
 10
272.1324033824601
 20
533.7325602980568
 30
0.0
 11
369.1324033824601
 21
533.7325602980568
 31
0.0
  0
LINE
  5
8EE8
  8
0
  6
CONTINUOUS
 10
272.1324033824601
 20
536.92545429805659
 30
0.0
 11
369.1324033824601
 21
536.92545429805659
 31
0.0
  0
LINE
  5
8EE9
  8
0
  6
CONTINUOUS
 10
273.89240338246009
 20
536.35702029805645
 30
0.0
 11
369.1324033824601
 21
536.35702029805645
 31
0.0
  0
LINE
  5
8EEA
  8
0
  6
CONTINUOUS
 10
273.89240338246009
 20
534.35823829805645
 30
0.0
 11
369.1324033824601
 21
534.35823829805645
 31
0.0
  0
LINE
  5
8EEB
  8
0
  6
CONTINUOUS
 10
273.89240338246009
 20
536.35702029805645
 30
0.0
 11
272.1324033824601
 21
536.92545429805659
 31
0.0
  0
LINE
  5
8EEC
  8
0
  6
CONTINUOUS
 10
273.89240338246009
 20
534.35823829805645
 30
0.0
 11
272.1324033824601
 21
533.7325602980568
 31
0.0
  0
LINE
  5
8EED
  8
0
  6
CONTINUOUS
 10
277.07566938246009
 20
543.09955029805656
 30
0.0
 11
278.25676038246007
 21
542.86214129805671
 31
0.0
  0
LINE
  5
8EEE
  8
0
  6
CONTINUOUS
 10
288.8924033824602
 20
545.35762929805685
 30
0.0
 11
369.1324033824601
 21
545.35762929805685
 31
0.0
  0
LINE
  5
8EEF
  8
0
  6
CONTINUOUS
 10
288.8924033824602
 20
543.35823829805645
 30
0.0
 11
369.1324033824601
 21
543.35823829805645
 31
0.0
  0
LINE
  5
8EF0
  8
0
  6
CONTINUOUS
 10
288.8924033824602
 20
545.35762929805685
 30
0.0
 11
287.13240338246021
 21
545.81917129805674
 31
0.0
  0
LINE
  5
8EF1
  8
0
  6
CONTINUOUS
 10
288.8924033824602
 20
543.35823829805645
 30
0.0
 11
287.13240338246021
 21
542.75143629805655
 31
0.0
  0
LINE
  5
8EF2
  8
0
  6
CONTINUOUS
 10
406.13240338245998
 20
545.81917129805674
 30
0.0
 11
369.1324033824601
 21
545.81917129805674
 31
0.0
  0
LINE
  5
8EF3
  8
0
  6
CONTINUOUS
 10
406.13240338245998
 20
542.75143629805655
 30
0.0
 11
369.1324033824601
 21
542.75143629805655
 31
0.0
  0
LINE
  5
8EF4
  8
0
  6
CONTINUOUS
 10
404.37240338245999
 20
545.35762929805685
 30
0.0
 11
369.1324033824601
 21
545.35762929805685
 31
0.0
  0
LINE
  5
8EF5
  8
0
  6
CONTINUOUS
 10
404.37240338245999
 20
543.35823829805645
 30
0.0
 11
369.1324033824601
 21
543.35823829805645
 31
0.0
  0
LINE
  5
8EF6
  8
0
  6
CONTINUOUS
 10
404.37240338245999
 20
543.35823829805645
 30
0.0
 11
406.13240338245998
 21
542.75143629805655
 31
0.0
  0
LINE
  5
8EF7
  8
0
  6
CONTINUOUS
 10
404.37240338245999
 20
545.35762929805685
 30
0.0
 11
406.13240338245998
 21
545.81917129805674
 31
0.0
  0
LINE
  5
8EF8
  8
0
  6
CONTINUOUS
 10
406.13240338245998
 20
545.81917129805674
 30
0.0
 11
406.13240338245998
 21
542.75143629805655
 31
0.0
  0
LINE
  5
8EF9
  8
0
  6
CONTINUOUS
 10
404.37240338245999
 20
545.35762929805685
 30
0.0
 11
404.37240338245999
 21
543.35823829805645
 31
0.0
  0
LINE
  5
8EFA
  8
0
  6
CONTINUOUS
 10
406.13240338245998
 20
536.92545429805659
 30
0.0
 11
369.1324033824601
 21
536.92545429805659
 31
0.0
  0
LINE
  5
8EFB
  8
0
  6
CONTINUOUS
 10
404.37240338245999
 20
536.35702029805645
 30
0.0
 11
369.1324033824601
 21
536.35702029805645
 31
0.0
  0
LINE
  5
8EFC
  8
0
  6
CONTINUOUS
 10
404.37240338245999
 20
534.35823829805645
 30
0.0
 11
369.1324033824601
 21
534.35823829805645
 31
0.0
  0
LINE
  5
8EFD
  8
0
  6
CONTINUOUS
 10
404.37240338245999
 20
534.35823829805645
 30
0.0
 11
406.13240338245998
 21
533.7325602980568
 31
0.0
  0
LINE
  5
8EFE
  8
0
  6
CONTINUOUS
 10
404.37240338245999
 20
536.35702029805645
 30
0.0
 11
406.13240338245998
 21
536.92545429805659
 31
0.0
  0
LINE
  5
8EFF
  8
0
  6
CONTINUOUS
 10
404.37240338245999
 20
536.35702029805645
 30
0.0
 11
404.37240338245999
 21
534.35823829805645
 31
0.0
  0
LINE
  5
8F00
  8
0
  6
CONTINUOUS
 10
406.13240338245998
 20
536.92545429805659
 30
0.0
 11
406.13240338245998
 21
533.7325602980568
 31
0.0
  0
LINE
  5
8F01
  8
0
  6
CONTINUOUS
 10
272.1324033824601
 20
533.7325602980568
 30
0.0
 11
273.72514538246008
 21
516.43337329805661
 31
0.0
  0
LINE
  5
8F02
  8
0
  6
CONTINUOUS
 10
272.1324033824601
 20
527.19250629805674
 30
0.0
 11
272.73454838246028
 21
527.19250629805674
 31
0.0
  0
LINE
  5
8F03
  8
0
  6
CONTINUOUS
 10
272.1324033824601
 20
520.0201542980567
 30
0.0
 11
272.81518038246008
 21
520.0201542980567
 31
0.0
  0
LINE
  5
8F04
  8
0
  6
CONTINUOUS
 10
272.1324033824601
 20
515.02766929805671
 30
0.0
 11
272.65691638246011
 21
515.02766929805671
 31
0.0
  0
LINE
  5
8F05
  8
0
  6
CONTINUOUS
 10
272.1324033824601
 20
511.80691329805671
 30
0.0
 11
272.49234538246009
 21
511.80691329805671
 31
0.0
  0
LINE
  5
8F06
  8
0
  6
CONTINUOUS
 10
272.08562638246019
 20
510.23733229805669
 30
0.0
 11
272.31601738246002
 21
510.23733229805669
 31
0.0
  0
LINE
  5
8F07
  8
0
  6
CONTINUOUS
 10
272.1324033824601
 20
527.19250629805674
 30
0.0
 11
273.72005538245998
 21
510.51473229805669
 31
0.0
  0
LINE
  5
8F08
  8
0
  6
CONTINUOUS
 10
272.1324033824601
 20
520.0201542980567
 30
0.0
 11
273.70423638246012
 21
505.0589432980567
 31
0.0
  0
LINE
  5
8F09
  8
0
  6
CONTINUOUS
 10
272.1324033824601
 20
515.02766929805671
 30
0.0
 11
273.69371438246009
 21
501.05707829805669
 31
0.0
  0
LINE
  5
8F0A
  8
0
  6
CONTINUOUS
 10
272.1324033824601
 20
511.80691329805671
 30
0.0
 11
273.68562238246011
 21
498.52958529805647
 31
0.0
  0
LINE
  5
8F0B
  8
0
  6
CONTINUOUS
 10
272.08562638246019
 20
510.23733229805669
 30
0.0
 11
273.67614238246011
 21
497.32659829805652
 31
0.0
  0
ARC
  5
8F0C
  8
0
  6
CONTINUOUS
 10
275.71672138246009
 20
516.61673829805659
 30
0.0
 40
2.0
 50
185.2604109999981
 51
270.0
  0
ARC
  5
8F0D
  8
0
  6
CONTINUOUS
 10
275.71105338246008
 20
510.70426729805672
 30
0.0
 40
2.0
 50
185.4379219999999
 51
270.0
  0
ARC
  5
8F0E
  8
0
  6
CONTINUOUS
 10
275.69328938246008
 20
505.26791429805672
 30
0.0
 40
2.0
 50
185.99752600000011
 51
270.0
  0
ARC
  5
8F0F
  8
0
  6
CONTINUOUS
 10
275.68134038246012
 20
501.27920929805668
 30
0.0
 40
2.0
 50
186.376742000001
 51
270.0
  0
ARC
  5
8F10
  8
0
  6
CONTINUOUS
 10
275.67207638246009
 20
498.76196629805668
 30
0.0
 40
2.0
 50
186.67229399999829
 51
270.0
  0
ARC
  5
8F11
  8
0
  6
CONTINUOUS
 10
275.66113638246009
 20
497.57113629805667
 30
0.0
 40
2.0
 50
187.02306899999661
 51
270.0
  0
LINE
  5
8F12
  8
0
  6
CONTINUOUS
 10
278.80750938246001
 20
555.13819429805665
 30
0.0
 11
278.80750938246001
 21
542.75143629805655
 31
0.0
  0
LINE
  5
8F13
  8
0
  6
CONTINUOUS
 10
276.73977938245997
 20
553.06723429805675
 30
0.0
 11
276.73977938245997
 21
543.16706729805685
 31
0.0
  0
LINE
  5
8F14
  8
0
  6
CONTINUOUS
 10
268.6324033824601
 20
542.75143629805655
 30
0.0
 11
278.80750938246001
 21
542.75143629805655
 31
0.0
  0
LINE
  5
8F15
  8
0
  6
CONTINUOUS
 10
268.6324033824601
 20
543.16706729805685
 30
0.0
 11
276.73977938245997
 21
543.16706729805685
 31
0.0
  0
LINE
  5
8F16
  8
0
  6
CONTINUOUS
 10
471.1324033824601
 20
609.03762929805646
 30
0.0
 11
469.37240338246011
 21
609.58762929805675
 31
0.0
  0
LINE
  5
8F17
  8
0
  6
CONTINUOUS
 10
471.1324033824601
 20
611.67762929805644
 30
0.0
 11
471.1324033824601
 21
609.03762929805646
 31
0.0
  0
LINE
  5
8F18
  8
0
  6
CONTINUOUS
 10
469.37240338246011
 20
611.18762929805644
 30
0.0
 11
471.1324033824601
 21
611.67762929805644
 31
0.0
  0
LINE
  5
8F19
  8
0
  6
CONTINUOUS
 10
469.37240338246011
 20
611.18762929805644
 30
0.0
 11
469.37240338246011
 21
609.58762929805675
 31
0.0
  0
LINE
  5
8F1A
  8
0
  6
CONTINUOUS
 10
471.1324033824601
 20
598.03762929805634
 30
0.0
 11
469.37240338246011
 21
598.58762929805675
 31
0.0
  0
LINE
  5
8F1B
  8
0
  6
CONTINUOUS
 10
471.1324033824601
 20
600.67762929805667
 30
0.0
 11
471.1324033824601
 21
598.03762929805634
 31
0.0
  0
LINE
  5
8F1C
  8
0
  6
CONTINUOUS
 10
469.37240338246011
 20
600.18762929805666
 30
0.0
 11
471.1324033824601
 21
600.67762929805667
 31
0.0
  0
LINE
  5
8F1D
  8
0
  6
CONTINUOUS
 10
469.37240338246011
 20
600.18762929805666
 30
0.0
 11
469.37240338246011
 21
598.58762929805675
 31
0.0
  0
LINE
  5
8F1E
  8
0
  6
CONTINUOUS
 10
471.1324033824601
 20
587.03762929805669
 30
0.0
 11
469.37240338246011
 21
587.58762929805675
 31
0.0
  0
LINE
  5
8F1F
  8
0
  6
CONTINUOUS
 10
471.1324033824601
 20
589.67762929805644
 30
0.0
 11
471.1324033824601
 21
587.03762929805669
 31
0.0
  0
LINE
  5
8F20
  8
0
  6
CONTINUOUS
 10
469.37240338246011
 20
589.18762929805644
 30
0.0
 11
471.1324033824601
 21
589.67762929805644
 31
0.0
  0
LINE
  5
8F21
  8
0
  6
CONTINUOUS
 10
469.37240338246011
 20
589.18762929805644
 30
0.0
 11
469.37240338246011
 21
587.58762929805675
 31
0.0
  0
LINE
  5
8F22
  8
0
  6
CONTINUOUS
 10
471.1324033824601
 20
576.03762929805646
 30
0.0
 11
469.37240338246011
 21
576.58762929805675
 31
0.0
  0
LINE
  5
8F23
  8
0
  6
CONTINUOUS
 10
471.1324033824601
 20
578.67762929805644
 30
0.0
 11
471.1324033824601
 21
576.03762929805646
 31
0.0
  0
LINE
  5
8F24
  8
0
  6
CONTINUOUS
 10
469.37240338246011
 20
578.18762929805644
 30
0.0
 11
471.1324033824601
 21
578.67762929805644
 31
0.0
  0
LINE
  5
8F25
  8
0
  6
CONTINUOUS
 10
469.37240338246011
 20
578.18762929805644
 30
0.0
 11
469.37240338246011
 21
576.58762929805675
 31
0.0
  0
LINE
  5
8F26
  8
0
  6
CONTINUOUS
 10
470.54407238246012
 20
507.34834929805669
 30
0.0
 11
469.51244338245988
 21
498.52958829805652
 31
0.0
  0
LINE
  5
8F27
  8
0
  6
CONTINUOUS
 10
469.4771863824601
 20
501.05678229805682
 30
0.0
 11
470.53214338245982
 21
510.48376929805659
 31
0.0
  0
LINE
  5
8F28
  8
0
  6
CONTINUOUS
 10
469.50425638246008
 20
505.05763829805647
 30
0.0
 11
470.60316838246013
 21
515.45181229805655
 31
0.0
  0
LINE
  5
8F29
  8
0
  6
CONTINUOUS
 10
470.65410938245981
 20
521.98843229805675
 30
0.0
 11
469.52882838246012
 21
510.50914829805669
 31
0.0
  0
LINE
  5
8F2A
  8
0
  6
CONTINUOUS
 10
470.69527638246012
 20
529.3981742980568
 30
0.0
 11
469.46255938245969
 21
516.42751329805674
 31
0.0
  0
LINE
  5
8F2B
  8
0
  6
CONTINUOUS
 10
470.60419538246009
 20
506.21202129805653
 30
0.0
 11
469.53216238245972
 21
497.33144329805668
 31
0.0
  0
LINE
  5
8F2C
  8
0
  6
CONTINUOUS
 10
469.37240338246011
 20
567.18762929805666
 30
0.0
 11
469.37240338246011
 21
565.58762929805675
 31
0.0
  0
LINE
  5
8F2D
  8
0
  6
CONTINUOUS
 10
469.37240338246011
 20
567.18762929805666
 30
0.0
 11
471.1324033824601
 21
567.67762929805667
 31
0.0
  0
LINE
  5
8F2E
  8
0
  6
CONTINUOUS
 10
471.1324033824601
 20
567.67762929805667
 30
0.0
 11
471.1324033824601
 21
565.03762929805634
 31
0.0
  0
LINE
  5
8F2F
  8
0
  6
CONTINUOUS
 10
471.1324033824601
 20
565.03762929805634
 30
0.0
 11
469.37240338246011
 21
565.58762929805675
 31
0.0
  0
LINE
  5
8F30
  8
0
  6
CONTINUOUS
 10
469.37240338246011
 20
622.18762929805644
 30
0.0
 11
469.37240338246011
 21
620.58762929805675
 31
0.0
  0
LINE
  5
8F31
  8
0
  6
CONTINUOUS
 10
469.37240338246011
 20
622.18762929805644
 30
0.0
 11
471.1324033824601
 21
622.67762929805667
 31
0.0
  0
LINE
  5
8F32
  8
0
  6
CONTINUOUS
 10
471.1324033824601
 20
622.67762929805667
 30
0.0
 11
471.1324033824601
 21
620.03762929805669
 31
0.0
  0
LINE
  5
8F33
  8
0
  6
CONTINUOUS
 10
471.1324033824601
 20
620.03762929805669
 30
0.0
 11
469.37240338246011
 21
620.58762929805675
 31
0.0
  0
LINE
  5
8F34
  8
0
  6
CONTINUOUS
 10
421.08927938246012
 20
620.03762929805669
 30
0.0
 11
421.08927938246012
 21
611.67762929805644
 31
0.0
  0
LINE
  5
8F35
  8
0
  6
CONTINUOUS
 10
437.1324023824601
 20
620.03762929805669
 30
0.0
 11
437.1324023824601
 21
611.67762929805644
 31
0.0
  0
LINE
  5
8F36
  8
0
  6
CONTINUOUS
 10
437.1324023824601
 20
609.03762929805646
 30
0.0
 11
437.1324023824601
 21
600.67762929805667
 31
0.0
  0
LINE
  5
8F37
  8
0
  6
CONTINUOUS
 10
421.08927938246012
 20
609.03762929805646
 30
0.0
 11
421.08927938246012
 21
600.67762929805667
 31
0.0
  0
LINE
  5
8F38
  8
0
  6
CONTINUOUS
 10
421.08927938246012
 20
598.03762929805634
 30
0.0
 11
421.08927938246012
 21
589.67762929805644
 31
0.0
  0
LINE
  5
8F39
  8
0
  6
CONTINUOUS
 10
437.1324023824601
 20
598.03762929805634
 30
0.0
 11
437.1324023824601
 21
589.67762929805644
 31
0.0
  0
LINE
  5
8F3A
  8
0
  6
CONTINUOUS
 10
437.1324023824601
 20
587.03762929805669
 30
0.0
 11
437.1324023824601
 21
578.67762929805644
 31
0.0
  0
LINE
  5
8F3B
  8
0
  6
CONTINUOUS
 10
421.08927938246012
 20
587.03762929805669
 30
0.0
 11
421.08927938246012
 21
578.67762929805644
 31
0.0
  0
LINE
  5
8F3C
  8
0
  6
CONTINUOUS
 10
421.08927938246012
 20
576.03762929805646
 30
0.0
 11
421.08927938246012
 21
567.67762929805667
 31
0.0
  0
LINE
  5
8F3D
  8
0
  6
CONTINUOUS
 10
437.1324023824601
 20
576.03762929805646
 30
0.0
 11
437.1324023824601
 21
567.67762929805667
 31
0.0
  0
LINE
  5
8F3E
  8
0
  6
CONTINUOUS
 10
437.1324023824601
 20
565.03762929805634
 30
0.0
 11
437.1324023824601
 21
549.24918329805678
 31
0.0
  0
LINE
  5
8F3F
  8
0
  6
CONTINUOUS
 10
421.08927938246012
 20
565.03762929805634
 30
0.0
 11
421.08927938246012
 21
533.7325602980568
 31
0.0
  0
LINE
  5
8F40
  8
0
  6
CONTINUOUS
 10
470.69527638246012
 20
529.3981742980568
 30
0.0
 11
437.1324023824601
 21
529.3981742980568
 31
0.0
  0
LINE
  5
8F41
  8
0
  6
CONTINUOUS
 10
470.65410938245981
 20
521.98843229805675
 30
0.0
 11
469.99106338245991
 21
521.98843229805675
 31
0.0
  0
ARC
  5
8F42
  8
0
  6
CONTINUOUS
 10
467.47153138245989
 20
516.61673829805659
 30
0.0
 40
2.0
 50
270.0
 51
354.57098099999791
  0
ARC
  5
8F43
  8
0
  6
CONTINUOUS
 10
467.53836938245968
 20
510.70426729805672
 30
0.0
 40
2.0
 50
270.0
 51
354.40134700000101
  0
ARC
  5
8F44
  8
0
  6
CONTINUOUS
 10
467.51534138246012
 20
505.26791429805672
 30
0.0
 40
2.0
 50
270.0
 51
353.96488600000038
  0
ARC
  5
8F45
  8
0
  6
CONTINUOUS
 10
467.4895933824601
 20
501.27920929805668
 30
0.0
 40
2.0
 50
270.0
 51
353.61470099999991
  0
ARC
  5
8F46
  8
0
  6
CONTINUOUS
 10
467.52598938246012
 20
498.76196629805668
 30
0.0
 40
2.0
 50
270.0
 51
353.32779999999809
  0
ARC
  5
8F47
  8
0
  6
CONTINUOUS
 10
467.54657838245981
 20
497.57113629805667
 30
0.0
 40
2.0
 50
270.0
 51
353.11676000000148
  0
LINE
  5
8F48
  8
0
  6
CONTINUOUS
 10
470.60316838246013
 20
515.45181229805655
 30
0.0
 11
470.01334338246011
 21
515.45181229805655
 31
0.0
  0
LINE
  5
8F49
  8
0
  6
CONTINUOUS
 10
470.53214338245982
 20
510.48376929805659
 30
0.0
 11
470.07792838246002
 21
510.48376929805659
 31
0.0
  0
LINE
  5
8F4A
  8
0
  6
CONTINUOUS
 10
470.54407238246012
 20
507.34834929805669
 30
0.0
 11
470.18126438246009
 21
507.34834929805669
 31
0.0
  0
LINE
  5
8F4B
  8
0
  6
CONTINUOUS
 10
470.60419538246009
 20
506.21202129805653
 30
0.0
 11
470.41114338246012
 21
506.21202129805653
 31
0.0
  0
LINE
  5
8F4C
  8
0
  6
CONTINUOUS
 10
473.13240338245981
 20
554.13492329805672
 30
0.0
 11
456.63240338245981
 21
554.13492329805672
 31
0.0
  0
LINE
  5
8F4D
  8
0
  6
CONTINUOUS
 10
476.1324033824601
 20
543.95563129805669
 30
0.0
 11
458.6324033824601
 21
543.95563129805669
 31
0.0
  0
LINE
  5
8F4E
  8
0
  6
CONTINUOUS
 10
476.1324033824601
 20
531.66835029805645
 30
0.0
 11
458.6324033824601
 21
531.66835029805645
 31
0.0
  0
LINE
  5
8F4F
  8
0
  6
CONTINUOUS
 10
456.63240338245981
 20
553.13492329805661
 30
0.0
 11
456.63240338245981
 21
533.66835029805679
 31
0.0
  0
LINE
  5
8F50
  8
0
  6
CONTINUOUS
 10
473.13240338245981
 20
554.13492329805672
 30
0.0
 11
476.1324033824601
 21
555.86697429805656
 31
0.0
  0
ARC
  5
8F51
  8
0
  6
CONTINUOUS
 10
458.6324033824601
 20
545.95563129805646
 30
0.0
 40
2.0
 50
180.0
 51
270.0
  0
ARC
  5
8F52
  8
0
  6
CONTINUOUS
 10
458.6324033824601
 20
533.66835029805679
 30
0.0
 40
2.0
 50
180.0
 51
270.0
  0
ARC
  5
8F53
  8
0
  6
CONTINUOUS
 10
458.6324033824601
 20
541.95563129805646
 30
0.0
 40
2.0
 50
90.0
 51
180.0
  0
LINE
  5
8F54
  8
0
  6
CONTINUOUS
 10
437.1324023824601
 20
537.83683329805672
 30
0.0
 11
437.1324023824601
 21
529.3981742980568
 31
0.0
  0
LINE
  5
8F55
  8
0
  6
CONTINUOUS
 10
421.08927938246012
 20
533.7325602980568
 30
0.0
 11
437.1324023824601
 21
529.3981742980568
 31
0.0
  0
ARC
  5
8F56
  8
0
  6
CONTINUOUS
 10
455.63240338245993
 20
553.13492329805661
 30
0.0
 40
1.0
 50
0.0
 51
90.0
  0
LINE
  5
8F57
  8
0
  6
CONTINUOUS
 10
421.08927938246012
 20
533.7325602980568
 30
0.0
 11
369.1324033824601
 21
533.7325602980568
 31
0.0
  0
LINE
  5
8F58
  8
0
  6
CONTINUOUS
 10
467.54657838245981
 20
495.57113629805667
 30
0.0
 11
275.66113638246009
 21
495.57113629805667
 31
0.0
  0
LINE
  5
8F59
  8
0
  6
CONTINUOUS
 10
467.52598938246012
 20
496.76196629805668
 30
0.0
 11
275.67207638246009
 21
496.76196629805668
 31
0.0
  0
LINE
  5
8F5A
  8
0
  6
CONTINUOUS
 10
467.4895933824601
 20
499.27920929805668
 30
0.0
 11
275.68134038246012
 21
499.27920929805668
 31
0.0
  0
LINE
  5
8F5B
  8
0
  6
CONTINUOUS
 10
467.51534138246012
 20
503.26791429805672
 30
0.0
 11
275.69328938246008
 21
503.26791429805672
 31
0.0
  0
LINE
  5
8F5C
  8
0
  6
CONTINUOUS
 10
467.53836938245968
 20
508.70426729805672
 30
0.0
 11
275.71105338246008
 21
508.70426729805672
 31
0.0
  0
LINE
  5
8F5D
  8
0
  6
CONTINUOUS
 10
467.47153138245989
 20
514.6167382980567
 30
0.0
 11
275.71672138246009
 21
514.6167382980567
 31
0.0
  0
LINE
  5
8F5E
  8
0
  6
CONTINUOUS
 10
421.08927938246012
 20
667.69510429805644
 30
0.0
 11
421.08927938246012
 21
653.71762929805675
 31
0.0
  0
LINE
  5
8F5F
  8
0
  6
CONTINUOUS
 10
437.1324023824601
 20
672.29496629805669
 30
0.0
 11
437.1324023824601
 21
669.71041629805677
 31
0.0
  0
LINE
  5
8F60
  8
0
  6
CONTINUOUS
 10
414.02649938245997
 20
622.67762929805667
 30
0.0
 11
471.1324033824601
 21
622.67762929805667
 31
0.0
  0
LINE
  5
8F61
  8
0
  6
CONTINUOUS
 10
414.02649938245997
 20
622.18762929805644
 30
0.0
 11
469.37240338246011
 21
622.18762929805644
 31
0.0
  0
LINE
  5
8F62
  8
0
  6
CONTINUOUS
 10
414.02649938245997
 20
620.58762929805675
 30
0.0
 11
469.37240338246011
 21
620.58762929805675
 31
0.0
  0
LINE
  5
8F63
  8
0
  6
CONTINUOUS
 10
414.02649938245997
 20
620.03762929805669
 30
0.0
 11
471.1324033824601
 21
620.03762929805669
 31
0.0
  0
LINE
  5
8F64
  8
0
  6
CONTINUOUS
 10
414.02649938245997
 20
567.67762929805667
 30
0.0
 11
471.1324033824601
 21
567.67762929805667
 31
0.0
  0
LINE
  5
8F65
  8
0
  6
CONTINUOUS
 10
414.02649938245997
 20
567.18762929805666
 30
0.0
 11
469.37240338246011
 21
567.18762929805666
 31
0.0
  0
LINE
  5
8F66
  8
0
  6
CONTINUOUS
 10
414.02649938245997
 20
565.58762929805675
 30
0.0
 11
469.37240338246011
 21
565.58762929805675
 31
0.0
  0
LINE
  5
8F67
  8
0
  6
CONTINUOUS
 10
414.02649938245997
 20
565.03762929805634
 30
0.0
 11
471.1324033824601
 21
565.03762929805634
 31
0.0
  0
LINE
  5
8F68
  8
0
  6
CONTINUOUS
 10
414.02649938245997
 20
598.03762929805634
 30
0.0
 11
471.1324033824601
 21
598.03762929805634
 31
0.0
  0
LINE
  5
8F69
  8
0
  6
CONTINUOUS
 10
414.02649938245997
 20
598.58762929805675
 30
0.0
 11
469.37240338246011
 21
598.58762929805675
 31
0.0
  0
LINE
  5
8F6A
  8
0
  6
CONTINUOUS
 10
414.02649938245997
 20
578.67762929805644
 30
0.0
 11
471.1324033824601
 21
578.67762929805644
 31
0.0
  0
LINE
  5
8F6B
  8
0
  6
CONTINUOUS
 10
414.02649938245997
 20
578.18762929805644
 30
0.0
 11
469.37240338246011
 21
578.18762929805644
 31
0.0
  0
LINE
  5
8F6C
  8
0
  6
CONTINUOUS
 10
414.02649938245997
 20
576.58762929805675
 30
0.0
 11
469.37240338246011
 21
576.58762929805675
 31
0.0
  0
LINE
  5
8F6D
  8
0
  6
CONTINUOUS
 10
414.02649938245997
 20
576.03762929805646
 30
0.0
 11
471.1324033824601
 21
576.03762929805646
 31
0.0
  0
LINE
  5
8F6E
  8
0
  6
CONTINUOUS
 10
414.02649938245997
 20
589.67762929805644
 30
0.0
 11
471.1324033824601
 21
589.67762929805644
 31
0.0
  0
LINE
  5
8F6F
  8
0
  6
CONTINUOUS
 10
414.02649938245997
 20
589.18762929805644
 30
0.0
 11
469.37240338246011
 21
589.18762929805644
 31
0.0
  0
LINE
  5
8F70
  8
0
  6
CONTINUOUS
 10
414.02649938245997
 20
587.58762929805675
 30
0.0
 11
469.37240338246011
 21
587.58762929805675
 31
0.0
  0
LINE
  5
8F71
  8
0
  6
CONTINUOUS
 10
414.02649938245997
 20
587.03762929805669
 30
0.0
 11
471.1324033824601
 21
587.03762929805669
 31
0.0
  0
LINE
  5
8F72
  8
0
  6
CONTINUOUS
 10
414.02649938245997
 20
611.67762929805644
 30
0.0
 11
471.1324033824601
 21
611.67762929805644
 31
0.0
  0
LINE
  5
8F73
  8
0
  6
CONTINUOUS
 10
414.02649938245997
 20
611.18762929805644
 30
0.0
 11
469.37240338246011
 21
611.18762929805644
 31
0.0
  0
LINE
  5
8F74
  8
0
  6
CONTINUOUS
 10
414.02649938245997
 20
609.58762929805675
 30
0.0
 11
469.37240338246011
 21
609.58762929805675
 31
0.0
  0
LINE
  5
8F75
  8
0
  6
CONTINUOUS
 10
414.02649938245997
 20
609.03762929805646
 30
0.0
 11
471.1324033824601
 21
609.03762929805646
 31
0.0
  0
LINE
  5
8F76
  8
0
  6
CONTINUOUS
 10
414.02649938245997
 20
600.67762929805667
 30
0.0
 11
471.1324033824601
 21
600.67762929805667
 31
0.0
  0
LINE
  5
8F77
  8
0
  6
CONTINUOUS
 10
414.02649938245997
 20
600.18762929805666
 30
0.0
 11
469.37240338246011
 21
600.18762929805666
 31
0.0
  0
LINE
  5
8F78
  8
0
  6
CONTINUOUS
 10
473.13240338245981
 20
505.85762929805668
 30
0.0
 11
473.13240338245981
 21
531.66835029805645
 31
0.0
  0
LINE
  5
8F79
  8
0
  6
CONTINUOUS
 10
470.56141438245987
 20
505.85762929805668
 30
0.0
 11
473.13240338245981
 21
505.85762929805668
 31
0.0
  0
LINE
  5
8F7A
  8
0
  6
CONTINUOUS
 10
471.1324033824601
 20
653.71762929805675
 30
0.0
 11
469.37240338246011
 21
653.15762929805669
 31
0.0
  0
LINE
  5
8F7B
  8
0
  6
CONTINUOUS
 10
469.37240338246011
 20
651.55762929805667
 30
0.0
 11
471.1324033824601
 21
651.0176292980567
 31
0.0
  0
LINE
  5
8F7C
  8
0
  6
CONTINUOUS
 10
471.1324033824601
 20
651.0176292980567
 30
0.0
 11
471.1324033824601
 21
653.71762929805675
 31
0.0
  0
LINE
  5
8F7D
  8
0
  6
CONTINUOUS
 10
469.37240338246011
 20
651.55762929805667
 30
0.0
 11
469.37240338246011
 21
653.15762929805669
 31
0.0
  0
LINE
  5
8F7E
  8
0
  6
CONTINUOUS
 10
471.1324033824601
 20
645.67262929805645
 30
0.0
 11
469.37240338246011
 21
645.13262929805671
 31
0.0
  0
LINE
  5
8F7F
  8
0
  6
CONTINUOUS
 10
469.37240338246011
 20
643.53262929805646
 30
0.0
 11
471.1324033824601
 21
643.04262929805645
 31
0.0
  0
LINE
  5
8F80
  8
0
  6
CONTINUOUS
 10
469.37240338246011
 20
643.53262929805646
 30
0.0
 11
469.37240338246011
 21
645.13262929805671
 31
0.0
  0
LINE
  5
8F81
  8
0
  6
CONTINUOUS
 10
471.1324033824601
 20
643.04262929805645
 30
0.0
 11
471.1324033824601
 21
645.67262929805645
 31
0.0
  0
LINE
  5
8F82
  8
0
  6
CONTINUOUS
 10
406.13240338245998
 20
653.98181629805674
 30
0.0
 11
404.51049438246002
 21
671.04755929805674
 31
0.0
  0
LINE
  5
8F83
  8
0
  6
CONTINUOUS
 10
406.13240338245998
 20
660.52275229805673
 30
0.0
 11
404.51188038245999
 21
677.05412029805677
 31
0.0
  0
LINE
  5
8F84
  8
0
  6
CONTINUOUS
 10
273.3970823824601
 20
667.69510429805644
 30
0.0
 11
272.1324033824601
 21
667.69510429805644
 31
0.0
  0
LINE
  5
8F85
  8
0
  6
CONTINUOUS
 10
272.1324033824601
 20
653.71762929805675
 30
0.0
 11
273.89240338246009
 21
653.15762929805669
 31
0.0
  0
LINE
  5
8F86
  8
0
  6
CONTINUOUS
 10
273.89240338246009
 20
651.55762929805667
 30
0.0
 11
272.1324033824601
 21
651.0176292980567
 31
0.0
  0
LINE
  5
8F87
  8
0
  6
CONTINUOUS
 10
272.1324033824601
 20
645.67262929805645
 30
0.0
 11
273.89240338246009
 21
645.13262929805671
 31
0.0
  0
LINE
  5
8F88
  8
0
  6
CONTINUOUS
 10
273.89240338246009
 20
643.53262929805646
 30
0.0
 11
272.1324033824601
 21
643.04262929805645
 31
0.0
  0
LINE
  5
8F89
  8
0
  6
CONTINUOUS
 10
272.1324033824601
 20
651.0176292980567
 30
0.0
 11
272.1324033824601
 21
653.71762929805675
 31
0.0
  0
LINE
  5
8F8A
  8
0
  6
CONTINUOUS
 10
273.89240338246009
 20
651.55762929805667
 30
0.0
 11
273.89240338246009
 21
653.15762929805669
 31
0.0
  0
LINE
  5
8F8B
  8
0
  6
CONTINUOUS
 10
273.89240338246009
 20
643.53262929805646
 30
0.0
 11
273.89240338246009
 21
645.13262929805671
 31
0.0
  0
LINE
  5
8F8C
  8
0
  6
CONTINUOUS
 10
272.1324033824601
 20
643.04262929805645
 30
0.0
 11
272.1324033824601
 21
645.67262929805645
 31
0.0
  0
LINE
  5
8F8D
  8
0
  6
CONTINUOUS
 10
272.1324033824601
 20
632.5770642980566
 30
0.0
 11
325.30125238246012
 21
632.5770642980566
 31
0.0
  0
LINE
  5
8F8E
  8
0
  6
CONTINUOUS
 10
280.5024033824601
 20
631.72529129805673
 30
0.0
 11
324.62128938246008
 21
631.72529129805673
 31
0.0
  0
LINE
  5
8F8F
  8
0
  6
CONTINUOUS
 10
272.1324033824601
 20
632.5770642980566
 30
0.0
 11
280.5024033824601
 21
631.72529129805673
 31
0.0
  0
LINE
  5
8F90
  8
0
  6
CONTINUOUS
 10
278.80750938246001
 20
555.13819429805665
 30
0.0
 11
325.30124938246013
 21
555.13819429805665
 31
0.0
  0
LINE
  5
8F91
  8
0
  6
CONTINUOUS
 10
280.5024033824601
 20
555.98996729805674
 30
0.0
 11
324.62128638246008
 21
555.98996729805674
 31
0.0
  0
LINE
  5
8F92
  8
0
  6
CONTINUOUS
 10
272.1324033824601
 20
559.49884029805673
 30
0.0
 11
272.1324033824601
 21
632.5770642980566
 31
0.0
  0
LINE
  5
8F93
  8
0
  6
CONTINUOUS
 10
277.59557938246007
 20
555.69415429805645
 30
0.0
 11
280.5024033824601
 21
555.98996729805674
 31
0.0
  0
LINE
  5
8F94
  8
0
  6
CONTINUOUS
 10
280.5024033824601
 20
555.98996729805674
 30
0.0
 11
280.5024033824601
 21
631.72529129805673
 31
0.0
  0
LINE
  5
8F95
  8
0
  6
CONTINUOUS
 10
268.6324033824601
 20
677.47792629805645
 30
0.0
 11
272.40916238246012
 21
677.47792629805645
 31
0.0
  0
LINE
  5
8F96
  8
0
  6
CONTINUOUS
 10
358.1324033824601
 20
694.85762929805685
 30
0.0
 11
380.1324033824601
 21
694.85762929805685
 31
0.0
  0
LINE
  5
8F97
  8
0
  6
CONTINUOUS
 10
358.1324033824601
 20
694.85762929805685
 30
0.0
 11
358.1324033824601
 21
690.95434829805674
 31
0.0
  0
LINE
  5
8F98
  8
0
  6
CONTINUOUS
 10
380.1324033824601
 20
694.85762929805685
 30
0.0
 11
380.1324033824601
 21
690.95434829805674
 31
0.0
  0
LINE
  5
8F99
  8
0
  6
CONTINUOUS
 10
273.89240338246009
 20
651.55762929805667
 30
0.0
 11
469.37240338246011
 21
651.55762929805667
 31
0.0
  0
LINE
  5
8F9A
  8
0
  6
CONTINUOUS
 10
273.89240338246009
 20
653.15762929805669
 30
0.0
 11
469.37240338246011
 21
653.15762929805669
 31
0.0
  0
LINE
  5
8F9B
  8
0
  6
CONTINUOUS
 10
272.1324033824601
 20
651.0176292980567
 30
0.0
 11
471.1324033824601
 21
651.0176292980567
 31
0.0
  0
LINE
  5
8F9C
  8
0
  6
CONTINUOUS
 10
272.1324033824601
 20
653.71762929805675
 30
0.0
 11
471.1324033824601
 21
653.71762929805675
 31
0.0
  0
LINE
  5
8F9D
  8
0
  6
CONTINUOUS
 10
272.1324033824601
 20
643.04262929805645
 30
0.0
 11
471.1324033824601
 21
643.04262929805645
 31
0.0
  0
LINE
  5
8F9E
  8
0
  6
CONTINUOUS
 10
272.1324033824601
 20
645.67262929805645
 30
0.0
 11
471.1324033824601
 21
645.67262929805645
 31
0.0
  0
LINE
  5
8F9F
  8
0
  6
CONTINUOUS
 10
273.89240338246009
 20
643.53262929805646
 30
0.0
 11
469.37240338246011
 21
643.53262929805646
 31
0.0
  0
LINE
  5
8FA0
  8
0
  6
CONTINUOUS
 10
273.89240338246009
 20
645.13262929805671
 30
0.0
 11
469.37240338246011
 21
645.13262929805671
 31
0.0
  0
LINE
  5
8FA1
  8
0
  6
CONTINUOUS
 10
476.1324033824601
 20
508.85762929805668
 30
0.0
 11
473.13240338245981
 21
505.85762929805668
 31
0.0
  0
LINE
  5
8FA2
  8
0
  6
CONTINUOUS
 10
476.1324033824601
 20
508.85762929805668
 30
0.0
 11
476.1324033824601
 21
678.85762929805674
 31
0.0
  0
LINE
  5
8FA3
  8
0
  6
CONTINUOUS
 10
476.1324033824601
 20
678.85762929805674
 30
0.0
 11
473.13240338245981
 21
681.85762929805674
 31
0.0
  0
LINE
  5
926A
  8
0
  6
CONTINUOUS
 10
197.6324033824601
 20
492.65762929805652
 30
0.0
 11
268.6324033824601
 21
492.65762929805652
 31
0.0
  0
LINE
  5
9843
  8
0
  6
AM_ISO08W050
 10
172.60736978700569
 20
1049.9484711688031
 30
0.0
 11
802.35078338246001
 21
1049.9484711688031
 31
0.0
  0
LINE
  5
984A
  8
0
  6
CONTINUOUS
 10
475.63245338246111
 20
976.44847116880317
 30
0.0
 11
475.63245338246111
 21
1123.4484711688031
 31
0.0
  0
LINE
  5
984B
  8
0
  6
CONTINUOUS
 10
691.63246338246017
 20
1079.9484711688031
 30
0.0
 11
697.63240338246021
 21
1079.9484711688031
 31
0.0
  0
LINE
  5
984C
  8
0
  6
CONTINUOUS
 10
691.63246338246017
 20
1019.9484711688031
 30
0.0
 11
697.63240338246021
 21
1019.9484711688031
 31
0.0
  0
LINE
  5
984D
  8
0
  6
CONTINUOUS
 10
717.6324033824601
 20
1057.9484711688031
 30
0.0
 11
717.6324033824601
 21
1041.948411168803
 31
0.0
  0
LINE
  5
984E
  8
0
  6
CONTINUOUS
 10
697.63240338246021
 20
1022.4484711688031
 30
0.0
 11
779.63240338246021
 21
1022.4484711688031
 31
0.0
  0
LINE
  5
984F
  8
0
  6
CONTINUOUS
 10
779.63240338246021
 20
1077.4484711688031
 30
0.0
 11
779.63240338246021
 21
1022.4484711688031
 31
0.0
  0
LINE
  5
9850
  8
0
  6
CONTINUOUS
 10
697.63240338246021
 20
1079.9484711688031
 30
0.0
 11
697.63240338246021
 21
1019.9484711688031
 31
0.0
  0
LINE
  5
9851
  8
0
  6
CONTINUOUS
 10
697.63240338246021
 20
1077.4484711688031
 30
0.0
 11
779.63240338246021
 21
1077.4484711688031
 31
0.0
  0
LINE
  5
9852
  8
0
  6
CONTINUOUS
 10
626.63246338245995
 20
1207.0818911688029
 30
0.0
 11
626.63246338245995
 21
1178.5367211688031
 31
0.0
  0
LINE
  5
9853
  8
0
  6
CONTINUOUS
 10
544.63246338246029
 20
1182.948411168803
 30
0.0
 11
569.63246338246029
 21
1182.075421168804
 31
0.0
  0
LINE
  5
9854
  8
0
  6
CONTINUOUS
 10
569.63246338246029
 20
1182.075421168804
 30
0.0
 11
573.77717338245998
 21
1177.9307111688031
 31
0.0
  0
LINE
  5
9855
  8
0
  6
CONTINUOUS
 10
573.77717338245998
 20
1177.930641168803
 30
0.0
 11
623.47242338245962
 21
1176.1952911688029
 31
0.0
  0
LINE
  5
9856
  8
0
  6
CONTINUOUS
 10
638.21363338245999
 20
1166.5439911688029
 30
0.0
 11
651.91169338246004
 21
1166.065651168803
 31
0.0
  0
LINE
  5
9857
  8
0
  6
CONTINUOUS
 10
549.63246338246029
 20
1200.0070011688031
 30
0.0
 11
549.63246338246029
 21
1182.773851168803
 31
0.0
  0
LINE
  5
9858
  8
0
  6
CONTINUOUS
 10
667.35328338246006
 20
1149.6788111688029
 30
0.0
 11
678.91163338245985
 21
1149.2751911688031
 31
0.0
  0
LINE
  5
9859
  8
0
  6
CENTER
 10
644.49214338246009
 20
1182.4484711688031
 30
0.0
 11
678.65718338245961
 21
1182.4484711688031
 31
0.0
  0
LINE
  5
985A
  8
0
  6
CONTINUOUS
 10
544.63246338246029
 20
1182.9484711688031
 30
0.0
 11
544.63246338246029
 21
1054.9484711688031
 31
0.0
  0
LINE
  5
985B
  8
0
  6
CONTINUOUS
 10
691.63246338246017
 20
1205.161241168802
 30
0.0
 11
691.63246338246017
 21
1154.7356411688031
 31
0.0
  0
LINE
  5
985C
  8
0
  6
CONTINUOUS
 10
688.56263338246015
 20
1110.055641168803
 30
0.0
 11
689.70228338246022
 21
1110.015851168803
 31
0.0
  0
LINE
  5
985D
  8
0
  6
CONTINUOUS
 10
461.63246338246017
 20
1207.0469811688031
 30
0.0
 11
461.63246338246017
 21
1164.660751168803
 31
0.0
  0
LINE
  5
985E
  8
0
  6
CONTINUOUS
 10
691.63246338246017
 20
1108.0170711688031
 30
0.0
 11
691.63246338246017
 21
991.87986116880325
 31
0.0
  0
LINE
  5
985F
  8
0
  6
CONTINUOUS
 10
686.63246338246029
 20
1147.319441168803
 30
0.0
 11
686.63246338246029
 21
952.57750116880334
 31
0.0
  0
LINE
  5
9860
  8
0
  6
CONTINUOUS
 10
465.76423338246002
 20
1159.736671168803
 30
0.0
 11
494.13239338246109
 21
1154.7346069261121
 31
0.0
  0
LINE
  5
9861
  8
0
  6
CONTINUOUS
 10
549.63246338246029
 20
1214.9484711688031
 30
0.0
 11
686.80696338246025
 21
1210.158181168802
 31
0.0
  0
LINE
  5
9862
  8
0
  6
CONTINUOUS
 10
549.63246338246029
 20
1214.9484711688031
 30
0.0
 11
466.45790338245968
 21
1212.0439311688031
 31
0.0
  0
LINE
  5
9863
  8
0
  6
CENTER
 10
475.42787338246018
 20
1182.4484711688031
 30
0.0
 11
508.70033338246009
 21
1182.4484711688031
 31
0.0
  0
LINE
  5
9864
  8
0
  6
CENTER
 10
491.63246338246017
 20
1199.105941168802
 30
0.0
 11
491.63246338246017
 21
1165.2967911688031
 31
0.0
  0
LINE
  5
9865
  8
0
  6
CENTER
 10
661.63246338246029
 20
1198.080181168802
 30
0.0
 11
661.63246338246029
 21
1164.5903111688031
 31
0.0
  0
LINE
  5
9866
  8
0
  6
CONTINUOUS
 10
520.63246338246017
 20
1201.775131168803
 30
0.0
 11
547.63252338246014
 21
1192.228741168803
 31
0.0
  0
LINE
  5
9867
  8
0
  6
CONTINUOUS
 10
517.16871338245971
 20
1213.606491168804
 30
0.0
 11
547.63246338245983
 21
1202.8354311688031
 31
0.0
  0
LINE
  5
9868
  8
0
  6
CENTER
 10
661.63246338246029
 20
899.71299116880323
 30
0.0
 11
661.63246338246029
 21
933.38292116880348
 31
0.0
  0
LINE
  5
9869
  8
0
  6
CENTER
 10
491.63246338246017
 20
899.99095116880324
 30
0.0
 11
491.63246338246017
 21
933.69603116880342
 31
0.0
  0
LINE
  5
986A
  8
0
  6
CENTER
 10
475.50312338246027
 20
917.44847116880317
 30
0.0
 11
508.3739133824605
 21
917.44847116880317
 31
0.0
  0
LINE
  5
986B
  8
0
  6
CONTINUOUS
 10
549.63246338246029
 20
884.94847116880351
 30
0.0
 11
466.4579633824597
 21
887.85301116880294
 31
0.0
  0
LINE
  5
986C
  8
0
  6
CONTINUOUS
 10
549.63240338246044
 20
884.94841116880355
 30
0.0
 11
686.80696338246025
 21
889.7386911688036
 31
0.0
  0
LINE
  5
986D
  8
0
  6
CONTINUOUS
 10
465.76417338246011
 20
940.16020116880316
 30
0.0
 11
494.13239338246109
 21
945.16227599109607
 31
0.0
  0
LINE
  5
986E
  8
0
  6
CONTINUOUS
 10
461.63246338246017
 20
892.84996116880325
 30
0.0
 11
461.63246338246017
 21
935.23619116880309
 31
0.0
  0
LINE
  5
986F
  8
0
  6
CONTINUOUS
 10
688.56263338246015
 20
989.84129116880331
 30
0.0
 11
689.70228338246022
 21
989.88108116880346
 31
0.0
  0
LINE
  5
9870
  8
0
  6
CONTINUOUS
 10
691.63246338246017
 20
894.73564116880323
 30
0.0
 11
691.63246338246017
 21
945.16124116880349
 31
0.0
  0
LINE
  5
9871
  8
0
  6
CENTER
 10
644.67860338246044
 20
917.44847116880317
 30
0.0
 11
679.00441338246026
 21
917.44847116880317
 31
0.0
  0
LINE
  5
9872
  8
0
  6
CONTINUOUS
 10
659.63246338245995
 20
941.82634116880286
 30
0.0
 11
659.63246338245995
 21
1158.0705411688029
 31
0.0
  0
LINE
  5
9873
  8
0
  6
CONTINUOUS
 10
667.35328338246006
 20
950.21806116880293
 30
0.0
 11
678.91163338245985
 21
950.62168116880343
 31
0.0
  0
LINE
  5
9874
  8
0
  6
CONTINUOUS
 10
638.21363338245999
 20
933.35289116880324
 30
0.0
 11
651.91163338246008
 21
933.83122116880315
 31
0.0
  0
LINE
  5
9875
  8
0
  6
CONTINUOUS
 10
573.77717338245998
 20
921.96623116880335
 30
0.0
 11
623.47242338245962
 21
923.70158116880327
 31
0.0
  0
LINE
  5
9876
  8
0
  6
CONTINUOUS
 10
569.63246338246029
 20
917.82145116880315
 30
0.0
 11
573.77717338245998
 21
921.96623116880335
 31
0.0
  0
LINE
  5
9877
  8
0
  6
CONTINUOUS
 10
544.63240338246044
 20
916.94847116880328
 30
0.0
 11
569.63240338246044
 21
917.82145116880315
 31
0.0
  0
LINE
  5
9878
  8
0
  6
CONTINUOUS
 10
517.16871338245971
 20
886.2904511688032
 30
0.0
 11
547.63246338245983
 21
897.06150116880337
 31
0.0
  0
LINE
  5
9879
  8
0
  6
CONTINUOUS
 10
520.63246338246017
 20
898.1217511688036
 30
0.0
 11
547.63252338246014
 21
907.6681311688036
 31
0.0
  0
LINE
  5
987A
  8
0
  6
CONTINUOUS
 10
549.63246338246029
 20
899.88987116880355
 30
0.0
 11
549.63246338246029
 21
917.12303116880344
 31
0.0
  0
LINE
  5
987B
  8
0
  6
CONTINUOUS
 10
626.63246338245995
 20
892.81498116880346
 30
0.0
 11
626.63246338245995
 21
921.3602111688034
 31
0.0
  0
LINE
  5
987C
  8
0
  6
CONTINUOUS
 10
569.63240338246044
 20
917.82145116880315
 30
0.0
 11
569.63240338246044
 21
1182.075421168804
 31
0.0
  0
LINE
  5
987D
  8
0
  6
CONTINUOUS
 10
717.63246338246006
 20
1041.948411168803
 30
0.0
 11
779.63240338246021
 21
1041.948411168803
 31
0.0
  0
LINE
  5
987E
  8
0
  6
CONTINUOUS
 10
717.63246338246006
 20
1057.9484711688031
 30
0.0
 11
779.63240338246021
 21
1057.9484711688031
 31
0.0
  0
LINE
  5
9889
  8
0
  6
CONTINUOUS
 10
544.63246338246029
 20
1044.9484711688031
 30
0.0
 11
544.63246338246029
 21
916.94847116880328
 31
0.0
  0
ARC
  5
988C
  8
0
  6
CONTINUOUS
 10
651.63246338245995
 20
1158.0705411688029
 30
0.0
 40
8.0
 50
0.0
 51
87.999999999996447
  0
ARC
  5
988D
  8
0
  6
CONTINUOUS
 10
667.63246338245995
 20
1157.6739311688029
 30
0.0
 40
8.0
 50
180.00001000000091
 51
267.99999999999648
  0
ARC
  5
988E
  8
0
  6
CONTINUOUS
 10
519.63246338246029
 20
1198.946701168803
 30
0.0
 40
3.0
 50
70.527973000001808
 51
180.00001000000091
  0
ARC
  5
988F
  8
0
  6
CONTINUOUS
 10
678.63246338246029
 20
1141.280071168803
 30
0.0
 40
8.0
 50
0.0
 51
87.999999999996447
  0
ARC
  5
9890
  8
0
  6
CONTINUOUS
 10
631.63246338246029
 20
1207.0818911688029
 30
0.0
 40
5.0
 50
87.999999999996447
 51
180.00001000000091
  0
CIRCLE
  5
9891
  8
0
  6
CONTINUOUS
 10
491.63246338246017
 20
1182.4484711688031
 30
0.0
 40
9.5
  0
ARC
  5
9892
  8
0
  6
CONTINUOUS
 10
689.63246338246006
 20
1108.0170711688031
 30
0.0
 40
2.0
 50
0.0
 51
87.999999999996447
  0
ARC
  5
9893
  8
0
  6
CONTINUOUS
 10
688.63246338246006
 20
1112.0544211688041
 30
0.0
 40
2.0
 50
180.00001000000091
 51
267.99999999999648
  0
ARC
  5
9894
  8
0
  6
CONTINUOUS
 10
466.63246338246017
 20
1207.0469811688031
 30
0.0
 40
5.0
 50
91.999997999994306
 51
180.00001000000091
  0
ARC
  5
9895
  8
0
  6
CONTINUOUS
 10
686.63246338246029
 20
1205.161241168802
 30
0.0
 40
5.0
 50
0.0
 51
87.999999999996447
  0
ARC
  5
9896
  8
0
  6
CONTINUOUS
 10
686.63246338246029
 20
1154.7356411688031
 30
0.0
 40
5.0
 50
292.02430999999319
 51
0.0
  0
ARC
  5
9897
  8
0
  6
CONTINUOUS
 10
466.63246338246017
 20
1164.660751168803
 30
0.0
 40
5.0
 50
180.00001000000091
 51
259.99998999999769
  0
CIRCLE
  5
9898
  8
0
  6
CONTINUOUS
 10
661.63246338246029
 20
1182.4484711688031
 30
0.0
 40
9.5
  0
ARC
  5
9899
  8
0
  6
CONTINUOUS
 10
546.63246338245983
 20
1189.400311168803
 30
0.0
 40
3.0
 50
0.0
 51
70.527973000001808
  0
ARC
  5
989A
  8
0
  6
CONTINUOUS
 10
546.63246338245983
 20
1200.0070011688031
 30
0.0
 40
3.0
 50
0.0
 51
70.527973000001808
  0
CIRCLE
  5
989B
  8
0
  6
CONTINUOUS
 10
661.63246338246029
 20
917.44847116880317
 30
0.0
 40
9.5
  0
ARC
  5
989C
  8
0
  6
CONTINUOUS
 10
466.63246338246017
 20
935.23619116880309
 30
0.0
 40
5.0
 50
100.0000000000061
 51
180.0
  0
ARC
  5
989D
  8
0
  6
CONTINUOUS
 10
686.63246338246029
 20
945.16124116880349
 30
0.0
 40
5.0
 50
0.0
 51
67.975689000004877
  0
ARC
  5
989E
  8
0
  6
CONTINUOUS
 10
686.63246338246029
 20
894.73564116880323
 30
0.0
 40
5.0
 50
272.00000000000352
 51
0.0
  0
ARC
  5
989F
  8
0
  6
CONTINUOUS
 10
466.63246338246017
 20
892.84996116880325
 30
0.0
 40
5.0
 50
180.00001000000091
 51
267.99999999999648
  0
ARC
  5
98A0
  8
0
  6
CONTINUOUS
 10
688.63246338246006
 20
987.84251116880341
 30
0.0
 40
2.0
 50
91.999997999994306
 51
180.00001000000091
  0
ARC
  5
98A1
  8
0
  6
CONTINUOUS
 10
689.63246338246006
 20
991.87986116880325
 30
0.0
 40
2.0
 50
272.00000000000352
 51
0.0
  0
CIRCLE
  5
98A2
  8
0
  6
CONTINUOUS
 10
491.63246338246017
 20
917.44847116880317
 30
0.0
 40
9.5
  0
ARC
  5
98A3
  8
0
  6
CONTINUOUS
 10
689.63246338246006
 20
1147.319441168803
 30
0.0
 40
3.0
 50
112.02430999999331
 51
180.00001000000091
  0
ARC
  5
98A4
  8
0
  6
CONTINUOUS
 10
689.63246338246006
 20
952.57750116880334
 30
0.0
 40
3.0
 50
180.00001000000091
 51
247.97569000000661
  0
ARC
  5
98A5
  8
0
  6
CONTINUOUS
 10
678.63246338246029
 20
958.61680116880359
 30
0.0
 40
8.0
 50
272.00000000000352
 51
0.0
  0
ARC
  5
98A6
  8
0
  6
CONTINUOUS
 10
667.63246338245995
 20
942.222941168803
 30
0.0
 40
8.0
 50
91.999997999994306
 51
180.00001000000091
  0
ARC
  5
98A7
  8
0
  6
CONTINUOUS
 10
651.63246338245995
 20
941.82634116880286
 30
0.0
 40
8.0
 50
272.00000000000352
 51
0.0
  0
ARC
  5
98A8
  8
0
  6
CONTINUOUS
 10
546.63246338245983
 20
899.88987116880355
 30
0.0
 40
3.0
 50
289.47202000000402
 51
0.0
  0
ARC
  5
98A9
  8
0
  6
CONTINUOUS
 10
546.63246338245983
 20
910.49656116880328
 30
0.0
 40
3.0
 50
289.47202000000402
 51
0.0
  0
ARC
  5
98AA
  8
0
  6
CONTINUOUS
 10
631.63246338246029
 20
892.81498116880346
 30
0.0
 40
5.0
 50
180.00001000000091
 51
271.99999000000759
  0
ARC
  5
98AB
  8
0
  6
CONTINUOUS
 10
519.63246338246029
 20
900.95018116880317
 30
0.0
 40
3.0
 50
180.00001000000091
 51
289.47202999999951
  0
ARC
  5
98AC
  8
0
  6
CONTINUOUS
 10
638.63246338245995
 20
1178.5367211688031
 30
0.0
 40
12.0
 50
180.00001000000091
 51
267.99999999999648
  0
ARC
  5
98AD
  8
0
  6
CONTINUOUS
 10
623.29786338246015
 20
1171.198341168802
 30
0.0
 40
5.0
 50
25.57351699999569
 51
87.999999999996447
  0
ARC
  5
98AE
  8
0
  6
CONTINUOUS
 10
638.63246338245995
 20
921.3602111688034
 30
0.0
 40
12.0
 50
91.999997999994306
 51
180.00001000000091
  0
ARC
  5
98AF
  8
0
  6
CONTINUOUS
 10
623.29786338246015
 20
928.69859116880343
 30
0.0
 40
5.0
 50
272.00000000000352
 51
334.4264800000031
  0
ARC
  5
98B0
  8
0
  6
CONTINUOUS
 10
717.63246338246006
 20
1049.948411168803
 30
0.0
 40
8.0000113999999982
 50
90.00000299999769
 51
270.0
  0
ARC
  5
98BF
  8
0
 10
197.5324533824612
 20
964.45109716880324
 30
0.0
 40
2.399999999999999
 50
180.0
 51
200.00000000000369
  0
ARC
  5
98C0
  8
0
 10
202.12691738246119
 20
951.8279121688031
 30
0.0
 40
2.399999999999999
 50
200.00000000000369
 51
270.0
  0
LINE
  5
98C1
  8
0
 10
199.8716543824612
 20
951.00706416880325
 30
0.0
 11
195.2771913824611
 21
963.6302491688034
 31
0.0
  0
LINE
  5
98C2
  8
0
 10
268.13245338246122
 20
949.42791216880323
 30
0.0
 11
202.12691738246119
 21
949.42791216880323
 31
0.0
  0
LINE
  5
98C3
  8
0
 10
268.13245338246122
 20
1150.4690301688031
 30
0.0
 11
268.13245338246122
 21
949.42791216880323
 31
0.0
  0
LINE
  5
98C4
  8
0
 10
199.8716543824612
 20
1148.8898781688031
 30
0.0
 11
195.2771913824611
 21
1136.2666931688029
 31
0.0
  0
ARC
  5
98C5
  8
0
 10
202.12691738246119
 20
1148.069030168803
 30
0.0
 40
2.399999999999999
 50
90.0
 51
159.99999999999631
  0
ARC
  5
98C6
  8
0
 10
197.5324533824612
 20
1135.4458451688031
 30
0.0
 40
2.399999999999999
 50
159.99999999999631
 51
180.0
  0
LINE
  5
98C7
  8
0
 10
200.4464183824613
 20
1149.782484168803
 30
0.0
 11
200.4464183824613
 21
949.42791216880323
 31
0.0
  0
LINE
  5
98C8
  8
0
 10
195.13245338246119
 20
1135.4458451688031
 30
0.0
 11
195.13245338246119
 21
964.66903016880315
 31
0.0
  0
LINE
  5
98C9
  8
0
 10
268.13245338246122
 20
1150.4690301688031
 30
0.0
 11
202.12691738246119
 21
1150.4690301688031
 31
0.0
  0
LINE
  5
98CA
  8
0
 10
402.13245338246111
 20
947.94847116880317
 30
0.0
 11
402.13245338246111
 21
944.94847116880317
 31
0.0
  0
LINE
  5
98CB
  8
0
 10
335.13245338246122
 20
947.94847116880317
 30
0.0
 11
335.13245338246122
 21
944.94847116880317
 31
0.0
  0
LINE
  5
98CC
  8
0
 10
411.88257838246079
 20
946.57745616880345
 30
0.0
 11
323.06445938246122
 21
905.16144716880331
 31
0.0
  0
LINE
  5
98CD
  8
0
 10
413.53057338246123
 20
943.04349116880326
 30
0.0
 11
411.88257838246079
 21
946.57745616880345
 31
0.0
  0
LINE
  5
98CE
  8
0
 10
334.73245538246118
 20
944.94847116880317
 30
0.0
 11
404.47555538246093
 21
944.94847116880317
 31
0.0
  0
LINE
  5
98CF
  8
0
 10
324.71265238246121
 20
901.62647516880315
 30
0.0
 11
323.06445938246122
 21
905.16144716880331
 31
0.0
  0
LINE
  5
98D0
  8
0
 10
332.2656573824612
 20
901.99248016880324
 30
0.0
 11
331.94425538246111
 21
902.68147216880311
 31
0.0
  0
LINE
  5
98D1
  8
0
 10
408.55755538246092
 20
917.86247216880327
 30
0.0
 11
408.55755538246092
 21
938.23648116880327
 31
0.0
  0
LINE
  5
98D2
  8
0
 10
326.18004738246123
 20
901.09747316880328
 30
0.0
 11
413.00555238246079
 21
941.58447616880335
 31
0.0
  0
LINE
  5
98D3
  8
0
 10
331.13245738246121
 20
908.92347716880329
 30
0.0
 11
331.13245738246121
 21
941.34848016880312
 31
0.0
  0
LINE
  5
98D4
  8
0
  6
AM_ISO08W050
 10
325.95625638246122
 20
924.94847116880328
 30
0.0
 11
334.54655738246117
 21
924.94847116880328
 31
0.0
  0
LINE
  5
98D5
  8
0
 10
329.13245738246121
 20
936.5484771688034
 30
0.0
 11
329.13245738246121
 21
913.34848016880323
 31
0.0
  0
LINE
  5
98D6
  8
0
 10
329.13245738246121
 20
936.5484771688034
 30
0.0
 11
330.13245738246121
 21
936.5484771688034
 31
0.0
  0
LINE
  5
98D7
  8
0
 10
329.13245738246121
 20
913.34848016880323
 30
0.0
 11
330.13245738246121
 21
913.34848016880323
 31
0.0
  0
ARC
  5
98D8
  8
0
 10
334.73245538246118
 20
941.34848016880312
 30
0.0
 40
3.5999979999999989
 50
90.000061000000898
 51
179.99998200000081
  0
ARC
  5
98D9
  8
0
 10
412.53355338246092
 20
942.57847616880326
 30
0.0
 40
1.100006
 50
294.99982600000448
 51
24.999514000004648
  0
ARC
  5
98DA
  8
0
 10
325.7095563824613
 20
902.09147616880318
 30
0.0
 40
1.0999959999999971
 50
204.99980300000141
 51
295.00019499999559
  0
ARC
  5
98DB
  8
0
 10
400.95755738246078
 20
917.86247216880327
 30
0.0
 40
7.5999979999999958
 50
288.90001599999869
 51
0.0000179999992061
  0
ARC
  5
98DC
  8
0
 10
335.52835838246108
 20
903.51347316880322
 30
0.0
 40
3.5999979999999989
 50
204.9991569999998
 51
269.0940209999992
  0
ARC
  5
98DD
  8
0
 10
338.63485638246118
 20
1099.8894651688031
 30
0.0
 40
200.0
 50
269.09405200000299
 51
288.9000030000019
  0
ARC
  5
98DE
  8
0
 10
331.03795538246129
 20
902.2594761688033
 30
0.0
 40
0.9999979999999998
 50
24.999268000004911
 51
114.9993579999972
  0
ARC
  5
98DF
  8
0
 10
410.55755538246109
 20
938.23648116880327
 30
0.0
 40
2.0
 50
115.00014999999451
 51
179.99998200000081
  0
ARC
  5
98E0
  8
0
 10
404.47555538246093
 20
942.34848016880312
 30
0.0
 40
2.600006
 50
40.686129999995678
 51
90.0
  0
ARC
  5
98E1
  8
0
 10
330.13245738246121
 20
937.5484771688034
 30
0.0
 40
1.0
 50
269.99894299999522
 51
0.0000179999992061
  0
ARC
  5
98E2
  8
0
 10
330.13245738246121
 20
912.34848016880323
 30
0.0
 40
1.0
 50
0.0000179999992061
 51
90.0
  0
ARC
  5
98E3
  8
0
 10
276.57609738246123
 20
967.5477911688032
 30
0.0
 40
2.0
 50
190.000000000005
 51
270.0
  0
LINE
  5
98E4
  8
0
 10
274.60648238246119
 20
967.20049516880317
 30
0.0
 11
271.63245338246122
 21
984.06704916880312
 31
0.0
  0
LINE
  5
98E5
  8
0
 10
271.63245338246122
 20
984.06704916880312
 30
0.0
 11
272.69419238246121
 21
984.06704916880312
 31
0.0
  0
LINE
  5
98E6
  8
0
 10
470.09659438246109
 20
1136.1207781688031
 30
0.0
 11
470.63245338246111
 21
1136.1207781688031
 31
0.0
  0
LINE
  5
98E7
  8
0
 10
470.356985382461
 20
1137.683035168802
 30
0.0
 11
470.63245338246111
 21
1137.683035168802
 31
0.0
  0
LINE
  5
98E8
  8
0
 10
472.31065238246089
 20
961.94862216880335
 30
0.0
 11
472.63245338246122
 21
961.94862216880335
 31
0.0
  0
LINE
  5
98E9
  8
0
 10
468.45305838246111
 20
966.79648516880354
 30
0.0
 11
470.63245338246111
 21
966.79648516880354
 31
0.0
  0
LINE
  5
98EA
  8
0
 10
469.45914138246121
 20
978.90205516880314
 30
0.0
 11
470.63245338246111
 21
978.90205516880314
 31
0.0
  0
LINE
  5
98EB
  8
0
  6
AM_ISO08W050
 10
368.63245338246122
 20
942.29250616880313
 30
0.0
 11
368.63245338246122
 21
951.47422216880352
 31
0.0
  0
ARC
  5
98EC
  8
0
 10
466.87533338246118
 20
1138.9567191688029
 30
0.0
 40
2.0
 50
10.00000000000502
 51
90.0
  0
ARC
  5
98ED
  8
0
 10
466.941350382461
 20
1142.497518168803
 30
0.0
 40
2.0
 50
10.00000000000502
 51
90.0
  0
ARC
  5
98EE
  8
0
 10
467.02726838246122
 20
1145.049255168803
 30
0.0
 40
2.0
 50
10.00000000000502
 51
90.0
  0
ARC
  5
98EF
  8
0
 10
467.05601738246082
 20
1146.4484711688031
 30
0.0
 40
2.0
 50
10.00000000000502
 51
90.0
  0
LINE
  5
98F0
  8
0
 10
475.63245638246121
 20
1134.9484711688031
 30
0.0
 11
472.63245638246121
 21
1137.9484711688031
 31
0.0
  0
LINE
  5
98F1
  8
0
 10
470.5856493824611
 20
1137.9484711688031
 30
0.0
 11
472.63245338246122
 21
1137.9484711688031
 31
0.0
  0
LINE
  5
98F2
  8
0
 10
475.63245338246111
 20
964.94847116880317
 30
0.0
 11
472.63245338246122
 21
961.94847116880317
 31
0.0
  0
LINE
  5
98F3
  8
0
 10
472.63245338246122
 20
961.94847116880317
 30
0.0
 11
472.63245338246122
 21
987.56885716880345
 31
0.0
  0
LINE
  5
98F4
  8
0
 10
475.63245338246111
 20
964.94847116880317
 30
0.0
 11
475.63245338246111
 21
1134.9484711688031
 31
0.0
  0
CIRCLE
  5
98F5
  8
0
 10
368.63245338246122
 20
1049.9484711688031
 30
0.0
 40
11.0
  0
LINE
  5
98F6
  8
0
 10
275.9185733824612
 20
1148.4484711688031
 30
0.0
 11
327.63245338246122
 21
1148.4484711688031
 31
0.0
  0
LINE
  5
98F7
  8
0
 10
407.63245338246088
 20
1140.956719168802
 30
0.0
 11
407.63245338246088
 21
1146.4484711688031
 31
0.0
  0
LINE
  5
98F8
  8
0
 10
329.63245338246122
 20
1140.956719168802
 30
0.0
 11
329.63245338246122
 21
1146.4484711688031
 31
0.0
  0
ARC
  5
98F9
  8
0
 10
327.63245338246122
 20
1146.4484711688031
 30
0.0
 40
2.0
 50
0.0
 51
90.0
  0
ARC
  5
98FA
  8
0
 10
409.63245338246122
 20
1146.4484711688031
 30
0.0
 40
2.0
 50
90.0
 51
180.0
  0
LINE
  5
98FB
  8
0
 10
409.63245338246122
 20
1148.4484711688031
 30
0.0
 11
467.05601738246082
 21
1148.4484711688031
 31
0.0
  0
LINE
  5
98FC
  8
0
 10
467.02726838246122
 20
1147.049255168803
 30
0.0
 11
409.63245338246122
 21
1147.049255168803
 31
0.0
  0
LINE
  5
98FD
  8
0
 10
470.63245338246111
 20
1136.1207781688031
 30
0.0
 11
468.99688438246119
 21
1145.396551168802
 31
0.0
  0
LINE
  5
98FE
  8
0
 10
470.63245338246111
 20
1137.683035168802
 30
0.0
 11
469.0256323824612
 21
1146.795767168803
 31
0.0
  0
LINE
  5
98FF
  8
0
 10
271.63245338246122
 20
1133.658217168803
 30
0.0
 11
273.94895838246123
 21
1146.795767168803
 31
0.0
  0
ARC
  5
9900
  8
0
 10
275.9185733824612
 20
1146.4484711688031
 30
0.0
 40
2.0
 50
90.0
 51
169.99999999999491
  0
LINE
  5
9901
  8
0
 10
271.63245338246122
 20
1131.999156168803
 30
0.0
 11
273.99477538246123
 21
1145.396551168802
 31
0.0
  0
ARC
  5
9902
  8
0
 10
275.9643913824612
 20
1145.049255168803
 30
0.0
 40
2.0
 50
90.0
 51
169.99999999999491
  0
ARC
  5
9903
  8
0
 10
327.63245338246122
 20
1145.049255168803
 30
0.0
 40
2.0
 50
0.0
 51
90.0
  0
ARC
  5
9904
  8
0
 10
409.63245338246122
 20
1145.049255168803
 30
0.0
 40
2.0
 50
90.0
 51
180.0
  0
LINE
  5
9905
  8
0
 10
327.63245338246122
 20
1147.049255168803
 30
0.0
 11
275.9643913824612
 21
1147.049255168803
 31
0.0
  0
LINE
  5
9906
  8
0
 10
466.941350382461
 20
1144.497518168803
 30
0.0
 11
409.63245338246122
 21
1144.497518168803
 31
0.0
  0
LINE
  5
9907
  8
0
 10
470.5036733824611
 20
1133.812120168802
 30
0.0
 11
468.9109653824612
 21
1142.8448151688031
 31
0.0
  0
LINE
  5
9908
  8
0
 10
271.63245338246122
 20
1128.778365168803
 30
0.0
 11
274.11274838246129
 21
1142.8448151688031
 31
0.0
  0
ARC
  5
9909
  8
0
 10
276.08236338246098
 20
1142.497518168803
 30
0.0
 40
2.0
 50
90.0
 51
169.99999999999491
  0
ARC
  5
990A
  8
0
 10
327.63245338246122
 20
1142.497518168803
 30
0.0
 40
2.0
 50
0.0
 51
90.0
  0
ARC
  5
990B
  8
0
 10
409.63245338246122
 20
1142.497518168803
 30
0.0
 40
2.0
 50
90.0
 51
180.0
  0
LINE
  5
990C
  8
0
 10
327.63245338246122
 20
1144.497518168803
 30
0.0
 11
276.08236338246098
 21
1144.497518168803
 31
0.0
  0
LINE
  5
990D
  8
0
 10
466.87533338246118
 20
1140.956719168802
 30
0.0
 11
276.24387238246129
 21
1140.956719168802
 31
0.0
  0
LINE
  5
990E
  8
0
 10
469.81331838246092
 20
1133.812120168802
 30
0.0
 11
468.84494938246121
 21
1139.3040151688031
 31
0.0
  0
LINE
  5
990F
  8
0
 10
271.63245338246122
 20
1124.321605168803
 30
0.0
 11
274.2742563824612
 21
1139.3040151688031
 31
0.0
  0
ARC
  5
9910
  8
0
 10
276.24387238246129
 20
1138.9567191688029
 30
0.0
 40
2.0
 50
90.0
 51
169.99999999999491
  0
LINE
  5
9911
  8
0
 10
400.68880938246122
 20
1134.349151168803
 30
0.0
 11
276.57609738246123
 21
1134.349151168803
 31
0.0
  0
LINE
  5
9912
  8
0
 10
405.63245338246122
 20
1115.829893168803
 30
0.0
 11
402.65842438246079
 21
1132.6964471688029
 31
0.0
  0
ARC
  5
9913
  8
0
 10
400.68880938246122
 20
1132.349151168803
 30
0.0
 40
2.0
 50
10.00000000000502
 51
90.0
  0
LINE
  5
9914
  8
0
 10
271.63245338246122
 20
1115.829893168803
 30
0.0
 11
274.60648238246119
 21
1132.6964471688029
 31
0.0
  0
ARC
  5
9915
  8
0
 10
276.57609738246123
 20
1132.349151168803
 30
0.0
 40
2.0
 50
90.0
 51
169.99999999999491
  0
LINE
  5
9916
  8
0
 10
400.35854538246087
 20
1128.9471071688031
 30
0.0
 11
276.90636138246128
 21
1128.9471071688031
 31
0.0
  0
LINE
  5
9917
  8
0
 10
405.41140238246089
 20
1109.808471168803
 30
0.0
 11
402.32816138246119
 21
1127.2944041688031
 31
0.0
  0
ARC
  5
9918
  8
0
 10
400.35854538246087
 20
1126.9471071688031
 30
0.0
 40
2.0
 50
10.00000000000502
 51
90.0
  0
LINE
  5
9919
  8
0
 10
271.90944738246128
 20
1110.125739168803
 30
0.0
 11
274.9367453824612
 21
1127.2944041688031
 31
0.0
  0
ARC
  5
991A
  8
0
 10
276.90636138246128
 20
1126.9471071688031
 30
0.0
 40
2.0
 50
90.0
 51
169.99999999999491
  0
LINE
  5
991B
  8
0
 10
470.63245338246111
 20
1054.9786231688031
 30
0.0
 11
470.63245338246111
 21
1057.9263151688031
 31
0.0
  0
LINE
  5
991C
  8
0
 10
470.63245338246111
 20
1064.9780991688031
 30
0.0
 11
470.63245338246111
 21
1067.9395781688031
 31
0.0
  0
LINE
  5
991D
  8
0
 10
470.63245338246111
 20
1075.970279168803
 30
0.0
 11
470.63245338246111
 21
1078.9629061688031
 31
0.0
  0
LINE
  5
991E
  8
0
 10
470.63245338246111
 20
1086.953074168802
 30
0.0
 11
470.63245338246111
 21
1089.998780168803
 31
0.0
  0
LINE
  5
991F
  8
0
 10
470.63245338246111
 20
1097.9229531688029
 30
0.0
 11
470.63245338246111
 21
1101.0538661688031
 31
0.0
  0
LINE
  5
9920
  8
0
 10
470.63245338246111
 20
1106.881429168802
 30
0.0
 11
470.63245338246111
 21
1110.125739168803
 31
0.0
  0
LINE
  5
9921
  8
0
 10
420.63245338246111
 20
1124.321605168803
 30
0.0
 11
404.1351353824611
 21
1124.321605168803
 31
0.0
  0
LINE
  5
9922
  8
0
 10
452.41923038246091
 20
1129.1665731688031
 30
0.0
 11
436.63245338246088
 21
1129.1665731688031
 31
0.0
  0
LINE
  5
9923
  8
0
 10
420.63245338246111
 20
1124.321605168803
 30
0.0
 11
436.63245338246088
 21
1129.1665731688031
 31
0.0
  0
LINE
  5
9924
  8
0
 10
436.63245338246088
 20
1129.1665731688031
 30
0.0
 11
436.63245338246088
 21
1125.8012581688031
 31
0.0
  0
LINE
  5
9925
  8
0
 10
420.63245338246111
 20
1124.321605168803
 30
0.0
 11
420.63245338246111
 21
1110.125739168803
 31
0.0
  0
LINE
  5
9926
  8
0
 10
456.13245338246122
 20
1113.014433168803
 30
0.0
 11
456.13245338246122
 21
1131.812120168802
 31
0.0
  0
ARC
  5
9927
  8
0
 10
458.13245338246111
 20
1131.812120168802
 30
0.0
 40
2.0
 50
90.0
 51
180.0
  0
LINE
  5
9928
  8
0
 10
456.13245338246122
 20
1117.404531168803
 30
0.0
 11
436.63245338246088
 21
1117.404531168803
 31
0.0
  0
LINE
  5
9929
  8
0
 10
450.73245938246117
 20
1125.8012581688031
 30
0.0
 11
436.63245338246088
 21
1125.8012581688031
 31
0.0
  0
LINE
  5
992A
  8
0
 10
436.63245338246088
 20
1117.404531168803
 30
0.0
 11
436.63245338246088
 21
1110.125739168803
 31
0.0
  0
LINE
  5
992C
  8
0
 10
475.63245338246111
 20
1133.812120168802
 30
0.0
 11
458.13245338246111
 21
1133.812120168802
 31
0.0
  0
LINE
  5
992D
  8
0
 10
475.63245338246111
 20
1112.014433168803
 30
0.0
 11
455.13245338246111
 21
1112.014433168803
 31
0.0
  0
ARC
  5
992E
  8
0
 10
455.13245338246111
 20
1113.014433168803
 30
0.0
 40
1.0
 50
270.0
 51
0.0
  0
LINE
  5
992F
  8
0
 10
475.63245338246111
 20
1125.6881151688031
 30
0.0
 11
458.13245338246111
 21
1125.6881151688031
 31
0.0
  0
LINE
  5
9930
  8
0
 10
268.13245338246122
 20
1133.9484711688031
 30
0.0
 11
271.63245338246122
 21
1133.9484711688031
 31
0.0
  0
ARC
  5
9931
  8
0
 10
472.31065238246089
 20
959.94847116880328
 30
0.0
 40
2.0
 50
90.0
 51
169.99999999999491
  0
ARC
  5
9932
  8
0
 10
408.37509538246138
 20
954.9548141688033
 30
0.0
 40
1.9936590000000001
 50
90.075931000003493
 51
178.1702539999921
  0
LINE
  5
9933
  8
0
 10
408.37245338246117
 20
956.94847116880317
 30
0.0
 11
468.0726193824612
 21
956.94847116880317
 31
0.0
  0
LINE
  5
9934
  8
0
 10
406.13245338246122
 20
947.94847116880317
 30
0.0
 11
406.74848238246119
 21
965.5477911688032
 31
0.0
  0
LINE
  5
9935
  8
0
 10
470.34103738246108
 20
960.29576716880331
 30
0.0
 11
470.04223438246112
 21
958.60117516880314
 31
0.0
  0
ARC
  5
9936
  8
0
 10
468.0726193824612
 20
958.94847116880328
 30
0.0
 40
2.0
 50
270.0
 51
349.99999999999488
  0
LINE
  5
9937
  8
0
 10
272.20980338246119
 20
964.94847116880317
 30
0.0
 11
279.42668238246131
 21
952.44847116880317
 31
0.0
  0
LINE
  5
9938
  8
0
 10
281.15873238246138
 20
951.44847116880317
 30
0.0
 11
329.07742438246112
 21
951.44847116880317
 31
0.0
  0
LINE
  5
9939
  8
0
 10
331.13245338246122
 20
947.94847116880317
 30
0.0
 11
331.07614138246112
 21
949.52008616880312
 31
0.0
  0
ARC
  5
993A
  8
0
 10
270.47775238246129
 20
963.94847116880317
 30
0.0
 40
2.0
 50
30.000000000000551
 51
90.0
  0
ARC
  5
993B
  8
0
 10
281.15873238246138
 20
953.44847116880328
 30
0.0
 40
2.0
 50
210.0000000000004
 51
270.0
  0
ARC
  5
993C
  8
0
 10
329.07742438246112
 20
949.44847116880317
 30
0.0
 40
2.0
 50
2.052064999998533
 51
90.0
  0
LINE
  5
993D
  8
0
 10
331.13245338246122
 20
947.94847116880317
 30
0.0
 11
406.13245338246122
 21
947.94847116880317
 31
0.0
  0
LINE
  5
993E
  8
0
 10
280.15873238246138
 20
951.71642016880321
 30
0.0
 11
280.15873238246138
 21
965.5477911688032
 31
0.0
  0
LINE
  5
993F
  8
0
 10
466.59953738246088
 20
965.5477911688032
 30
0.0
 11
276.57609738246123
 21
965.5477911688032
 31
0.0
  0
LINE
  5
9940
  8
0
 10
466.37875138246119
 20
970.94983516880325
 30
0.0
 11
276.68531038246141
 21
970.94983516880325
 31
0.0
  0
LINE
  5
9941
  8
0
 10
470.63245338246111
 20
985.55623716880325
 30
0.0
 11
436.63245338246088
 21
985.55623716880325
 31
0.0
  0
LINE
  5
9942
  8
0
 10
470.63245338246111
 20
985.55623716880325
 30
0.0
 11
468.34836638246122
 21
972.60253816880322
 31
0.0
  0
ARC
  5
9943
  8
0
 10
466.37875138246119
 20
972.94983516880325
 30
0.0
 40
2.0
 50
270.0
 51
349.99999999999488
  0
LINE
  5
9944
  8
0
 10
470.63245338246111
 20
978.90205516880314
 30
0.0
 11
468.5691523824612
 21
967.20049516880317
 31
0.0
  0
ARC
  5
9945
  8
0
 10
466.59953738246088
 20
967.5477911688032
 30
0.0
 40
2.0
 50
270.0
 51
349.99999999999488
  0
LINE
  5
9946
  8
0
 10
275.37519138246108
 20
965.94847116880328
 30
0.0
 11
268.13245338246122
 21
965.94847116880328
 31
0.0
  0
LINE
  5
9947
  8
0
 10
470.63245338246111
 20
966.79648516880354
 30
0.0
 11
469.18739938246119
 21
958.60117516880314
 31
0.0
  0
ARC
  5
9948
  8
0
 10
467.21778338246111
 20
958.94847116880328
 30
0.0
 40
2.0
 50
270.0
 51
349.99999999999488
  0
LINE
  5
9949
  8
0
 10
405.63245338246122
 20
1001.788471168803
 30
0.0
 11
405.63245338246122
 21
999.08847116880315
 31
0.0
  0
LINE
  5
994A
  8
0
 10
475.63245338246111
 20
987.73883416880324
 30
0.0
 11
458.13245338246111
 21
987.73883416880324
 31
0.0
  0
LINE
  5
994B
  8
0
 10
475.63245338246111
 20
1000.046473168803
 30
0.0
 11
458.13245338246111
 21
1000.046473168803
 31
0.0
  0
LINE
  5
994C
  8
0
 10
475.63245338246111
 20
1010.225765168803
 30
0.0
 11
470.63245338246111
 21
1010.225765168803
 31
0.0
  0
LINE
  5
994D
  8
0
 10
456.13245338246122
 20
1009.225765168803
 30
0.0
 11
456.13245338246122
 21
989.73883416880312
 31
0.0
  0
ARC
  5
994E
  8
0
 10
455.13245338246111
 20
1009.225765168803
 30
0.0
 40
1.0
 50
0.0
 51
42.252324000004279
  0
ARC
  5
994F
  8
0
 10
458.13245338246111
 20
989.73883416880312
 30
0.0
 40
2.0
 50
180.0
 51
270.0
  0
LINE
  5
9950
  8
0
 10
420.63245338246111
 20
1106.881429168802
 30
0.0
 11
420.63245338246111
 21
1101.0538661688031
 31
0.0
  0
LINE
  5
9951
  8
0
 10
436.63245338246088
 20
1106.881429168802
 30
0.0
 11
436.63245338246088
 21
1101.0538661688031
 31
0.0
  0
LINE
  5
9952
  8
0
 10
420.63245338246111
 20
1097.9229531688029
 30
0.0
 11
420.63245338246111
 21
1089.998780168803
 31
0.0
  0
LINE
  5
9953
  8
0
 10
420.63245338246111
 20
1086.953074168802
 30
0.0
 11
420.63245338246111
 21
1078.9629061688031
 31
0.0
  0
LINE
  5
9954
  8
0
 10
420.63245338246111
 20
1075.970279168803
 30
0.0
 11
420.63245338246111
 21
1067.9395781688031
 31
0.0
  0
LINE
  5
9955
  8
0
 10
420.63245338246111
 20
1064.9780991688031
 30
0.0
 11
420.63245338246111
 21
1057.9263151688031
 31
0.0
  0
LINE
  5
9956
  8
0
 10
420.63245338246111
 20
1055.1084711688029
 30
0.0
 11
420.63245338246111
 21
1044.918319168803
 31
0.0
  0
LINE
  5
9957
  8
0
 10
436.63245338246088
 20
1055.1084711688029
 30
0.0
 11
436.63245338246088
 21
1044.918319168803
 31
0.0
  0
LINE
  5
9958
  8
0
 10
436.63245338246088
 20
1064.9780991688031
 30
0.0
 11
436.63245338246088
 21
1057.9263151688031
 31
0.0
  0
LINE
  5
9959
  8
0
 10
436.63245338246088
 20
1075.970279168803
 30
0.0
 11
436.63245338246088
 21
1067.9395781688031
 31
0.0
  0
LINE
  5
995A
  8
0
 10
436.63245338246088
 20
1086.953074168802
 30
0.0
 11
436.63245338246088
 21
1078.9629061688031
 31
0.0
  0
LINE
  5
995B
  8
0
 10
436.63245338246088
 20
1097.9229531688029
 30
0.0
 11
436.63245338246088
 21
1089.998780168803
 31
0.0
  0
LINE
  5
995C
  8
0
 10
420.63245338246111
 20
1041.970627168803
 30
0.0
 11
420.63245338246111
 21
1034.9188431688031
 31
0.0
  0
LINE
  5
995D
  8
0
 10
436.63245338246088
 20
1041.970627168803
 30
0.0
 11
436.63245338246088
 21
1034.9188431688031
 31
0.0
  0
LINE
  5
995E
  8
0
 10
436.63245338246088
 20
1031.957364168803
 30
0.0
 11
436.63245338246088
 21
1023.926663168803
 31
0.0
  0
LINE
  5
995F
  8
0
 10
420.63245338246111
 20
1031.957364168803
 30
0.0
 11
420.63245338246111
 21
1023.926663168803
 31
0.0
  0
LINE
  5
9960
  8
0
 10
420.63245338246111
 20
1020.934036168803
 30
0.0
 11
420.63245338246111
 21
1012.943868168803
 31
0.0
  0
LINE
  5
9961
  8
0
 10
436.63245338246088
 20
1020.934036168803
 30
0.0
 11
436.63245338246088
 21
1012.943868168803
 31
0.0
  0
LINE
  5
9962
  8
0
 10
451.18184838246111
 20
993.92767516880315
 30
0.0
 11
436.63245238246122
 21
993.92767516880315
 31
0.0
  0
LINE
  5
9963
  8
0
 10
456.13245338246122
 20
1005.340025168803
 30
0.0
 11
436.63245238246122
 21
1005.340025168803
 31
0.0
  0
LINE
  5
9964
  8
0
 10
420.63245338246111
 20
1009.898162168803
 30
0.0
 11
420.63245338246111
 21
989.89816216880308
 31
0.0
  0
LINE
  5
9965
  8
0
 10
472.63245338246122
 20
1133.812120168802
 30
0.0
 11
472.63245338246122
 21
1137.9484711688031
 31
0.0
  0
LINE
  5
9966
  8
0
 10
470.63245338246111
 20
963.7467271688032
 30
0.0
 11
469.72515338246092
 21
958.60117516880314
 31
0.0
  0
ARC
  5
9967
  8
0
 10
467.75553838246122
 20
958.94847116880328
 30
0.0
 40
2.0
 50
270.0
 51
349.99999999999488
  0
LINE
  5
9968
  8
0
 10
436.63245338246088
 20
1009.898162168803
 30
0.0
 11
436.63245338246088
 21
1005.340025168803
 31
0.0
  0
LINE
  5
9969
  8
0
 10
472.63245338246122
 20
1010.225765168803
 30
0.0
 11
472.63245338246122
 21
1112.014433168803
 31
0.0
  0
LINE
  5
996A
  8
0
 10
271.63245338246122
 20
990.08847116880315
 30
0.0
 11
274.71569538246138
 21
972.60253816880322
 31
0.0
  0
ARC
  5
996B
  8
0
 10
276.68531038246141
 20
972.94983516880325
 30
0.0
 40
2.0
 50
190.000000000005
 51
270.0
  0
LINE
  5
996C
  8
0
 10
421.337850382461
 20
998.64276516880318
 30
0.0
 11
436.63245338246088
 21
993.92767516880315
 31
0.0
  0
LINE
  5
996D
  8
0
 10
436.63245338246088
 20
1005.340025168803
 30
0.0
 11
421.59651238246079
 21
1004.799274168803
 31
0.0
  0
LINE
  5
996E
  8
0
 10
436.63245338246088
 20
993.92767516880315
 30
0.0
 11
436.63245338246088
 21
985.55623716880325
 31
0.0
  0
ARC
  5
996F
  8
0
 10
421.63245338246111
 20
1003.7999201688031
 30
0.0
 40
1.0
 50
92.059691000003568
 51
180.0
  0
ARC
  5
9970
  8
0
 10
421.63245338246111
 20
999.59838516880325
 30
0.0
 40
1.0
 50
180.0
 51
252.86627500000029
  0
LINE
  5
9971
  8
0
 10
436.63245338246088
 20
1125.8012581688031
 30
0.0
 11
421.33199438246078
 21
1120.981392168803
 31
0.0
  0
LINE
  5
9972
  8
0
 10
421.68100838246102
 20
1116.6777111688029
 30
0.0
 11
436.63245338246088
 21
1117.404531168803
 31
0.0
  0
ARC
  5
9973
  8
0
 10
421.63245338246111
 20
1120.027597168802
 30
0.0
 40
1.0
 50
107.4851789999981
 51
180.0
  0
ARC
  5
9974
  8
0
 10
421.63245338246111
 20
1117.6765321688031
 30
0.0
 40
1.0
 50
180.0
 51
270.0
  0
LINE
  5
9976
  8
0
 10
470.63245338246111
 20
1110.125739168803
 30
0.0
 11
271.63245338246122
 21
1110.125739168803
 31
0.0
  0
LINE
  5
9977
  8
0
 10
470.63245338246111
 20
1106.881429168802
 30
0.0
 11
271.63245338246122
 21
1106.881429168802
 31
0.0
  0
LINE
  5
9978
  8
0
 10
470.63245338246111
 20
1101.0538661688031
 30
0.0
 11
271.63245338246122
 21
1101.0538661688031
 31
0.0
  0
LINE
  5
9979
  8
0
 10
470.63245338246111
 20
1097.9229531688029
 30
0.0
 11
271.63245338246122
 21
1097.9229531688029
 31
0.0
  0
LINE
  5
997A
  8
0
 10
470.63245338246111
 20
1089.998780168803
 30
0.0
 11
271.63245338246122
 21
1089.998780168803
 31
0.0
  0
LINE
  5
997B
  8
0
 10
470.63245338246111
 20
1086.953074168802
 30
0.0
 11
271.63245338246122
 21
1086.953074168802
 31
0.0
  0
LINE
  5
997C
  8
0
 10
470.63245338246111
 20
1078.9629061688031
 30
0.0
 11
271.63245338246122
 21
1078.9629061688031
 31
0.0
  0
LINE
  5
997D
  8
0
 10
470.63245338246111
 20
1075.970279168803
 30
0.0
 11
271.63245338246122
 21
1075.970279168803
 31
0.0
  0
LINE
  5
997E
  8
0
 10
470.63245338246111
 20
1067.9395781688031
 30
0.0
 11
271.63245338246122
 21
1067.9395781688031
 31
0.0
  0
LINE
  5
997F
  8
0
 10
470.63245338246111
 20
1064.9780991688031
 30
0.0
 11
271.63245338246122
 21
1064.9780991688031
 31
0.0
  0
LINE
  5
9980
  8
0
 10
470.63245338246111
 20
1057.9263151688031
 30
0.0
 11
376.2056963824611
 21
1057.9263151688031
 31
0.0
  0
LINE
  5
9981
  8
0
 10
470.63245338246111
 20
1054.9786231688031
 30
0.0
 11
383.0181003824614
 21
1054.9786231688031
 31
0.0
  0
LINE
  5
9982
  8
0
 10
468.55353238246119
 20
1109.4484711688031
 30
0.0
 11
468.55353238246119
 21
1107.4484711688031
 31
0.0
  0
LINE
  5
9983
  8
0
 10
273.7113743824612
 20
1107.4484711688031
 30
0.0
 11
468.55353238246119
 21
1107.4484711688031
 31
0.0
  0
LINE
  5
9984
  8
0
 10
273.7113743824612
 20
1109.4484711688031
 30
0.0
 11
468.55353238246119
 21
1109.4484711688031
 31
0.0
  0
LINE
  5
9985
  8
0
 10
273.7113743824612
 20
1098.4484711688031
 30
0.0
 11
468.55353238246119
 21
1098.4484711688031
 31
0.0
  0
LINE
  5
9986
  8
0
 10
273.7113743824612
 20
1100.4484711688031
 30
0.0
 11
468.55353238246119
 21
1100.4484711688031
 31
0.0
  0
LINE
  5
9987
  8
0
 10
273.7113743824612
 20
1087.4484711688031
 30
0.0
 11
468.55353238246119
 21
1087.4484711688031
 31
0.0
  0
LINE
  5
9988
  8
0
 10
273.7113743824612
 20
1089.4484711688031
 30
0.0
 11
468.55353238246119
 21
1089.4484711688031
 31
0.0
  0
LINE
  5
9989
  8
0
 10
273.7113743824612
 20
1076.4484711688031
 30
0.0
 11
468.55353238246119
 21
1076.4484711688031
 31
0.0
  0
LINE
  5
998A
  8
0
 10
273.7113743824612
 20
1078.4484711688031
 30
0.0
 11
468.55353238246119
 21
1078.4484711688031
 31
0.0
  0
LINE
  5
998B
  8
0
 10
273.7113743824612
 20
1065.4484711688031
 30
0.0
 11
468.55353238246119
 21
1065.4484711688031
 31
0.0
  0
LINE
  5
998C
  8
0
 10
273.7113743824612
 20
1067.4484711688031
 30
0.0
 11
468.55353238246119
 21
1067.4484711688031
 31
0.0
  0
LINE
  5
998D
  8
0
 10
382.4074303824612
 20
1055.4484711688031
 30
0.0
 11
468.55353238246119
 21
1055.4484711688031
 31
0.0
  0
LINE
  5
998E
  8
0
 10
376.67919138246123
 20
1057.4484711688031
 30
0.0
 11
468.55353238246119
 21
1057.4484711688031
 31
0.0
  0
LINE
  5
998F
  8
0
 10
468.55353238246119
 20
1109.4484711688031
 30
0.0
 11
470.63245338246111
 21
1110.125739168803
 31
0.0
  0
LINE
  5
9990
  8
0
 10
468.55353238246119
 20
1107.4484711688031
 30
0.0
 11
470.63245338246111
 21
1106.881429168802
 31
0.0
  0
LINE
  5
9991
  8
0
 10
468.55353238246119
 20
1100.4484711688031
 30
0.0
 11
470.63245338246111
 21
1101.0538661688031
 31
0.0
  0
LINE
  5
9992
  8
0
 10
468.55353238246119
 20
1098.4484711688031
 30
0.0
 11
470.63245338246111
 21
1097.9229531688029
 31
0.0
  0
LINE
  5
9993
  8
0
 10
468.55353238246119
 20
1089.4484711688031
 30
0.0
 11
470.63245338246111
 21
1089.998780168803
 31
0.0
  0
LINE
  5
9994
  8
0
 10
468.55353238246119
 20
1087.4484711688031
 30
0.0
 11
470.63245338246111
 21
1086.953074168802
 31
0.0
  0
LINE
  5
9995
  8
0
 10
468.55353238246119
 20
1078.4484711688031
 30
0.0
 11
470.63245338246111
 21
1078.9629061688031
 31
0.0
  0
LINE
  5
9996
  8
0
 10
468.55353238246119
 20
1076.4484711688031
 30
0.0
 11
470.63245338246111
 21
1075.970279168803
 31
0.0
  0
LINE
  5
9997
  8
0
 10
468.55353238246119
 20
1067.4484711688031
 30
0.0
 11
470.63245338246111
 21
1067.9395781688031
 31
0.0
  0
LINE
  5
9998
  8
0
 10
468.55353238246119
 20
1065.4484711688031
 30
0.0
 11
470.63245338246111
 21
1064.9780991688031
 31
0.0
  0
LINE
  5
9999
  8
0
 10
468.55353238246119
 20
1057.4484711688031
 30
0.0
 11
470.63245338246111
 21
1057.9263151688031
 31
0.0
  0
LINE
  5
999A
  8
0
 10
468.55353238246119
 20
1055.4484711688031
 30
0.0
 11
470.63245338246111
 21
1054.9786231688031
 31
0.0
  0
LINE
  5
999B
  8
0
 10
468.55353238246119
 20
1100.4484711688031
 30
0.0
 11
468.55353238246119
 21
1098.4484711688031
 31
0.0
  0
LINE
  5
999C
  8
0
 10
468.55353238246119
 20
1089.4484711688031
 30
0.0
 11
468.55353238246119
 21
1087.4484711688031
 31
0.0
  0
LINE
  5
999D
  8
0
 10
468.55353238246119
 20
1078.4484711688031
 30
0.0
 11
468.55353238246119
 21
1076.4484711688031
 31
0.0
  0
LINE
  5
999E
  8
0
 10
468.55353238246119
 20
1067.4484711688031
 30
0.0
 11
468.55353238246119
 21
1065.4484711688031
 31
0.0
  0
LINE
  5
999F
  8
0
 10
468.55353238246119
 20
1057.4484711688031
 30
0.0
 11
468.55353238246119
 21
1055.4484711688031
 31
0.0
  0
ARC
  5
99A0
  8
0
 10
382.4074303824612
 20
1052.4484711688031
 30
0.0
 40
3.0
 50
90.0
 51
190.28656100000819
  0
ARC
  5
99A1
  8
0
 10
383.0181003824614
 20
1051.5086231688031
 30
0.0
 40
3.4700000000000002
 50
90.0
 51
186.1896490000004
  0
LINE
  5
99A2
  8
0
 10
288.71137438246132
 20
1057.4484711688031
 30
0.0
 11
288.71137438246132
 21
1055.4484711688031
 31
0.0
  0
LINE
  5
99A3
  8
0
 10
273.7113743824612
 20
1067.4484711688031
 30
0.0
 11
273.7113743824612
 21
1065.4484711688031
 31
0.0
  0
LINE
  5
99A4
  8
0
 10
273.7113743824612
 20
1078.4484711688031
 30
0.0
 11
273.7113743824612
 21
1076.4484711688031
 31
0.0
  0
LINE
  5
99A5
  8
0
 10
273.7113743824612
 20
1089.4484711688031
 30
0.0
 11
273.7113743824612
 21
1087.4484711688031
 31
0.0
  0
LINE
  5
99A6
  8
0
 10
273.7113743824612
 20
1100.4484711688031
 30
0.0
 11
273.7113743824612
 21
1098.4484711688031
 31
0.0
  0
LINE
  5
99A7
  8
0
 10
288.71137438246132
 20
1055.4484711688031
 30
0.0
 11
286.63245338246122
 21
1054.9786231688031
 31
0.0
  0
LINE
  5
99A8
  8
0
 10
288.71137438246132
 20
1057.4484711688031
 30
0.0
 11
286.63245338246122
 21
1057.9263151688031
 31
0.0
  0
LINE
  5
99A9
  8
0
 10
273.7113743824612
 20
1065.4484711688031
 30
0.0
 11
271.63245338246122
 21
1064.9780991688031
 31
0.0
  0
LINE
  5
99AA
  8
0
 10
273.7113743824612
 20
1067.4484711688031
 30
0.0
 11
271.63245338246122
 21
1067.9395781688031
 31
0.0
  0
LINE
  5
99AB
  8
0
 10
273.7113743824612
 20
1076.4484711688031
 30
0.0
 11
271.63245338246122
 21
1075.970279168803
 31
0.0
  0
LINE
  5
99AC
  8
0
 10
273.7113743824612
 20
1078.4484711688031
 30
0.0
 11
271.63245338246122
 21
1078.9629061688031
 31
0.0
  0
LINE
  5
99AD
  8
0
 10
273.7113743824612
 20
1087.4484711688031
 30
0.0
 11
271.63245338246122
 21
1086.953074168802
 31
0.0
  0
LINE
  5
99AE
  8
0
 10
273.7113743824612
 20
1089.4484711688031
 30
0.0
 11
271.63245338246122
 21
1089.998780168803
 31
0.0
  0
LINE
  5
99AF
  8
0
 10
273.7113743824612
 20
1098.4484711688031
 30
0.0
 11
271.63245338246122
 21
1097.9229531688029
 31
0.0
  0
LINE
  5
99B0
  8
0
 10
273.7113743824612
 20
1100.4484711688031
 30
0.0
 11
271.63245338246122
 21
1101.0538661688031
 31
0.0
  0
LINE
  5
99B1
  8
0
 10
273.7113743824612
 20
1107.4484711688031
 30
0.0
 11
271.63245338246122
 21
1106.881429168802
 31
0.0
  0
LINE
  5
99B2
  8
0
 10
273.7113743824612
 20
1109.4484711688031
 30
0.0
 11
271.63245338246122
 21
1110.125739168803
 31
0.0
  0
LINE
  5
99B3
  8
0
 10
273.7113743824612
 20
1109.4484711688031
 30
0.0
 11
273.7113743824612
 21
1107.4484711688031
 31
0.0
  0
LINE
  5
99B4
  8
0
 10
271.63245338246122
 20
1106.881429168802
 30
0.0
 11
271.63245338246122
 21
1110.125739168803
 31
0.0
  0
LINE
  5
99B5
  8
0
 10
271.63245338246122
 20
1097.9229531688029
 30
0.0
 11
271.63245338246122
 21
1101.0538661688031
 31
0.0
  0
LINE
  5
99B6
  8
0
 10
271.63245338246122
 20
1086.953074168802
 30
0.0
 11
271.63245338246122
 21
1089.998780168803
 31
0.0
  0
LINE
  5
99B7
  8
0
 10
271.63245338246122
 20
1075.970279168803
 30
0.0
 11
271.63245338246122
 21
1078.9629061688031
 31
0.0
  0
LINE
  5
99B8
  8
0
 10
271.63245338246122
 20
1064.9780991688031
 30
0.0
 11
271.63245338246122
 21
1067.9395781688031
 31
0.0
  0
LINE
  5
99B9
  8
0
 10
286.63245338246122
 20
1054.9786231688031
 30
0.0
 11
286.63245338246122
 21
1057.9263151688031
 31
0.0
  0
LINE
  5
99BA
  8
0
 10
286.63245338246122
 20
1057.9263151688031
 30
0.0
 11
361.0592103824614
 21
1057.9263151688031
 31
0.0
  0
LINE
  5
99BB
  8
0
 10
286.63245338246122
 20
1054.9786231688031
 30
0.0
 11
354.24680638246122
 21
1054.9786231688031
 31
0.0
  0
LINE
  5
99BC
  8
0
 10
354.85747638246119
 20
1055.4484711688031
 30
0.0
 11
288.71137438246132
 21
1055.4484711688031
 31
0.0
  0
LINE
  5
99BD
  8
0
 10
360.58571538246122
 20
1057.4484711688031
 30
0.0
 11
288.71137438246132
 21
1057.4484711688031
 31
0.0
  0
ARC
  5
99BE
  8
0
 10
354.85747638246119
 20
1052.4484711688031
 30
0.0
 40
3.0
 50
349.71343899999181
 51
90.0
  0
ARC
  5
99BF
  8
0
 10
354.24680638246122
 20
1051.5086231688031
 30
0.0
 40
3.4700000000000002
 50
353.81035099999951
 51
90.0
  0
LINE
  5
99C0
  8
0
 10
470.63245338246111
 20
1009.898162168803
 30
0.0
 11
271.63245338246122
 21
1009.898162168803
 31
0.0
  0
LINE
  5
99C1
  8
0
 10
470.63245338246111
 20
1012.943868168803
 30
0.0
 11
271.63245338246122
 21
1012.943868168803
 31
0.0
  0
LINE
  5
99C2
  8
0
 10
470.63245338246111
 20
1020.934036168803
 30
0.0
 11
271.63245338246122
 21
1020.934036168803
 31
0.0
  0
LINE
  5
99C3
  8
0
 10
470.63245338246111
 20
1023.926663168803
 30
0.0
 11
271.63245338246122
 21
1023.926663168803
 31
0.0
  0
LINE
  5
99C4
  8
0
 10
470.63245338246111
 20
1031.957364168803
 30
0.0
 11
271.63245338246122
 21
1031.957364168803
 31
0.0
  0
LINE
  5
99C5
  8
0
 10
470.63245338246111
 20
1034.9188431688031
 30
0.0
 11
271.63245338246122
 21
1034.9188431688031
 31
0.0
  0
LINE
  5
99C6
  8
0
 10
273.7113743824612
 20
1012.4484711688031
 30
0.0
 11
468.55353238246119
 21
1012.4484711688031
 31
0.0
  0
LINE
  5
99C7
  8
0
 10
273.7113743824612
 20
1010.4484711688031
 30
0.0
 11
468.55353238246119
 21
1010.4484711688031
 31
0.0
  0
LINE
  5
99C8
  8
0
 10
273.7113743824612
 20
1023.4484711688031
 30
0.0
 11
468.55353238246119
 21
1023.4484711688031
 31
0.0
  0
LINE
  5
99C9
  8
0
 10
273.7113743824612
 20
1021.4484711688031
 30
0.0
 11
468.55353238246119
 21
1021.4484711688031
 31
0.0
  0
LINE
  5
99CA
  8
0
 10
273.7113743824612
 20
1034.4484711688031
 30
0.0
 11
468.55353238246119
 21
1034.4484711688031
 31
0.0
  0
LINE
  5
99CB
  8
0
 10
273.7113743824612
 20
1032.4484711688031
 30
0.0
 11
468.55353238246119
 21
1032.4484711688031
 31
0.0
  0
LINE
  5
99CC
  8
0
 10
286.63245338246122
 20
1041.970627168803
 30
0.0
 11
361.0592103824614
 21
1041.970627168803
 31
0.0
  0
LINE
  5
99CD
  8
0
 10
286.63245338246122
 20
1044.918319168803
 30
0.0
 11
354.24680638246122
 21
1044.918319168803
 31
0.0
  0
LINE
  5
99CE
  8
0
 10
354.85747638246119
 20
1044.4484711688031
 30
0.0
 11
288.71137438246132
 21
1044.4484711688031
 31
0.0
  0
LINE
  5
99CF
  8
0
 10
360.58571538246122
 20
1042.4484711688031
 30
0.0
 11
288.71137438246132
 21
1042.4484711688031
 31
0.0
  0
LINE
  5
99D0
  8
0
 10
286.63245338246122
 20
1044.918319168803
 30
0.0
 11
286.63245338246122
 21
1041.970627168803
 31
0.0
  0
LINE
  5
99D1
  8
0
 10
271.63245338246122
 20
1034.9188431688031
 30
0.0
 11
271.63245338246122
 21
1031.957364168803
 31
0.0
  0
LINE
  5
99D2
  8
0
 10
271.63245338246122
 20
1023.926663168803
 30
0.0
 11
271.63245338246122
 21
1020.934036168803
 31
0.0
  0
LINE
  5
99D3
  8
0
 10
271.63245338246122
 20
1012.943868168803
 30
0.0
 11
271.63245338246122
 21
1009.898162168803
 31
0.0
  0
LINE
  5
99D4
  8
0
 10
273.7113743824612
 20
1010.4484711688031
 30
0.0
 11
271.63245338246122
 21
1009.898162168803
 31
0.0
  0
LINE
  5
99D5
  8
0
 10
273.7113743824612
 20
1012.4484711688031
 30
0.0
 11
271.63245338246122
 21
1012.943868168803
 31
0.0
  0
LINE
  5
99D6
  8
0
 10
273.7113743824612
 20
1021.4484711688031
 30
0.0
 11
271.63245338246122
 21
1020.934036168803
 31
0.0
  0
LINE
  5
99D7
  8
0
 10
273.7113743824612
 20
1023.4484711688031
 30
0.0
 11
271.63245338246122
 21
1023.926663168803
 31
0.0
  0
LINE
  5
99D8
  8
0
 10
273.7113743824612
 20
1032.4484711688031
 30
0.0
 11
271.63245338246122
 21
1031.957364168803
 31
0.0
  0
LINE
  5
99D9
  8
0
 10
273.7113743824612
 20
1034.4484711688031
 30
0.0
 11
271.63245338246122
 21
1034.9188431688031
 31
0.0
  0
LINE
  5
99DA
  8
0
 10
288.71137438246132
 20
1042.4484711688031
 30
0.0
 11
286.63245338246122
 21
1041.970627168803
 31
0.0
  0
LINE
  5
99DB
  8
0
 10
288.71137438246132
 20
1044.4484711688031
 30
0.0
 11
286.63245338246122
 21
1044.918319168803
 31
0.0
  0
LINE
  5
99DC
  8
0
 10
273.7113743824612
 20
1010.4484711688031
 30
0.0
 11
273.7113743824612
 21
1012.4484711688031
 31
0.0
  0
LINE
  5
99DD
  8
0
 10
273.7113743824612
 20
1021.4484711688031
 30
0.0
 11
273.7113743824612
 21
1023.4484711688031
 31
0.0
  0
LINE
  5
99DE
  8
0
 10
273.7113743824612
 20
1032.4484711688031
 30
0.0
 11
273.7113743824612
 21
1034.4484711688031
 31
0.0
  0
LINE
  5
99DF
  8
0
 10
288.71137438246132
 20
1042.4484711688031
 30
0.0
 11
288.71137438246132
 21
1044.4484711688031
 31
0.0
  0
ARC
  5
99E0
  8
0
 10
354.85747638246119
 20
1047.4484711688031
 30
0.0
 40
3.0
 50
270.0
 51
10.28656100000822
  0
ARC
  5
99E1
  8
0
 10
354.24680638246122
 20
1048.388319168803
 30
0.0
 40
3.4700000000000002
 50
270.0
 51
6.1896490000005366
  0
LINE
  5
99E2
  8
0
 10
470.63245338246111
 20
1041.970627168803
 30
0.0
 11
376.2056963824611
 21
1041.970627168803
 31
0.0
  0
LINE
  5
99E3
  8
0
 10
470.63245338246111
 20
1044.918319168803
 30
0.0
 11
383.0181003824614
 21
1044.918319168803
 31
0.0
  0
LINE
  5
99E4
  8
0
 10
382.4074303824612
 20
1044.4484711688031
 30
0.0
 11
468.55353238246119
 21
1044.4484711688031
 31
0.0
  0
LINE
  5
99E5
  8
0
 10
376.67919138246123
 20
1042.4484711688031
 30
0.0
 11
468.55353238246119
 21
1042.4484711688031
 31
0.0
  0
ARC
  5
99E6
  8
0
 10
382.4074303824612
 20
1047.4484711688031
 30
0.0
 40
3.0
 50
169.71343899999181
 51
270.0
  0
ARC
  5
99E7
  8
0
 10
383.0181003824614
 20
1048.388319168803
 30
0.0
 40
3.4700000000000002
 50
173.8103509999994
 51
270.0
  0
LINE
  5
99E8
  8
0
 10
468.55353238246119
 20
1042.4484711688031
 30
0.0
 11
468.55353238246119
 21
1044.4484711688031
 31
0.0
  0
LINE
  5
99E9
  8
0
 10
468.55353238246119
 20
1032.4484711688031
 30
0.0
 11
468.55353238246119
 21
1034.4484711688031
 31
0.0
  0
LINE
  5
99EA
  8
0
 10
468.55353238246119
 20
1021.4484711688031
 30
0.0
 11
468.55353238246119
 21
1023.4484711688031
 31
0.0
  0
LINE
  5
99EB
  8
0
 10
468.55353238246119
 20
1010.4484711688031
 30
0.0
 11
468.55353238246119
 21
1012.4484711688031
 31
0.0
  0
LINE
  5
99EC
  8
0
 10
468.55353238246119
 20
1044.4484711688031
 30
0.0
 11
470.63245338246111
 21
1044.918319168803
 31
0.0
  0
LINE
  5
99ED
  8
0
 10
468.55353238246119
 20
1042.4484711688031
 30
0.0
 11
470.63245338246111
 21
1041.970627168803
 31
0.0
  0
LINE
  5
99EE
  8
0
 10
468.55353238246119
 20
1034.4484711688031
 30
0.0
 11
470.63245338246111
 21
1034.9188431688031
 31
0.0
  0
LINE
  5
99EF
  8
0
 10
468.55353238246119
 20
1032.4484711688031
 30
0.0
 11
470.63245338246111
 21
1031.957364168803
 31
0.0
  0
LINE
  5
99F0
  8
0
 10
468.55353238246119
 20
1023.4484711688031
 30
0.0
 11
470.63245338246111
 21
1023.926663168803
 31
0.0
  0
LINE
  5
99F1
  8
0
 10
468.55353238246119
 20
1021.4484711688031
 30
0.0
 11
470.63245338246111
 21
1020.934036168803
 31
0.0
  0
LINE
  5
99F2
  8
0
 10
468.55353238246119
 20
1012.4484711688031
 30
0.0
 11
470.63245338246111
 21
1012.943868168803
 31
0.0
  0
LINE
  5
99F3
  8
0
 10
468.55353238246119
 20
1010.4484711688031
 30
0.0
 11
470.63245338246111
 21
1009.898162168803
 31
0.0
  0
LINE
  5
99F4
  8
0
 10
470.63245338246111
 20
1012.943868168803
 30
0.0
 11
470.63245338246111
 21
1009.898162168803
 31
0.0
  0
LINE
  5
99F5
  8
0
 10
470.63245338246111
 20
1023.926663168803
 30
0.0
 11
470.63245338246111
 21
1020.934036168803
 31
0.0
  0
LINE
  5
99F6
  8
0
 10
470.63245338246111
 20
1034.9188431688031
 30
0.0
 11
470.63245338246111
 21
1031.957364168803
 31
0.0
  0
LINE
  5
99F7
  8
0
 10
470.63245338246111
 20
1044.918319168803
 30
0.0
 11
470.63245338246111
 21
1041.970627168803
 31
0.0
  0
LINE
  5
99F8
  8
0
 10
403.5535323824609
 20
1001.4484711688031
 30
0.0
 11
405.63245338246122
 21
1001.943868168803
 31
0.0
  0
LINE
  5
99F9
  8
0
 10
405.63245338246122
 20
1001.943868168803
 30
0.0
 11
271.63245338246122
 21
1001.943868168803
 31
0.0
  0
LINE
  5
99FA
  8
0
 10
273.7113743824612
 20
1001.4484711688031
 30
0.0
 11
403.5535323824609
 21
1001.4484711688031
 31
0.0
  0
LINE
  5
99FB
  8
0
 10
403.5535323824609
 20
999.44847116880317
 30
0.0
 11
403.5535323824609
 21
1001.4484711688031
 31
0.0
  0
LINE
  5
99FC
  8
0
 10
405.63245338246122
 20
998.89816216880308
 30
0.0
 11
271.63245338246122
 21
998.89816216880308
 31
0.0
  0
LINE
  5
99FD
  8
0
 10
273.7113743824612
 20
999.44847116880317
 30
0.0
 11
403.5535323824609
 21
999.44847116880317
 31
0.0
  0
LINE
  5
99FE
  8
0
 10
403.5535323824609
 20
999.44847116880317
 30
0.0
 11
405.63245338246122
 21
998.89816216880308
 31
0.0
  0
LINE
  5
99FF
  8
0
 10
405.63245338246122
 20
992.94386816880353
 30
0.0
 11
271.63245338246122
 21
992.94386816880353
 31
0.0
  0
LINE
  5
9A00
  8
0
 10
273.7113743824612
 20
992.44847116880317
 30
0.0
 11
403.5535323824609
 21
992.44847116880317
 31
0.0
  0
LINE
  5
9A01
  8
0
 10
405.63245338246122
 20
989.89816216880308
 30
0.0
 11
271.6660103824612
 21
989.89816216880308
 31
0.0
  0
LINE
  5
9A02
  8
0
 10
273.7113743824612
 20
990.44847116880328
 30
0.0
 11
403.5535323824609
 21
990.44847116880328
 31
0.0
  0
LINE
  5
9A03
  8
0
 10
403.5535323824609
 20
990.44847116880328
 30
0.0
 11
405.63245338246122
 21
989.89816216880308
 31
0.0
  0
LINE
  5
9A04
  8
0
 10
405.63245338246122
 20
992.94386816880353
 30
0.0
 11
405.63245338246122
 21
989.89816216880308
 31
0.0
  0
LINE
  5
9A05
  8
0
 10
403.5535323824609
 20
990.44847116880328
 30
0.0
 11
403.5535323824609
 21
992.44847116880317
 31
0.0
  0
LINE
  5
9A06
  8
0
 10
403.5535323824609
 20
992.44847116880317
 30
0.0
 11
405.63245338246122
 21
992.94386816880353
 31
0.0
  0
LINE
  5
9A07
  8
0
 10
405.63245338246122
 20
989.89816216880308
 30
0.0
 11
420.63245338246111
 21
989.89816216880308
 31
0.0
  0
LINE
  5
9A08
  8
0
 10
420.63245338246111
 20
989.89816216880308
 30
0.0
 11
436.63245338246088
 21
985.55623716880325
 31
0.0
  0
LINE
  5
9A09
  8
0
 10
271.63245338246122
 20
1001.943868168803
 30
0.0
 11
271.63245338246122
 21
998.89816216880308
 31
0.0
  0
LINE
  5
9A0A
  8
0
 10
271.63245338246122
 20
992.94386816880353
 30
0.0
 11
271.63245338246122
 21
989.89816216880308
 31
0.0
  0
LINE
  5
9A0B
  8
0
 10
273.7113743824612
 20
999.44847116880317
 30
0.0
 11
273.7113743824612
 21
1001.4484711688031
 31
0.0
  0
LINE
  5
9A0C
  8
0
 10
273.7113743824612
 20
1001.4484711688031
 30
0.0
 11
271.63245338246122
 21
1001.943868168803
 31
0.0
  0
LINE
  5
9A0D
  8
0
 10
273.7113743824612
 20
999.44847116880317
 30
0.0
 11
271.63245338246122
 21
998.89816216880308
 31
0.0
  0
LINE
  5
9A0E
  8
0
 10
273.7113743824612
 20
992.44847116880317
 30
0.0
 11
271.63245338246122
 21
992.94386816880353
 31
0.0
  0
LINE
  5
9A0F
  8
0
 10
273.7113743824612
 20
990.44847116880328
 30
0.0
 11
273.7113743824612
 21
992.44847116880317
 31
0.0
  0
LINE
  5
9A10
  8
0
 10
273.7113743824612
 20
990.44847116880328
 30
0.0
 11
271.63245338246122
 21
989.89816216880308
 31
0.0
  0
LINE
  5
9A11
  8
0
 10
268.13245338246122
 20
1057.5922421688031
 30
0.0
 11
274.63245338246122
 21
1057.5922421688031
 31
0.0
  0
LINE
  5
9A12
  8
0
 10
268.13245338246122
 20
1057.926320168802
 30
0.0
 11
275.312453382461
 21
1057.926320168802
 31
0.0
  0
LINE
  5
9A13
  8
0
 10
276.63245338246122
 20
1055.5922421688031
 30
0.0
 11
276.63245338246122
 21
1049.948475168803
 31
0.0
  0
LINE
  5
9A14
  8
0
 10
278.31245338246111
 20
1060.926320168802
 30
0.0
 11
278.31245338246111
 21
1049.948475168803
 31
0.0
  0
ARC
  5
9A15
  8
0
 10
275.312453382461
 20
1060.926320168802
 30
0.0
 40
3.0
 50
270.0
 51
0.0
  0
LINE
  5
9A16
  8
0
 10
268.13245338246122
 20
1042.3047071688029
 30
0.0
 11
274.63245338246122
 21
1042.3047071688029
 31
0.0
  0
LINE
  5
9A17
  8
0
 10
268.13245338246122
 20
1041.970629168803
 30
0.0
 11
275.312453382461
 21
1041.970629168803
 31
0.0
  0
LINE
  5
9A18
  8
0
 10
276.63245338246122
 20
1044.3047071688029
 30
0.0
 11
276.63245338246122
 21
1049.948475168803
 31
0.0
  0
LINE
  5
9A19
  8
0
 10
278.31245338246111
 20
1038.970629168803
 30
0.0
 11
278.31245338246111
 21
1049.948475168803
 31
0.0
  0
ARC
  5
9A1A
  8
0
 10
275.312453382461
 20
1038.970629168803
 30
0.0
 40
3.0
 50
359.99999799999722
 51
89.999997999997177
  0
ARC
  5
9A1B
  8
0
  6
CONTINUOUS
 10
453.33225238246109
 20
1121.431737168803
 30
0.0
 40
2.600398999999999
 50
179.99998200000081
 51
269.99997799999852
  0
ARC
  5
9A1C
  8
0
  6
CONTINUOUS
 10
453.33225238246109
 20
1126.731725168803
 30
0.0
 40
2.600403
 50
90.0
 51
179.99998200000081
  0
LINE
  5
9A1D
  8
0
  6
CONTINUOUS
 10
456.13245338246122
 20
1124.147756168803
 30
0.0
 11
454.63245338246111
 21
1123.2817311688029
 31
0.0
  0
LINE
  5
9A1E
  8
0
  6
CONTINUOUS
 10
456.13245338246122
 20
1125.147756168803
 30
0.0
 11
454.63245338246111
 21
1124.281731168802
 31
0.0
  0
LINE
  5
9A1F
  8
0
  6
CONTINUOUS
 10
456.13245338246122
 20
1130.181731168803
 30
0.0
 11
456.13245338246122
 21
1117.981731168803
 31
0.0
  0
LINE
  5
9A20
  8
0
  6
CONTINUOUS
 10
454.63245338246111
 20
1130.181731168803
 30
0.0
 11
456.13245338246122
 21
1130.181731168803
 31
0.0
  0
LINE
  5
9A21
  8
0
  6
CONTINUOUS
 10
454.63245338246111
 20
1117.981731168803
 30
0.0
 11
456.13245338246122
 21
1117.981731168803
 31
0.0
  0
LINE
  5
9A22
  8
0
  6
CONTINUOUS
 10
450.73245938246117
 20
1126.731725168803
 30
0.0
 11
450.73245938246117
 21
1121.431737168803
 31
0.0
  0
LINE
  5
9A23
  8
0
  6
CONTINUOUS
 10
454.63245338246111
 20
1130.181731168803
 30
0.0
 11
454.63245338246111
 21
1117.981731168803
 31
0.0
  0
LINE
  5
9A24
  8
0
  6
CONTINUOUS
 10
454.63245338246111
 20
1118.8317311688029
 30
0.0
 11
453.33225238246109
 21
1118.8317311688029
 31
0.0
  0
LINE
  5
9A25
  8
0
  6
CONTINUOUS
 10
454.63245338246111
 20
1129.3317311688029
 30
0.0
 11
453.33225238246109
 21
1129.3317311688029
 31
0.0
  0
ARC
  5
9A26
  8
0
  6
CONTINUOUS
 10
453.33225238246109
 20
995.38981016880325
 30
0.0
 40
2.600398999999999
 50
179.99998200000081
 51
269.99997799999852
  0
ARC
  5
9A27
  8
0
  6
CONTINUOUS
 10
453.33225238246109
 20
1000.689798168803
 30
0.0
 40
2.600403
 50
90.0
 51
179.99998200000081
  0
LINE
  5
9A28
  8
0
  6
CONTINUOUS
 10
456.13245338246122
 20
998.10582916880321
 30
0.0
 11
454.63245338246111
 21
997.2398041688034
 31
0.0
  0
LINE
  5
9A29
  8
0
  6
CONTINUOUS
 10
456.13245338246122
 20
999.10582916880321
 30
0.0
 11
454.63245338246111
 21
998.2398041688034
 31
0.0
  0
LINE
  5
9A2A
  8
0
  6
CONTINUOUS
 10
456.13245338246122
 20
1004.139804168803
 30
0.0
 11
456.13245338246122
 21
991.93980416880311
 31
0.0
  0
LINE
  5
9A2B
  8
0
  6
CONTINUOUS
 10
454.63245338246111
 20
1004.139804168803
 30
0.0
 11
456.13245338246122
 21
1004.139804168803
 31
0.0
  0
LINE
  5
9A2C
  8
0
  6
CONTINUOUS
 10
454.63245338246111
 20
991.93980416880311
 30
0.0
 11
456.13245338246122
 21
991.93980416880311
 31
0.0
  0
LINE
  5
9A2D
  8
0
  6
CONTINUOUS
 10
450.73245938246117
 20
1000.689798168803
 30
0.0
 11
450.73245938246117
 21
995.38981016880325
 31
0.0
  0
LINE
  5
9A2E
  8
0
  6
CONTINUOUS
 10
454.63245338246111
 20
1004.139804168803
 30
0.0
 11
454.63245338246111
 21
991.93980416880311
 31
0.0
  0
LINE
  5
9A2F
  8
0
  6
CONTINUOUS
 10
454.63245338246111
 20
992.78980416880324
 30
0.0
 11
453.33225238246109
 21
992.78980416880324
 31
0.0
  0
LINE
  5
9A30
  8
0
  6
CONTINUOUS
 10
454.63245338246111
 20
1003.289804168803
 30
0.0
 11
453.33225238246109
 21
1003.289804168803
 31
0.0
  0
LINE
  5
9BBF
  8
0
  6
CONTINUOUS
 62
     0
 10
475.6323933824612
 20
1133.948441168804
 30
0.0
 11
489.306893382461
 21
1134.4259711688039
 31
0.0
  0
LINE
  5
9BC0
  8
0
  6
CONTINUOUS
 62
     0
 10
475.6323933824612
 20
965.94844116880324
 30
0.0
 11
489.306893382461
 21
965.47090116880406
 31
0.0
  0
LINE
  5
9BC1
  8
0
  6
CONTINUOUS
 62
     0
 10
544.13245338246111
 20
916.948501168804
 30
0.0
 11
518.95795338246114
 21
917.82765116880364
 31
0.0
  0
LINE
  5
9BC2
  8
0
  6
CONTINUOUS
 62
     0
 10
544.13239338246115
 20
1182.948441168804
 30
0.0
 11
518.95789338246084
 21
1182.0693511688039
 31
0.0
  0
LINE
  5
9BC3
  8
0
  6
CONTINUOUS
 62
     0
 10
509.306893382461
 20
1161.7625211688039
 30
0.0
 11
498.95789338246118
 21
1161.4011311688041
 31
0.0
  0
LINE
  5
9BC4
  8
0
  6
CONTINUOUS
 62
     0
 10
509.30695338246107
 20
938.13447116880354
 30
0.0
 11
498.95789338246118
 21
938.49586116880357
 31
0.0
  0
LINE
  5
9BC5
  8
0
  6
CONTINUOUS
 62
     0
 10
494.13239338246109
 20
943.49281116880354
 30
0.0
 11
494.13239338246109
 21
1156.4041911688039
 31
0.0
  0
LINE
  5
9BC6
  8
0
  6
CENTER
 62
     0
 10
526.13245338246122
 20
1034.7682011688039
 30
0.0
 11
526.13245338246122
 21
1064.5030611688039
 31
0.0
  0
LINE
  5
9BC7
  8
0
  6
CONTINUOUS
 62
     0
 10
506.13245338246122
 20
1044.948501168803
 30
0.0
 11
546.13245338246111
 21
1044.948501168803
 31
0.0
  0
LINE
  5
9BC8
  8
0
  6
CONTINUOUS
 62
     0
 10
506.13245338246122
 20
1054.948501168803
 30
0.0
 11
546.13245338246111
 21
1054.948501168803
 31
0.0
  0
LINE
  5
9BC9
  8
0
  6
CONTINUOUS
 62
     0
 10
514.13239338246126
 20
922.8246011688035
 30
0.0
 11
514.13239338246126
 21
1039.412911168803
 31
0.0
  0
LINE
  5
9BCA
  8
0
  6
CONTINUOUS
 62
     0
 10
514.13239338246126
 20
1060.4840211688031
 30
0.0
 11
514.13239338246126
 21
1177.0724011688019
 31
0.0
  0
ARC
  5
9BCB
  8
0
  6
CONTINUOUS
 62
     0
 10
499.1323933824612
 20
943.49281116880354
 30
0.0
 40
5.0
 50
180.00001000000091
 51
267.99999999999648
  0
ARC
  5
9BCC
  8
0
  6
CONTINUOUS
 62
     0
 10
499.1323933824612
 20
1156.4041911688039
 30
0.0
 40
5.0
 50
91.999997999994264
 51
180.00001000000091
  0
ARC
  5
9BCD
  8
0
  6
CONTINUOUS
 62
     0
 10
526.13245338246122
 20
1049.948501168803
 30
0.0
 40
15.0
 50
148.2119799999972
 51
160.52876999999819
  0
ARC
  5
9BCE
  8
0
  6
CONTINUOUS
 62
     0
 10
526.13245338246122
 20
1049.948501168803
 30
0.0
 40
12.5
 50
23.57817999999623
 51
156.42182000000369
  0
ARC
  5
9BCF
  8
0
  6
CONTINUOUS
 62
     0
 10
506.13245338246122
 20
1049.948501168803
 30
0.0
 40
5.0
 50
90.000002999984659
 51
270.0
  0
ARC
  5
9BD0
  8
0
  6
CONTINUOUS
 62
     0
 10
546.13245338246111
 20
1049.948501168803
 30
0.0
 40
5.0
 50
270.0
 51
90.000002999984659
  0
ARC
  5
9BD1
  8
0
  6
CONTINUOUS
 62
     0
 10
526.13245338246122
 20
1049.948501168803
 30
0.0
 40
12.5
 50
203.57817999999611
 51
336.42182999999483
  0
ARC
  5
9BD2
  8
0
  6
CONTINUOUS
 62
     0
 10
526.13245338246122
 20
1049.948501168803
 30
0.0
 40
15.0
 50
199.47123000000161
 51
211.7880200000028
  0
ARC
  5
9BD3
  8
0
  6
CONTINUOUS
 62
     0
 10
519.13239338246115
 20
922.8246011688035
 30
0.0
 40
5.0
 50
180.00001000000091
 51
267.99999999999648
  0
ARC
  5
9BD4
  8
0
  6
CONTINUOUS
 62
     0
 10
519.13239338246115
 20
1177.0724011688019
 30
0.0
 40
5.0
 50
91.999997999994264
 51
180.00001000000091
  0
ARC
  5
9BD5
  8
0
  6
CONTINUOUS
 62
     0
 10
489.13239338246132
 20
960.47395116880364
 30
0.0
 40
5.0
 50
0.0
 51
87.999999999996447
  0
ARC
  5
9BD6
  8
0
  6
CONTINUOUS
 62
     0
 10
489.13239338246132
 20
1139.4229811688031
 30
0.0
 40
5.0
 50
272.00000000000352
 51
0.0
  0
ARC
  5
9BD7
  8
0
  6
CONTINUOUS
 62
     0
 10
509.13239338246137
 20
1166.7594711688021
 30
0.0
 40
5.0
 50
272.00000000000352
 51
0.0
  0
ARC
  5
9BD8
  8
0
  6
CONTINUOUS
 62
     0
 10
509.13239338246137
 20
933.1374611688035
 30
0.0
 40
5.0
 50
0.0
 51
87.999999999996447
  0
ARC
  5
9BD9
  8
0
  6
CONTINUOUS
 62
     0
 10
509.13239338246137
 20
1039.412911168803
 30
0.0
 40
5.0
 50
0.0
 51
31.788018000003131
  0
ARC
  5
9BDA
  8
0
  6
CONTINUOUS
 62
     0
 10
509.13239338246137
 20
1060.4840211688031
 30
0.0
 40
5.0
 50
328.21197999999731
 51
0.0
  0
LINE
  5
9BDD
  8
0
  6
CONTINUOUS
 62
     0
 10
476.1324033824601
 20
669.59727329805673
 30
0.0
 11
494.6324033824605
 21
669.59727329805673
 31
0.0
  0
LINE
  5
9BDE
  8
0
  6
CONTINUOUS
 62
     0
 10
476.1324033824601
 20
655.92356229805648
 30
0.0
 11
494.6324033824605
 21
655.92356229805648
 31
0.0
  0
LINE
  5
9BDF
  8
0
  6
CONTINUOUS
 62
     0
 10
476.1324033824601
 20
531.66835029805645
 30
0.0
 11
494.6324033824605
 21
531.66835029805645
 31
0.0
  0
LINE
  5
9BE0
  8
0
  6
CONTINUOUS
 62
     0
 10
476.1324033824601
 20
543.95563129805669
 30
0.0
 11
494.6324033824605
 21
543.95563129805669
 31
0.0
  0
LINE
  5
9BE1
  8
0
  6
CONTINUOUS
 62
     0
 10
476.1324033824601
 20
554.13492329805672
 30
0.0
 11
494.6324033824605
 21
554.13492329805672
 31
0.0
  0
LINE
  5
9BE2
  8
0
  6
CONTINUOUS
 62
     0
 10
475.63245338246111
 20
1125.6881151688031
 30
0.0
 11
494.13239338246109
 21
1125.6881151688031
 31
0.0
  0
LINE
  5
9BE3
  8
0
  6
CONTINUOUS
 62
     0
 10
475.63245338246111
 20
1112.014433168803
 30
0.0
 11
494.13239338246109
 21
1112.014433168803
 31
0.0
  0
LINE
  5
9BE4
  8
0
  6
CONTINUOUS
 62
     0
 10
475.63245338246111
 20
1000.046473168803
 30
0.0
 11
494.13239338246109
 21
1000.046473168803
 31
0.0
  0
LINE
  5
9BE5
  8
0
  6
CONTINUOUS
 62
     0
 10
475.63245338246111
 20
1010.225765168803
 30
0.0
 11
494.13239338246109
 21
1010.225765168803
 31
0.0
  0
LINE
  5
9BE6
  8
0
  6
CONTINUOUS
 62
     0
 10
475.63245338246111
 20
987.73883416880324
 30
0.0
 11
494.13239338246109
 21
987.73883416880324
 31
0.0
  0
TEXT
  5
A2EA
  8
0
  6
CONTINUOUS
 62
     0
 10
889.11933104808452
 20
1036.1913473779371
 30
0.0
 40
15.0
  1
VX15-120EM~VX15-200EM
  0
ENDSEC
  0
EOF
