  0
SECTION
  2
HEADER
  9
$ACADVER
  1
AC1009
  9
$INSBASE
 10
0.0
 20
0.0
 30
0.0
  9
$EXTMIN
 10
133.77178598912809
 20
402.44231212035601
 30
-0.000000000000013
  9
$EXTMAX
 10
1010.8961902614529
 20
942.88292857322153
 30
0.0000000000000023
  9
$LIMMIN
 10
0.0000005999945643
 20
-0.0000005963913736
  9
$LIMMAX
 10
1422.5000005999941
 20
924.99999940360874
  9
$ORTHOMODE
 70
     0
  9
$REGENMODE
 70
     1
  9
$FILLMODE
 70
     1
  9
$QTEXTMODE
 70
     0
  9
$MIRRTEXT
 70
     0
  9
$DRAGMODE
 70
     2
  9
$LTSCALE
 40
1.0
  9
$OSMODE
 70
   551
  9
$ATTMODE
 70
     1
  9
$TEXTSIZE
 40
2.5
  9
$TRACEWID
 40
1.0
  9
$TEXTSTYLE
  7
STANDARD
  9
$CLAYER
  8
0
  9
$CELTYPE
  6
BYLAYER
  9
$CECOLOR
 62
   256
  9
$DIMSCALE
 40
1.0
  9
$DIMASZ
 40
2.0
  9
$DIMEXO
 40
1.0
  9
$DIMDLI
 40
8.0
  9
$DIMRND
 40
0.0
  9
$DIMDLE
 40
0.0
  9
$DIMEXE
 40
1.0
  9
$DIMTP
 40
-0.025
  9
$DIMTM
 40
0.043
  9
$DIMTXT
 40
2.5
  9
$DIMCEN
 40
0.0
  9
$DIMTSZ
 40
0.0
  9
$DIMTOL
 70
     0
  9
$DIMLIM
 70
     0
  9
$DIMTIH
 70
     0
  9
$DIMTOH
 70
     0
  9
$DIMSE1
 70
     0
  9
$DIMSE2
 70
     0
  9
$DIMTAD
 70
     3
  9
$DIMZIN
 70
     8
  9
$DIMBLK
  1

  9
$DIMASO
 70
     1
  9
$DIMSHO
 70
     1
  9
$DIMPOST
  1

  9
$DIMAPOST
  1
"
  9
$DIMALT
 70
     0
  9
$DIMALTD
 70
     2
  9
$DIMALTF
 40
0.0393701
  9
$DIMLFAC
 40
1.0
  9
$DIMTOFL
 70
     1
  9
$DIMTVP
 40
0.0
  9
$DIMTIX
 70
     0
  9
$DIMSOXD
 70
     0
  9
$DIMSAH
 70
     0
  9
$DIMBLK1
  1

  9
$DIMBLK2
  1

  9
$DIMSTYLE
  2
AM_JIS
  9
$DIMCLRD
 70
     2
  9
$DIMCLRE
 70
     2
  9
$DIMCLRT
 70
     4
  9
$DIMTFAC
 40
0.71
  9
$DIMGAP
 40
1.5
  9
$LUNITS
 70
     2
  9
$LUPREC
 70
     2
  9
$SKETCHINC
 40
1.0
  9
$FILLETRAD
 40
0.0
  9
$AUNITS
 70
     0
  9
$AUPREC
 70
     0
  9
$MENU
  1
.
  9
$ELEVATION
 40
0.0
  9
$PELEVATION
 40
0.0
  9
$THICKNESS
 40
0.0
  9
$LIMCHECK
 70
     0
  9
$BLIPMODE
 70
     0
  9
$CHAMFERA
 40
2.5
  9
$CHAMFERB
 40
2.5
  9
$SKPOLY
 70
     0
  9
$TDCREATE
 40
2456829.3841110538
  9
$TDUPDATE
 40
2458540.6853320492
  9
$TDINDWG
 40
0.6386891782
  9
$TDUSRTIMER
 40
0.638688588
  9
$USRTIMER
 70
     1
  9
$ANGBASE
 50
0.0
  9
$ANGDIR
 70
     0
  9
$PDMODE
 70
     0
  9
$PDSIZE
 40
0.0
  9
$PLINEWID
 40
0.0
  9
$COORDS
 70
     1
  9
$SPLFRAME
 70
     0
  9
$SPLINETYPE
 70
     6
  9
$SPLINESEGS
 70
     8
  9
$ATTDIA
 70
     1
  9
$ATTREQ
 70
     1
  9
$HANDLING
 70
     1
  9
$HANDSEED
  5
9A8A
  9
$SURFTAB1
 70
     6
  9
$SURFTAB2
 70
     6
  9
$SURFTYPE
 70
     6
  9
$SURFU
 70
     6
  9
$SURFV
 70
     6
  9
$UCSNAME
  2

  9
$UCSORG
 10
0.0
 20
0.0
 30
0.0
  9
$UCSXDIR
 10
1.0
 20
0.0
 30
0.0
  9
$UCSYDIR
 10
0.0
 20
1.0
 30
0.0
  9
$PUCSNAME
  2

  9
$PUCSORG
 10
0.0
 20
0.0
 30
0.0
  9
$PUCSXDIR
 10
1.0
 20
0.0
 30
0.0
  9
$PUCSYDIR
 10
0.0
 20
1.0
 30
0.0
  9
$USERI1
 70
     0
  9
$USERI2
 70
     0
  9
$USERI3
 70
     0
  9
$USERI4
 70
     0
  9
$USERI5
 70
     0
  9
$USERR1
 40
0.0
  9
$USERR2
 40
0.0
  9
$USERR3
 40
0.0
  9
$USERR4
 40
0.0
  9
$USERR5
 40
0.0
  9
$WORLDVIEW
 70
     1
  9
$SHADEDGE
 70
     3
  9
$SHADEDIF
 70
    70
  9
$TILEMODE
 70
     1
  9
$MAXACTVP
 70
    64
  9
$PLIMCHECK
 70
     0
  9
$PEXTMIN
 10
1.0000000000000000E+020
 20
1.0000000000000000E+020
 30
1.0000000000000000E+020
  9
$PEXTMAX
 10
-1.0000000000000000E+020
 20
-1.0000000000000000E+020
 30
-1.0000000000000000E+020
  9
$PLIMMIN
 10
0.0
 20
0.0
  9
$PLIMMAX
 10
420.0
 20
297.0
  9
$UNITMODE
 70
     0
  9
$VISRETAIN
 70
     1
  9
$PLINEGEN
 70
     0
  9
$PSLTSCALE
 70
     1
  0
ENDSEC
  0
SECTION
  2
TABLES
  0
TABLE
  2
VPORT
 70
     1
  0
VPORT
  2
*ACTIVE
 70
     0
 10
0.0
 20
0.0
 11
1.0
 21
1.0
 12
572.33398812529072
 22
672.6626203467888
 13
0.0
 23
0.0
 14
12.5
 24
12.5
 15
50.0
 25
50.0
 16
0.0
 26
0.0
 36
1.0
 17
0.0
 27
0.0
 37
0.0
 40
544.15073510128332
 41
1.7571592210767459
 42
50.0
 43
0.0
 44
0.0
 50
0.0
 51
0.0
 71
     0
 72
  1000
 73
     1
 74
     3
 75
     0
 76
     0
 77
     0
 78
     0
  0
ENDTAB
  0
TABLE
  2
LTYPE
 70
    25
  0
LTYPE
  2
CONTINUOUS
 70
     0
  3
Solid line
 72
    65
 73
     0
 40
0.0
  0
LTYPE
  2
CENTER
 70
     0
  3
Center ____ _ ____ _ ____ _ ____ _ ____ _ ____
 72
    65
 73
     4
 40
50.799999999999997
 49
31.75
 49
-6.349999999999997
 49
6.349999999999997
 49
-6.349999999999997
  0
LTYPE
  2
AM_ISO02W050
 70
     0
  3
__ __ __ __ __ __ __ __ __ __ __ __ __ __ __
 72
    65
 73
     2
 40
7.5
 49
6.0
 49
-1.5
  0
LTYPE
  2
AM_ISO08W050
 70
     0
  3
____ . ____ . ____ . ____ . ____ . ____ . ____
 72
    65
 73
     4
 40
18.0
 49
12.0
 49
-1.5
 49
3.0
 49
-1.5
  0
LTYPE
  2
AM_ISO09W050
 70
     0
  3
_____ . . _____ . . _____ . . ____ .. ____
 72
    65
 73
     6
 40
22.5
 49
12.0
 49
-1.5
 49
3.0
 49
-1.5
 49
3.0
 49
-1.5
  0
LTYPE
  2
AMCONSTR
 70
     0
  3
_______________________
 72
    65
 73
     2
 40
9999.0
 49
9999.0
 49
0.0
  0
LTYPE
  2
AM_ISO08W050X2
 70
     0
  3
__ . __ . __ . __ . __ . __
 72
    65
 73
     4
 40
9.0
 49
6.0
 49
-0.75
 49
1.5
 49
-0.75
  0
LTYPE
  2
AM_ISO02W050X2
 70
     0
  3
 _ _ _ _ _ _ _ _ _ _ _ _
 72
    65
 73
     2
 40
3.75
 49
3.0
 49
-0.75
  0
LTYPE
  2
AMZIGZAG
 70
     0
  3
/\/-/\/-/\/-/\/-/\/-/\/
 72
    65
 73
     2
 40
11.0001
 49
0.0001
 49
-11.0
  0
LTYPE
  2
ACANSTGBM
 70
     0
  3
__ . . __ . .
 72
    65
 73
     6
 40
9.0
 49
4.0
 49
-1.0
 49
1.0
 49
-1.0
 49
1.0
 49
-1.0
  0
LTYPE
  2
ACANSTGLM
 70
     0
  3
_ _ _ _ _
 72
    65
 73
     2
 40
3.0
 49
2.0
 49
-1.0
  0
LTYPE
  2
ACISOWELD
 70
     0
  3
_ _ _ _ _
 72
    65
 73
     2
 40
2.0
 49
2.0
 49
-1.0
  0
LTYPE
  2
ACISOTGB
 70
     0
  3
__ . . __ . .
 72
    65
 73
     6
 40
9.0
 49
4.0
 49
-1.0
 49
1.0
 49
-1.0
 49
1.0
 49
-1.0
  0
LTYPE
  2
ACISOTGL
 70
     0
  3
_ _ _ _ _
 72
    65
 73
     2
 40
3.0
 49
2.0
 49
-1.0
  0
LTYPE
  2
ACJISWELD
 70
     0
  3
_ _ _ _ _
 72
    65
 73
     2
 40
2.0
 49
2.0
 49
-1.0
  0
LTYPE
  2
ACJISTGB
 70
     0
  3
__ . . __ . .
 72
    65
 73
     6
 40
9.0
 49
4.0
 49
-1.0
 49
1.0
 49
-1.0
 49
1.0
 49
-1.0
  0
LTYPE
  2
ACJISTGL
 70
     0
  3
_ _ _ _ _
 72
    65
 73
     2
 40
3.0
 49
2.0
 49
-1.0
  0
LTYPE
  2
HIDDEN
 70
     0
  3
Hidden __ __ __ __ __ __ __ __ __ __ __ __ __ _
 72
    65
 73
     2
 40
9.5249999999999968
 49
6.349999999999997
 49
-3.174999999999998
  0
LTYPE
  2
PHANTOM2
 70
     0
  3
Phantom (.5x) ___ _ _ ___ _ _ ___ _ _ ___ _ _
 72
    65
 73
     6
 40
31.75
 49
15.875
 49
-3.174999999999998
 49
3.174999999999998
 49
-3.174999999999998
 49
3.174999999999998
 49
-3.174999999999998
  0
LTYPE
  2
CENTER2
 70
     0
  3
Center (.5x) ___ _ ___ _ ___ _ ___ _ ___ _ ___
 72
    65
 73
     4
 40
1.125
 49
0.75
 49
-0.125
 49
0.125
 49
-0.125
  0
LTYPE
  2
HIDDEN2
 70
     0
  3
Hidden (.5x) _ _ _ _ _ _ _ _ _ _ _ _ _ _ _ _ _
 72
    65
 73
     2
 40
0.1875
 49
0.125
 49
-0.0625
  0
LTYPE
  2
AMZIGZAG2
 70
     0
  3
/\/-/\/-/\/-/\/-/\/-/\/
 72
    65
 73
     2
 40
0.4401
 49
0.0001
 49
-0.4400000000000001
  0
LTYPE
  2
ACANSTGB
 70
     0
  3
__ . . __ . .
 72
    65
 73
     6
 40
0.35433070866
 49
0.15748031496
 49
-0.03937007874
 49
0.03937007874
 49
-0.03937007874
 49
0.03937007874
 49
-0.03937007874
  0
LTYPE
  2
ACANSTGL
 70
     0
  3
_ _ _ _ _
 72
    65
 73
     2
 40
0.11811023622
 49
0.07874015748
 49
-0.03937007874
  0
ENDTAB
  0
TABLE
  2
LAYER
 70
     4
  0
LAYER
  2
0
 70
     0
 62
     7
  6
CONTINUOUS
  0
LAYER
  2
DEFPOINTS
 70
     0
 62
     7
  6
CONTINUOUS
  0
LAYER
  2
AM_CL
 70
     0
 62
     1
  6
AMCONSTR
  0
LAYER
  2
AM_5
 70
     0
 62
     2
  6
CONTINUOUS
  0
ENDTAB
  0
TABLE
  2
STYLE
 70
    10
  0
STYLE
  2
STANDARD
 70
     0
 40
0.0
 41
0.7400000000000003
 50
0.0
 71
     0
 42
2.5
  3
txt.shx
  4
bigfont.shx
  0
STYLE
  2
ANNOTATIVE
 70
     0
 40
0.0
 41
1.0
 50
0.0
 71
     0
 42
0.2
  3
txt
  4

  0
STYLE
  2

 70
     1
 40
0.0
 41
1.0
 50
0.0
 71
     0
 42
2.5
  3
ltypeshp.shx
  4

  0
STYLE
  2
ACANSTS
 70
     0
 40
1.0
 41
1.0
 50
0.0
 71
     0
 42
2.5
  3
romans.shx
  4
bigfont.shx
  0
STYLE
  2
ACANSGDT
 70
     0
 40
0.0
 41
1.0
 50
0.0
 71
     0
 42
2.5
  3
amgdt.shx
  4

  0
STYLE
  2
ACISOTS
 70
     0
 40
1.0
 41
1.0
 50
0.0
 71
     0
 42
2.5
  3
isocp.shx
  4
extfont.shx
  0
STYLE
  2
ACISOGDT
 70
     0
 40
0.0
 41
1.0
 50
0.0
 71
     0
 42
2.5
  3
amgdt.shx
  4

  0
STYLE
  2
ACJISGDT
 70
     0
 40
0.0
 41
1.0
 50
0.0
 71
     0
 42
2.5
  3
amgdt.shx
  4

  0
STYLE
  2
ACJISTS
 70
     0
 40
1.0
 41
1.0
 50
0.0
 71
     0
 42
2.5
  3
isocp.shx
  4
extfont.shx
  0
STYLE
  2

 70
     1
 40
0.0
 41
1.0
 50
0.0
 71
     0
 42
2.5
  3
genltshp.shx
  4

  0
ENDTAB
  0
TABLE
  2
VIEW
 70
     6
  0
VIEW
  2
AM_VIEW1
 70
     0
 40
462.5
 10
488.83452017294832
 20
693.74999940360874
 41
977.66903914590728
 11
0.0
 21
0.0
 31
1.0
 12
0.0
 22
0.0
 32
0.0
 42
50.0
 43
0.0
 44
0.0
 50
0.0
 71
     0
  0
VIEW
  2
AM_VIEW2
 70
     0
 40
462.5
 10
933.66548102704076
 20
693.74999940360874
 41
977.66903914590728
 11
0.0
 21
0.0
 31
1.0
 12
0.0
 22
0.0
 32
0.0
 42
50.0
 43
0.0
 44
0.0
 50
0.0
 71
     0
  0
VIEW
  2
AM_VIEW3
 70
     0
 40
462.5
 10
488.83452017294832
 20
231.24999940360871
 41
977.66903914590728
 11
0.0
 21
0.0
 31
1.0
 12
0.0
 22
0.0
 32
0.0
 42
50.0
 43
0.0
 44
0.0
 50
0.0
 71
     0
  0
VIEW
  2
AM_VIEW4
 70
     0
 40
462.5
 10
933.66548102704076
 20
231.24999940360871
 41
977.66903914590728
 11
0.0
 21
0.0
 31
1.0
 12
0.0
 22
0.0
 32
0.0
 42
50.0
 43
0.0
 44
0.0
 50
0.0
 71
     0
  0
VIEW
  2
AM_VIEW5
 70
     0
 40
462.5
 10
711.25000059999468
 20
462.49999940360868
 41
977.66903914590728
 11
0.0
 21
0.0
 31
1.0
 12
0.0
 22
0.0
 32
0.0
 42
50.0
 43
0.0
 44
0.0
 50
0.0
 71
     0
  0
VIEW
  2
AM_VIEW6
 70
     0
 40
924.99075000000005
 10
711.25000059999468
 20
462.49999940360868
 41
1955.318524911032
 11
0.0
 21
0.0
 31
1.0
 12
0.0
 22
0.0
 32
0.0
 42
50.0
 43
0.0
 44
0.0
 50
0.0
 71
     0
  0
ENDTAB
  0
TABLE
  2
UCS
 70
     0
  0
ENDTAB
  0
TABLE
  2
APPID
 70
   158
  0
APPID
  2
ACAD
 70
     0
  0
APPID
  2
ACADANNOTATIVE
 70
     0
  0
APPID
  2
ACAD_MLEADERVER
 70
     0
  0
APPID
  2
MCAD_NO_VIS
 70
     0
  0
APPID
  2
ACAD_TEMP_GRAPHIC
 70
     0
  0
APPID
  2
AD_DRAW
 70
     0
  0
APPID
  2
ACATTRIBSERVICES
 70
     0
  0
APPID
  2
DESIGNERASSEMBLIES
 70
     0
  0
APPID
  2
ACADM_DIM_EDIT
 70
     0
  0
APPID
  2
AMDT_DM_ADJ
 70
     0
  0
APPID
  2
GENIUS_GENDIMSH_14
 70
     0
  0
APPID
  2
GEVID1057795304
 70
     0
  0
APPID
  2
GEVDC
 70
     0
  0
APPID
  2
GEVCON
 70
     0
  0
APPID
  2
GENIUS_GENBH_13
 70
     0
  0
APPID
  2
GENIUS_GENOENT_13
 70
     0
  0
APPID
  2
GENIUS_GENOBJ-NBEHI-BHF_13
 70
     0
  0
APPID
  2
GENIUS_GENOLIS_13
 70
     0
  0
APPID
  2
GENIUS_GENODEF_13
 70
     0
  0
APPID
  2
GENIUS_GENOREF_13
 70
     0
  0
APPID
  2
GENIUS_GENOBJ-NBEHI-BHB_13
 70
     0
  0
APPID
  2
GENIUS_GENOBJ-F-SCPASSM_13
 70
     0
  0
APPID
  2
GENIUS_GENDTOL_13
 70
     0
  0
APPID
  2
GENIUS_GENTRA_14
 70
     0
  0
APPID
  2
ASURF_PCURVE_APPNAME
 70
     0
  0
APPID
  2
GENIUS_GENCFG_13
 70
     0
  0
APPID
  2
GENIUS_GE3CFG0_13
 70
     0
  0
APPID
  2
GENIUS_GENCFG0_13
 70
     0
  0
APPID
  2
GENIUS_GENCFG1_13
 70
     0
  0
APPID
  2
GENIUS_GENCFG2_13
 70
     0
  0
APPID
  2
GENIUS_GENCFG3_13
 70
     0
  0
APPID
  2
GENIUS_GENCFG4_13
 70
     0
  0
APPID
  2
GENIUS_GEVCFG0_13
 70
     0
  0
APPID
  2
GENIUS_GENOBJ-N-TIT_13
 70
     0
  0
APPID
  2
GENIUS_GENTITLE_13
 70
     0
  0
APPID
  2
GENIUS_GENSCREG_15
 70
     0
  0
APPID
  2
GENIUS_GENOBJ-N-SDF_13
 70
     0
  0
APPID
  2
GENIUS_GENFIL_13
 70
     0
  0
APPID
  2
GENIUS_GENOBJ-N-CHA_13
 70
     0
  0
APPID
  2
GENIUS_GEFSH_13
 70
     0
  0
APPID
  2
GENIUS_GENOBJ-F-SHS_13
 70
     0
  0
APPID
  2
GENIUS_GENOBJ-N-CEN_13
 70
     0
  0
APPID
  2
GENIUS_GENREC_14
 70
     0
  0
APPID
  2
GENIUS_GENOBJ-N-REC_13
 70
     0
  0
APPID
  2
GENIUS_GENOBJ-N-HTC_13
 70
     0
  0
APPID
  2
GENIUS_GENHATCH_13
 70
     0
  0
APPID
  2
ACAD_PSEXT
 70
     0
  0
APPID
  2
ACAD_EXEMPT_FROM_CAD_STANDARDS
 70
     0
  0
APPID
  2
ACAECLAYERSTANDARD
 70
     0
  0
APPID
  2
GENIUS_GENCEN_19
 70
     0
  0
APPID
  2
ACAD_DSTYLE_DIMINSPECT
 70
     0
  0
APPID
  2
ACAD_DSTYLE_DIMANGULAR_EXT
 70
     0
  0
APPID
  2
ACADANNOPO
 70
     0
  0
APPID
  2
ACAD_NAV_VCDISPLAY
 70
     0
  0
APPID
  2
GENIUS_GENOBJ-N-FIL_13
 70
     0
  0
APPID
  2
ACAD_DSTYLE_DIMBREAK
 70
     0
  0
APPID
  2
ACAD_DSTYLE_DIMJAG
 70
     0
  0
APPID
  2
ACAD_DSTYLE_DIMRADIAL_EXTENSION
 70
     0
  0
APPID
  2
GENIUS_GENHINW_13
 70
     0
  0
APPID
  2
GENIUS_FIRSTVISTXT_14
 70
     0
  0
APPID
  2
GENIUS_GENOBJ-N-LEADER_13
 70
     0
  0
APPID
  2
DCO15
 70
     0
  0
APPID
  2
GENIUS_DUMCFG0_13
 70
     0
  0
APPID
  2
ACAD_DSTYLE_DIMTEXT_FILL
 70
     0
  0
APPID
  2
AMG_2DHIDE
 70
     0
  0
APPID
  2
GENIUS_GEFSHEP_13
 70
     0
  0
APPID
  2
GENIUS_GENOBJ-F-SHE_13
 70
     0
  0
APPID
  2
GENIUS_GEFSHE_13
 70
     0
  0
APPID
  2
ACAD_DIMASSOC_DIMLFAC
 70
     0
  0
APPID
  2
ACAD_DIMASSOC_CALC_DIMLFAC
 70
     0
  0
APPID
  2
ACAD_DIMASSOC_OVERRIDDEN_D
 70
     0
  0
APPID
  2
GENIUS_GENOBJ-F-SHSV_13
 70
     0
  0
APPID
  2
GENIUS_GEFWELD_13
 70
     0
  0
APPID
  2
GENIUS_GENOBJ-N-CRS_13
 70
     0
  0
APPID
  2
GENIUS_GENOBJ-N-RSBK_13
 70
     0
  0
APPID
  2
GENIUS_GENOBJ-N-LIB_13
 70
     0
  0
APPID
  2
GENIUS_GENSCALE_13
 70
     0
  0
APPID
  2
GENIUS_GENDREL_13
 70
     0
  0
APPID
  2
GEVPT
 70
     0
  0
APPID
  2
GEVIT
 70
     0
  0
APPID
  2
VCC
 70
     0
  0
APPID
  2
GENBH
 70
     0
  0
APPID
  2
GEVMK
 70
     0
  0
APPID
  2
GENIUS_GENOBJ-F-DESC_13
 70
     0
  0
APPID
  2
GENIUS_GEFDESC_14
 70
     0
  0
APPID
  2
GENIUS_GENOBJ-F-FEAT_13
 70
     0
  0
APPID
  2
GENIUS_GEFFEAT_14
 70
     0
  0
APPID
  2
GENIUS_GEFPARTINS_13
 70
     0
  0
APPID
  2
GENIUS_GENSCREG_13
 70
     0
  0
APPID
  2
GENIUS_GEFSHP_13
 70
     0
  0
APPID
  2
GEVID1025574798
 70
     0
  0
APPID
  2
GEVID1025574769
 70
     0
  0
APPID
  2
GEVID1025757451
 70
     0
  0
APPID
  2
GEVID1240528327
 70
     0
  0
APPID
  2
AMG_2DSTRUCT_BTR
 70
     0
  0
APPID
  2
ACADM_2DVIEW_IGN_NOTIFY
 70
     0
  0
APPID
  2
GEVID1240528328
 70
     0
  0
APPID
  2
GEVID1240528329
 70
     0
  0
APPID
  2
GEVRADREF
 70
     0
  0
APPID
  2
GEVID1240528330
 70
     0
  0
APPID
  2
GEVID1240528331
 70
     0
  0
APPID
  2
GEVID1240528332
 70
     0
  0
APPID
  2
GEVID1240791080
 70
     0
  0
APPID
  2
GEVID1240791081
 70
     0
  0
APPID
  2
GEVID1240791082
 70
     0
  0
APPID
  2
GEVID1240791083
 70
     0
  0
APPID
  2
GEVID1240791084
 70
     0
  0
APPID
  2
GEVID1240791085
 70
     0
  0
APPID
  2
GEVID1240791086
 70
     0
  0
APPID
  2
GEVID1240791087
 70
     0
  0
APPID
  2
GEVID1240791088
 70
     0
  0
APPID
  2
GEVID1240791089
 70
     0
  0
APPID
  2
GEVID1240791090
 70
     0
  0
APPID
  2
GEVID1240791091
 70
     0
  0
APPID
  2
GEVID1240791092
 70
     0
  0
APPID
  2
GEVID1240791093
 70
     0
  0
APPID
  2
GEVID1240791094
 70
     0
  0
APPID
  2
GEVID1240791095
 70
     0
  0
APPID
  2
GEVID1240791096
 70
     0
  0
APPID
  2
GEVID1240791097
 70
     0
  0
APPID
  2
GEVID1240791098
 70
     0
  0
APPID
  2
GEVID1240791099
 70
     0
  0
APPID
  2
GEVID1240791100
 70
     0
  0
APPID
  2
GEVID1240791101
 70
     0
  0
APPID
  2
GEVID1240791102
 70
     0
  0
APPID
  2
GEVID1240791103
 70
     0
  0
APPID
  2
GEVID1240791104
 70
     0
  0
APPID
  2
GEVID1240791105
 70
     0
  0
APPID
  2
GEVID1240875381
 70
     0
  0
APPID
  2
GEVID1240875382
 70
     0
  0
APPID
  2
GEVID1240875383
 70
     0
  0
APPID
  2
GEVID1240875384
 70
     0
  0
APPID
  2
GEVID1240875385
 70
     0
  0
APPID
  2
GEVID1240875386
 70
     0
  0
APPID
  2
GEVID1240875387
 70
     0
  0
APPID
  2
GEVID1240875388
 70
     0
  0
APPID
  2
GEVID1240875389
 70
     0
  0
APPID
  2
GEVID1240875390
 70
     0
  0
APPID
  2
GEVID1240875391
 70
     0
  0
APPID
  2
GEVID1240875392
 70
     0
  0
APPID
  2
GEVID1240875393
 70
     0
  0
APPID
  2
GEVID1240875394
 70
     0
  0
APPID
  2
GEVID1240875395
 70
     0
  0
APPID
  2
GEVID1240875396
 70
     0
  0
APPID
  2
GEVID1240875397
 70
     0
  0
APPID
  2
GEVID1240875398
 70
     0
  0
APPID
  2
GEVID1240875399
 70
     0
  0
APPID
  2
GEVID1240908996
 70
     0
  0
APPID
  2
GEVID1240908997
 70
     0
  0
APPID
  2
GEVID1240908998
 70
     0
  0
APPID
  2
GEVID1240908999
 70
     0
  0
APPID
  2
GEVID1240909000
 70
     0
  0
APPID
  2
GENIUS_GENOBJ-N-ZOO_13
 70
     0
  0
APPID
  2
GENIUS_GENZOO_17
 70
     0
  0
APPID
  2
GENIUS_GE3SECT_13
 70
     0
  0
APPID
  2
GEV_VCCNULL_SWITCH_OFF
 70
     0
  0
APPID
  2
ACAD_DSTYLE_DIMTALN
 70
     0
  0
APPID
  2
CONTENTBLOCKDESCRIPTION
 70
     0
  0
ENDTAB
  0
TABLE
  2
DIMSTYLE
 70
    24
  0
DIMSTYLE
  2
STANDARD
 70
     0
  3

  4

  5

  6

  7

 40
1.0
 41
0.18
 42
0.0625
 43
0.38
 44
0.18
 45
0.0
 46
0.0
 47
0.0
 48
0.0
140
0.18
141
0.09
142
0.0
143
25.399999999999999
144
1.0
145
0.0
146
1.0
147
0.09
 71
     0
 72
     0
 73
     1
 74
     1
 75
     0
 76
     0
 77
     0
 78
     0
170
     0
171
     2
172
     0
173
     0
174
     0
175
     0
176
     0
177
     0
178
     0
  0
DIMSTYLE
  2
ANNOTATIVE
 70
     0
  3

  4

  5

  6

  7

 40
1.0
 41
0.18
 42
0.0625
 43
0.38
 44
0.18
 45
0.0
 46
0.0
 47
0.0
 48
0.0
140
0.18
141
0.09
142
0.0
143
25.399999999999999
144
1.0
145
0.0
146
1.0
147
0.09
 71
     0
 72
     0
 73
     1
 74
     1
 75
     0
 76
     0
 77
     0
 78
     0
170
     0
171
     2
172
     0
173
     0
174
     0
175
     0
176
     0
177
     0
178
     0
  0
DIMSTYLE
  2
AM_ANSI
 70
     0
  3

  4
"
  5

  6

  7

 40
1.0
 41
2.5
 42
1.0
 43
10.0
 44
1.0
 45
0.0
 46
0.0
 47
0.1
 48
0.1
140
3.5
141
0.0
142
0.0
143
0.0393701
144
1.0
145
0.0
146
0.71
147
1.5
 71
     0
 72
     0
 73
     1
 74
     1
 75
     0
 76
     0
 77
     0
 78
     8
170
     0
171
     2
172
     0
173
     0
174
     0
175
     0
176
     2
177
     2
178
     4
  0
DIMSTYLE
  2
AM_ANSI$3
 70
     0
  3

  4
"
  5

  6

  7

 40
1.0
 41
2.5
 42
1.0
 43
10.0
 44
1.0
 45
0.0
 46
0.0
 47
0.1
 48
0.1
140
3.5
141
0.0
142
0.0
143
0.0393701
144
1.0
145
0.0
146
0.71
147
1.5
 71
     0
 72
     0
 73
     1
 74
     1
 75
     0
 76
     0
 77
     0
 78
     8
170
     0
171
     2
172
     0
173
     0
174
     0
175
     0
176
     2
177
     2
178
     4
  0
DIMSTYLE
  2
AM_ANSI$4
 70
     0
  3

  4
"
  5

  6

  7

 40
1.0
 41
2.5
 42
1.0
 43
10.0
 44
1.0
 45
0.0
 46
0.0
 47
0.1
 48
0.1
140
3.5
141
0.0
142
0.0
143
0.0393701
144
1.0
145
0.0
146
0.71
147
1.5
 71
     0
 72
     0
 73
     1
 74
     1
 75
     0
 76
     0
 77
     0
 78
     8
170
     0
171
     2
172
     0
173
     0
174
     0
175
     0
176
     2
177
     2
178
     4
  0
DIMSTYLE
  2
AM_ANSI$7
 70
     0
  3

  4
"
  5

  6

  7

 40
1.0
 41
2.5
 42
1.0
 43
10.0
 44
1.0
 45
0.0
 46
0.0
 47
0.1
 48
0.1
140
5.0
141
0.0
142
0.0
143
0.0393701
144
1.0
145
0.0
146
0.71
147
1.5
 71
     0
 72
     0
 73
     1
 74
     1
 75
     0
 76
     0
 77
     0
 78
     8
170
     0
171
     2
172
     0
173
     0
174
     0
175
     0
176
     2
177
     2
178
     4
  0
DIMSTYLE
  2
AM_ANSI$SF
 70
     0
  3

  4
"
  5

  6

  7

 40
1.0
 41
2.5
 42
1.0
 43
10.0
 44
1.0
 45
0.0
 46
0.0
 47
0.1
 48
0.1
140
3.5
141
0.0
142
0.0
143
0.0393701
144
1.0
145
0.0
146
0.71
147
1.5
 71
     0
 72
     0
 73
     1
 74
     1
 75
     1
 76
     1
 77
     0
 78
     8
170
     0
171
     2
172
     0
173
     0
174
     0
175
     0
176
     2
177
     2
178
     4
  0
DIMSTYLE
  2
AM_ANSI$SH
 70
     0
  3

  4
"
  5

  6

  7

 40
1.0
 41
2.5
 42
1.0
 43
10.0
 44
1.0
 45
0.0
 46
0.0
 47
0.1
 48
0.1
140
3.5
141
0.0
142
0.0
143
0.0393701
144
1.0
145
0.0
146
0.71
147
1.5
 71
     0
 72
     0
 73
     1
 74
     1
 75
     1
 76
     1
 77
     0
 78
     8
170
     0
171
     2
172
     0
173
     1
174
     0
175
     0
176
     2
177
     2
178
     4
  0
DIMSTYLE
  2
AM_ISO
 70
     0
  3

  4
"
  5

  6

  7

 40
1.0
 41
2.5
 42
1.0
 43
10.0
 44
1.0
 45
0.0
 46
0.0
 47
0.1
 48
0.1
140
3.5
141
0.0
142
0.0
143
0.0393701
144
1.0
145
0.0
146
0.71
147
1.5
 71
     0
 72
     0
 73
     0
 74
     0
 75
     0
 76
     0
 77
     1
 78
     8
170
     0
171
     2
172
     1
173
     0
174
     0
175
     0
176
   256
177
   256
178
     2
  0
DIMSTYLE
  2
AM_ISO$3
 70
     0
  3

  4
"
  5

  6

  7

 40
1.0
 41
2.5
 42
1.0
 43
10.0
 44
1.0
 45
0.0
 46
0.0
 47
0.1
 48
0.1
140
3.5
141
0.0
142
0.0
143
0.0393701
144
1.0
145
0.0
146
0.71
147
1.5
 71
     0
 72
     0
 73
     0
 74
     1
 75
     0
 76
     0
 77
     1
 78
     8
170
     0
171
     2
172
     0
173
     0
174
     0
175
     0
176
   256
177
   256
178
     2
  0
DIMSTYLE
  2
AM_ISO$4
 70
     0
  3

  4
"
  5

  6

  7

 40
1.0
 41
2.5
 42
1.0
 43
10.0
 44
1.0
 45
0.0
 46
0.0
 47
0.1
 48
0.1
140
3.5
141
0.0
142
0.0
143
0.0393701
144
1.0
145
0.0
146
0.71
147
1.5
 71
     0
 72
     0
 73
     0
 74
     1
 75
     0
 76
     0
 77
     1
 78
     8
170
     0
171
     2
172
     0
173
     0
174
     0
175
     0
176
   256
177
   256
178
     2
  0
DIMSTYLE
  2
AM_ISO$6
 70
     0
  3

  4
"
  5

  6

  7

 40
1.0
 41
2.5
 42
1.0
 43
10.0
 44
1.0
 45
0.0
 46
0.0
 47
0.1
 48
0.1
140
3.5
141
0.0
142
0.0
143
0.0393701
144
1.0
145
0.0
146
0.71
147
1.5
 71
     0
 72
     0
 73
     0
 74
     0
 75
     0
 76
     0
 77
     0
 78
     8
170
     0
171
     2
172
     1
173
     0
174
     0
175
     0
176
   256
177
   256
178
     2
  0
DIMSTYLE
  2
AM_ISO$7
 70
     0
  3

  4
"
  5

  6

  7

 40
1.0
 41
2.5
 42
1.0
 43
10.0
 44
1.0
 45
0.0
 46
0.0
 47
0.1
 48
0.1
140
5.0
141
0.0
142
0.0
143
0.0393701
144
1.0
145
0.0
146
0.71
147
1.5
 71
     0
 72
     0
 73
     0
 74
     0
 75
     0
 76
     0
 77
     1
 78
     8
170
     0
171
     2
172
     1
173
     0
174
     0
175
     0
176
   256
177
   256
178
     2
  0
DIMSTYLE
  2
AM_ISO$SF
 70
     0
  3

  4
"
  5

  6

  7

 40
1.0
 41
2.5
 42
1.0
 43
10.0
 44
1.0
 45
0.0
 46
0.0
 47
0.1
 48
0.1
140
3.5
141
0.0
142
0.0
143
0.0393701
144
1.0
145
0.0
146
0.71
147
1.5
 71
     0
 72
     0
 73
     0
 74
     0
 75
     1
 76
     1
 77
     1
 78
     8
170
     0
171
     2
172
     1
173
     0
174
     0
175
     0
176
   256
177
   256
178
     2
  0
DIMSTYLE
  2
AM_ISO$SH
 70
     0
  3

  4
"
  5

  6

  7

 40
1.0
 41
2.5
 42
1.0
 43
10.0
 44
1.0
 45
0.0
 46
0.0
 47
0.1
 48
0.1
140
3.5
141
0.0
142
0.0
143
0.0393701
144
2.0
145
0.0
146
0.71
147
1.5
 71
     0
 72
     0
 73
     0
 74
     0
 75
     1
 76
     1
 77
     1
 78
     8
170
     0
171
     2
172
     1
173
     1
174
     0
175
     0
176
   256
177
   256
178
     2
  0
DIMSTYLE
  2
AM_JIS
 70
     0
  3

  4
"
  5

  6

  7

 40
1.0
 41
2.0
 42
1.0
 43
8.0
 44
1.0
 45
0.0
 46
0.0
 47
0.1
 48
0.1
140
2.5
141
0.0
142
0.0
143
0.0393701
144
1.0
145
0.0
146
0.71
147
1.5
 71
     0
 72
     0
 73
     0
 74
     0
 75
     0
 76
     0
 77
     3
 78
     8
170
     0
171
     2
172
     1
173
     0
174
     0
175
     0
176
     2
177
     2
178
     4
  0
DIMSTYLE
  2
AM_JIS$3
 70
     0
  3

  4
"
  5

  6

  7

 40
1.0
 41
2.0
 42
1.0
 43
10.0
 44
1.0
 45
0.0
 46
0.0
 47
0.1
 48
0.1
140
2.5
141
0.0
142
0.0
143
0.0393701
144
1.0
145
0.0
146
0.71
147
1.5
 71
     0
 72
     0
 73
     0
 74
     1
 75
     0
 76
     0
 77
     3
 78
     8
170
     0
171
     2
172
     0
173
     0
174
     0
175
     0
176
     2
177
     2
178
     4
  0
DIMSTYLE
  2
AM_JIS$4
 70
     0
  3

  4
"
  5

  6

  7

 40
1.0
 41
2.0
 42
1.0
 43
10.0
 44
1.0
 45
0.0
 46
0.0
 47
0.1
 48
0.1
140
2.5
141
0.0
142
0.0
143
0.0393701
144
1.0
145
0.0
146
0.71
147
1.5
 71
     0
 72
     0
 73
     0
 74
     0
 75
     0
 76
     0
 77
     3
 78
     8
170
     0
171
     2
172
     0
173
     0
174
     0
175
     0
176
     2
177
     2
178
     4
  0
DIMSTYLE
  2
AM_JIS$6
 70
     0
  3

  4
"
  5

  6

  7

 40
1.0
 41
2.0
 42
1.0
 43
10.0
 44
1.0
 45
0.0
 46
0.0
 47
0.1
 48
0.1
140
2.5
141
0.0
142
0.0
143
0.0393701
144
1.0
145
0.0
146
0.71
147
1.5
 71
     0
 72
     0
 73
     0
 74
     0
 75
     0
 76
     0
 77
     0
 78
     8
170
     0
171
     2
172
     1
173
     0
174
     0
175
     0
176
     2
177
     2
178
     4
  0
DIMSTYLE
  2
AM_JIS$7
 70
     0
  3

  4
"
  5

  6

  7

 40
1.0
 41
2.0
 42
1.0
 43
10.0
 44
1.0
 45
0.0
 46
0.0
 47
0.1
 48
0.1
140
2.5
141
0.0
142
0.0
143
0.0393701
144
1.0
145
0.0
146
0.71
147
1.5
 71
     0
 72
     0
 73
     0
 74
     0
 75
     0
 76
     0
 77
     3
 78
     8
170
     0
171
     2
172
     1
173
     0
174
     0
175
     0
176
     2
177
     2
178
     4
  0
DIMSTYLE
  2
AM_JIS$SF
 70
     0
  3

  4
"
  5

  6

  7

 40
1.0
 41
2.0
 42
1.0
 43
10.0
 44
1.0
 45
0.0
 46
0.0
 47
0.1
 48
0.1
140
2.5
141
0.0
142
0.0
143
0.0393701
144
1.0
145
0.0
146
0.71
147
1.5
 71
     0
 72
     0
 73
     0
 74
     0
 75
     1
 76
     1
 77
     3
 78
     8
170
     0
171
     2
172
     1
173
     0
174
     0
175
     0
176
     2
177
     2
178
     4
  0
DIMSTYLE
  2
AM_JIS$SH
 70
     0
  3

  4
"
  5

  6

  7

 40
1.0
 41
2.0
 42
1.0
 43
10.0
 44
1.0
 45
0.0
 46
0.0
 47
0.1
 48
0.1
140
2.5
141
0.0
142
0.0
143
0.0393701
144
2.0
145
0.0
146
0.71
147
1.5
 71
     0
 72
     0
 73
     0
 74
     0
 75
     1
 76
     1
 77
     3
 78
     8
170
     0
171
     2
172
     1
173
     1
174
     0
175
     0
176
     2
177
     2
178
     4
  0
DIMSTYLE
  2
AM_JIS$0
 70
     0
  3

  4
"
  5

  6

  7

 40
1.0
 41
2.0
 42
1.0
 43
8.0
 44
1.0
 45
0.0
 46
0.0
 47
0.1
 48
0.1
140
2.5
141
0.0
142
0.0
143
0.0393701
144
1.0
145
0.0
146
0.71
147
1.5
 71
     0
 72
     0
 73
     0
 74
     0
 75
     0
 76
     0
 77
     3
 78
     8
170
     0
171
     2
172
     1
173
     0
174
     0
175
     0
176
     2
177
     2
178
     4
  0
DIMSTYLE
  2
AM_JIS$2
 70
     0
  3

  4
"
  5

  6

  7

 40
1.0
 41
2.0
 42
1.0
 43
8.0
 44
1.0
 45
0.0
 46
0.0
 47
0.1
 48
0.1
140
2.5
141
0.0
142
0.0
143
0.0393701
144
1.0
145
0.0
146
0.71
147
1.5
 71
     0
 72
     0
 73
     0
 74
     0
 75
     0
 76
     0
 77
     3
 78
     8
170
     0
171
     2
172
     1
173
     0
174
     0
175
     0
176
     2
177
     2
178
     4
  0
ENDTAB
  0
ENDSEC
  0
SECTION
  2
BLOCKS
  0
BLOCK
  8
0
  2
$MODEL_SPACE
 70
     0
 10
0.0
 20
0.0
 30
0.0
  3
$MODEL_SPACE
  1

  0
ENDBLK
  5
98CC
  8
0
  0
BLOCK
 67
     1
  8
0
  2
$PAPER_SPACE
 70
     0
 10
0.0
 20
0.0
 30
0.0
  3
$PAPER_SPACE
  1

  0
ENDBLK
  5
98C8
 67
     1
  8
0
  0
BLOCK
  8
0
  2
GENAXEH
 70
     0
 10
0.0
 20
0.0
 30
0.0
  3
GENAXEH
  1

  0
LINE
  5
9484
  8
0
 10
-1.0
 20
0.0
 30
0.0
 11
1.0
 21
0.0
 31
0.0
  0
ENDBLK
  5
9485
  8
0
  0
BLOCK
  8
0
  2
_OPEN30
 70
     0
 10
0.0
 20
0.0
 30
0.0
  3
_OPEN30
  1

  0
LINE
  5
94CB
  8
0
  6
BYBLOCK
 62
     0
 10
-1.0
 20
0.26794919
 30
0.0
 11
0.0
 21
0.0
 31
0.0
  0
LINE
  5
94CC
  8
0
  6
BYBLOCK
 62
     0
 10
0.0
 20
0.0
 30
0.0
 11
-1.0
 21
-0.26794919
 31
0.0
  0
LINE
  5
94CD
  8
0
  6
BYBLOCK
 62
     0
 10
0.0
 20
0.0
 30
0.0
 11
-1.0
 21
0.0
 31
0.0
  0
ENDBLK
  5
94CE
  8
0
  0
BLOCK
  8
0
  2
_ACMOPEN15
 70
     0
 10
0.0
 20
0.0
 30
0.0
  3
_ACMOPEN15
  1

  0
LINE
  5
8CF7
  8
0
 62
     0
 10
-1.0
 20
0.0
 30
0.0
 11
0.0
 21
0.0
 31
0.0
  0
LINE
  5
8CF8
  8
0
 62
     0
 10
-1.0
 20
-0.131652497
 30
0.0
 11
0.0
 21
0.0
 31
0.0
  0
LINE
  5
8CF9
  8
0
 62
     0
 10
0.0
 20
0.0
 30
0.0
 11
-1.0
 21
0.131652497
 31
0.0
  0
ENDBLK
  5
8CFA
  8
0
  0
BLOCK
  8
0
  2
_ACMFILLEDHALF
 70
     0
 10
0.0
 20
0.0
 30
0.0
  3
_ACMFILLEDHALF
  1

  0
TRACE
  5
8C7F
  8
0
 62
     0
 10
-0.8
 20
0.0
 30
0.0
 11
-1.0
 21
0.166666666
 31
0.0
 12
0.0
 22
0.0
 32
0.0
 13
0.0
 23
0.0
 33
0.0
  0
LINE
  5
8C80
  8
0
 62
     0
 10
-1.0
 20
0.0
 30
0.0
 11
-0.8
 21
0.0
 31
0.0
  0
ENDBLK
  5
8C81
  8
0
  0
BLOCK
  8
0
  2
_ACMFILLED
 70
     0
 10
0.0
 20
0.0
 30
0.0
  3
_ACMFILLED
  1

  0
TRACE
  5
8C8F
  8
0
 62
     0
 10
-1.0
 20
-0.166666666
 30
0.0
 11
-1.0
 21
0.166666666
 31
0.0
 12
0.0
 22
0.0
 32
0.0
 13
0.0
 23
0.0
 33
0.0
  0
ENDBLK
  5
8C90
  8
0
  0
BLOCK
  8
0
  2
_ACMFILLED15
 70
     0
 10
0.0
 20
0.0
 30
0.0
  3
_ACMFILLED15
  1

  0
TRACE
  5
8CC4
  8
0
 62
     0
 10
-1.0
 20
-0.131652497
 30
0.0
 11
-1.0
 21
0.131652497
 31
0.0
 12
0.0
 22
0.0
 32
0.0
 13
0.0
 23
0.0
 33
0.0
  0
ENDBLK
  5
8CC5
  8
0
  0
BLOCK
  8
0
  6
BYBLOCK
 62
     0
  2
$6-45
 70
     0
 10
0.0
 20
0.0
 30
0.0
  3
$6-45
  1

  0
ARC
  5
8D3B
  8
0
  6
CONTINUOUS
 62
     3
 10
-2.6499939999999991
 20
2.8002009999999982
 30
0.0
 40
2.600398999999999
 50
89.99998199999996
 51
179.999978
  0
ARC
  5
8D3C
  8
0
  6
CONTINUOUS
 62
     3
 10
2.6499939999999991
 20
2.8002009999999982
 30
0.0
 40
2.600403
 50
0.0
 51
89.99998199999996
  0
LINE
  5
8D3D
  8
0
  6
CONTINUOUS
 62
     0
 10
0.066025
 20
0.0
 30
0.0
 11
-0.8
 21
1.5
 31
0.0
  0
LINE
  5
8D3E
  8
0
  6
CONTINUOUS
 62
     0
 10
1.066025
 20
0.0
 30
0.0
 11
0.2
 21
1.5
 31
0.0
  0
LINE
  5
8D3F
  8
0
  6
CONTINUOUS
 62
     0
 10
6.099999999999997
 20
0.0
 30
0.0
 11
-6.099999999999997
 21
0.0
 31
0.0
  0
LINE
  5
8D40
  8
0
  6
CONTINUOUS
 62
     0
 10
6.099999999999997
 20
1.5
 30
0.0
 11
6.099999999999997
 21
0.0
 31
0.0
  0
LINE
  5
8D41
  8
0
  6
CONTINUOUS
 62
     0
 10
-6.099999999999997
 20
1.5
 30
0.0
 11
-6.099999999999997
 21
0.0
 31
0.0
  0
LINE
  5
8D42
  8
0
  6
CONTINUOUS
 62
     3
 10
2.6499939999999991
 20
5.3999940000000004
 30
0.0
 11
-2.6499939999999991
 21
5.3999940000000004
 31
0.0
  0
LINE
  5
8D43
  8
0
  6
CONTINUOUS
 62
     3
 10
6.099999999999997
 20
1.5
 30
0.0
 11
-6.099999999999997
 21
1.5
 31
0.0
  0
LINE
  5
8D44
  8
0
  6
CONTINUOUS
 62
     3
 10
-5.25
 20
1.5
 30
0.0
 11
-5.25
 21
2.8002009999999982
 31
0.0
  0
LINE
  5
8D45
  8
0
  6
CONTINUOUS
 62
     3
 10
5.25
 20
1.5
 30
0.0
 11
5.25
 21
2.8002009999999982
 31
0.0
  0
ENDBLK
  5
8D46
  8
0
  6
BYBLOCK
 62
     0
  0
BLOCK
  8
0
  2
A$C1B066673
 70
     0
 10
0.0
 20
0.0
 30
0.0
  3
A$C1B066673
  1

  0
LINE
  5
8D4D
  8
0
  6
CONTINUOUS
 62
     0
 10
-223.0
 20
97.096010000000206
 30
0.0
 11
-223.0
 21
106.61028999999979
 31
0.0
  0
LINE
  5
8D4E
  8
0
  6
CONTINUOUS
 62
     0
 10
-61.999970000000289
 20
69.0
 30
0.0
 11
-61.999970000000289
 21
107.4006900000001
 31
0.0
  0
LINE
  5
8D4F
  8
0
  6
CONTINUOUS
 62
     0
 10
-175.0
 20
-99.500000000000043
 30
0.0
 11
-175.0
 21
-15.150030000000241
 31
0.0
  0
LINE
  5
8D50
  8
0
  6
CONTINUOUS
 62
     0
 10
-219.34863000000041
 20
110.5950299999998
 30
0.0
 11
-168.99994000000009
 21
115.0
 31
0.0
  0
LINE
  5
8D51
  8
0
  6
CENTER
 62
     0
 10
-205.0
 20
81.5
 30
0.0
 11
-205.0
 21
108.4999999999999
 31
0.0
  0
LINE
  5
8D52
  8
0
  6
CONTINUOUS
 62
     0
 10
-68.999969999999834
 20
-61.103370000000211
 30
0.0
 11
-68.999969999999834
 21
61.103389999999763
 31
0.0
  0
LINE
  5
8D53
  8
0
  6
CENTER
 62
     0
 10
-79.999969999999848
 20
81.5
 30
0.0
 11
-79.999969999999848
 21
108.4999999999999
 31
0.0
  0
LINE
  5
8D54
  8
0
  6
CENTER
 62
     0
 10
-218.5
 20
95.0
 30
0.0
 11
-191.5
 21
95.0
 31
0.0
  0
LINE
  5
8D55
  8
0
  6
CENTER
 62
     0
 10
-93.499969999999848
 20
95.0
 30
0.0
 11
-66.499970000000289
 21
95.0
 31
0.0
  0
LINE
  5
8D56
  8
0
  6
CONTINUOUS
 62
     0
 10
-169.0
 20
114.99994
 30
0.0
 11
-65.860380000000077
 21
111.39824999999981
 31
0.0
  0
LINE
  5
8D57
  8
0
  6
CONTINUOUS
 62
     0
 10
-183.73846
 20
107.68762
 30
0.0
 11
-175.34857000000011
 21
108.42163000000011
 31
0.0
  0
LINE
  5
8D58
  8
0
  6
CONTINUOUS
 62
     0
 10
-169.0
 20
-115.00003
 30
0.0
 11
-65.860380000000077
 21
-111.39832
 31
0.0
  0
LINE
  5
8D59
  8
0
  6
CENTER
 62
     0
 10
-93.499969999999848
 20
-95.000000000000057
 30
0.0
 11
-66.499970000000289
 21
-95.000000000000057
 31
0.0
  0
LINE
  5
8D5A
  8
0
  6
CENTER
 62
     0
 10
-218.5
 20
-95.000000000000057
 30
0.0
 11
-191.5
 21
-95.000000000000057
 31
0.0
  0
LINE
  5
8D5B
  8
0
  6
CENTER
 62
     0
 10
-79.999969999999848
 20
-81.5
 30
0.0
 11
-79.999969999999848
 21
-108.5
 31
0.0
  0
LINE
  5
8D5C
  8
0
  6
CENTER
 62
     0
 10
-205.0
 20
-81.5
 30
0.0
 11
-205.0
 21
-108.5
 31
0.0
  0
LINE
  5
8D5D
  8
0
  6
CONTINUOUS
 62
     0
 10
-219.34863000000041
 20
-110.59507000000011
 30
0.0
 11
-169.0
 21
-115.0
 31
0.0
  0
LINE
  5
8D5E
  8
0
  6
CONTINUOUS
 62
     0
 10
-61.999970000000289
 20
-69.0
 30
0.0
 11
-61.999970000000289
 21
-107.40073
 31
0.0
  0
LINE
  5
8D5F
  8
0
  6
CONTINUOUS
 62
     0
 10
0.0
 20
16.0
 30
0.0
 11
-57.999970000000289
 21
16.0
 31
0.0
  0
LINE
  5
8D60
  8
0
  6
CONTINUOUS
 62
     0
 10
-67.499969999999848
 20
32.17541000000017
 30
0.0
 11
-63.5
 21
29.866020000000159
 31
0.0
  0
LINE
  5
8D61
  8
0
  6
CONTINUOUS
 62
     0
 10
-67.500030000000152
 20
-32.175420000000031
 30
0.0
 11
-63.500030000000152
 21
-29.865969999999951
 31
0.0
  0
LINE
  5
8D62
  8
0
  6
CONTINUOUS
 62
     0
 10
-62.0
 20
-27.267950000000159
 30
0.0
 11
-62.0
 21
0.0
 31
0.0
  0
LINE
  5
8D63
  8
0
  6
CONTINUOUS
 62
     0
 10
-62.0
 20
0.0
 30
0.0
 11
-62.0
 21
27.26793999999995
 31
0.0
  0
LINE
  5
8D64
  8
0
  6
CONTINUOUS
 62
     0
 10
-57.999970000000289
 20
17.499999999999769
 30
0.0
 11
-62.0
 21
17.499999999999769
 31
0.0
  0
LINE
  5
8D65
  8
0
  6
CONTINUOUS
 62
     0
 10
0.0
 20
-16.00000000000022
 30
0.0
 11
0.0
 21
16.0
 31
0.0
  0
LINE
  5
8D66
  8
0
  6
CONTINUOUS
 62
     0
 10
-57.999970000000289
 20
-17.5
 30
0.0
 11
-57.999970000000289
 21
17.499999999999769
 31
0.0
  0
LINE
  5
8D67
  8
0
  6
CONTINUOUS
 62
     0
 10
-44.999970000000282
 20
-5.0
 30
0.0
 11
-44.999970000000282
 21
4.9999999999997691
 31
0.0
  0
LINE
  5
8D68
  8
0
  6
CONTINUOUS
 62
     0
 10
0.0
 20
-16.00000000000022
 30
0.0
 11
-57.999970000000289
 21
-16.00000000000022
 31
0.0
  0
LINE
  5
8D69
  8
0
  6
CONTINUOUS
 62
     0
 10
-57.999970000000289
 20
-17.5
 30
0.0
 11
-62.0
 21
-17.5
 31
0.0
  0
LINE
  5
8D6A
  8
0
  6
CONTINUOUS
 62
     0
 10
-45.0
 20
-5.0
 30
0.0
 11
0.0
 21
-5.0
 31
0.0
  0
LINE
  5
8D6B
  8
0
  6
CONTINUOUS
 62
     0
 10
-45.0
 20
4.9999999999997691
 30
0.0
 11
0.0
 21
4.9999999999997691
 31
0.0
  0
LINE
  5
8D6C
  8
0
  6
CONTINUOUS
 62
     0
 10
-72.895289999999932
 20
65.101990000000001
 30
0.0
 11
-82.75716999999986
 21
65.360230000000001
 31
0.0
  0
LINE
  5
8D6D
  8
0
  6
CONTINUOUS
 62
     0
 10
-72.895260000000221
 20
-65.102020000000195
 30
0.0
 11
-82.757140000000135
 21
-65.360260000000196
 31
0.0
  0
LINE
  5
8D6E
  8
0
  6
CONTINUOUS
 62
     0
 10
-89.999970000000303
 20
-69.206729999999993
 30
0.0
 11
-89.999970000000303
 21
69.206720000000018
 31
0.0
  0
LINE
  5
8D6F
  8
0
  6
CONTINUOUS
 62
     0
 10
-110.0
 20
-104.65543000000009
 30
0.0
 11
-110.0
 21
-89.213600000000213
 31
0.0
  0
LINE
  5
8D70
  8
0
  6
CONTINUOUS
 62
     0
 10
-97.790590000000094
 20
77.203979999999873
 30
0.0
 11
-98.314120000000003
 21
77.217710000000025
 31
0.0
  0
LINE
  5
8D71
  8
0
  6
CONTINUOUS
 62
     0
 10
-97.790559999999957
 20
-77.204009999999982
 30
0.0
 11
-98.314120000000003
 21
-77.217720000000199
 31
0.0
  0
LINE
  5
8D72
  8
0
  6
CONTINUOUS
 62
     0
 10
-110.0
 20
89.213620000000006
 30
0.0
 11
-110.0
 21
104.65545
 31
0.0
  0
LINE
  5
8D73
  8
0
  6
CONTINUOUS
 62
     0
 10
-175.0
 20
-99.500000000000043
 30
0.0
 11
-171.0
 21
-99.500000000000043
 31
0.0
  0
LINE
  5
8D74
  8
0
  6
CONTINUOUS
 62
     0
 10
-175.0
 20
99.500000000000014
 30
0.0
 11
-171.0
 21
99.500000000000014
 31
0.0
  0
LINE
  5
8D75
  8
0
  6
CONTINUOUS
 62
     0
 10
-171.0
 20
99.500000000000014
 30
0.0
 11
-171.0
 21
109.3684699999998
 31
0.0
  0
LINE
  5
8D76
  8
0
  6
CONTINUOUS
 62
     0
 10
-183.73851999999991
 20
-107.68762000000019
 30
0.0
 11
-175.34857000000011
 21
-108.4216599999999
 31
0.0
  0
LINE
  5
8D77
  8
0
  6
CONTINUOUS
 62
     0
 10
-171.0
 20
-99.500000000000043
 30
0.0
 11
-171.0
 21
-109.36847
 31
0.0
  0
LINE
  5
8D78
  8
0
  6
CONTINUOUS
 62
     0
 10
-182.10467000000011
 20
-99.25188999999996
 30
0.0
 11
-175.00005999999979
 21
-99.500000000000043
 31
0.0
  0
LINE
  5
8D79
  8
0
  6
CONTINUOUS
 62
     0
 10
-175.0
 20
-94.790189999999924
 30
0.0
 11
-185.0
 21
-94.790189999999924
 31
0.0
  0
LINE
  5
8D7A
  8
0
  6
CONTINUOUS
 62
     0
 10
-175.0
 20
-77.416809999999984
 30
0.0
 11
-185.0
 21
-77.416809999999984
 31
0.0
  0
LINE
  5
8D7B
  8
0
  6
CONTINUOUS
 62
     0
 10
-175.0
 20
-30.276430000000008
 30
0.0
 11
-185.0
 21
-30.276430000000008
 31
0.0
  0
LINE
  5
8D7C
  8
0
  6
CONTINUOUS
 62
     0
 10
-175.0
 20
30.276429999999781
 30
0.0
 11
-185.0
 21
30.276429999999781
 31
0.0
  0
LINE
  5
8D7D
  8
0
  6
CONTINUOUS
 62
     0
 10
-175.0
 20
77.416810000000197
 30
0.0
 11
-185.0
 21
77.416810000000197
 31
0.0
  0
LINE
  5
8D7E
  8
0
  6
CONTINUOUS
 62
     0
 10
-185.0
 20
-96.253730000000132
 30
0.0
 11
-185.0
 21
-23.958250000000021
 31
0.0
  0
LINE
  5
8D7F
  8
0
  6
CONTINUOUS
 62
     0
 10
-182.10472999999999
 20
99.251890000000003
 30
0.0
 11
-175.00005999999979
 21
99.500000000000014
 31
0.0
  0
LINE
  5
8D80
  8
0
  6
CONTINUOUS
 62
     0
 10
-175.0
 20
94.790159999999986
 30
0.0
 11
-185.0
 21
94.790159999999986
 31
0.0
  0
LINE
  5
8D81
  8
0
  6
CONTINUOUS
 62
     0
 10
-205.0
 20
-83.499970000000005
 30
0.0
 11
-205.0
 21
83.499999999999872
 31
0.0
  0
LINE
  5
8D82
  8
0
  6
CONTINUOUS
 62
     0
 10
-205.00005999999971
 20
83.499940000000052
 30
0.0
 11
-189.82549999999989
 21
84.029840000000036
 31
0.0
  0
LINE
  5
8D83
  8
0
  6
CENTER
 62
     0
 10
-204.37970000000041
 20
-12.00000000000011
 30
0.0
 11
-169.08142000000041
 21
-12.00000000000011
 31
0.0
  0
LINE
  5
8D84
  8
0
  6
CENTER
 62
     0
 10
-187.0
 20
-2.5732500000001419
 30
0.0
 11
-187.0
 21
-21.292730000000009
 31
0.0
  0
LINE
  5
8D85
  8
0
  6
CONTINUOUS
 62
     0
 10
-203.00005999999971
 20
7.5020100000000403
 30
0.0
 11
-187.89526000000001
 21
8.0294799999998059
 31
0.0
  0
LINE
  5
8D86
  8
0
  6
CONTINUOUS
 62
     0
 10
-203.0
 20
10.96576000000004
 30
0.0
 11
-187.8953200000004
 21
11.493219999999949
 31
0.0
  0
LINE
  5
8D87
  8
0
  6
CONTINUOUS
 62
     0
 10
-203.0
 20
-7.5020200000000132
 30
0.0
 11
-196.41582999999989
 21
-7.7319400000002361
 31
0.0
  0
LINE
  5
8D88
  8
0
  6
CONTINUOUS
 62
     0
 10
-203.0
 20
-7.5020200000000132
 30
0.0
 11
-203.0
 21
10.96576000000004
 31
0.0
  0
LINE
  5
8D89
  8
0
  6
CENTER
 62
     0
 10
-511.21792446833842
 20
0.0
 30
0.0
 11
11.37951999999995
 21
0.0
 31
0.0
  0
LINE
  5
8D8A
  8
0
  6
CONTINUOUS
 62
     0
 10
-223.0000000000004
 20
-92.999985000000066
 30
0.0
 11
-223.0
 21
-106.61029000000001
 31
0.0
  0
LINE
  5
8D8B
  8
0
  6
CONTINUOUS
 62
     0
 10
-205.0
 20
-83.499970000000005
 30
0.0
 11
-189.82549999999989
 21
-84.029880000000034
 31
0.0
  0
LINE
  5
8D8C
  8
0
  6
CONTINUOUS
 62
     0
 10
-185.0
 20
-0.0417499999999791
 30
0.0
 11
-185.0
 21
96.253720000000044
 31
0.0
  0
LINE
  5
8D8D
  8
0
  6
CONTINUOUS
 62
     0
 10
-200.1500200000001
 20
-15.150030000000241
 30
0.0
 11
-173.85003
 21
-15.150030000000241
 31
0.0
  0
LINE
  5
8D8E
  8
0
  6
CONTINUOUS
 62
     0
 10
-200.1500200000001
 20
-8.8499799999999578
 30
0.0
 11
-173.85003
 21
-8.8499799999999578
 31
0.0
  0
LINE
  5
8D8F
  8
0
  6
CONTINUOUS
 62
     0
 10
-175.0
 20
-8.8499799999999578
 30
0.0
 11
-175.0
 21
99.500000000000014
 31
0.0
  0
ARC
  5
8D90
  8
0
  6
CONTINUOUS
 62
     0
 10
-65.999970000000289
 20
107.4006900000001
 30
0.0
 40
4.0
 50
0.0
 51
87.999999999996334
  0
ARC
  5
8D91
  8
0
  6
CONTINUOUS
 62
     0
 10
-205.0
 20
95.0
 30
0.0
 40
7.5
 50
270.0
 51
158.7517295802414
  0
CIRCLE
  5
8D92
  8
0
  6
CONTINUOUS
 62
     0
 10
-79.999969999999848
 20
95.0
 30
0.0
 40
7.5
  0
ARC
  5
8D93
  8
0
  6
CONTINUOUS
 62
     0
 10
-219.0
 20
106.61028999999979
 30
0.0
 40
4.0
 50
95.000001999992037
 51
180.00001000000091
  0
ARC
  5
8D94
  8
0
  6
CONTINUOUS
 62
     0
 10
-64.999970000000275
 20
61.06274000000019
 30
0.0
 40
4.0
 50
97.180757999994086
 51
180.00001000000091
  0
ARC
  5
8D95
  8
0
  6
CONTINUOUS
 62
     0
 10
-65.999970000000289
 20
69.0
 30
0.0
 40
4.0
 50
277.18075000000363
 51
0.0
  0
ARC
  5
8D96
  8
0
  6
CONTINUOUS
 62
     0
 10
-184.0
 20
110.6762099999999
 30
0.0
 40
3.0
 50
95.000001999992037
 51
274.99999999999972
  0
ARC
  5
8D97
  8
0
  6
CONTINUOUS
 62
     0
 10
-175.0
 20
104.4368900000002
 30
0.0
 40
4.0
 50
0.0
 51
95.000001999992037
  0
ARC
  5
8D98
  8
0
  6
CONTINUOUS
 62
     0
 10
-65.999970000000289
 20
-69.0
 30
0.0
 40
4.0
 50
0.0
 51
82.819247000009895
  0
ARC
  5
8D99
  8
0
  6
CONTINUOUS
 62
     0
 10
-64.999970000000275
 20
-61.062750000000001
 30
0.0
 40
4.0
 50
180.00001000000091
 51
262.81924999999637
  0
CIRCLE
  5
8D9A
  8
0
  6
CONTINUOUS
 62
     0
 10
-79.999969999999848
 20
-95.000000000000057
 30
0.0
 40
7.5
  0
ARC
  5
8D9B
  8
0
  6
CONTINUOUS
 62
     0
 10
-205.0
 20
-95.000000000000057
 30
0.0
 40
7.5
 50
164.30364860549031
 51
134.9459347795827
  0
ARC
  5
8D9C
  8
0
  6
CONTINUOUS
 62
     0
 10
-65.999970000000289
 20
-107.40073
 30
0.0
 40
4.0
 50
272.00000000000369
 51
0.0
  0
ARC
  5
8D9D
  8
0
  6
CONTINUOUS
 62
     0
 10
-65.0
 20
-27.267950000000159
 30
0.0
 40
3.0
 50
300.00000999999349
 51
0.0
  0
ARC
  5
8D9E
  8
0
  6
CONTINUOUS
 62
     0
 10
-65.0
 20
27.26793999999995
 30
0.0
 40
3.0
 50
0.0
 51
60.00000199998717
  0
ARC
  5
8D9F
  8
0
  6
CONTINUOUS
 62
     0
 10
-65.999970000000289
 20
34.773500000000013
 30
0.0
 40
3.0
 50
179.999989999999
 51
240.0000099999925
  0
ARC
  5
8DA0
  8
0
  6
CONTINUOUS
 62
     0
 10
-65.999970000000289
 20
-34.773500000000134
 30
0.0
 40
3.0
 50
120.0000000000001
 51
180.00001000000091
  0
ARC
  5
8DA1
  8
0
  6
CONTINUOUS
 62
     0
 10
-45.0
 20
0.0
 30
0.0
 40
4.9999924
 50
90.000002999984659
 51
270.0
  0
ARC
  5
8DA2
  8
0
  6
CONTINUOUS
 62
     0
 10
-72.999969999999848
 20
-61.103370000000211
 30
0.0
 40
4.0
 50
271.4999999999896
 51
0.0
  0
ARC
  5
8DA3
  8
0
  6
CONTINUOUS
 62
     0
 10
-72.999969999999848
 20
61.103389999999763
 30
0.0
 40
4.0
 50
0.0
 51
88.499996999987658
  0
ARC
  5
8DA4
  8
0
  6
CONTINUOUS
 62
     0
 10
-97.999969999999848
 20
69.206720000000018
 30
0.0
 40
8.0
 50
0.0
 51
88.499996999987658
  0
ARC
  5
8DA5
  8
0
  6
CONTINUOUS
 62
     0
 10
-97.999969999999848
 20
-69.206729999999993
 30
0.0
 40
8.0
 50
271.4999999999896
 51
0.0
  0
ARC
  5
8DA6
  8
0
  6
CONTINUOUS
 62
     0
 10
-82.547760000000324
 20
-73.357489999999984
 30
0.0
 40
8.0
 50
91.500000999988515
 51
164.96420000000299
  0
ARC
  5
8DA7
  8
0
  6
CONTINUOUS
 62
     0
 10
-82.547760000000324
 20
73.357480000000024
 30
0.0
 40
8.0
 50
195.0357999999969
 51
268.50000000001029
  0
ARC
  5
8DA8
  8
0
  6
CONTINUOUS
 62
     0
 10
-98.0
 20
89.213620000000006
 30
0.0
 40
12.0
 50
180.00001000000091
 51
268.50000000001029
  0
ARC
  5
8DA9
  8
0
  6
CONTINUOUS
 62
     0
 10
-98.0
 20
-89.213600000000213
 30
0.0
 40
12.0
 50
91.500000999988515
 51
180.00001000000091
  0
ARC
  5
8DAA
  8
0
  6
CONTINUOUS
 62
     0
 10
-102.0
 20
104.65545
 30
0.0
 40
8.0
 50
87.999999999996334
 51
180.00001000000091
  0
ARC
  5
8DAB
  8
0
  6
CONTINUOUS
 62
     0
 10
-102.0
 20
-104.65543000000009
 30
0.0
 40
8.0
 50
180.00001000000091
 51
271.99999000000781
  0
ARC
  5
8DAC
  8
0
  6
CONTINUOUS
 62
     0
 10
-175.0
 20
-104.43689000000001
 30
0.0
 40
4.0
 50
265.00000999998758
 51
0.0000006832429909
  0
ARC
  5
8DAD
  8
0
  6
CONTINUOUS
 62
     0
 10
-184.0
 20
-110.67621
 30
0.0
 40
3.0
 50
85.000003999984685
 51
265.00000000000028
  0
ARC
  5
8DAE
  8
0
  6
CONTINUOUS
 62
     0
 10
-176.0
 20
109.3684699999998
 30
0.0
 40
5.0
 50
0.0
 51
95.000001999992037
  0
ARC
  5
8DAF
  8
0
  6
CONTINUOUS
 62
     0
 10
-176.0
 20
-109.36847
 30
0.0
 40
5.0
 50
265.00000999998758
 51
0.0000006832429909
  0
ARC
  5
8DB0
  8
0
  6
CONTINUOUS
 62
     0
 10
-182.0
 20
-96.253730000000132
 30
0.0
 40
3.0
 50
180.00001000000091
 51
267.99999999999642
  0
ARC
  5
8DB1
  8
0
  6
CONTINUOUS
 62
     0
 10
-182.0
 20
96.253720000000044
 30
0.0
 40
3.0
 50
91.999997999994051
 51
180.00001000000091
  0
ARC
  5
8DB2
  8
0
  6
CONTINUOUS
 62
     0
 10
-190.0
 20
89.026849999999868
 30
0.0
 40
5.0
 50
272.00000000000369
 51
0.0
  0
ARC
  5
8DB3
  8
0
  6
CONTINUOUS
 62
     0
 10
-188.0
 20
11.027649999999991
 30
0.0
 40
3.0
 50
272.00000000000369
 51
0.0
  0
ARC
  5
8DB4
  8
0
  6
CONTINUOUS
 62
     0
 10
-188.0
 20
14.49139000000002
 30
0.0
 40
3.0
 50
272.00000000000369
 51
0.0
  0
ARC
  5
8DB5
  8
0
  6
CONTINUOUS
 62
     0
 10
-188.0
 20
-0.0417499999999791
 30
0.0
 40
3.0
 50
274.78019999998992
 51
0.0
  0
ARC
  5
8DB6
  8
0
  6
CONTINUOUS
 62
     0
 10
-188.0
 20
-23.958250000000021
 30
0.0
 40
3.0
 50
0.0
 51
85.21980600000505
  0
ARC
  5
8DB7
  8
0
  6
CONTINUOUS
 62
     0
 10
-187.0
 20
-12.00000000000011
 30
0.0
 40
9.0
 50
94.7801920000054
 51
159.51269999999761
  0
ARC
  5
8DB8
  8
0
  6
CONTINUOUS
 62
     0
 10
-219.0
 20
-106.61029000000001
 30
0.0
 40
4.0
 50
179.999989999999
 51
265.00000000000028
  0
ARC
  5
8DB9
  8
0
  6
CONTINUOUS
 62
     0
 10
-190.0
 20
-89.026859999999999
 30
0.0
 40
5.0
 50
0.0
 51
87.999999999996334
  0
ARC
  5
8DBA
  8
0
  6
CONTINUOUS
 62
     0
 10
-187.0
 20
-12.00000000000011
 30
0.0
 40
8.0
 50
23.188019000005589
 51
156.8119799999987
  0
ARC
  5
8DBB
  8
0
  6
CONTINUOUS
 62
     0
 10
-200.1500200000001
 20
-12.00000000000011
 30
0.0
 40
3.1499977000000001
 50
90.000002999984659
 51
270.0
  0
ARC
  5
8DBC
  8
0
  6
CONTINUOUS
 62
     0
 10
-173.85003
 20
-12.00000000000011
 30
0.0
 40
3.1499977000000001
 50
270.0
 51
90.000002999984659
  0
ARC
  5
8DBD
  8
0
  6
CONTINUOUS
 62
     0
 10
-196.45067999999989
 20
-8.7313299999999572
 30
0.0
 40
1.0
 50
353.18504999999948
 51
87.999999999996334
  0
ARC
  5
8DBE
  8
0
  6
CONTINUOUS
 62
     0
 10
-187.0
 20
-12.00000000000011
 30
0.0
 40
8.0
 50
203.1880200000013
 51
336.81196999999543
  0
ARC
  5
8DBF
  8
0
  6
CONTINUOUS
 62
     0
 10
-187.0
 20
-12.00000000000011
 30
0.0
 40
9.0
 50
200.48730000000239
 51
265.21980000001008
  0
ARC
  5
8DC0
  8
0
  6
CONTINUOUS
 62
     0
 10
-205.0
 20
95.0
 30
0.0
 40
7.5
 50
224.43629295507151
 51
270.0
  0
POLYLINE
  5
8DC1
  8
0
  6
CONTINUOUS
 62
     0
 66
     1
 10
0.0
 20
0.0
 30
0.0
  0
VERTEX
  5
8DC2
  8
0
  6
CONTINUOUS
 62
     0
 10
-175.0
 20
-30.276430000000008
 30
0.0
 42
-0.07005559
  0
VERTEX
  5
8DC3
  8
0
  6
CONTINUOUS
 62
     0
 10
-148.63933999999969
 20
-50.473769999999931
 30
0.0
 42
-0.27110578
  0
VERTEX
  5
8DC4
  8
0
  6
CONTINUOUS
 62
     0
 10
-140.0
 20
-70.357120000000009
 30
0.0
 42
-0.21303172
  0
VERTEX
  5
8DC5
  8
0
  6
CONTINUOUS
 62
     0
 10
-159.5904399999998
 20
-88.491930000000039
 30
0.0
  0
VERTEX
  5
8DC6
  8
0
  6
CONTINUOUS
 62
     0
 10
-175.0
 20
-94.790189999999924
 30
0.0
 42
-1.0
  0
SEQEND
  5
8DC7
  8
0
 62
     0
  0
POLYLINE
  5
8DC8
  8
0
  6
CONTINUOUS
 62
     0
 66
     1
 10
0.0
 20
0.0
 30
0.0
  0
VERTEX
  5
8DC9
  8
0
  6
CONTINUOUS
 62
     0
 10
-175.0
 20
-77.416809999999984
 30
0.0
 42
0.040443759
  0
VERTEX
  5
8DCA
  8
0
  6
CONTINUOUS
 62
     0
 10
-163.47182000000009
 20
-77.193440000000066
 30
0.0
 42
0.042469384
  0
VERTEX
  5
8DCB
  8
0
  6
CONTINUOUS
 62
     0
 10
-152.13812999999979
 20
-75.079929999999976
 30
0.0
 42
0.022671411
  0
VERTEX
  5
8DCC
  8
0
  6
CONTINUOUS
 62
     0
 10
-146.65364
 20
-73.288990000000013
 30
0.0
  0
VERTEX
  5
8DCD
  8
0
  6
CONTINUOUS
 62
     0
 10
-141.3480200000003
 20
-71.020150000000044
 30
0.0
 42
-1.0
  0
SEQEND
  5
8DCE
  8
0
 62
     0
  0
POLYLINE
  5
8DCF
  8
0
  6
CONTINUOUS
 62
     0
 66
     1
 10
0.0
 20
0.0
 30
0.0
  0
VERTEX
  5
8DD0
  8
0
  6
CONTINUOUS
 62
     0
 10
-175.0
 20
77.416810000000197
 30
0.0
 42
-0.040443759
  0
VERTEX
  5
8DD1
  8
0
  6
CONTINUOUS
 62
     0
 10
-163.47182000000009
 20
77.193440000000024
 30
0.0
 42
-0.042469384
  0
VERTEX
  5
8DD2
  8
0
  6
CONTINUOUS
 62
     0
 10
-152.13812999999979
 20
75.079920000000016
 30
0.0
 42
-0.022671411
  0
VERTEX
  5
8DD3
  8
0
  6
CONTINUOUS
 62
     0
 10
-146.65364
 20
73.28897999999981
 30
0.0
  0
VERTEX
  5
8DD4
  8
0
  6
CONTINUOUS
 62
     0
 10
-141.3480200000003
 20
71.02014999999993
 30
0.0
 42
-1.0
  0
SEQEND
  5
8DD5
  8
0
 62
     0
  0
POLYLINE
  5
8DD6
  8
0
  6
CONTINUOUS
 62
     0
 66
     1
 10
0.0
 20
0.0
 30
0.0
  0
VERTEX
  5
8DD7
  8
0
  6
CONTINUOUS
 62
     0
 10
-175.0
 20
30.276429999999781
 30
0.0
 42
0.070055609
  0
VERTEX
  5
8DD8
  8
0
  6
CONTINUOUS
 62
     0
 10
-148.63933999999969
 20
50.473769999999931
 30
0.0
 42
0.27110581
  0
VERTEX
  5
8DD9
  8
0
  6
CONTINUOUS
 62
     0
 10
-140.0
 20
70.357110000000034
 30
0.0
 42
0.21303143
  0
VERTEX
  5
8DDA
  8
0
  6
CONTINUOUS
 62
     0
 10
-159.5904399999998
 20
88.491949999999733
 30
0.0
  0
VERTEX
  5
8DDB
  8
0
  6
CONTINUOUS
 62
     0
 10
-175.0
 20
94.790219999999763
 30
0.0
 42
-1.0
  0
SEQEND
  5
8DDC
  8
0
 62
     0
  0
LINE
  5
8DDD
  8
0
 62
     0
 10
-274.50006100000007
 20
-104.999985
 30
0.0
 11
-274.50006100000007
 21
-101.999985
 31
0.0
  0
LINE
  5
8DDE
  8
0
 62
     0
 10
-349.50006100000007
 20
-104.999985
 30
0.0
 11
-349.50006100000007
 21
-101.999985
 31
0.0
  0
LINE
  5
8DDF
  8
0
 62
     0
 10
-275.01606100000032
 20
-160.46006499999999
 30
0.0
 11
-348.98310099999992
 21
-160.46006499999999
 31
0.0
  0
LINE
  5
8DE0
  8
0
 62
     0
 10
-274.8501610000003
 20
-113.18797500000009
 30
0.0
 11
-349.39008100000001
 21
-113.18797500000009
 31
0.0
  0
LINE
  5
8DE1
  8
0
 62
     0
 10
-273.45514099999991
 20
-110.218975
 30
0.0
 11
-350.44513099999978
 21
-110.218975
 31
0.0
  0
LINE
  5
8DE2
  8
0
 62
     0
 10
-273.664131
 20
-105.75803500000011
 30
0.0
 11
-350.36212100000017
 21
-105.75803500000011
 31
0.0
  0
LINE
  5
8DE3
  8
0
 62
     0
 10
-274.25006100000007
 20
-104.999985
 30
0.0
 11
-349.76475800000009
 21
-104.999985
 31
0.0
  0
LINE
  5
8DE4
  8
0
 62
     0
 10
-349.37006100000008
 20
-144.557965
 30
0.0
 11
-274.39008100000001
 21
-144.557965
 31
0.0
  0
ARC
  5
8DE5
  8
0
 62
     0
 10
-867.10009100000002
 20
-134.58506499999999
 30
0.0
 40
600.59997999999962
 50
357.90662000000083
 51
2.5214030000027781
  0
ARC
  5
8DE6
  8
0
 62
     0
 10
-275.01606100000032
 20
-156.8599650000001
 30
0.0
 40
3.6000000000000001
 50
269.99995999999589
 51
355.68894999999827
  0
ARC
  5
8DE7
  8
0
 62
     0
 10
-867.10009100000002
 20
-134.58506499999999
 30
0.0
 40
596.09997999999962
 50
357.83251999999948
 51
1.945679000000482
  0
ARC
  5
8DE8
  8
0
 62
     0
 10
-274.25006100000007
 20
-108.59995500000009
 30
0.0
 40
3.6000000000000001
 50
53.340590999992088
 51
89.999989000004106
  0
ARC
  5
8DE9
  8
0
 62
     0
 10
-272.64508100000012
 20
-117.661965
 30
0.0
 40
7.4984399999999978
 50
40.106594000004051
 51
96.966986999997204
  0
ARC
  5
8DEA
  8
0
 62
     0
 10
-272.64508100000012
 20
-113.191025
 30
0.0
 40
7.4984399999999978
 50
42.099393999988727
 51
96.966986999997204
  0
ARC
  5
8DEB
  8
0
 62
     0
 10
-274.05317100000002
 20
-116.8899950000001
 30
0.0
 40
3.7436899999999982
 50
43.772793999991322
 51
98.860984000010262
  0
ARC
  5
8DEC
  8
0
 62
     0
 10
-274.05317100000002
 20
-148.2570649999999
 30
0.0
 40
3.7436899999999982
 50
43.772793999991322
 51
98.860984000010262
  0
ARC
  5
8DED
  8
0
 62
     0
 10
-271.56208099999998
 20
-153.1690450000001
 30
0.0
 40
5.7431099999999971
 50
265.17896000000519
 51
324.25095000001079
  0
ARC
  5
8DEE
  8
0
 62
     0
 10
243.0998789999999
 20
-134.58506499999999
 30
0.0
 40
600.59997999999962
 50
177.4789699999981
 51
182.09294999999921
  0
ARC
  5
8DEF
  8
0
 62
     0
 10
-348.98310099999992
 20
-156.8599650000001
 30
0.0
 40
3.6000000000000001
 50
184.31098000000131
 51
269.99995999999589
  0
ARC
  5
8DF0
  8
0
 62
     0
 10
243.0998789999999
 20
-134.58506499999999
 30
0.0
 40
596.09997999999962
 50
178.0539699999992
 51
182.16695000000161
  0
ARC
  5
8DF1
  8
0
 62
     0
 10
-349.75006100000007
 20
-108.59995500000009
 30
0.0
 40
3.6000000000000001
 50
89.999989000004106
 51
126.65899000000449
  0
ARC
  5
8DF2
  8
0
 62
     0
 10
-351.35504099999991
 20
-117.661965
 30
0.0
 40
7.4984399999999978
 50
83.032990999994595
 51
139.89297999998601
  0
ARC
  5
8DF3
  8
0
 62
     0
 10
-351.35504099999991
 20
-113.191025
 30
0.0
 40
7.4984399999999978
 50
83.032990999994595
 51
137.9009900000097
  0
ARC
  5
8DF4
  8
0
 62
     0
 10
-349.947091
 20
-116.8899950000001
 30
0.0
 40
3.7436899999999982
 50
81.138986000010647
 51
136.22697999999531
  0
ARC
  5
8DF5
  8
0
 62
     0
 10
-349.947091
 20
-148.2570649999999
 30
0.0
 40
3.7436899999999982
 50
81.138986000010647
 51
136.22697999999531
  0
ARC
  5
8DF6
  8
0
 62
     0
 10
-352.4380510000002
 20
-153.1690450000001
 30
0.0
 40
5.7431099999999971
 50
215.748969999997
 51
274.82095999999319
  0
LINE
  5
8DF7
  8
0
 62
     0
 10
-349.50006100000007
 20
-101.999985
 30
0.0
 11
-274.50006100000007
 21
-101.999985
 31
0.0
  0
ARC
  5
8DF8
  8
0
 62
     0
 10
-483.0999999999998
 20
-85.497359000000102
 30
0.0
 40
2.399999999999999
 50
180.0
 51
199.99999999999611
  0
ARC
  5
8DF9
  8
0
 62
     0
 10
-478.50553600000018
 20
-98.120544000000024
 30
0.0
 40
2.399999999999999
 50
199.99999999999611
 51
270.0
  0
LINE
  5
8DFA
  8
0
 62
     0
 10
-480.76079900000008
 20
-98.94139200000005
 30
0.0
 11
-485.35526199999998
 21
-86.318207000000115
 31
0.0
  0
LINE
  5
8DFB
  8
0
 62
     0
 10
-412.5
 20
-100.520544
 30
0.0
 11
-478.50553600000018
 21
-100.520544
 31
0.0
  0
LINE
  5
8DFC
  8
0
 62
     0
 10
-412.5
 20
100.5205739999998
 30
0.0
 11
-412.5
 21
-100.520544
 31
0.0
  0
LINE
  5
8DFD
  8
0
 62
     0
 10
-480.76079900000008
 20
98.941421999999974
 30
0.0
 11
-485.35526199999998
 21
86.318236999999925
 31
0.0
  0
ARC
  5
8DFE
  8
0
 62
     0
 10
-478.50553600000018
 20
98.120573999999863
 30
0.0
 40
2.399999999999999
 50
90.0
 51
160.00000000000381
  0
ARC
  5
8DFF
  8
0
 62
     0
 10
-483.0999999999998
 20
85.49738899999997
 30
0.0
 40
2.399999999999999
 50
160.00000000000381
 51
180.0
  0
LINE
  5
8E00
  8
0
 62
     0
 10
-480.18603499999972
 20
99.834027999999961
 30
0.0
 11
-480.18603499999972
 21
-100.520544
 31
0.0
  0
LINE
  5
8E01
  8
0
 62
     0
 10
-485.5
 20
85.49738899999997
 30
0.0
 11
-485.5
 21
-85.279426000000086
 31
0.0
  0
LINE
  5
8E02
  8
0
 62
     0
 10
-412.5
 20
100.5205739999998
 30
0.0
 11
-478.50553600000018
 21
100.5205739999998
 31
0.0
  0
ARC
  5
8E03
  8
0
 62
     0
 10
-404.05635599999982
 20
-82.400665000000018
 30
0.0
 40
2.0
 50
189.99999999999659
 51
270.0
  0
LINE
  5
8E04
  8
0
 62
     0
 10
-406.0259709999998
 20
-82.74796100000006
 30
0.0
 11
-409.0
 21
-65.881407000000095
 31
0.0
  0
LINE
  5
8E05
  8
0
 62
     0
 10
-409.0
 20
-65.881407000000095
 30
0.0
 11
-407.93826100000001
 21
-65.881407000000095
 31
0.0
  0
LINE
  5
8E06
  8
0
 62
     0
 10
-210.5358590000001
 20
86.17232199999998
 30
0.0
 11
-210.0
 21
86.17232199999998
 31
0.0
  0
LINE
  5
8E07
  8
0
 62
     0
 10
-210.27546799999971
 20
87.734578999999911
 30
0.0
 11
-210.0
 21
87.734578999999911
 31
0.0
  0
LINE
  5
8E08
  8
0
 62
     0
 10
-208.32180099999999
 20
-87.999834000000135
 30
0.0
 11
-208.0
 21
-87.999834000000135
 31
0.0
  0
LINE
  5
8E09
  8
0
 62
     0
 10
-212.17939500000011
 20
-83.151971000000046
 30
0.0
 11
-210.0
 21
-83.151971000000046
 31
0.0
  0
LINE
  5
8E0A
  8
0
 62
     0
 10
-211.1733119999999
 20
-71.046401000000088
 30
0.0
 11
-210.0
 21
-71.046401000000088
 31
0.0
  0
LINE
  5
8E0B
  8
0
  6
AM_ISO08W050
 62
     0
 10
-312.0
 20
-107.65595
 30
0.0
 11
-312.0
 21
-98.474234000000095
 31
0.0
  0
ARC
  5
8E0C
  8
0
 62
     0
 10
-213.75712000000021
 20
89.008263000000028
 30
0.0
 40
2.0
 50
9.9999999999966729
 51
90.0
  0
ARC
  5
8E0D
  8
0
 62
     0
 10
-213.69110300000011
 20
92.549061999999907
 30
0.0
 40
2.0
 50
9.9999999999966729
 51
90.0
  0
ARC
  5
8E0E
  8
0
 62
     0
 10
-213.60518499999989
 20
95.100798999999924
 30
0.0
 40
2.0
 50
9.9999999999966729
 51
90.0
  0
ARC
  5
8E0F
  8
0
 62
     0
 10
-213.57643600000031
 20
96.500014999999934
 30
0.0
 40
2.0
 50
9.9999999999966729
 51
90.0
  0
LINE
  5
8E10
  8
0
 62
     0
 10
-204.99999699999989
 20
85.000014999999934
 30
0.0
 11
-207.99999699999989
 21
88.000014999999962
 31
0.0
  0
LINE
  5
8E11
  8
0
 62
     0
 10
-210.04680400000009
 20
88.000014999999962
 30
0.0
 11
-208.0
 21
88.000014999999962
 31
0.0
  0
LINE
  5
8E12
  8
0
 62
     0
 10
-205.0
 20
-84.999985000000066
 30
0.0
 11
-208.0
 21
-87.999985000000066
 31
0.0
  0
LINE
  5
8E13
  8
0
 62
     0
 10
-208.0
 20
-87.999985000000066
 30
0.0
 11
-208.0
 21
-62.379599000000063
 31
0.0
  0
LINE
  5
8E14
  8
0
 62
     0
 10
-205.0
 20
-84.999985000000066
 30
0.0
 11
-205.0
 21
85.000014999999934
 31
0.0
  0
CIRCLE
  5
8E15
  8
0
 62
     0
 10
-312.0
 20
0.0000149999999337
 30
0.0
 40
11.0
  0
LINE
  5
8E16
  8
0
 62
     0
 10
-404.71388000000002
 20
98.500014999999976
 30
0.0
 11
-353.0
 21
98.500014999999976
 31
0.0
  0
LINE
  5
8E17
  8
0
 62
     0
 10
-273.0
 20
91.008263000000042
 30
0.0
 11
-273.0
 21
96.500014999999934
 31
0.0
  0
LINE
  5
8E18
  8
0
 62
     0
 10
-351.0
 20
91.008263000000042
 30
0.0
 11
-351.0
 21
96.500014999999934
 31
0.0
  0
ARC
  5
8E19
  8
0
 62
     0
 10
-353.0
 20
96.500014999999934
 30
0.0
 40
2.0
 50
0.0
 51
90.0
  0
ARC
  5
8E1A
  8
0
 62
     0
 10
-271.0
 20
96.500014999999934
 30
0.0
 40
2.0
 50
90.0
 51
180.0
  0
LINE
  5
8E1B
  8
0
 62
     0
 10
-271.0
 20
98.500014999999976
 30
0.0
 11
-213.57643600000031
 21
98.500014999999976
 31
0.0
  0
LINE
  5
8E1C
  8
0
 62
     0
 10
-213.60518499999989
 20
97.100798999999924
 30
0.0
 11
-271.0
 21
97.100798999999924
 31
0.0
  0
LINE
  5
8E1D
  8
0
 62
     0
 10
-210.0
 20
86.17232199999998
 30
0.0
 11
-211.635569
 21
95.448094999999938
 31
0.0
  0
LINE
  5
8E1E
  8
0
 62
     0
 10
-210.0
 20
87.734578999999911
 30
0.0
 11
-211.60682099999991
 21
96.847310999999962
 31
0.0
  0
LINE
  5
8E1F
  8
0
 62
     0
 10
-409.0
 20
83.709760999999915
 30
0.0
 11
-406.68349499999999
 21
96.847310999999962
 31
0.0
  0
ARC
  5
8E20
  8
0
 62
     0
 10
-404.71388000000002
 20
96.500014999999934
 30
0.0
 40
2.0
 50
90.0
 51
170.0000000000033
  0
LINE
  5
8E21
  8
0
 62
     0
 10
-409.0
 20
82.050699999999807
 30
0.0
 11
-406.63767799999971
 21
95.448094999999938
 31
0.0
  0
ARC
  5
8E22
  8
0
 62
     0
 10
-404.66806199999962
 20
95.100798999999924
 30
0.0
 40
2.0
 50
90.0
 51
170.0000000000033
  0
ARC
  5
8E23
  8
0
 62
     0
 10
-353.0
 20
95.100798999999924
 30
0.0
 40
2.0
 50
0.0
 51
90.0
  0
ARC
  5
8E24
  8
0
 62
     0
 10
-271.0
 20
95.100798999999924
 30
0.0
 40
2.0
 50
90.0
 51
180.0
  0
LINE
  5
8E25
  8
0
 62
     0
 10
-353.0
 20
97.100798999999924
 30
0.0
 11
-404.66806199999962
 21
97.100798999999924
 31
0.0
  0
LINE
  5
8E26
  8
0
 62
     0
 10
-213.69110300000011
 20
94.549061999999921
 30
0.0
 11
-271.0
 21
94.549061999999921
 31
0.0
  0
LINE
  5
8E27
  8
0
 62
     0
 10
-210.12878000000001
 20
83.863663999999915
 30
0.0
 11
-211.72148800000011
 21
92.896358999999904
 31
0.0
  0
LINE
  5
8E28
  8
0
 62
     0
 10
-409.0
 20
78.829909000000015
 30
0.0
 11
-406.5197049999997
 21
92.896358999999904
 31
0.0
  0
ARC
  5
8E29
  8
0
 62
     0
 10
-404.55009000000001
 20
92.549061999999907
 30
0.0
 40
2.0
 50
90.0
 51
170.0000000000033
  0
ARC
  5
8E2A
  8
0
 62
     0
 10
-353.0
 20
92.549061999999907
 30
0.0
 40
2.0
 50
0.0
 51
90.0
  0
ARC
  5
8E2B
  8
0
 62
     0
 10
-271.0
 20
92.549061999999907
 30
0.0
 40
2.0
 50
90.0
 51
180.0
  0
LINE
  5
8E2C
  8
0
 62
     0
 10
-353.0
 20
94.549061999999921
 30
0.0
 11
-404.55009000000001
 21
94.549061999999921
 31
0.0
  0
LINE
  5
8E2D
  8
0
 62
     0
 10
-213.75712000000021
 20
91.008263000000042
 30
0.0
 11
-404.3885810000001
 21
91.008263000000042
 31
0.0
  0
LINE
  5
8E2E
  8
0
 62
     0
 10
-210.81913499999979
 20
83.863663999999915
 30
0.0
 11
-211.7875039999999
 21
89.355558999999957
 31
0.0
  0
LINE
  5
8E2F
  8
0
 62
     0
 10
-409.0
 20
74.37314899999987
 30
0.0
 11
-406.35819700000002
 21
89.355558999999957
 31
0.0
  0
ARC
  5
8E30
  8
0
 62
     0
 10
-404.3885810000001
 20
89.008263000000028
 30
0.0
 40
2.0
 50
90.0
 51
170.0000000000033
  0
LINE
  5
8E31
  8
0
 62
     0
 10
-279.94364400000001
 20
84.400694999999914
 30
0.0
 11
-404.05635599999982
 21
84.400694999999914
 31
0.0
  0
LINE
  5
8E32
  8
0
 62
     0
 10
-275.0
 20
65.881436999999863
 30
0.0
 11
-277.97402899999997
 21
82.747990999999928
 31
0.0
  0
ARC
  5
8E33
  8
0
 62
     0
 10
-279.94364400000001
 20
82.400694999999885
 30
0.0
 40
2.0
 50
9.9999999999966729
 51
90.0
  0
LINE
  5
8E34
  8
0
 62
     0
 10
-409.0
 20
65.881436999999863
 30
0.0
 11
-406.0259709999998
 21
82.747990999999928
 31
0.0
  0
ARC
  5
8E35
  8
0
 62
     0
 10
-404.05635599999982
 20
82.400694999999885
 30
0.0
 40
2.0
 50
90.0
 51
170.0000000000033
  0
LINE
  5
8E36
  8
0
 62
     0
 10
-280.27390800000012
 20
78.998650999999953
 30
0.0
 11
-403.72609199999982
 21
78.998650999999953
 31
0.0
  0
LINE
  5
8E37
  8
0
 62
     0
 10
-275.22105099999999
 20
59.860014999999933
 30
0.0
 11
-278.3042919999998
 21
77.345947999999979
 31
0.0
  0
ARC
  5
8E38
  8
0
 62
     0
 10
-280.27390800000012
 20
76.998650999999953
 30
0.0
 40
2.0
 50
9.9999999999966729
 51
90.0
  0
LINE
  5
8E39
  8
0
 62
     0
 10
-408.723006
 20
60.17728299999991
 30
0.0
 11
-405.69570800000002
 21
77.345947999999979
 31
0.0
  0
ARC
  5
8E3A
  8
0
 62
     0
 10
-403.72609199999982
 20
76.998650999999953
 30
0.0
 40
2.0
 50
90.0
 51
170.0000000000033
  0
LINE
  5
8E3B
  8
0
 62
     0
 10
-210.0
 20
5.0301669999998619
 30
0.0
 11
-210.0
 21
7.9778589999999951
 31
0.0
  0
LINE
  5
8E3C
  8
0
 62
     0
 10
-210.0
 20
15.029642999999931
 30
0.0
 11
-210.0
 21
17.99112199999999
 31
0.0
  0
LINE
  5
8E3D
  8
0
 62
     0
 10
-210.0
 20
26.021822999999952
 30
0.0
 11
-210.0
 21
29.014449999999869
 31
0.0
  0
LINE
  5
8E3E
  8
0
 62
     0
 10
-210.0
 20
37.004617999999972
 30
0.0
 11
-210.0
 21
40.05032399999989
 31
0.0
  0
LINE
  5
8E3F
  8
0
 62
     0
 10
-210.0
 20
47.974496999999957
 30
0.0
 11
-210.0
 21
51.105409999999971
 31
0.0
  0
LINE
  5
8E40
  8
0
 62
     0
 10
-210.0
 20
56.93297299999994
 30
0.0
 11
-210.0
 21
60.17728299999991
 31
0.0
  0
LINE
  5
8E41
  8
0
 62
     0
 10
-260.0
 20
74.37314899999987
 30
0.0
 11
-276.49731799999972
 21
74.37314899999987
 31
0.0
  0
LINE
  5
8E42
  8
0
 62
     0
 10
-228.2132230000002
 20
79.21811699999985
 30
0.0
 11
-244.0
 21
79.21811699999985
 31
0.0
  0
LINE
  5
8E43
  8
0
 62
     0
 10
-260.0
 20
74.37314899999987
 30
0.0
 11
-244.0
 21
79.21811699999985
 31
0.0
  0
LINE
  5
8E44
  8
0
 62
     0
 10
-244.0
 20
79.21811699999985
 30
0.0
 11
-244.0
 21
75.852801999999983
 31
0.0
  0
LINE
  5
8E45
  8
0
 62
     0
 10
-260.0
 20
74.37314899999987
 30
0.0
 11
-260.0
 21
60.17728299999991
 31
0.0
  0
LINE
  5
8E46
  8
0
 62
     0
 10
-224.5
 20
63.065976999999933
 30
0.0
 11
-224.5
 21
81.863663999999929
 31
0.0
  0
ARC
  5
8E47
  8
0
 62
     0
 10
-222.5
 20
81.863663999999929
 30
0.0
 40
2.0
 50
90.0
 51
180.0
  0
LINE
  5
8E48
  8
0
 62
     0
 10
-224.5
 20
67.456074999999899
 30
0.0
 11
-244.0
 21
67.456074999999899
 31
0.0
  0
LINE
  5
8E49
  8
0
 62
     0
 10
-229.89999399999991
 20
75.852801999999983
 30
0.0
 11
-244.0
 21
75.852801999999983
 31
0.0
  0
LINE
  5
8E4A
  8
0
 62
     0
 10
-244.0
 20
67.456074999999899
 30
0.0
 11
-244.0
 21
60.17728299999991
 31
0.0
  0
INSERT
  5
8E4B
  8
0
 62
     0
  2
$6-45
 10
-224.5
 20
74.133274999999855
 30
0.0
 50
90.0
  0
LINE
  5
8E4C
  8
0
 62
     0
 10
-205.0
 20
83.863663999999915
 30
0.0
 11
-222.5
 21
83.863663999999915
 31
0.0
  0
LINE
  5
8E4D
  8
0
 62
     0
 10
-205.0
 20
62.065976999999961
 30
0.0
 11
-225.5
 21
62.065976999999961
 31
0.0
  0
ARC
  5
8E4E
  8
0
 62
     0
 10
-225.5
 20
63.065976999999933
 30
0.0
 40
1.0
 50
270.0
 51
0.0
  0
LINE
  5
8E4F
  8
0
 62
     0
 10
-205.0
 20
75.739658999999932
 30
0.0
 11
-222.5
 21
75.739658999999932
 31
0.0
  0
LINE
  5
8E50
  8
0
 62
     0
 10
-412.5
 20
84.000014999999934
 30
0.0
 11
-409.0
 21
84.000014999999934
 31
0.0
  0
ARC
  5
8E51
  8
0
 62
     0
 10
-208.32180099999999
 20
-89.999985000000024
 30
0.0
 40
2.0
 50
90.0
 51
170.0000000000033
  0
ARC
  5
8E52
  8
0
 62
     0
 10
-272.25735799999973
 20
-94.993642000000037
 30
0.0
 40
1.9936590000000001
 50
90.075931000003493
 51
178.1702539999981
  0
LINE
  5
8E53
  8
0
 62
     0
 10
-272.26000000000028
 20
-92.999985000000066
 30
0.0
 11
-212.55983400000019
 21
-92.999985000000066
 31
0.0
  0
LINE
  5
8E54
  8
0
 62
     0
 10
-274.5
 20
-101.999985
 30
0.0
 11
-273.8839710000002
 21
-84.400665000000032
 31
0.0
  0
LINE
  5
8E55
  8
0
 62
     0
 10
-210.291416
 20
-89.652689000000095
 30
0.0
 11
-210.5902190000001
 21
-91.347281000000024
 31
0.0
  0
ARC
  5
8E56
  8
0
 62
     0
 10
-212.55983400000019
 20
-90.999985000000024
 30
0.0
 40
2.0
 50
270.0
 51
350.0000000000033
  0
LINE
  5
8E57
  8
0
 62
     0
 10
-408.42264999999981
 20
-84.999985000000066
 30
0.0
 11
-401.2057709999998
 21
-97.499985000000095
 31
0.0
  0
LINE
  5
8E58
  8
0
 62
     0
 10
-399.47372099999978
 20
-98.499985000000052
 30
0.0
 11
-351.5550290000001
 21
-98.499985000000052
 31
0.0
  0
LINE
  5
8E59
  8
0
 62
     0
 10
-349.5
 20
-101.999985
 30
0.0
 11
-349.55631200000022
 21
-100.42837
 31
0.0
  0
ARC
  5
8E5A
  8
0
 62
     0
 10
-410.15470099999987
 20
-85.999985000000024
 30
0.0
 40
2.0
 50
29.999999999995879
 51
90.0
  0
ARC
  5
8E5B
  8
0
 62
     0
 10
-399.47372099999978
 20
-96.499985000000095
 30
0.0
 40
2.0
 50
209.99999999999591
 51
270.0
  0
ARC
  5
8E5C
  8
0
 62
     0
 10
-351.5550290000001
 20
-100.499985
 30
0.0
 40
2.0
 50
2.052064999998533
 51
90.0
  0
LINE
  5
8E5D
  8
0
 62
     0
 10
-349.5
 20
-101.999985
 30
0.0
 11
-274.5
 21
-101.999985
 31
0.0
  0
LINE
  5
8E5E
  8
0
 62
     0
 10
-400.47372099999978
 20
-98.232036000000022
 30
0.0
 11
-400.47372099999978
 21
-84.400665000000032
 31
0.0
  0
LINE
  5
8E5F
  8
0
 62
     0
 10
-214.03291600000011
 20
-84.400665000000032
 30
0.0
 11
-404.05635599999982
 21
-84.400665000000032
 31
0.0
  0
LINE
  5
8E60
  8
0
 62
     0
 10
-214.253702
 20
-78.998621000000028
 30
0.0
 11
-403.94714299999981
 21
-78.998621000000028
 31
0.0
  0
LINE
  5
8E61
  8
0
 62
     0
 10
-210.0
 20
-64.39221900000004
 30
0.0
 11
-244.0
 21
-64.39221900000004
 31
0.0
  0
LINE
  5
8E62
  8
0
 62
     0
 10
-210.0
 20
-64.39221900000004
 30
0.0
 11
-212.284087
 21
-77.345918000000083
 31
0.0
  0
ARC
  5
8E63
  8
0
 62
     0
 10
-214.253702
 20
-76.998621000000028
 30
0.0
 40
2.0
 50
270.0
 51
350.0000000000033
  0
LINE
  5
8E64
  8
0
 62
     0
 10
-210.0
 20
-71.046401000000088
 30
0.0
 11
-212.06330100000011
 21
-82.74796100000006
 31
0.0
  0
ARC
  5
8E65
  8
0
 62
     0
 10
-214.03291600000011
 20
-82.400665000000018
 30
0.0
 40
2.0
 50
270.0
 51
350.0000000000033
  0
LINE
  5
8E66
  8
0
 62
     0
 10
-405.25726200000008
 20
-83.999985000000066
 30
0.0
 11
-412.5
 21
-83.999985000000066
 31
0.0
  0
LINE
  5
8E67
  8
0
 62
     0
 10
-210.0
 20
-83.151971000000046
 30
0.0
 11
-211.4450539999998
 21
-91.347281000000024
 31
0.0
  0
ARC
  5
8E68
  8
0
 62
     0
 10
-213.41467000000009
 20
-90.999985000000024
 30
0.0
 40
2.0
 50
270.0
 51
350.0000000000033
  0
LINE
  5
8E69
  8
0
 62
     0
 10
-275.0
 20
-48.159985000000091
 30
0.0
 11
-275.0
 21
-50.859985000000059
 31
0.0
  0
LINE
  5
8E6A
  8
0
 62
     0
 10
-205.0
 20
-62.209622000000053
 30
0.0
 11
-222.5
 21
-62.209622000000053
 31
0.0
  0
LINE
  5
8E6B
  8
0
 62
     0
 10
-205.0
 20
-49.901983000000058
 30
0.0
 11
-222.5
 21
-49.901983000000058
 31
0.0
  0
LINE
  5
8E6C
  8
0
 62
     0
 10
-205.0
 20
-39.722691000000083
 30
0.0
 11
-210.0
 21
-39.722691000000083
 31
0.0
  0
LINE
  5
8E6D
  8
0
 62
     0
 10
-224.5
 20
-40.722691000000047
 30
0.0
 11
-224.5
 21
-60.209622000000039
 31
0.0
  0
ARC
  5
8E6E
  8
0
 62
     0
 10
-225.5
 20
-40.722691000000047
 30
0.0
 40
1.0
 50
0.0
 51
42.252324000003682
  0
ARC
  5
8E6F
  8
0
 62
     0
 10
-222.5
 20
-60.209622000000039
 30
0.0
 40
2.0
 50
180.0
 51
270.0
  0
LINE
  5
8E70
  8
0
 62
     0
 10
-260.0
 20
56.93297299999994
 30
0.0
 11
-260.0
 21
51.105409999999971
 31
0.0
  0
LINE
  5
8E71
  8
0
 62
     0
 10
-244.0
 20
56.93297299999994
 30
0.0
 11
-244.0
 21
51.105409999999971
 31
0.0
  0
LINE
  5
8E72
  8
0
 62
     0
 10
-260.0
 20
47.974496999999957
 30
0.0
 11
-260.0
 21
40.05032399999989
 31
0.0
  0
LINE
  5
8E73
  8
0
 62
     0
 10
-260.0
 20
37.004617999999972
 30
0.0
 11
-260.0
 21
29.014449999999869
 31
0.0
  0
LINE
  5
8E74
  8
0
 62
     0
 10
-260.0
 20
26.021822999999952
 30
0.0
 11
-260.0
 21
17.99112199999999
 31
0.0
  0
LINE
  5
8E75
  8
0
 62
     0
 10
-260.0
 20
15.029642999999931
 30
0.0
 11
-260.0
 21
7.9778589999999951
 31
0.0
  0
LINE
  5
8E76
  8
0
 62
     0
 10
-260.0
 20
5.1600149999999569
 30
0.0
 11
-260.0
 21
-5.0301369999999954
 31
0.0
  0
LINE
  5
8E77
  8
0
 62
     0
 10
-244.0
 20
5.1600149999999569
 30
0.0
 11
-244.0
 21
-5.0301369999999954
 31
0.0
  0
LINE
  5
8E78
  8
0
 62
     0
 10
-244.0
 20
15.029642999999931
 30
0.0
 11
-244.0
 21
7.9778589999999951
 31
0.0
  0
LINE
  5
8E79
  8
0
 62
     0
 10
-244.0
 20
26.021822999999952
 30
0.0
 11
-244.0
 21
17.99112199999999
 31
0.0
  0
LINE
  5
8E7A
  8
0
 62
     0
 10
-244.0
 20
37.004617999999972
 30
0.0
 11
-244.0
 21
29.014449999999869
 31
0.0
  0
LINE
  5
8E7B
  8
0
 62
     0
 10
-244.0
 20
47.974496999999957
 30
0.0
 11
-244.0
 21
40.05032399999989
 31
0.0
  0
LINE
  5
8E7C
  8
0
 62
     0
 10
-260.0
 20
-7.9778290000001268
 30
0.0
 11
-260.0
 21
-15.02961300000007
 31
0.0
  0
LINE
  5
8E7D
  8
0
 62
     0
 10
-244.0
 20
-7.9778290000001268
 30
0.0
 11
-244.0
 21
-15.02961300000007
 31
0.0
  0
LINE
  5
8E7E
  8
0
 62
     0
 10
-244.0
 20
-17.991092000000119
 30
0.0
 11
-244.0
 21
-26.021793000000091
 31
0.0
  0
LINE
  5
8E7F
  8
0
 62
     0
 10
-260.0
 20
-17.991092000000119
 30
0.0
 11
-260.0
 21
-26.021793000000091
 31
0.0
  0
LINE
  5
8E80
  8
0
 62
     0
 10
-260.0
 20
-29.014420000000001
 30
0.0
 11
-260.0
 21
-37.004588000000041
 31
0.0
  0
LINE
  5
8E81
  8
0
 62
     0
 10
-244.0
 20
-29.014420000000001
 30
0.0
 11
-244.0
 21
-37.004588000000041
 31
0.0
  0
LINE
  5
8E82
  8
0
 62
     0
 10
-229.450605
 20
-56.020781000000071
 30
0.0
 11
-244.00000099999991
 21
-56.020781000000071
 31
0.0
  0
LINE
  5
8E83
  8
0
 62
     0
 10
-224.5
 20
-44.608431000000067
 30
0.0
 11
-244.00000099999991
 21
-44.608431000000067
 31
0.0
  0
LINE
  5
8E84
  8
0
 62
     0
 10
-260.0
 20
-40.050294000000036
 30
0.0
 11
-260.0
 21
-60.050294000000036
 31
0.0
  0
LINE
  5
8E85
  8
0
 62
     0
 10
-208.0
 20
83.863663999999915
 30
0.0
 11
-208.0
 21
88.000014999999962
 31
0.0
  0
LINE
  5
8E86
  8
0
 62
     0
 10
-210.0
 20
-86.201729000000043
 30
0.0
 11
-210.90729999999991
 21
-91.347281000000024
 31
0.0
  0
ARC
  5
8E87
  8
0
 62
     0
 10
-212.8769149999998
 20
-90.999985000000024
 30
0.0
 40
2.0
 50
270.0
 51
350.0000000000033
  0
LINE
  5
8E88
  8
0
 62
     0
 10
-244.0
 20
-40.050294000000036
 30
0.0
 11
-244.0
 21
-44.608431000000067
 31
0.0
  0
LINE
  5
8E89
  8
0
 62
     0
 10
-208.0
 20
-39.722691000000083
 30
0.0
 11
-208.0
 21
62.065976999999961
 31
0.0
  0
LINE
  5
8E8A
  8
0
 62
     0
 10
-409.0
 20
-59.859985000000073
 30
0.0
 11
-405.91675799999967
 21
-77.345918000000083
 31
0.0
  0
ARC
  5
8E8B
  8
0
 62
     0
 10
-403.94714299999981
 20
-76.998621000000028
 30
0.0
 40
2.0
 50
189.99999999999659
 51
270.0
  0
LINE
  5
8E8C
  8
0
 62
     0
 10
-259.29460300000028
 20
-51.305691000000053
 30
0.0
 11
-244.0
 21
-56.020781000000071
 31
0.0
  0
LINE
  5
8E8D
  8
0
 62
     0
 10
-244.0
 20
-44.608431000000067
 30
0.0
 11
-259.03594100000009
 21
-45.14918200000006
 31
0.0
  0
LINE
  5
8E8E
  8
0
 62
     0
 10
-244.0
 20
-56.020781000000071
 30
0.0
 11
-244.0
 21
-64.39221900000004
 31
0.0
  0
ARC
  5
8E8F
  8
0
 62
     0
 10
-259.0
 20
-46.148536000000057
 30
0.0
 40
1.0
 50
92.059690999990622
 51
180.0
  0
ARC
  5
8E90
  8
0
 62
     0
 10
-259.0
 20
-50.350071000000042
 30
0.0
 40
1.0
 50
180.0
 51
252.86627500000199
  0
LINE
  5
8E91
  8
0
 62
     0
 10
-244.0
 20
75.852801999999983
 30
0.0
 11
-259.30045899999999
 21
71.032935999999921
 31
0.0
  0
LINE
  5
8E92
  8
0
 62
     0
 10
-258.95144500000021
 20
66.729254999999938
 30
0.0
 11
-244.0
 21
67.456074999999899
 31
0.0
  0
ARC
  5
8E93
  8
0
 62
     0
 10
-259.0
 20
70.079140999999893
 30
0.0
 40
1.0
 50
107.4851790000135
 51
180.0
  0
ARC
  5
8E94
  8
0
 62
     0
 10
-259.0
 20
67.728075999999959
 30
0.0
 40
1.0
 50
180.0
 51
270.0
  0
INSERT
  5
8E95
  8
0
 62
     0
  2
$6-45
 10
-224.5
 20
-51.908652000000039
 30
0.0
 50
90.0
  0
LINE
  5
8E96
  8
0
 62
     0
 10
-210.0
 20
60.17728299999991
 30
0.0
 11
-409.0
 21
60.17728299999991
 31
0.0
  0
LINE
  5
8E97
  8
0
 62
     0
 10
-210.0
 20
56.93297299999994
 30
0.0
 11
-409.0
 21
56.93297299999994
 31
0.0
  0
LINE
  5
8E98
  8
0
 62
     0
 10
-210.0
 20
51.105409999999971
 30
0.0
 11
-409.0
 21
51.105409999999971
 31
0.0
  0
LINE
  5
8E99
  8
0
 62
     0
 10
-210.0
 20
47.974496999999957
 30
0.0
 11
-409.0
 21
47.974496999999957
 31
0.0
  0
LINE
  5
8E9A
  8
0
 62
     0
 10
-210.0
 20
40.05032399999989
 30
0.0
 11
-409.0
 21
40.05032399999989
 31
0.0
  0
LINE
  5
8E9B
  8
0
 62
     0
 10
-210.0
 20
37.004617999999972
 30
0.0
 11
-409.0
 21
37.004617999999972
 31
0.0
  0
LINE
  5
8E9C
  8
0
 62
     0
 10
-210.0
 20
29.014449999999869
 30
0.0
 11
-409.0
 21
29.014449999999869
 31
0.0
  0
LINE
  5
8E9D
  8
0
 62
     0
 10
-210.0
 20
26.021822999999952
 30
0.0
 11
-409.0
 21
26.021822999999952
 31
0.0
  0
LINE
  5
8E9E
  8
0
 62
     0
 10
-210.0
 20
17.99112199999999
 30
0.0
 11
-409.0
 21
17.99112199999999
 31
0.0
  0
LINE
  5
8E9F
  8
0
 62
     0
 10
-210.0
 20
15.029642999999931
 30
0.0
 11
-409.0
 21
15.029642999999931
 31
0.0
  0
LINE
  5
8EA0
  8
0
 62
     0
 10
-210.0
 20
7.9778589999999951
 30
0.0
 11
-304.42675700000018
 21
7.9778589999999951
 31
0.0
  0
LINE
  5
8EA1
  8
0
 62
     0
 10
-210.0
 20
5.0301669999998619
 30
0.0
 11
-297.61435299999988
 21
5.0301669999998619
 31
0.0
  0
LINE
  5
8EA2
  8
0
 62
     0
 10
-212.07892099999981
 20
59.500014999999927
 30
0.0
 11
-212.07892099999981
 21
57.500014999999927
 31
0.0
  0
LINE
  5
8EA3
  8
0
 62
     0
 10
-406.92107899999962
 20
57.500014999999927
 30
0.0
 11
-212.07892099999981
 21
57.500014999999927
 31
0.0
  0
LINE
  5
8EA4
  8
0
 62
     0
 10
-406.92107899999962
 20
59.500014999999927
 30
0.0
 11
-212.07892099999981
 21
59.500014999999927
 31
0.0
  0
LINE
  5
8EA5
  8
0
 62
     0
 10
-406.92107899999962
 20
48.500014999999941
 30
0.0
 11
-212.07892099999981
 21
48.500014999999941
 31
0.0
  0
LINE
  5
8EA6
  8
0
 62
     0
 10
-406.92107899999962
 20
50.500014999999927
 30
0.0
 11
-212.07892099999981
 21
50.500014999999927
 31
0.0
  0
LINE
  5
8EA7
  8
0
 62
     0
 10
-406.92107899999962
 20
37.500014999999927
 30
0.0
 11
-212.07892099999981
 21
37.500014999999927
 31
0.0
  0
LINE
  5
8EA8
  8
0
 62
     0
 10
-406.92107899999962
 20
39.500014999999941
 30
0.0
 11
-212.07892099999981
 21
39.500014999999941
 31
0.0
  0
LINE
  5
8EA9
  8
0
 62
     0
 10
-406.92107899999962
 20
26.50001499999993
 30
0.0
 11
-212.07892099999981
 21
26.50001499999993
 31
0.0
  0
LINE
  5
8EAA
  8
0
 62
     0
 10
-406.92107899999962
 20
28.500014999999941
 30
0.0
 11
-212.07892099999981
 21
28.500014999999941
 31
0.0
  0
LINE
  5
8EAB
  8
0
 62
     0
 10
-406.92107899999962
 20
15.50001499999993
 30
0.0
 11
-212.07892099999981
 21
15.50001499999993
 31
0.0
  0
LINE
  5
8EAC
  8
0
 62
     0
 10
-406.92107899999962
 20
17.50001499999993
 30
0.0
 11
-212.07892099999981
 21
17.50001499999993
 31
0.0
  0
LINE
  5
8EAD
  8
0
 62
     0
 10
-298.22502300000002
 20
5.500014999999931
 30
0.0
 11
-212.07892099999981
 21
5.500014999999931
 31
0.0
  0
LINE
  5
8EAE
  8
0
 62
     0
 10
-303.953262
 20
7.500014999999931
 30
0.0
 11
-212.07892099999981
 21
7.500014999999931
 31
0.0
  0
LINE
  5
8EAF
  8
0
 62
     0
 10
-212.07892099999981
 20
59.500014999999927
 30
0.0
 11
-210.0
 21
60.17728299999991
 31
0.0
  0
LINE
  5
8EB0
  8
0
 62
     0
 10
-212.07892099999981
 20
57.500014999999927
 30
0.0
 11
-210.0
 21
56.93297299999994
 31
0.0
  0
LINE
  5
8EB1
  8
0
 62
     0
 10
-212.07892099999981
 20
50.500014999999927
 30
0.0
 11
-210.0
 21
51.105409999999971
 31
0.0
  0
LINE
  5
8EB2
  8
0
 62
     0
 10
-212.07892099999981
 20
48.500014999999941
 30
0.0
 11
-210.0
 21
47.974496999999957
 31
0.0
  0
LINE
  5
8EB3
  8
0
 62
     0
 10
-212.07892099999981
 20
39.500014999999941
 30
0.0
 11
-210.0
 21
40.05032399999989
 31
0.0
  0
LINE
  5
8EB4
  8
0
 62
     0
 10
-212.07892099999981
 20
37.500014999999927
 30
0.0
 11
-210.0
 21
37.004617999999972
 31
0.0
  0
LINE
  5
8EB5
  8
0
 62
     0
 10
-212.07892099999981
 20
28.500014999999941
 30
0.0
 11
-210.0
 21
29.014449999999869
 31
0.0
  0
LINE
  5
8EB6
  8
0
 62
     0
 10
-212.07892099999981
 20
26.50001499999993
 30
0.0
 11
-210.0
 21
26.021822999999952
 31
0.0
  0
LINE
  5
8EB7
  8
0
 62
     0
 10
-212.07892099999981
 20
17.50001499999993
 30
0.0
 11
-210.0
 21
17.99112199999999
 31
0.0
  0
LINE
  5
8EB8
  8
0
 62
     0
 10
-212.07892099999981
 20
15.50001499999993
 30
0.0
 11
-210.0
 21
15.029642999999931
 31
0.0
  0
LINE
  5
8EB9
  8
0
 62
     0
 10
-212.07892099999981
 20
7.500014999999931
 30
0.0
 11
-210.0
 21
7.9778589999999951
 31
0.0
  0
LINE
  5
8EBA
  8
0
 62
     0
 10
-212.07892099999981
 20
5.500014999999931
 30
0.0
 11
-210.0
 21
5.0301669999998619
 31
0.0
  0
LINE
  5
8EBB
  8
0
 62
     0
 10
-212.07892099999981
 20
50.500014999999927
 30
0.0
 11
-212.07892099999981
 21
48.500014999999941
 31
0.0
  0
LINE
  5
8EBC
  8
0
 62
     0
 10
-212.07892099999981
 20
39.500014999999941
 30
0.0
 11
-212.07892099999981
 21
37.500014999999927
 31
0.0
  0
LINE
  5
8EBD
  8
0
 62
     0
 10
-212.07892099999981
 20
28.500014999999941
 30
0.0
 11
-212.07892099999981
 21
26.50001499999993
 31
0.0
  0
LINE
  5
8EBE
  8
0
 62
     0
 10
-212.07892099999981
 20
17.50001499999993
 30
0.0
 11
-212.07892099999981
 21
15.50001499999993
 31
0.0
  0
LINE
  5
8EBF
  8
0
 62
     0
 10
-212.07892099999981
 20
7.500014999999931
 30
0.0
 11
-212.07892099999981
 21
5.500014999999931
 31
0.0
  0
ARC
  5
8EC0
  8
0
 62
     0
 10
-298.22502300000002
 20
2.5000149999999319
 30
0.0
 40
3.0
 50
90.0
 51
190.2865609999977
  0
ARC
  5
8EC1
  8
0
 62
     0
 10
-297.61435299999988
 20
1.5601669999998931
 30
0.0
 40
3.4700000000000002
 50
90.0
 51
186.1896490000004
  0
LINE
  5
8EC2
  8
0
 62
     0
 10
-391.92107899999968
 20
7.500014999999931
 30
0.0
 11
-391.92107899999968
 21
5.500014999999931
 31
0.0
  0
LINE
  5
8EC3
  8
0
 62
     0
 10
-406.92107899999962
 20
17.50001499999993
 30
0.0
 11
-406.92107899999962
 21
15.50001499999993
 31
0.0
  0
LINE
  5
8EC4
  8
0
 62
     0
 10
-406.92107899999962
 20
28.500014999999941
 30
0.0
 11
-406.92107899999962
 21
26.50001499999993
 31
0.0
  0
LINE
  5
8EC5
  8
0
 62
     0
 10
-406.92107899999962
 20
39.500014999999941
 30
0.0
 11
-406.92107899999962
 21
37.500014999999927
 31
0.0
  0
LINE
  5
8EC6
  8
0
 62
     0
 10
-406.92107899999962
 20
50.500014999999927
 30
0.0
 11
-406.92107899999962
 21
48.500014999999941
 31
0.0
  0
LINE
  5
8EC7
  8
0
 62
     0
 10
-391.92107899999968
 20
5.500014999999931
 30
0.0
 11
-394.0
 21
5.0301669999998619
 31
0.0
  0
LINE
  5
8EC8
  8
0
 62
     0
 10
-391.92107899999968
 20
7.500014999999931
 30
0.0
 11
-394.0
 21
7.9778589999999951
 31
0.0
  0
LINE
  5
8EC9
  8
0
 62
     0
 10
-406.92107899999962
 20
15.50001499999993
 30
0.0
 11
-409.0
 21
15.029642999999931
 31
0.0
  0
LINE
  5
8ECA
  8
0
 62
     0
 10
-406.92107899999962
 20
17.50001499999993
 30
0.0
 11
-409.0
 21
17.99112199999999
 31
0.0
  0
LINE
  5
8ECB
  8
0
 62
     0
 10
-406.92107899999962
 20
26.50001499999993
 30
0.0
 11
-409.0
 21
26.021822999999952
 31
0.0
  0
LINE
  5
8ECC
  8
0
 62
     0
 10
-406.92107899999962
 20
28.500014999999941
 30
0.0
 11
-409.0
 21
29.014449999999869
 31
0.0
  0
LINE
  5
8ECD
  8
0
 62
     0
 10
-406.92107899999962
 20
37.500014999999927
 30
0.0
 11
-409.0
 21
37.004617999999972
 31
0.0
  0
LINE
  5
8ECE
  8
0
 62
     0
 10
-406.92107899999962
 20
39.500014999999941
 30
0.0
 11
-409.0
 21
40.05032399999989
 31
0.0
  0
LINE
  5
8ECF
  8
0
 62
     0
 10
-406.92107899999962
 20
48.500014999999941
 30
0.0
 11
-409.0
 21
47.974496999999957
 31
0.0
  0
LINE
  5
8ED0
  8
0
 62
     0
 10
-406.92107899999962
 20
50.500014999999927
 30
0.0
 11
-409.0
 21
51.105409999999971
 31
0.0
  0
LINE
  5
8ED1
  8
0
 62
     0
 10
-406.92107899999962
 20
57.500014999999927
 30
0.0
 11
-409.0
 21
56.93297299999994
 31
0.0
  0
LINE
  5
8ED2
  8
0
 62
     0
 10
-406.92107899999962
 20
59.500014999999927
 30
0.0
 11
-409.0
 21
60.17728299999991
 31
0.0
  0
LINE
  5
8ED3
  8
0
 62
     0
 10
-406.92107899999962
 20
59.500014999999927
 30
0.0
 11
-406.92107899999962
 21
57.500014999999927
 31
0.0
  0
LINE
  5
8ED4
  8
0
 62
     0
 10
-409.0
 20
56.93297299999994
 30
0.0
 11
-409.0
 21
60.17728299999991
 31
0.0
  0
LINE
  5
8ED5
  8
0
 62
     0
 10
-409.0
 20
47.974496999999957
 30
0.0
 11
-409.0
 21
51.105409999999971
 31
0.0
  0
LINE
  5
8ED6
  8
0
 62
     0
 10
-409.0
 20
37.004617999999972
 30
0.0
 11
-409.0
 21
40.05032399999989
 31
0.0
  0
LINE
  5
8ED7
  8
0
 62
     0
 10
-409.0
 20
26.021822999999952
 30
0.0
 11
-409.0
 21
29.014449999999869
 31
0.0
  0
LINE
  5
8ED8
  8
0
 62
     0
 10
-409.0
 20
15.029642999999931
 30
0.0
 11
-409.0
 21
17.99112199999999
 31
0.0
  0
LINE
  5
8ED9
  8
0
 62
     0
 10
-394.0
 20
5.0301669999998619
 30
0.0
 11
-394.0
 21
7.9778589999999951
 31
0.0
  0
LINE
  5
8EDA
  8
0
 62
     0
 10
-394.0
 20
7.9778589999999951
 30
0.0
 11
-319.57324299999982
 21
7.9778589999999951
 31
0.0
  0
LINE
  5
8EDB
  8
0
 62
     0
 10
-394.0
 20
5.0301669999998619
 30
0.0
 11
-326.38564700000012
 21
5.0301669999998619
 31
0.0
  0
LINE
  5
8EDC
  8
0
 62
     0
 10
-325.77497699999998
 20
5.500014999999931
 30
0.0
 11
-391.92107899999968
 21
5.500014999999931
 31
0.0
  0
LINE
  5
8EDD
  8
0
 62
     0
 10
-320.046738
 20
7.500014999999931
 30
0.0
 11
-391.92107899999968
 21
7.500014999999931
 31
0.0
  0
ARC
  5
8EDE
  8
0
 62
     0
 10
-325.77497699999998
 20
2.5000149999999319
 30
0.0
 40
3.0
 50
349.71343900000221
 51
90.0
  0
ARC
  5
8EDF
  8
0
 62
     0
 10
-326.38564700000012
 20
1.5601669999998931
 30
0.0
 40
3.4700000000000002
 50
353.81035099999951
 51
90.0
  0
LINE
  5
8EE0
  8
0
 62
     0
 10
-210.0
 20
-40.050294000000036
 30
0.0
 11
-409.0
 21
-40.050294000000036
 31
0.0
  0
LINE
  5
8EE1
  8
0
 62
     0
 10
-210.0
 20
-37.004588000000041
 30
0.0
 11
-409.0
 21
-37.004588000000041
 31
0.0
  0
LINE
  5
8EE2
  8
0
 62
     0
 10
-210.0
 20
-29.014420000000001
 30
0.0
 11
-409.0
 21
-29.014420000000001
 31
0.0
  0
LINE
  5
8EE3
  8
0
 62
     0
 10
-210.0
 20
-26.021793000000091
 30
0.0
 11
-409.0
 21
-26.021793000000091
 31
0.0
  0
LINE
  5
8EE4
  8
0
 62
     0
 10
-210.0
 20
-17.991092000000119
 30
0.0
 11
-409.0
 21
-17.991092000000119
 31
0.0
  0
LINE
  5
8EE5
  8
0
 62
     0
 10
-210.0
 20
-15.02961300000007
 30
0.0
 11
-409.0
 21
-15.02961300000007
 31
0.0
  0
LINE
  5
8EE6
  8
0
 62
     0
 10
-406.92107899999962
 20
-37.499985000000073
 30
0.0
 11
-212.07892099999981
 21
-37.499985000000073
 31
0.0
  0
LINE
  5
8EE7
  8
0
 62
     0
 10
-406.92107899999962
 20
-39.499985000000052
 30
0.0
 11
-212.07892099999981
 21
-39.499985000000052
 31
0.0
  0
LINE
  5
8EE8
  8
0
 62
     0
 10
-406.92107899999962
 20
-26.49998500000007
 30
0.0
 11
-212.07892099999981
 21
-26.49998500000007
 31
0.0
  0
LINE
  5
8EE9
  8
0
 62
     0
 10
-406.92107899999962
 20
-28.49998500000007
 30
0.0
 11
-212.07892099999981
 21
-28.49998500000007
 31
0.0
  0
LINE
  5
8EEA
  8
0
 62
     0
 10
-406.92107899999962
 20
-15.499985000000059
 30
0.0
 11
-212.07892099999981
 21
-15.499985000000059
 31
0.0
  0
LINE
  5
8EEB
  8
0
 62
     0
 10
-406.92107899999962
 20
-17.499985000000059
 30
0.0
 11
-212.07892099999981
 21
-17.499985000000059
 31
0.0
  0
LINE
  5
8EEC
  8
0
 62
     0
 10
-394.0
 20
-7.9778290000001268
 30
0.0
 11
-319.57324299999982
 21
-7.9778290000001268
 31
0.0
  0
LINE
  5
8EED
  8
0
 62
     0
 10
-394.0
 20
-5.0301369999999954
 30
0.0
 11
-326.38564700000012
 21
-5.0301369999999954
 31
0.0
  0
LINE
  5
8EEE
  8
0
 62
     0
 10
-325.77497699999998
 20
-5.4999850000000672
 30
0.0
 11
-391.92107899999968
 21
-5.4999850000000672
 31
0.0
  0
LINE
  5
8EEF
  8
0
 62
     0
 10
-320.046738
 20
-7.4999850000000672
 30
0.0
 11
-391.92107899999968
 21
-7.4999850000000672
 31
0.0
  0
LINE
  5
8EF0
  8
0
 62
     0
 10
-394.0
 20
-5.0301369999999954
 30
0.0
 11
-394.0
 21
-7.9778290000001268
 31
0.0
  0
LINE
  5
8EF1
  8
0
 62
     0
 10
-409.0
 20
-15.02961300000007
 30
0.0
 11
-409.0
 21
-17.991092000000119
 31
0.0
  0
LINE
  5
8EF2
  8
0
 62
     0
 10
-409.0
 20
-26.021793000000091
 30
0.0
 11
-409.0
 21
-29.014420000000001
 31
0.0
  0
LINE
  5
8EF3
  8
0
 62
     0
 10
-409.0
 20
-37.004588000000041
 30
0.0
 11
-409.0
 21
-40.050294000000036
 31
0.0
  0
LINE
  5
8EF4
  8
0
 62
     0
 10
-406.92107899999962
 20
-39.499985000000052
 30
0.0
 11
-409.0
 21
-40.050294000000036
 31
0.0
  0
LINE
  5
8EF5
  8
0
 62
     0
 10
-406.92107899999962
 20
-37.499985000000073
 30
0.0
 11
-409.0
 21
-37.004588000000041
 31
0.0
  0
LINE
  5
8EF6
  8
0
 62
     0
 10
-406.92107899999962
 20
-28.49998500000007
 30
0.0
 11
-409.0
 21
-29.014420000000001
 31
0.0
  0
LINE
  5
8EF7
  8
0
 62
     0
 10
-406.92107899999962
 20
-26.49998500000007
 30
0.0
 11
-409.0
 21
-26.021793000000091
 31
0.0
  0
LINE
  5
8EF8
  8
0
 62
     0
 10
-406.92107899999962
 20
-17.499985000000059
 30
0.0
 11
-409.0
 21
-17.991092000000119
 31
0.0
  0
LINE
  5
8EF9
  8
0
 62
     0
 10
-406.92107899999962
 20
-15.499985000000059
 30
0.0
 11
-409.0
 21
-15.02961300000007
 31
0.0
  0
LINE
  5
8EFA
  8
0
 62
     0
 10
-391.92107899999968
 20
-7.4999850000000672
 30
0.0
 11
-394.0
 21
-7.9778290000001268
 31
0.0
  0
LINE
  5
8EFB
  8
0
 62
     0
 10
-391.92107899999968
 20
-5.4999850000000672
 30
0.0
 11
-394.0
 21
-5.0301369999999954
 31
0.0
  0
LINE
  5
8EFC
  8
0
 62
     0
 10
-406.92107899999962
 20
-39.499985000000052
 30
0.0
 11
-406.92107899999962
 21
-37.499985000000073
 31
0.0
  0
LINE
  5
8EFD
  8
0
 62
     0
 10
-406.92107899999962
 20
-28.49998500000007
 30
0.0
 11
-406.92107899999962
 21
-26.49998500000007
 31
0.0
  0
LINE
  5
8EFE
  8
0
 62
     0
 10
-406.92107899999962
 20
-17.499985000000059
 30
0.0
 11
-406.92107899999962
 21
-15.499985000000059
 31
0.0
  0
LINE
  5
8EFF
  8
0
 62
     0
 10
-391.92107899999968
 20
-7.4999850000000672
 30
0.0
 11
-391.92107899999968
 21
-5.4999850000000672
 31
0.0
  0
ARC
  5
8F00
  8
0
 62
     0
 10
-325.77497699999998
 20
-2.4999850000000641
 30
0.0
 40
3.0
 50
270.0
 51
10.28656099999789
  0
ARC
  5
8F01
  8
0
 62
     0
 10
-326.38564700000012
 20
-1.5601370000000241
 30
0.0
 40
3.4700000000000002
 50
270.0
 51
6.1896490000005366
  0
LINE
  5
8F02
  8
0
 62
     0
 10
-210.0
 20
-7.9778290000001268
 30
0.0
 11
-304.42675700000018
 21
-7.9778290000001268
 31
0.0
  0
LINE
  5
8F03
  8
0
 62
     0
 10
-210.0
 20
-5.0301369999999954
 30
0.0
 11
-297.61435299999988
 21
-5.0301369999999954
 31
0.0
  0
LINE
  5
8F04
  8
0
 62
     0
 10
-298.22502300000002
 20
-5.4999850000000672
 30
0.0
 11
-212.07892099999981
 21
-5.4999850000000672
 31
0.0
  0
LINE
  5
8F05
  8
0
 62
     0
 10
-303.953262
 20
-7.4999850000000672
 30
0.0
 11
-212.07892099999981
 21
-7.4999850000000672
 31
0.0
  0
ARC
  5
8F06
  8
0
 62
     0
 10
-298.22502300000002
 20
-2.4999850000000641
 30
0.0
 40
3.0
 50
169.7134390000021
 51
270.0
  0
ARC
  5
8F07
  8
0
 62
     0
 10
-297.61435299999988
 20
-1.5601370000000241
 30
0.0
 40
3.4700000000000002
 50
173.8103509999994
 51
270.0
  0
LINE
  5
8F08
  8
0
 62
     0
 10
-212.07892099999981
 20
-7.4999850000000672
 30
0.0
 11
-212.07892099999981
 21
-5.4999850000000672
 31
0.0
  0
LINE
  5
8F09
  8
0
 62
     0
 10
-212.07892099999981
 20
-17.499985000000059
 30
0.0
 11
-212.07892099999981
 21
-15.499985000000059
 31
0.0
  0
LINE
  5
8F0A
  8
0
 62
     0
 10
-212.07892099999981
 20
-28.49998500000007
 30
0.0
 11
-212.07892099999981
 21
-26.49998500000007
 31
0.0
  0
LINE
  5
8F0B
  8
0
 62
     0
 10
-212.07892099999981
 20
-39.499985000000052
 30
0.0
 11
-212.07892099999981
 21
-37.499985000000073
 31
0.0
  0
LINE
  5
8F0C
  8
0
 62
     0
 10
-212.07892099999981
 20
-5.4999850000000672
 30
0.0
 11
-210.0
 21
-5.0301369999999954
 31
0.0
  0
LINE
  5
8F0D
  8
0
 62
     0
 10
-212.07892099999981
 20
-7.4999850000000672
 30
0.0
 11
-210.0
 21
-7.9778290000001268
 31
0.0
  0
LINE
  5
8F0E
  8
0
 62
     0
 10
-212.07892099999981
 20
-15.499985000000059
 30
0.0
 11
-210.0
 21
-15.02961300000007
 31
0.0
  0
LINE
  5
8F0F
  8
0
 62
     0
 10
-212.07892099999981
 20
-17.499985000000059
 30
0.0
 11
-210.0
 21
-17.991092000000119
 31
0.0
  0
LINE
  5
8F10
  8
0
 62
     0
 10
-212.07892099999981
 20
-26.49998500000007
 30
0.0
 11
-210.0
 21
-26.021793000000091
 31
0.0
  0
LINE
  5
8F11
  8
0
 62
     0
 10
-212.07892099999981
 20
-28.49998500000007
 30
0.0
 11
-210.0
 21
-29.014420000000001
 31
0.0
  0
LINE
  5
8F12
  8
0
 62
     0
 10
-212.07892099999981
 20
-37.499985000000073
 30
0.0
 11
-210.0
 21
-37.004588000000041
 31
0.0
  0
LINE
  5
8F13
  8
0
 62
     0
 10
-212.07892099999981
 20
-39.499985000000052
 30
0.0
 11
-210.0
 21
-40.050294000000036
 31
0.0
  0
LINE
  5
8F14
  8
0
 62
     0
 10
-210.0
 20
-37.004588000000041
 30
0.0
 11
-210.0
 21
-40.050294000000036
 31
0.0
  0
LINE
  5
8F15
  8
0
 62
     0
 10
-210.0
 20
-26.021793000000091
 30
0.0
 11
-210.0
 21
-29.014420000000001
 31
0.0
  0
LINE
  5
8F16
  8
0
 62
     0
 10
-210.0
 20
-15.02961300000007
 30
0.0
 11
-210.0
 21
-17.991092000000119
 31
0.0
  0
LINE
  5
8F17
  8
0
 62
     0
 10
-210.0
 20
-5.0301369999999954
 30
0.0
 11
-210.0
 21
-7.9778290000001268
 31
0.0
  0
LINE
  5
8F18
  8
0
 62
     0
 10
-277.07892100000032
 20
-48.499985000000059
 30
0.0
 11
-275.0
 21
-48.004588000000041
 31
0.0
  0
LINE
  5
8F19
  8
0
 62
     0
 10
-275.0
 20
-48.004588000000041
 30
0.0
 11
-409.0
 21
-48.004588000000041
 31
0.0
  0
LINE
  5
8F1A
  8
0
 62
     0
 10
-406.92107899999962
 20
-48.499985000000059
 30
0.0
 11
-277.07892100000032
 21
-48.499985000000059
 31
0.0
  0
LINE
  5
8F1B
  8
0
 62
     0
 10
-277.07892100000032
 20
-50.499985000000073
 30
0.0
 11
-277.07892100000032
 21
-48.499985000000059
 31
0.0
  0
LINE
  5
8F1C
  8
0
 62
     0
 10
-275.0
 20
-51.050294000000022
 30
0.0
 11
-409.0
 21
-51.050294000000022
 31
0.0
  0
LINE
  5
8F1D
  8
0
 62
     0
 10
-406.92107899999962
 20
-50.499985000000073
 30
0.0
 11
-277.07892100000032
 21
-50.499985000000073
 31
0.0
  0
LINE
  5
8F1E
  8
0
 62
     0
 10
-277.07892100000032
 20
-50.499985000000073
 30
0.0
 11
-275.0
 21
-51.050294000000022
 31
0.0
  0
LINE
  5
8F1F
  8
0
 62
     0
 10
-275.0
 20
-57.004588000000041
 30
0.0
 11
-409.0
 21
-57.004588000000041
 31
0.0
  0
LINE
  5
8F20
  8
0
 62
     0
 10
-406.92107899999962
 20
-57.499985000000073
 30
0.0
 11
-277.07892100000032
 21
-57.499985000000073
 31
0.0
  0
LINE
  5
8F21
  8
0
 62
     0
 10
-275.0
 20
-60.050294000000036
 30
0.0
 11
-408.96644300000003
 21
-60.050294000000036
 31
0.0
  0
LINE
  5
8F22
  8
0
 62
     0
 10
-406.92107899999962
 20
-59.499985000000059
 30
0.0
 11
-277.07892100000032
 21
-59.499985000000059
 31
0.0
  0
LINE
  5
8F23
  8
0
 62
     0
 10
-277.07892100000032
 20
-59.499985000000059
 30
0.0
 11
-275.0
 21
-60.050294000000036
 31
0.0
  0
LINE
  5
8F24
  8
0
 62
     0
 10
-275.0
 20
-57.004588000000041
 30
0.0
 11
-275.0
 21
-60.050294000000036
 31
0.0
  0
LINE
  5
8F25
  8
0
 62
     0
 10
-277.07892100000032
 20
-59.499985000000059
 30
0.0
 11
-277.07892100000032
 21
-57.499985000000073
 31
0.0
  0
LINE
  5
8F26
  8
0
 62
     0
 10
-277.07892100000032
 20
-57.499985000000073
 30
0.0
 11
-275.0
 21
-57.004588000000041
 31
0.0
  0
LINE
  5
8F27
  8
0
 62
     0
 10
-275.0
 20
-60.050294000000036
 30
0.0
 11
-260.0
 21
-60.050294000000036
 31
0.0
  0
LINE
  5
8F28
  8
0
 62
     0
 10
-260.0
 20
-60.050294000000036
 30
0.0
 11
-244.0
 21
-64.39221900000004
 31
0.0
  0
LINE
  5
8F29
  8
0
 62
     0
 10
-409.0
 20
-48.004588000000041
 30
0.0
 11
-409.0
 21
-51.050294000000022
 31
0.0
  0
LINE
  5
8F2A
  8
0
 62
     0
 10
-409.0
 20
-57.004588000000041
 30
0.0
 11
-409.0
 21
-60.050294000000036
 31
0.0
  0
LINE
  5
8F2B
  8
0
 62
     0
 10
-406.92107899999962
 20
-50.499985000000073
 30
0.0
 11
-406.92107899999962
 21
-48.499985000000059
 31
0.0
  0
LINE
  5
8F2C
  8
0
 62
     0
 10
-406.92107899999962
 20
-48.499985000000059
 30
0.0
 11
-409.0
 21
-48.004588000000041
 31
0.0
  0
LINE
  5
8F2D
  8
0
 62
     0
 10
-406.92107899999962
 20
-50.499985000000073
 30
0.0
 11
-409.0
 21
-51.050294000000022
 31
0.0
  0
LINE
  5
8F2E
  8
0
 62
     0
 10
-406.92107899999962
 20
-57.499985000000073
 30
0.0
 11
-409.0
 21
-57.004588000000041
 31
0.0
  0
LINE
  5
8F2F
  8
0
 62
     0
 10
-406.92107899999962
 20
-59.499985000000059
 30
0.0
 11
-406.92107899999962
 21
-57.499985000000073
 31
0.0
  0
LINE
  5
8F30
  8
0
 62
     0
 10
-406.92107899999962
 20
-59.499985000000059
 30
0.0
 11
-409.0
 21
-60.050294000000036
 31
0.0
  0
LINE
  5
8F31
  8
0
 62
     0
 10
-412.5
 20
7.6437859999999471
 30
0.0
 11
-406.0
 21
7.6437859999999471
 31
0.0
  0
LINE
  5
8F32
  8
0
 62
     0
 10
-412.5
 20
7.9778639999999799
 30
0.0
 11
-405.32000000000022
 21
7.9778639999999799
 31
0.0
  0
LINE
  5
8F33
  8
0
 62
     0
 10
-404.0
 20
5.6437859999999471
 30
0.0
 11
-404.0
 21
0.0000189999999236
 31
0.0
  0
LINE
  5
8F34
  8
0
 62
     0
 10
-402.31999999999999
 20
10.977863999999981
 30
0.0
 11
-402.31999999999999
 21
0.0000189999999236
 31
0.0
  0
ARC
  5
8F35
  8
0
 62
     0
 10
-405.32000000000022
 20
10.977863999999981
 30
0.0
 40
3.0
 50
270.0
 51
0.0
  0
LINE
  5
8F36
  8
0
 62
     0
 10
-412.5
 20
-7.6437490000000432
 30
0.0
 11
-406.0
 21
-7.6437490000000432
 31
0.0
  0
LINE
  5
8F37
  8
0
 62
     0
 10
-412.5
 20
-7.9778270000000751
 30
0.0
 11
-405.32000000000022
 21
-7.9778270000000751
 31
0.0
  0
LINE
  5
8F38
  8
0
 62
     0
 10
-404.0
 20
-5.6437490000000432
 30
0.0
 11
-404.0
 21
0.0000189999999236
 31
0.0
  0
LINE
  5
8F39
  8
0
 62
     0
 10
-402.31999999999999
 20
-10.977827000000071
 30
0.0
 11
-402.31999999999999
 21
0.0000189999999236
 31
0.0
  0
ARC
  5
8F3A
  8
0
 62
     0
 10
-405.32000000000022
 20
-10.977827000000071
 30
0.0
 40
3.0
 50
359.99999800000052
 51
89.999998000010223
  0
ENDBLK
  5
8F3E
  8
0
  0
BLOCK
  8
0
  2
*U10
 70
     1
 10
0.0
 20
0.0
 30
0.0
  3
*U10
  1

  0
TEXT
  5
9855
  8
0
 62
     0
 10
5.1211371559201639
 20
5.9826223594979648
 30
0.0
 40
15.0
  1
ＶＸ０８－００３ＥＭ～ＶＸ０８－０３０ＥＭ
 41
0.7400000000000003
  0
ENDBLK
  5
9857
  8
0
  0
BLOCK
  8
0
  2
*U11
 70
     1
 10
0.0
 20
0.0
 30
0.0
  3
*U11
  1

  0
TEXT
  5
9859
  8
0
 62
     0
 10
704.30014554280285
 20
740.58136020225265
 30
0.0
 40
15.0
  1
ＶＸ２２－００３ＥＭ～ＶＸ２２－０２０ＥＭ
 41
0.7400000000000003
  0
ENDBLK
  5
985B
  8
0
  0
ENDSEC
  0
SECTION
  2
ENTITIES
  0
LINE
  5
7498
  8
0
 62
     0
 10
440.04217044231689
 20
520.02012399797377
 30
0.0
 11
440.04217044231689
 21
517.78949949764319
 31
0.0
  0
LINE
  5
7499
  8
0
 62
     0
 10
861.2420658864728
 20
556.78949649764309
 30
0.0
 11
861.2420658864728
 21
564.78950649764272
 31
0.0
  0
LINE
  5
749A
  8
0
 62
     0
 10
851.24206688647291
 20
556.78949649764309
 30
0.0
 11
861.2420658864728
 21
556.78949649764309
 31
0.0
  0
LINE
  5
749B
  8
0
 62
     0
 10
851.24206688647291
 20
556.78949649764309
 30
0.0
 11
851.24206688647291
 21
564.78950649764272
 31
0.0
  0
LINE
  5
749C
  8
0
 62
     0
 10
645.04224843793963
 20
529.78949949764319
 30
0.0
 11
587.04222843793809
 21
529.78949949764319
 31
0.0
  0
LINE
  5
749D
  8
0
 62
     0
 10
587.04222843793809
 20
563.28950649764272
 30
0.0
 11
583.04226843794004
 21
563.28950649764272
 31
0.0
  0
LINE
  5
749E
  8
0
 62
     0
 10
645.04224843793963
 20
564.78950649764272
 30
0.0
 11
600.04224843793872
 21
564.78950649764272
 31
0.0
  0
LINE
  5
749F
  8
0
 62
     0
 10
645.04224843793963
 20
561.78950649764283
 30
0.0
 11
587.04222843793809
 21
561.78950649764283
 31
0.0
  0
LINE
  5
74A0
  8
0
 62
     0
 10
587.04222843793809
 20
528.28949949764285
 30
0.0
 11
583.04226843794004
 21
528.28949949764285
 31
0.0
  0
LINE
  5
74A1
  8
0
 62
     0
 10
587.04222843793809
 20
528.28949949764285
 30
0.0
 11
587.04222843793809
 21
563.28950649764272
 31
0.0
  0
LINE
  5
74A2
  8
0
 62
     0
 10
645.04224843793963
 20
529.78949949764319
 30
0.0
 11
645.04224843793963
 21
564.78950649764272
 31
0.0
  0
LINE
  5
74A3
  8
0
 62
     0
 10
600.04224843793872
 20
561.78950649764283
 30
0.0
 11
600.04224843793872
 21
564.78950649764272
 31
0.0
  0
LINE
  5
74A4
  8
0
 62
     0
 10
851.24206688647291
 20
564.78950649764272
 30
0.0
 11
861.2420658864728
 21
564.78950649764272
 31
0.0
  0
LINE
  5
74AB
  8
0
 62
     0
 10
791.24206388647281
 20
419.78946549764299
 30
0.0
 11
791.24206388647281
 21
405.78948249764278
 31
0.0
  0
LINE
  5
74AC
  8
0
 62
     0
 10
741.24207788647254
 20
405.78948249764278
 30
0.0
 11
791.24206388647281
 21
405.78948249764278
 31
0.0
  0
LINE
  5
74AD
  8
0
 62
     0
 10
741.24207788647254
 20
420.78948249764278
 30
0.0
 11
741.24207788647254
 21
405.78948249764278
 31
0.0
  0
LINE
  5
74AE
  8
0
 62
     0
 10
921.24207488647278
 20
405.78948249764278
 30
0.0
 11
971.24207888647186
 21
405.78948249764278
 31
0.0
  0
LINE
  5
74AF
  8
0
 62
     0
 10
921.24207488647278
 20
419.78946549764299
 30
0.0
 11
921.24207488647278
 21
405.78948249764278
 31
0.0
  0
LINE
  5
74B0
  8
0
 62
     0
 10
971.24207888647186
 20
420.78948249764278
 30
0.0
 11
971.24207888647186
 21
405.78948249764278
 31
0.0
  0
LINE
  5
74B1
  8
0
 62
     0
 10
787.24206488647383
 20
423.78948249764289
 30
0.0
 11
744.24207788647288
 21
423.78948249764289
 31
0.0
  0
LINE
  5
74B2
  8
0
 62
     0
 10
925.24207688647266
 20
423.78948249764289
 30
0.0
 11
968.24207588647357
 21
423.78948249764289
 31
0.0
  0
LINE
  5
74B3
  8
0
 62
     0
 10
583.04226843794004
 20
545.78947149764258
 30
0.0
 11
583.04226843794004
 21
573.05744649764301
 31
0.0
  0
LINE
  5
74B4
  8
0
 62
     0
 10
583.04226843794004
 20
518.52155649764291
 30
0.0
 11
583.04226843794004
 21
545.78947149764258
 31
0.0
  0
LINE
  5
74B5
  8
0
 62
     0
 10
577.54221843793857
 20
513.61408449764292
 30
0.0
 11
581.54223843793989
 21
515.92347249764305
 31
0.0
  0
LINE
  5
74B6
  8
0
 62
     0
 10
577.54224843793872
 20
577.96490649764291
 30
0.0
 11
581.54226843794004
 21
575.65553649764297
 31
0.0
  0
LINE
  5
74B7
  8
0
 62
     0
 10
774.52808888647098
 20
589.1114364976429
 30
0.0
 11
761.43125588647263
 21
547.97480349764282
 31
0.0
  0
LINE
  5
74B8
  8
0
 62
     0
 10
550.04226843794004
 20
423.78948249764289
 30
0.0
 11
581.04222843794014
 21
423.78948249764289
 31
0.0
  0
LINE
  5
74B9
  8
0
 62
     0
 10
460.04226843793998
 20
407.7894804976429
 30
0.0
 11
545.04222843794025
 21
407.7894804976429
 31
0.0
  0
LINE
  5
74BA
  8
0
 62
     0
 10
576.04224843793872
 20
431.32888149764312
 30
0.0
 11
576.04224843793872
 21
589.78949649764309
 31
0.0
  0
LINE
  5
74BB
  8
0
 62
     0
 10
535.04226843793776
 20
438.78949749764291
 30
0.0
 11
535.04226843793776
 21
577.23221649764275
 31
0.0
  0
LINE
  5
74BC
  8
0
 62
     0
 10
424.04226843793992
 20
423.78948249764289
 30
0.0
 11
455.12244843794002
 21
423.78948249764289
 31
0.0
  0
LINE
  5
74BD
  8
0
 62
     0
 10
422.04225843793847
 20
405.78948249764278
 30
0.0
 11
458.04225843794018
 21
405.78948249764278
 31
0.0
  0
LINE
  5
74BE
  8
0
 62
     0
 10
583.04226843794004
 20
405.78948249764278
 30
0.0
 11
583.04226843794004
 21
421.78948149764278
 31
0.0
  0
LINE
  5
74BF
  8
0
 62
     0
 10
458.9321484379397
 20
426.5703654976428
 30
0.0
 11
473.85195843794008
 21
473.19477249764287
 31
0.0
  0
LINE
  5
74C0
  8
0
 62
     0
 10
555.04224843793872
 20
446.24721549764291
 30
0.0
 11
555.04224843793872
 21
607.270436497643
 31
0.0
  0
LINE
  5
74C1
  8
0
 62
     0
 10
563.04222843794014
 20
593.78951649764292
 30
0.0
 11
572.04222843794014
 21
593.78951649764292
 31
0.0
  0
LINE
  5
74C2
  8
0
 62
     0
 10
791.24206388647281
 20
528.78950049764285
 30
0.0
 11
791.24206388647281
 21
438.78949749764291
 31
0.0
  0
LINE
  5
74C3
  8
0
 62
     0
 10
784.9201038864735
 20
599.50352649764307
 30
0.0
 11
826.05673088647245
 21
612.60038649764272
 31
0.0
  0
LINE
  5
74C4
  8
0
 62
     0
 10
474.04224843793958
 20
474.41390349764282
 30
0.0
 11
474.04224843793958
 21
532.43723649764274
 31
0.0
  0
LINE
  5
74C5
  8
0
 62
     0
 10
938.35804388647205
 20
589.31021649764295
 30
0.0
 11
951.35396888647188
 21
547.01240049764385
 31
0.0
  0
LINE
  5
74C6
  8
0
 62
     0
 10
927.76282088647372
 20
599.90543649764334
 30
0.0
 11
885.46499888647281
 21
612.90134649764275
 31
0.0
  0
LINE
  5
74C7
  8
0
 62
     0
 10
921.24207488647278
 20
528.78950049764285
 30
0.0
 11
921.24207488647278
 21
438.78949749764291
 31
0.0
  0
LINE
  5
74C8
  8
0
 62
     0
 10
933.2420748864738
 20
577.88318649764324
 30
0.0
 11
933.2420748864738
 21
479.52675849764307
 31
0.0
  0
LINE
  5
74C9
  8
0
 62
     0
 10
779.24206388647372
 20
577.88318649764324
 30
0.0
 11
779.24206388647372
 21
479.52675849764307
 31
0.0
  0
LINE
  5
74CA
  8
0
 62
     0
 10
470.04231843793951
 20
617.28950649764192
 30
0.0
 11
547.25169843793992
 21
615.26768649764256
 31
0.0
  0
LINE
  5
74CB
  8
0
 62
     0
 10
971.20939388647196
 20
421.23111549764258
 30
0.0
 11
954.65799188647202
 21
532.43723649764274
 31
0.0
  0
LINE
  5
74CC
  8
0
 62
     0
 10
741.27473288647491
 20
421.23113049764282
 30
0.0
 11
757.82612288647351
 21
532.43723649764274
 31
0.0
  0
LINE
  5
74CD
  8
0
 62
     0
 10
470.04225843793802
 20
532.43723649764274
 30
0.0
 11
474.04224843793958
 21
532.43723649764274
 31
0.0
  0
LINE
  5
74CE
  8
0
 62
     0
 10
540.11724843793854
 20
438.24722949764282
 30
0.0
 11
547.04226843794004
 21
438.24722949764282
 31
0.0
  0
LINE
  5
74CF
  8
0
 62
     0
 10
547.04226843794004
 20
405.78948249764278
 30
0.0
 11
583.04226843794004
 21
405.78948249764278
 31
0.0
  0
LINE
  5
74D0
  8
0
 62
     0
 10
547.04226843794004
 20
405.78948249764278
 30
0.0
 11
547.04226843794004
 21
405.78948249764278
 31
0.0
  0
LINE
  5
74D1
  8
0
 62
     0
 10
793.24206488647383
 20
407.7894804976429
 30
0.0
 11
919.24207688647277
 21
407.7894804976429
 31
0.0
  0
LINE
  5
74D2
  8
0
 62
     0
 10
543.04224843793963
 20
585.23222649764273
 30
0.0
 11
551.44173843793851
 21
585.23222649764273
 31
0.0
  0
LINE
  5
74D3
  8
0
 62
     0
 10
470.04231843793951
 20
547.97480349764282
 30
0.0
 11
470.04384843794003
 21
547.97480349764282
 31
0.0
  0
LINE
  5
74D4
  8
0
 62
     0
 10
470.04225843793802
 20
547.97480349764282
 30
0.0
 11
497.8109184379399
 21
573.26126649764274
 31
0.0
  0
LINE
  5
74D5
  8
0
 62
     0
 10
461.22201843794022
 20
595.92479649764277
 30
0.0
 11
470.04225843793802
 21
595.92479649764277
 31
0.0
  0
LINE
  5
74DC
  8
0
 62
     0
 10
470.04225843793802
 20
461.28949749764303
 30
0.0
 11
470.04225843793802
 21
617.28950649764192
 31
0.0
  0
LINE
  5
74DD
  8
0
 62
     0
 10
460.04226843793998
 20
437.37171249764287
 30
0.0
 11
462.38856843793809
 21
437.37171249764287
 31
0.0
  0
LINE
  5
74DE
  8
0
 62
     0
 10
440.04217044231689
 20
602.78949949764274
 30
0.0
 11
455.21668044231859
 21
603.31938949764265
 31
0.0
  0
LINE
  5
74DF
  8
0
 62
     0
 10
460.04226843793998
 20
430.03949649764309
 30
0.0
 11
460.04226843793998
 21
615.00890649764324
 31
0.0
  0
LINE
  5
74E0
  8
0
 62
     0
 10
440.04217044231689
 20
432.78949949764308
 30
0.0
 11
454.90153044231698
 21
432.27059249764432
 31
0.0
  0
LINE
  5
74E2
  8
0
 62
     0
 10
461.97243843793962
 20
617.00768649764325
 30
0.0
 11
470.04225843793802
 21
617.28947649764325
 31
0.0
  0
LINE
  5
74E3
  8
0
 62
     0
 10
460.04226843793998
 20
453.93012249764291
 30
0.0
 11
467.68728843793991
 21
453.93012249764291
 31
0.0
  0
LINE
  5
74E4
  8
0
 62
     0
 10
748.85913423017826
 20
472.18949349764313
 30
0.0
 11
703.68633188647266
 21
472.18949349764313
 31
0.0
  0
LINE
  5
74E5
  8
0
 62
     0
 10
699.92937188647386
 20
464.13269949764299
 30
0.0
 11
696.30417188647368
 21
465.82314249764278
 31
0.0
  0
LINE
  5
74E6
  8
0
 62
     0
 10
699.92937188647386
 20
464.13269949764299
 30
0.0
 11
748.53046088647295
 21
568.35809649764326
 31
0.0
  0
LINE
  5
74E7
  8
0
 62
     0
 10
736.21438988647355
 20
470.18949249764307
 30
0.0
 11
710.61129188647294
 21
470.18949249764307
 31
0.0
  0
LINE
  5
74E8
  8
0
 62
     0
 10
695.82048188647354
 20
467.15207649764278
 30
0.0
 11
743.99896688647323
 21
570.47114649764308
 31
0.0
  0
LINE
  5
74E9
  8
0
 62
     0
 10
715.00833188647312
 20
565.93958649764306
 30
0.0
 11
741.88589888647266
 21
565.93958649764306
 31
0.0
  0
LINE
  5
74EA
  8
0
 62
     0
 10
710.61129188647294
 20
471.18947649764323
 30
0.0
 11
710.61129188647294
 21
470.18949249764307
 31
0.0
  0
LINE
  5
74EB
  8
0
 62
     0
 10
696.66459188647354
 20
473.37865449764257
 30
0.0
 11
697.44990188647296
 21
473.01250449764279
 31
0.0
  0
LINE
  5
74EC
  8
0
 62
     0
 10
748.52994488647266
 20
568.35836649764315
 30
0.0
 11
743.99899988647235
 21
570.47114649764308
 31
0.0
  0
LINE
  5
74ED
  8
0
 62
     0
 10
747.40265588647264
 20
565.93958649764306
 30
0.0
 11
753.42212588647294
 21
565.93958649764306
 31
0.0
  0
LINE
  5
74EE
  8
0
 62
     0
 10
758.42212388647431
 20
560.93957649764275
 30
0.0
 11
758.4221238864734
 21
535.99681718143233
 31
0.0
  0
LINE
  5
74EF
  8
0
 62
     0
 10
736.21438988647355
 20
471.18947649764323
 30
0.0
 11
736.21438988647355
 21
470.18949249764307
 31
0.0
  0
LINE
  5
74F0
  8
0
 62
     0
 10
449.04225843793807
 20
614.78948649764288
 30
0.0
 11
460.04226843793998
 21
614.78948649764288
 31
0.0
  0
LINE
  5
74F1
  8
0
 62
     0
 10
449.04225843793807
 20
603.10378026374337
 30
0.0
 11
449.04225843793807
 21
614.78948649764288
 31
0.0
  0
LINE
  5
74F2
  8
0
 62
     0
 10
450.04224843793958
 20
614.98950469764293
 30
0.0
 11
451.2376884379409
 21
619.45092469764313
 31
0.0
  0
LINE
  5
74F3
  8
0
 62
     0
 10
465.46876827760832
 20
617.12977481999951
 30
0.0
 11
464.80617843793971
 21
619.60248469764338
 31
0.0
  0
LINE
  5
74F4
  8
0
 62
     0
 10
451.91604843793988
 20
620.14989469764294
 30
0.0
 11
458.04225843794018
 21
621.98952469764254
 31
0.0
  0
LINE
  5
74F5
  8
0
 62
     0
 10
458.04225843794018
 20
621.98952469764254
 30
0.0
 11
464.1075084379388
 21
620.307334697643
 31
0.0
  0
CIRCLE
  5
74F6
  8
0
 62
     0
 10
856.24208288647264
 20
545.78947149764258
 30
0.0
 40
2.75000007
  0
CIRCLE
  5
74F7
  8
0
 62
     0
 10
856.24208288647264
 20
545.78947149764258
 30
0.0
 40
4.000000199999997
  0
ARC
  5
74F8
  8
0
 62
     0
 10
856.24208288647264
 20
545.78947149764258
 30
0.0
 40
16.000000499999999
 50
108.2099599999983
 51
71.790051999988293
  0
ARC
  5
74F9
  8
0
 62
     0
 10
460.04226843793998
 20
405.78948249764278
 30
0.0
 40
2.00000007
 50
90.000002999984659
 51
180.00001000000091
  0
ARC
  5
74FA
  8
0
 62
     0
 10
787.24206488647383
 20
419.78946549764299
 30
0.0
 40
4.000000199999997
 50
0.0
 51
90.000002999984659
  0
ARC
  5
74FB
  8
0
 62
     0
 10
455.12244843794002
 20
427.7894814976429
 30
0.0
 40
4.000000199999997
 50
270.0
 51
342.25533000002167
  0
ARC
  5
74FC
  8
0
 62
     0
 10
470.04225843793802
 20
474.41390349764282
 30
0.0
 40
4.000000199999997
 50
342.25533000002167
 51
0.0
  0
ARC
  5
74FD
  8
0
 62
     0
 10
550.04226843794004
 20
438.78949749764291
 30
0.0
 40
15.000000299999989
 50
179.999989999999
 51
270.0
  0
ARC
  5
74FE
  8
0
 62
     0
 10
543.04224843793963
 20
577.23221649764275
 30
0.0
 40
8.0000000999999976
 50
90.000002999984659
 51
180.00001000000091
  0
ARC
  5
74FF
  8
0
 62
     0
 10
744.24207788647288
 20
420.78948249764278
 30
0.0
 40
3.0
 50
90.000002999984659
 51
180.00001000000091
  0
ARC
  5
7500
  8
0
 62
     0
 10
968.24207588647357
 20
420.78948249764278
 30
0.0
 40
3.0
 50
0.0
 51
90.000002999984659
  0
ARC
  5
7501
  8
0
 62
     0
 10
925.24207688647266
 20
419.78946549764299
 30
0.0
 40
4.000000199999997
 50
90.000002999984659
 51
180.00001000000091
  0
ARC
  5
7502
  8
0
 62
     0
 10
856.24208288647264
 20
479.52675849764307
 30
0.0
 40
77.000000999999983
 50
179.999989999999
 51
212.4183899999787
  0
ARC
  5
7503
  8
0
 62
     0
 10
579.04224843793872
 20
511.01600049764278
 30
0.0
 40
3.0
 50
119.99999999999361
 51
180.00001000000091
  0
ARC
  5
7504
  8
0
 62
     0
 10
579.04224843793872
 20
580.56299649764287
 30
0.0
 40
3.0
 50
179.999989999999
 51
240.0000099999894
  0
ARC
  5
7505
  8
0
 62
     0
 10
580.04226843794004
 20
573.05744649764301
 30
0.0
 40
3.0
 50
0.0
 51
60.000001999982963
  0
ARC
  5
7506
  8
0
 62
     0
 10
580.04226843794004
 20
518.52155649764291
 30
0.0
 40
3.0
 50
299.99999999999358
 51
0.0
  0
ARC
  5
7507
  8
0
 62
     0
 10
547.04226843794004
 20
607.270436497643
 30
0.0
 40
8.0000000999999976
 50
0.0
 51
88.499996999987545
  0
ARC
  5
7508
  8
0
 62
     0
 10
776.24206388647372
 20
438.78949749764291
 30
0.0
 40
15.000000299999989
 50
270.0
 51
0.0
  0
ARC
  5
7509
  8
0
 62
     0
 10
424.04226843793992
 20
421.78948149764278
 30
0.0
 40
2.00000007
 50
90.000002999984659
 51
180.00001000000091
  0
ARC
  5
750A
  8
0
 62
     0
 10
581.04222843794014
 20
421.78948149764278
 30
0.0
 40
2.00000007
 50
0.0
 51
90.000002999984659
  0
ARC
  5
750B
  8
0
 62
     0
 10
547.04226843794004
 20
446.24721549764291
 30
0.0
 40
8.0000000999999976
 50
270.0
 51
0.0
  0
ARC
  5
750C
  8
0
 62
     0
 10
919.24207688647277
 20
405.78948249764278
 30
0.0
 40
2.00000007
 50
0.0
 51
90.000002999984659
  0
ARC
  5
750D
  8
0
 62
     0
 10
793.24206488647383
 20
405.78948249764278
 30
0.0
 40
2.00000007
 50
90.000002999984659
 51
180.00001000000091
  0
ARC
  5
750E
  8
0
 62
     0
 10
563.04222843794014
 20
601.78949649764309
 30
0.0
 40
8.0000000999999976
 50
179.999989999999
 51
270.0
  0
ARC
  5
750F
  8
0
 62
     0
 10
856.24208288647264
 20
528.78950049764285
 30
0.0
 40
65.000000999999997
 50
0.0
 51
180.00001000000091
  0
ARC
  5
7510
  8
0
 62
     0
 10
856.24208288647264
 20
517.78949949764319
 30
0.0
 40
99.500004000000004
 50
8.4654901000033735
 51
171.53449999999989
  0
ARC
  5
7511
  8
0
 62
     0
 10
584.04222843794014
 20
431.32888149764312
 30
0.0
 40
8.0000000999999976
 50
179.999989999999
 51
252.54239000001439
  0
ARC
  5
7512
  8
0
 62
     0
 10
923.06366888647267
 20
584.61110649764294
 30
0.0
 40
16.000000499999999
 50
17.079463000014599
 51
72.920534000006185
  0
ARC
  5
7513
  8
0
 62
     0
 10
936.24207488647369
 20
438.78949749764291
 30
0.0
 40
15.000000299999989
 50
179.999989999999
 51
270.0
  0
ARC
  5
7514
  8
0
 62
     0
 10
856.24208288647264
 20
479.52675849764307
 30
0.0
 40
77.000000999999983
 50
327.58160000001129
 51
0.0
  0
ARC
  5
7515
  8
0
 62
     0
 10
789.77401688647251
 20
584.25755649764324
 30
0.0
 40
16.000000499999999
 50
107.0794599999808
 51
162.92052999998421
  0
ARC
  5
7516
  8
0
 62
     0
 10
545.04222843794025
 20
405.78948249764278
 30
0.0
 40
2.00000007
 50
0.0
 51
90.000002999984659
  0
ARC
  5
7517
  8
0
 62
     0
 10
925.24207688647266
 20
577.88318649764324
 30
0.0
 40
8.0000000999999976
 50
0.0
 51
41.053350999998209
  0
ARC
  5
7518
  8
0
 62
     0
 10
787.24206488647383
 20
577.88318649764324
 30
0.0
 40
8.0000000999999976
 50
138.94664999998591
 51
180.00001000000091
  0
ARC
  5
7519
  8
0
 62
     0
 10
572.04222843794014
 20
589.78949649764309
 30
0.0
 40
4.000000199999997
 50
0.0
 51
90.000002999984659
  0
CIRCLE
  5
751A
  8
0
 62
     0
 10
856.24208288647264
 20
545.78947149764258
 30
0.0
 40
29.000001000000001
  0
ARC
  5
751B
  8
0
 62
     0
 10
454.72705044231759
 20
427.27364549764292
 30
0.0
 40
5.0000000999999967
 50
14.70363226195675
 51
87.999999999996433
  0
ARC
  5
751C
  8
0
 62
     0
 10
462.0422484379385
 20
615.00890649764324
 30
0.0
 40
2.00000007
 50
91.999997999994264
 51
109.06539999998949
  0
ARC
  5
751D
  8
0
 62
     0
 10
462.0422484379385
 20
615.00890649764324
 30
0.0
 40
2.00000007
 50
109.06539999998949
 51
180.00001000000091
  0
ARC
  5
751E
  8
0
 62
     0
 10
455.04217044231677
 20
608.31633949764296
 30
0.0
 40
5.0000000999999967
 50
272.00000000000352
 51
0.0
  0
ARC
  5
751F
  8
0
 62
     0
 10
709.61130188647292
 20
471.18947649764323
 30
0.0
 40
1.0000000199999941
 50
0.0
 51
90.000002999984659
  0
ARC
  5
7520
  8
0
 62
     0
 10
696.72678188647319
 20
466.72946949764321
 30
0.0
 40
1.0000000199999941
 50
154.99998000000309
 51
245.00030999997691
  0
ARC
  5
7521
  8
0
 62
     0
 10
698.18595188647237
 20
476.64142749764312
 30
0.0
 40
3.6000002999999969
 50
183.3859700000059
 51
245.0006099999768
  0
ARC
  5
7522
  8
0
 62
     0
 10
715.00833188647312
 20
558.3395064976429
 30
0.0
 40
7.6000002000000011
 50
90.000002999984659
 51
158.71408999998039
  0
ARC
  5
7523
  8
0
 62
     0
 10
697.02726188647296
 20
472.106195497643
 30
0.0
 40
1.0000000199999941
 50
334.99984999997662
 51
65.000643000006406
  0
ARC
  5
7524
  8
0
 62
     0
 10
894.842095886474
 20
488.27649849764288
 30
0.0
 40
200.60001299999999
 50
158.71414000002841
 51
183.3859300000031
  0
ARC
  5
7525
  8
0
 62
     0
 10
753.42212588647294
 20
560.93957649764275
 30
0.0
 40
5.0000000999999967
 50
0.0
 51
90.000002999984659
  0
ARC
  5
7526
  8
0
 62
     0
 10
737.2143618864734
 20
471.18947649764323
 30
0.0
 40
1.0000000199999941
 50
90.000002999984659
 51
180.00001000000091
  0
CIRCLE
  5
7527
  8
0
 62
     0
 10
458.04225843794018
 20
631.98948469764298
 30
0.0
 40
9.9999992999999971
  0
ARC
  5
7528
  8
0
 62
     0
 10
458.04225843794018
 20
631.98948469764298
 30
0.0
 40
16.299997799999989
 50
304.10956999997899
 51
235.89042000000791
  0
ARC
  5
7529
  8
0
 62
     0
 10
447.21126843793991
 20
616.01514469764334
 30
0.0
 40
3.0
 50
335.88604785388981
 51
55.861737000010123
  0
ARC
  5
752A
  8
0
 62
     0
 10
468.8732484379388
 20
616.01514469764334
 30
0.0
 40
3.0
 50
124.09891668752211
 51
157.73726171936909
  0
ARC
  5
752B
  8
0
 62
     0
 10
452.20362843793993
 20
619.19211469764332
 30
0.0
 40
1.0000000199999941
 50
106.7144200000061
 51
164.99999000001139
  0
ARC
  5
752C
  8
0
 62
     0
 10
463.84029843793991
 20
619.34370469764315
 30
0.0
 40
1.0000000199999941
 50
14.99999999999446
 51
74.498793000020655
  0
POLYLINE
  5
752D
  8
0
 62
     0
 66
     1
 10
0.0
 20
0.0
 30
0.0
  0
VERTEX
  5
752E
  8
0
 62
     0
 10
497.8114584379399
 20
573.26180649764297
 30
0.0
 42
0.038759412
  0
VERTEX
  5
752F
  8
0
 62
     0
 10
500.55927843793961
 20
576.1726764976429
 30
0.0
 42
0.04530642
  0
VERTEX
  5
7530
  8
0
 62
     0
 10
502.78146843793991
 20
579.50039649764312
 30
0.0
 42
0.052171517
  0
VERTEX
  5
7531
  8
0
 62
     0
 10
504.31815843793993
 20
583.19819649764293
 30
0.0
 42
0.057266797
  0
VERTEX
  5
7532
  8
0
 62
     0
 10
505.01241843794003
 20
587.13695649764293
 30
0.0
 42
0.058402473
  0
VERTEX
  5
7533
  8
0
 62
     0
 10
504.7816584379396
 20
591.12515649764271
 30
0.0
 42
0.055045428
  0
VERTEX
  5
7534
  8
0
 62
     0
 10
503.65614843793992
 20
594.96032649764277
 30
0.0
 42
0.048778207
  0
VERTEX
  5
7535
  8
0
 62
     0
 10
501.76326843793851
 20
598.48082649764319
 30
0.0
 42
0.041944178
  0
VERTEX
  5
7536
  8
0
 62
     0
 10
499.2657684379401
 20
601.60385649764294
 30
0.0
 42
0.035908203
  0
VERTEX
  5
7537
  8
0
 62
     0
 10
496.31316843793849
 20
604.30463649764295
 30
0.0
 42
0.031063143
  0
VERTEX
  5
7538
  8
0
 62
     0
 10
493.02648843794032
 20
606.5885964976427
 30
0.0
 42
0.027381807
  0
VERTEX
  5
7539
  8
0
 62
     0
 10
489.49455843794021
 20
608.47571649764313
 30
0.0
 42
0.024647351
  0
VERTEX
  5
753A
  8
0
 62
     0
 10
485.78553843794009
 20
609.986846497643
 30
0.0
 42
0.022677519
  0
VERTEX
  5
753B
  8
0
 62
     0
 10
481.95015843793851
 20
611.1415164976429
 30
0.0
 42
0.021321472
  0
VERTEX
  5
753C
  8
0
 62
     0
 10
478.02774843794032
 20
611.95532649764289
 30
0.0
 42
0.020471059
  0
VERTEX
  5
753D
  8
0
 62
     0
 10
474.05085843793921
 20
612.43940649764306
 30
0.0
 42
0.020088491
  0
VERTEX
  5
753E
  8
0
 62
     0
 10
470.04222843794003
 20
612.60032649764287
 30
0.0
  0
SEQEND
  5
753F
  8
0
 62
     0
  0
POLYLINE
  5
7540
  8
0
 62
     0
 66
     1
 10
0.0
 20
0.0
 30
0.0
  0
VERTEX
  5
7541
  8
0
 62
     0
 10
503.49891843794012
 20
590.43089649764295
 30
0.0
 42
0.046333928
  0
VERTEX
  5
7542
  8
0
 62
     0
 10
501.64710843794001
 20
591.4885164976431
 30
0.0
 42
0.024113287
  0
VERTEX
  5
7543
  8
0
 62
     0
 10
499.66761843793802
 20
592.28837649764318
 30
0.0
 42
0.015482173
  0
VERTEX
  5
7544
  8
0
 62
     0
 10
497.63067843793851
 20
592.93304649764286
 30
0.0
 42
0.01117072
  0
VERTEX
  5
7545
  8
0
 62
     0
 10
495.5629584379401
 20
593.46953649764271
 30
0.0
 42
0.0086851636
  0
VERTEX
  5
7546
  8
0
 62
     0
 10
493.47537843793998
 20
593.92421649764287
 30
0.0
 42
0.0071112813
  0
VERTEX
  5
7547
  8
0
 62
     0
 10
491.3736984379384
 20
594.31322649764275
 30
0.0
 42
0.0060487741
  0
VERTEX
  5
7548
  8
0
 62
     0
 10
489.26097843794003
 20
594.64724649764332
 30
0.0
 42
0.0052886701
  0
VERTEX
  5
7549
  8
0
 62
     0
 10
487.1436084379402
 20
594.93308649764333
 30
0.0
 42
0.0047450804
  0
VERTEX
  5
754A
  8
0
 62
     0
 10
485.01849843793809
 20
595.176776497643
 30
0.0
 42
0.004337472
  0
VERTEX
  5
754B
  8
0
 62
     0
 10
482.88879843793882
 20
595.38191649764292
 30
0.0
 42
0.0040309329
  0
VERTEX
  5
754C
  8
0
 62
     0
 10
480.75600843794001
 20
595.55141649764278
 30
0.0
 42
0.0038017188
  0
VERTEX
  5
754D
  8
0
 62
     0
 10
478.62078843793802
 20
595.68752649764292
 30
0.0
 42
0.0036333127
  0
VERTEX
  5
754E
  8
0
 62
     0
 10
476.48370843793953
 20
595.79192649764309
 30
0.0
 42
0.0035147917
  0
VERTEX
  5
754F
  8
0
 62
     0
 10
474.34530843793982
 20
595.86578649764294
 30
0.0
 42
0.0034390753
  0
VERTEX
  5
7550
  8
0
 62
     0
 10
472.20606843794008
 20
595.90991649764271
 30
0.0
 42
0.0034021186
  0
VERTEX
  5
7551
  8
0
 62
     0
 10
470.0663784379401
 20
595.92479649764277
 30
0.0
  0
SEQEND
  5
7552
  8
0
 62
     0
  0
LINE
  5
7553
  8
0
 62
     0
 10
422.04226836793981
 20
421.78948114857712
 30
0.0
 11
422.04225843793847
 21
405.78948249764278
 31
0.0
  0
LINE
  5
755A
  8
0
  6
AM_ISO08W050
 62
     0
 10
951.24207788647084
 20
426.187153720607
 30
0.0
 11
951.24207788647084
 21
403.92660568466403
 31
0.0
  0
LINE
  5
755B
  8
0
  6
AM_ISO08W050
 62
     0
 10
761.2420818864714
 20
426.187153720607
 30
0.0
 11
761.2420818864714
 21
403.92660568466403
 31
0.0
  0
LINE
  5
755C
  8
0
  6
AM_ISO08W050
 62
     0
 10
856.24208288647264
 20
405.15001779642199
 30
0.0
 11
856.24208288647264
 21
652.15652375518232
 31
0.0
  0
LINE
  5
755D
  8
0
  6
AM_ISO08W050
 62
     0
 10
761.00205653708645
 20
545.78947149764258
 30
0.0
 11
951.48210923585998
 21
545.78947149764258
 31
0.0
  0
LINE
  5
755E
  8
0
  6
ACISOTGL
 62
     0
 10
943.74207788647095
 20
423.7895124976443
 30
0.0
 11
943.74207788647095
 21
405.78952749764312
 31
0.0
  0
LINE
  5
755F
  8
0
  6
ACISOTGL
 62
     0
 10
958.74208088647185
 20
423.7895124976443
 30
0.0
 11
958.74208088647185
 21
405.78952749764312
 31
0.0
  0
LINE
  5
7560
  8
0
  6
ACISOTGL
 62
     0
 10
768.74208188647151
 20
423.7895124976443
 30
0.0
 11
768.74208188647151
 21
405.78952749764312
 31
0.0
  0
LINE
  5
7561
  8
0
  6
ACISOTGL
 62
     0
 10
753.74208188647231
 20
423.7895124976443
 30
0.0
 11
753.74208188647231
 21
405.78952749764312
 31
0.0
  0
LINE
  5
7562
  8
0
  6
AM_ISO08W050
 62
     0
 10
565.04226843794095
 20
402.45816549764209
 30
0.0
 11
565.04226843794095
 21
427.31789349764222
 31
0.0
  0
LINE
  5
7563
  8
0
  6
AM_ISO08W050
 62
     0
 10
440.04225843794018
 20
402.45816549764209
 30
0.0
 11
440.04225843794018
 21
427.31789349764222
 31
0.0
  0
LINE
  5
7564
  8
0
  6
AM_ISO08W050
 62
     0
 10
488.8099632764721
 20
545.78947149764258
 30
0.0
 11
652.30457602031765
 21
545.78947149764258
 31
0.0
  0
LINE
  5
7565
  8
0
  6
ACISOTGL
 62
     0
 10
572.54226843794004
 20
423.78948249764289
 30
0.0
 11
572.54226843794004
 21
405.78948249764278
 31
0.0
  0
LINE
  5
7566
  8
0
  6
ACISOTGL
 62
     0
 10
557.54226843794004
 20
423.78948249764289
 30
0.0
 11
557.54226843794004
 21
405.78948249764278
 31
0.0
  0
LINE
  5
7567
  8
0
  6
ACISOTGL
 62
     0
 10
447.54225843794018
 20
423.78948249764289
 30
0.0
 11
447.54225843794018
 21
405.78948249764278
 31
0.0
  0
LINE
  5
7568
  8
0
  6
ACISOTGL
 62
     0
 10
432.54225843793802
 20
423.78948249764289
 30
0.0
 11
432.54225843793802
 21
405.78948249764278
 31
0.0
  0
LINE
  5
7569
  8
0
  6
AM_ISO08W050
 62
     0
 10
143.4535671404937
 20
517.78949949764319
 30
0.0
 11
481.93650952922411
 21
517.78949949764319
 31
0.0
  0
LINE
  5
766C
  8
0
 62
     0
 10
853.09207333669281
 20
645.13948219764256
 30
0.0
 11
853.09207333669281
 21
618.98953219764155
 31
0.0
  0
LINE
  5
766D
  8
0
 62
     0
 10
859.39207633669287
 20
645.13948219764256
 30
0.0
 11
859.39207633669287
 21
618.98953219764155
 31
0.0
  0
LINE
  5
766E
  8
0
 62
     0
 10
848.8380392662076
 20
617.2136626534475
 30
0.0
 11
849.43751833669421
 21
619.45096219764309
 31
0.0
  0
LINE
  5
766F
  8
0
 62
     0
 10
863.64611403235381
 20
617.21366350222888
 30
0.0
 11
863.04663433669145
 21
619.45096219764309
 31
0.0
  0
LINE
  5
7670
  8
0
 62
     0
 10
850.11583333669319
 20
620.14987219764305
 30
0.0
 11
853.09207333669281
 21
621.04360219764294
 31
0.0
  0
LINE
  5
7671
  8
0
 62
     0
 10
859.39207633669287
 20
621.04360219764294
 30
0.0
 11
862.36831933669271
 21
620.14987219764305
 31
0.0
  0
ARC
  5
7672
  8
0
 62
     0
 10
856.24208233669344
 20
645.13948219764256
 30
0.0
 40
3.1500002999999981
 50
359.999989999999
 51
179.999989999999
  0
ARC
  5
7673
  8
0
 62
     0
 10
851.09207533669235
 20
618.98953219764155
 30
0.0
 40
2.00000007
 50
307.94188207110369
 51
0.0
  0
ARC
  5
7674
  8
0
 62
     0
 10
861.3920773366915
 20
618.98953219764155
 30
0.0
 40
2.00000007
 50
179.999989999999
 51
232.05809470869519
  0
ARC
  5
7675
  8
0
 62
     0
 10
850.40344633669361
 20
619.19212219764313
 30
0.0
 40
1.0000000199999941
 50
106.7144200000055
 51
164.99999000001131
  0
ARC
  5
7676
  8
0
 62
     0
 10
862.08072133669191
 20
619.19212219764313
 30
0.0
 40
1.0000000199999941
 50
14.99999999999444
 51
73.285573000010572
  0
LINE
  5
8520
  8
0
 62
     0
 10
376.19050344231698
 20
566.97449949764325
 30
0.0
 11
435.04217044231677
 21
566.97449949764325
 31
0.0
  0
LINE
  5
8521
  8
0
 62
     0
 10
375.95974644231688
 20
567.46449949764315
 30
0.0
 11
433.28217044231678
 21
567.46449949764315
 31
0.0
  0
LINE
  5
8522
  8
0
 62
     0
 10
374.788344442317
 20
569.06449949764306
 30
0.0
 11
433.28217044231678
 21
569.06449949764306
 31
0.0
  0
LINE
  5
8523
  8
0
 62
     0
 10
374.18055444231697
 20
569.60449949764325
 30
0.0
 11
435.04217044231677
 21
569.60449949764325
 31
0.0
  0
LINE
  5
8524
  8
0
 62
     0
 10
297.33700044231688
 20
565.93951249764325
 30
0.0
 11
368.74734044231712
 21
565.93951249764325
 31
0.0
  0
LINE
  5
8525
  8
0
 62
     0
 10
295.97519944231692
 20
571.00991649764319
 30
0.0
 11
370.09820544231701
 21
571.00991649764319
 31
0.0
  0
ARC
  5
8526
  8
0
 62
     0
 10
887.54214044231685
 20
517.57127149764324
 30
0.0
 40
595.5
 50
175.6560359999994
 51
183.93780499999761
  0
ARC
  5
8527
  8
0
 62
     0
 10
295.97519944231692
 20
564.40992549764314
 30
0.0
 40
6.599999999999997
 50
90.0
 51
171.4098509999948
  0
ARC
  5
8528
  8
0
 62
     0
 10
297.33700044231688
 20
562.33950649764324
 30
0.0
 40
3.6000000000000001
 50
90.0
 51
174.62414600000039
  0
ARC
  5
8529
  8
0
 62
     0
 10
-221.457829557683
 20
517.5713334976432
 30
0.0
 40
595.5
 50
356.06220199999939
 51
4.3439640000005717
  0
ARC
  5
852A
  8
0
 62
     0
 10
370.10914144231702
 20
564.40992549764314
 30
0.0
 40
6.599999999999997
 50
8.5901410000037774
 51
90.0
  0
ARC
  5
852B
  8
0
 62
     0
 10
368.74734044231712
 20
562.33950649764324
 30
0.0
 40
3.6000000000000001
 50
5.3758619999981763
 51
90.0
  0
ARC
  5
852C
  8
0
 62
     0
 10
-222.05780555768291
 20
517.5713334976432
 30
0.0
 40
600.59997599999986
 50
355.4679790000045
 51
4.5671770000027472
  0
ARC
  5
852D
  8
0
 62
     0
 10
888.14211544231648
 20
517.57127149764324
 30
0.0
 40
600.59997599999986
 50
175.4328159999979
 51
184.5320279999992
  0
ARC
  5
852E
  8
0
 62
     0
 10
333.042170442317
 20
463.60749749764301
 30
0.0
 40
16.337935000000002
 50
47.76794699999509
 51
132.2320530000049
  0
LINE
  5
852F
  8
0
 62
     0
 10
299.26510144231679
 20
475.18543849764308
 30
0.0
 11
320.71660344231702
 21
475.18543049764321
 31
0.0
  0
LINE
  5
8530
  8
0
 62
     0
 10
295.99097744231688
 20
464.13268849764307
 30
0.0
 11
370.09336344231701
 21
464.13268849764307
 31
0.0
  0
LINE
  5
8531
  8
0
 62
     0
 10
295.79137744231718
 20
466.55056549764322
 30
0.0
 11
370.29296344231687
 21
466.55056549764322
 31
0.0
  0
LINE
  5
8532
  8
0
 62
     0
 10
298.02775044231691
 20
472.50733049764312
 30
0.0
 11
321.46374944231701
 21
472.5073224976432
 31
0.0
  0
ARC
  5
8533
  8
0
 62
     0
 10
333.10813444231701
 20
462.12151149764321
 30
0.0
 40
15.0
 50
46.767242000003563
 51
133.23275799999641
  0
ARC
  5
8534
  8
0
 62
     0
 10
295.99097744231688
 20
470.7326874976431
 30
0.0
 40
6.599999999999997
 50
185.37618999999609
 51
270.0
  0
ARC
  5
8535
  8
0
 62
     0
 10
295.79137744231718
 20
473.15056449764307
 30
0.0
 40
6.599999999999997
 50
188.04118300000351
 51
270.0
  0
ARC
  5
8536
  8
0
 62
     0
 10
298.02775044231691
 20
477.10733649764308
 30
0.0
 40
4.5999999999999961
 50
185.37625099999849
 51
270.0
  0
LINE
  5
8537
  8
0
 62
     0
 10
366.8192394423171
 20
475.18543849764308
 30
0.0
 11
345.36773744231698
 21
475.18543049764321
 31
0.0
  0
LINE
  5
8538
  8
0
 62
     0
 10
368.05659044231697
 20
472.50733049764312
 30
0.0
 11
344.75251944231712
 21
472.5073224976432
 31
0.0
  0
ARC
  5
8539
  8
0
 62
     0
 10
370.09336344231701
 20
470.7326874976431
 30
0.0
 40
6.599999999999997
 50
270.0
 51
354.62381000000369
  0
ARC
  5
853A
  8
0
 62
     0
 10
370.29296344231687
 20
473.15056449764307
 30
0.0
 40
6.599999999999997
 50
270.0
 51
351.9588320000023
  0
ARC
  5
853B
  8
0
 62
     0
 10
368.05659044231697
 20
477.10733649764308
 30
0.0
 40
4.5999999999999961
 50
270.0
 51
354.62374900000151
  0
ARC
  5
853C
  8
0
 62
     0
 10
321.46375044231701
 20
474.50732249764309
 30
0.0
 40
2.0
 50
270.0
 51
313.23275799999641
  0
ARC
  5
853D
  8
0
 62
     0
 10
320.71660444231702
 20
477.1854304976431
 30
0.0
 40
2.0
 50
270.0
 51
312.2320530000049
  0
ARC
  5
853E
  8
0
 62
     0
 10
345.36773644231698
 20
477.1854304976431
 30
0.0
 40
2.0
 50
227.7679469999951
 51
270.0
  0
ARC
  5
853F
  8
0
 62
     0
 10
344.75251844231718
 20
474.50732249764309
 30
0.0
 40
2.0
 50
226.76724200000359
 51
270.0
  0
ARC
  5
8540
  8
0
 62
     0
 10
161.542170442317
 20
418.5894994976432
 30
0.0
 40
2.0
 50
180.0
 51
270.0
  0
LINE
  5
8542
  8
0
 62
     0
 10
232.542170442317
 20
618.58949949764326
 30
0.0
 11
232.542170442317
 21
416.58949949764309
 31
0.0
  0
ARC
  5
8543
  8
0
 62
     0
 10
161.94217044231701
 20
603.56631449764313
 30
0.0
 40
2.399999999999999
 50
159.99999999999631
 51
180.0
  0
ARC
  5
8544
  8
0
 62
     0
 10
166.53663444231699
 20
616.18949949764328
 30
0.0
 40
2.399999999999999
 50
90.0
 51
159.99999999999631
  0
LINE
  5
8545
  8
0
 62
     0
 10
164.2813714423169
 20
617.01034749764312
 30
0.0
 11
159.68690844231691
 21
604.38716349764331
 31
0.0
  0
LINE
  5
8546
  8
0
 62
     0
 10
164.856135442317
 20
617.90295349764324
 30
0.0
 11
164.856135442317
 21
416.58949949764309
 31
0.0
  0
LINE
  5
8547
  8
0
 62
     0
 10
159.542170442317
 20
603.56631449764313
 30
0.0
 11
159.542170442317
 21
418.5894994976432
 31
0.0
  0
LINE
  5
8548
  8
0
 62
     0
 10
232.542170442317
 20
618.58949949764326
 30
0.0
 11
166.53663444231699
 21
618.58949949764326
 31
0.0
  0
LINE
  5
8549
  8
0
 62
     0
 10
384.99904644231702
 20
566.97449949764325
 30
0.0
 11
384.99904644231702
 21
546.60949949764313
 31
0.0
  0
LINE
  5
854A
  8
0
 62
     0
 10
401.04216944231678
 20
566.97449949764325
 30
0.0
 11
401.04216944231678
 21
546.60949949764313
 31
0.0
  0
LINE
  5
854B
  8
0
 62
     0
 10
415.59156544231689
 20
461.76870349764312
 30
0.0
 11
401.04216944231678
 21
461.76870349764312
 31
0.0
  0
LINE
  5
854C
  8
0
 62
     0
 10
420.54217044231677
 20
473.18105349764312
 30
0.0
 11
401.04216944231678
 21
473.18105349764312
 31
0.0
  0
LINE
  5
854D
  8
0
 62
     0
 10
385.74756744231701
 20
466.48379349764309
 30
0.0
 11
401.04217044231677
 21
461.76870349764312
 31
0.0
  0
LINE
  5
854E
  8
0
 62
     0
 10
401.04217044231677
 20
473.18105349764312
 30
0.0
 11
386.00622944231702
 21
472.64030249764312
 31
0.0
  0
ARC
  5
854F
  8
0
 62
     0
 10
386.042170442317
 20
471.64094849764308
 30
0.0
 40
1.0
 50
92.059690999997088
 51
180.0
  0
ARC
  5
8550
  8
0
 62
     0
 10
386.042170442317
 20
467.4394134976431
 30
0.0
 40
1.0
 50
180.0
 51
252.8662750000021
  0
LINE
  5
8551
  8
0
 62
     0
 10
401.04217044231677
 20
593.64228649764323
 30
0.0
 11
385.74171144231713
 21
588.82242049764307
 31
0.0
  0
ARC
  5
8552
  8
0
 62
     0
 10
386.042170442317
 20
587.86862549764317
 30
0.0
 40
1.0
 50
107.485179
 51
180.0
  0
ARC
  5
8553
  8
0
 62
     0
 10
386.042170442317
 20
585.51756049764333
 30
0.0
 40
1.0
 50
180.0
 51
270.0
  0
LINE
  5
8554
  8
0
 62
     0
 10
386.09072544231702
 20
584.51873949764331
 30
0.0
 11
401.04217044231677
 21
585.24555949764306
 31
0.0
  0
LINE
  5
8555
  8
0
 62
     0
 10
420.54217044231677
 20
585.24555949764306
 30
0.0
 11
401.04217044231677
 21
585.24555949764306
 31
0.0
  0
LINE
  5
8556
  8
0
 62
     0
 10
344.04217044231689
 20
616.07599249764326
 30
0.0
 11
431.48935544231699
 21
616.07599249764326
 31
0.0
  0
ARC
  5
8557
  8
0
 62
     0
 10
255.3064154423171
 20
614.07599249764326
 30
0.0
 40
2.0
 50
90.0
 51
156.10180000000051
  0
ARC
  5
8558
  8
0
 62
     0
 10
431.48935544231699
 20
614.07599249764326
 30
0.0
 40
2.0
 50
10.000001999998901
 51
90.0
  0
LINE
  5
8559
  8
0
 62
     0
 10
435.04217044231677
 20
605.44451649764324
 30
0.0
 11
433.4589704423168
 21
614.42328949764328
 31
0.0
  0
LINE
  5
855A
  8
0
 62
     0
 10
434.78136244231678
 20
605.44451649764324
 30
0.0
 11
435.04217044231677
 21
605.44451649764324
 31
0.0
  0
ARC
  5
855B
  8
0
 62
     0
 10
240.3733854423169
 20
612.88621849764331
 30
0.0
 40
2.0
 50
90.0
 51
169.99999800000111
  0
LINE
  5
855C
  8
0
 62
     0
 10
236.042170442317
 20
599.84021549764327
 30
0.0
 11
238.40377044231701
 21
613.23351549764322
 31
0.0
  0
ARC
  5
855D
  8
0
 62
     0
 10
431.438336442317
 20
612.88621849764331
 30
0.0
 40
2.0
 50
10.000001999998901
 51
90.0
  0
LINE
  5
855E
  8
0
 62
     0
 10
435.04217044231677
 20
603.96539849764315
 30
0.0
 11
433.4079514423168
 21
613.23351549764322
 31
0.0
  0
LINE
  5
855F
  8
0
 62
     0
 10
236.042170442317
 20
599.84021549764327
 30
0.0
 11
236.61007644231691
 21
599.84021549764327
 31
0.0
  0
LINE
  5
8560
  8
0
 62
     0
 10
434.50619944231681
 20
603.96539849764315
 30
0.0
 11
435.04217044231677
 21
603.96539849764315
 31
0.0
  0
ARC
  5
8561
  8
0
 62
     0
 10
431.3524814423169
 20
610.33348449764333
 30
0.0
 40
2.0
 50
10.00000100000196
 51
90.0
  0
ARC
  5
8562
  8
0
 62
     0
 10
240.49117644231691
 20
610.33348449764333
 30
0.0
 40
2.0
 50
90.0
 51
169.9999989999979
  0
LINE
  5
8563
  8
0
 62
     0
 10
236.042170442317
 20
596.61945949764333
 30
0.0
 11
238.52156044231711
 21
610.68078049764313
 31
0.0
  0
ARC
  5
8564
  8
0
 62
     0
 10
240.672317442317
 20
606.36829949764308
 30
0.0
 40
2.0
 50
90.0
 51
170.00000000000139
  0
LINE
  5
8565
  8
0
 62
     0
 10
236.042170442317
 20
591.62697449764323
 30
0.0
 11
238.70270144231699
 21
606.71559549764333
 31
0.0
  0
ARC
  5
8566
  8
0
 62
     0
 10
240.95354544231699
 20
600.79087149764325
 30
0.0
 40
2.0
 50
90.0
 51
170.00000000000139
  0
LINE
  5
8567
  8
0
 62
     0
 10
236.042170442317
 20
584.4546224976433
 30
0.0
 11
238.98392944231679
 21
601.13816849764316
 31
0.0
  0
ARC
  5
8568
  8
0
 62
     0
 10
241.04880944231701
 20
594.79020449764312
 30
0.0
 40
2.0
 50
90.0
 51
169.9999989999979
  0
LINE
  5
8569
  8
0
 62
     0
 10
236.042170442317
 20
577.9136864976432
 30
0.0
 11
239.07919344231709
 21
595.13750049764326
 31
0.0
  0
LINE
  5
856A
  8
0
 62
     0
 10
434.91391144231659
 20
601.65314849764309
 30
0.0
 11
433.32209644231682
 21
610.68078049764313
 31
0.0
  0
LINE
  5
856B
  8
0
 62
     0
 10
236.042170442317
 20
596.61945949764333
 30
0.0
 11
236.92248044231701
 21
596.61945949764333
 31
0.0
  0
ARC
  5
856C
  8
0
 62
     0
 10
431.22310344231681
 20
606.36829949764308
 30
0.0
 40
2.0
 50
9.9999999999986073
 51
90.0
  0
LINE
  5
856D
  8
0
 62
     0
 10
434.08536544231691
 20
601.65314849764309
 30
0.0
 11
433.1927194423169
 21
606.71559549764333
 31
0.0
  0
ARC
  5
856E
  8
0
 62
     0
 10
366.43118844231702
 20
600.79087149764325
 30
0.0
 40
2.0
 50
5.5986529999989587
 51
90.0
  0
ARC
  5
856F
  8
0
 62
     0
 10
366.42923344231701
 20
594.79020449764312
 30
0.0
 40
2.0
 50
5.4290190000020546
 51
90.0
  0
LINE
  5
8570
  8
0
 62
     0
 10
437.04217044231689
 20
478.06679349764312
 30
0.0
 11
437.04217044231689
 21
579.85543249764305
 31
0.0
  0
LINE
  5
8571
  8
0
 62
     0
 10
437.04217044231689
 20
601.65314849764309
 30
0.0
 11
437.04217044231689
 21
605.78949949764319
 31
0.0
  0
LINE
  5
8572
  8
0
 62
     0
 10
384.99904644231702
 20
591.62697449764323
 30
0.0
 11
401.04216944231678
 21
596.22683649764315
 31
0.0
  0
LINE
  5
8573
  8
0
 62
     0
 10
369.3390854423169
 20
591.62697449764323
 30
0.0
 11
384.99904644231702
 21
591.62697449764323
 31
0.0
  0
LINE
  5
8574
  8
0
 62
     0
 10
401.04216944231678
 20
596.22683649764315
 30
0.0
 11
415.73545344231678
 21
596.22683649764315
 31
0.0
  0
ARC
  5
8575
  8
0
 62
     0
 10
417.74196944231699
 20
589.27276549764315
 30
0.0
 40
2.600398999999999
 50
179.9999819999943
 51
269.99997799999522
  0
ARC
  5
8576
  8
0
 62
     0
 10
417.74196944231699
 20
594.57275349764325
 30
0.0
 40
2.600403
 50
90.0
 51
179.9999819999943
  0
LINE
  5
8577
  8
0
 62
     0
 10
420.54217044231677
 20
591.98878449764322
 30
0.0
 11
419.04217044231689
 21
591.12275949764307
 31
0.0
  0
LINE
  5
8578
  8
0
 62
     0
 10
420.54217044231677
 20
592.98878449764322
 30
0.0
 11
419.04217044231689
 21
592.12275949764273
 31
0.0
  0
LINE
  5
8579
  8
0
 62
     0
 10
420.54217044231677
 20
598.02275949764316
 30
0.0
 11
420.54217044231677
 21
585.82275949764323
 31
0.0
  0
LINE
  5
857A
  8
0
 62
     0
 10
419.04217044231689
 20
598.02275949764316
 30
0.0
 11
420.54217044231677
 21
598.02275949764316
 31
0.0
  0
LINE
  5
857B
  8
0
 62
     0
 10
419.04217044231689
 20
585.82275949764323
 30
0.0
 11
420.54217044231677
 21
585.82275949764323
 31
0.0
  0
LINE
  5
857C
  8
0
 62
     0
 10
415.1421764423169
 20
594.57275349764325
 30
0.0
 11
415.1421764423169
 21
589.27276549764315
 31
0.0
  0
LINE
  5
857D
  8
0
 62
     0
 10
419.04217044231689
 20
598.02275949764316
 30
0.0
 11
419.04217044231689
 21
585.82275949764323
 31
0.0
  0
LINE
  5
857E
  8
0
 62
     0
 10
419.04217044231689
 20
586.67275949764326
 30
0.0
 11
417.74196944231699
 21
586.67275949764326
 31
0.0
  0
LINE
  5
857F
  8
0
 62
     0
 10
419.04217044231689
 20
597.17275949764326
 30
0.0
 11
417.74196944231699
 21
597.17275949764326
 31
0.0
  0
ARC
  5
8580
  8
0
 62
     0
 10
417.74196944231699
 20
463.23083849764322
 30
0.0
 40
2.600398999999999
 50
179.9999819999943
 51
269.99997799999522
  0
ARC
  5
8581
  8
0
 62
     0
 10
417.74196944231699
 20
468.53082649764309
 30
0.0
 40
2.600403
 50
90.0
 51
179.9999819999943
  0
LINE
  5
8582
  8
0
 62
     0
 10
420.54217044231677
 20
465.94685749764318
 30
0.0
 11
419.04217044231689
 21
465.0808324976432
 31
0.0
  0
LINE
  5
8583
  8
0
 62
     0
 10
420.54217044231677
 20
466.94685749764312
 30
0.0
 11
419.04217044231689
 21
466.08083249764309
 31
0.0
  0
LINE
  5
8584
  8
0
 62
     0
 10
420.54217044231677
 20
471.98083249764312
 30
0.0
 11
420.54217044231677
 21
459.78083249764319
 31
0.0
  0
LINE
  5
8585
  8
0
 62
     0
 10
419.04217044231689
 20
471.98083249764312
 30
0.0
 11
420.54217044231677
 21
471.98083249764312
 31
0.0
  0
LINE
  5
8586
  8
0
 62
     0
 10
419.04217044231689
 20
459.78083249764319
 30
0.0
 11
420.54217044231677
 21
459.78083249764319
 31
0.0
  0
LINE
  5
8587
  8
0
 62
     0
 10
415.1421764423169
 20
468.53082649764309
 30
0.0
 11
415.1421764423169
 21
463.23083849764322
 31
0.0
  0
LINE
  5
8588
  8
0
 62
     0
 10
419.04217044231689
 20
471.98083249764312
 30
0.0
 11
419.04217044231689
 21
459.78083249764319
 31
0.0
  0
LINE
  5
8589
  8
0
 62
     0
 10
419.04217044231689
 20
460.6308324976431
 30
0.0
 11
417.74196944231699
 21
460.6308324976431
 31
0.0
  0
LINE
  5
858A
  8
0
 62
     0
 10
419.04217044231689
 20
471.13083249764333
 30
0.0
 11
417.74196944231699
 21
471.13083249764333
 31
0.0
  0
LINE
  5
858B
  8
0
 62
     0
 10
434.98134044231711
 20
605.78949949764319
 30
0.0
 11
437.04217044231689
 21
605.78949949764319
 31
0.0
  0
LINE
  5
858C
  8
0
 62
     0
 10
240.672317442317
 20
608.36829949764331
 30
0.0
 11
431.22310344231681
 21
608.36829949764331
 31
0.0
  0
LINE
  5
858D
  8
0
 62
     0
 10
240.49117644231691
 20
612.33348449764333
 30
0.0
 11
431.3524814423169
 21
612.33348449764333
 31
0.0
  0
LINE
  5
858E
  8
0
 62
     0
 10
240.3733854423169
 20
614.88621849764297
 30
0.0
 11
431.438336442317
 21
614.88621849764297
 31
0.0
  0
LINE
  5
858F
  8
0
 62
     0
 10
232.542170442317
 20
611.28949949764285
 30
0.0
 11
238.06098844231701
 21
611.28949949764285
 31
0.0
  0
LINE
  5
8590
  8
0
 62
     0
 10
255.3064154423171
 20
616.07599249764326
 30
0.0
 11
322.042170442317
 21
616.07599249764326
 31
0.0
  0
LINE
  5
8591
  8
0
 62
     0
 10
401.04216944231678
 20
574.94949949764305
 30
0.0
 11
401.04216944231678
 21
569.60449949764325
 31
0.0
  0
LINE
  5
8592
  8
0
 62
     0
 10
384.99904644231702
 20
574.94949949764305
 30
0.0
 11
384.99904644231702
 21
569.60449949764325
 31
0.0
  0
LINE
  5
8593
  8
0
 62
     0
 10
401.04216944231678
 20
585.24555949764306
 30
0.0
 11
401.04216944231678
 21
577.64949949764332
 31
0.0
  0
LINE
  5
8594
  8
0
 62
     0
 10
401.04216944231678
 20
593.64228649764323
 30
0.0
 11
415.1421764423169
 21
593.64228649764323
 31
0.0
  0
LINE
  5
8595
  8
0
 62
     0
 10
236.042170442317
 20
577.9136864976432
 30
0.0
 11
370.04217044231689
 21
577.9136864976432
 31
0.0
  0
LINE
  5
8596
  8
0
 62
     0
 10
369.36454344231697
 20
584.4546224976433
 30
0.0
 11
370.04217044231689
 21
584.4546224976433
 31
0.0
  0
LINE
  5
8597
  8
0
 62
     0
 10
241.04880944231701
 20
596.79020449764312
 30
0.0
 11
366.42923344231701
 21
596.79020449764312
 31
0.0
  0
LINE
  5
8598
  8
0
 62
     0
 10
236.042170442317
 20
584.4546224976433
 30
0.0
 11
237.19551344231701
 21
584.4546224976433
 31
0.0
  0
LINE
  5
8599
  8
0
 62
     0
 10
240.95354544231699
 20
602.79087149764325
 30
0.0
 11
366.43118844231702
 21
602.79087149764325
 31
0.0
  0
LINE
  5
859A
  8
0
 62
     0
 10
437.04217044231689
 20
579.85543249764305
 30
0.0
 11
440.04217044231689
 21
578.12338149764332
 31
0.0
  0
ARC
  5
859B
  8
0
 62
     0
 10
419.54217044231689
 20
580.85543249764305
 30
0.0
 40
1.0
 50
270.0
 51
0.0
  0
ARC
  5
859C
  8
0
 62
     0
 10
422.54217044231677
 20
599.65314849764331
 30
0.0
 40
2.0
 50
90.0
 51
180.0
  0
ARC
  5
859D
  8
0
 62
     0
 10
422.54217044231677
 20
595.52914349764274
 30
0.0
 40
2.0
 50
180.0
 51
270.0
  0
ARC
  5
859E
  8
0
 62
     0
 10
422.54217044231677
 20
591.52914349764274
 30
0.0
 40
2.0
 50
90.0
 51
180.0
  0
LINE
  5
859F
  8
0
 62
     0
 10
422.54217044231677
 20
601.65314849764309
 30
0.0
 11
440.04217044231689
 21
601.65314849764309
 31
0.0
  0
LINE
  5
85A0
  8
0
 62
     0
 10
420.54217044231677
 20
579.85543249764305
 30
0.0
 11
437.04217044231689
 21
579.85543249764305
 31
0.0
  0
LINE
  5
85A1
  8
0
 62
     0
 10
422.54217044231677
 20
593.52914349764319
 30
0.0
 11
440.04217044231689
 21
593.52914349764319
 31
0.0
  0
LINE
  5
85A2
  8
0
 62
     0
 10
420.54217044231677
 20
580.85543249764305
 30
0.0
 11
420.54217044231677
 21
599.65314849764331
 31
0.0
  0
LINE
  5
85A3
  8
0
 62
     0
 10
236.042170442317
 20
433.78949949764319
 30
0.0
 11
232.542170442317
 21
433.78949949764319
 31
0.0
  0
LINE
  5
85A4
  8
0
 62
     0
 10
236.042170442317
 20
483.43071049764308
 30
0.0
 11
240.6495464423169
 21
476.9991044976432
 31
0.0
  0
LINE
  5
85A5
  8
0
 62
     0
 10
240.6495464423169
 20
476.9991044976432
 30
0.0
 11
241.50534644231701
 21
479.62602449764319
 31
0.0
  0
LINE
  5
85A6
  8
0
 62
     0
 10
236.042170442317
 20
483.43071049764308
 30
0.0
 11
241.50534644231701
 21
479.62602449764319
 31
0.0
  0
LINE
  5
85A7
  8
0
 62
     0
 10
241.50534644231701
 20
479.62602449764319
 30
0.0
 11
242.7172764423168
 21
479.07006449764322
 31
0.0
  0
LINE
  5
85A8
  8
0
 62
     0
 10
232.542170442317
 20
476.9991044976432
 30
0.0
 11
240.6495464423169
 21
476.9991044976432
 31
0.0
  0
LINE
  5
85A9
  8
0
 62
     0
 10
232.542170442317
 20
483.43071049764308
 30
0.0
 11
236.042170442317
 21
483.43071049764308
 31
0.0
  0
LINE
  5
85AA
  8
0
 62
     0
 10
236.042170442317
 20
460.85732449764299
 30
0.0
 11
236.042170442317
 21
457.6644304976432
 31
0.0
  0
LINE
  5
85AB
  8
0
 62
     0
 10
237.80217044231691
 20
460.28889049764308
 30
0.0
 11
237.80217044231691
 21
458.29010849764308
 31
0.0
  0
LINE
  5
85AC
  8
0
 62
     0
 10
252.80217044231699
 20
469.28949949764308
 30
0.0
 11
252.80217044231699
 21
467.29010849764308
 31
0.0
  0
LINE
  5
85AD
  8
0
 62
     0
 10
251.042170442317
 20
469.7510414976432
 30
0.0
 11
251.042170442317
 21
466.683306497643
 31
0.0
  0
LINE
  5
85AE
  8
0
 62
     0
 10
251.042170442317
 20
469.7510414976432
 30
0.0
 11
289.46438744231688
 21
469.7510414976432
 31
0.0
  0
LINE
  5
85AF
  8
0
 62
     0
 10
251.042170442317
 20
466.683306497643
 30
0.0
 11
290.77921144231692
 21
466.683306497643
 31
0.0
  0
LINE
  5
85B0
  8
0
 62
     0
 10
236.042170442317
 20
457.6644304976432
 30
0.0
 11
333.042170442317
 21
457.6644304976432
 31
0.0
  0
LINE
  5
85B1
  8
0
 62
     0
 10
236.042170442317
 20
460.85732449764299
 30
0.0
 11
333.042170442317
 21
460.85732449764299
 31
0.0
  0
LINE
  5
85B2
  8
0
 62
     0
 10
237.80217044231691
 20
460.28889049764308
 30
0.0
 11
333.042170442317
 21
460.28889049764308
 31
0.0
  0
LINE
  5
85B3
  8
0
 62
     0
 10
237.80217044231691
 20
458.29010849764308
 30
0.0
 11
333.042170442317
 21
458.29010849764308
 31
0.0
  0
LINE
  5
85B4
  8
0
 62
     0
 10
237.80217044231691
 20
460.28889049764308
 30
0.0
 11
236.042170442317
 21
460.85732449764299
 31
0.0
  0
LINE
  5
85B5
  8
0
 62
     0
 10
237.80217044231691
 20
458.29010849764308
 30
0.0
 11
236.042170442317
 21
457.6644304976432
 31
0.0
  0
LINE
  5
85B6
  8
0
 62
     0
 10
240.985436442317
 20
467.03142049764313
 30
0.0
 11
242.166527442317
 21
466.79401149764288
 31
0.0
  0
LINE
  5
85B7
  8
0
 62
     0
 10
252.80217044231699
 20
469.28949949764308
 30
0.0
 11
289.55069744231707
 21
469.28949949764308
 31
0.0
  0
LINE
  5
85B8
  8
0
 62
     0
 10
252.80217044231699
 20
467.29010849764308
 30
0.0
 11
290.35993344231701
 21
467.29010849764308
 31
0.0
  0
LINE
  5
85B9
  8
0
 62
     0
 10
252.80217044231699
 20
469.28949949764308
 30
0.0
 11
251.042170442317
 21
469.7510414976432
 31
0.0
  0
LINE
  5
85BA
  8
0
 62
     0
 10
252.80217044231699
 20
467.29010849764308
 30
0.0
 11
251.042170442317
 21
466.683306497643
 31
0.0
  0
LINE
  5
85BB
  8
0
 62
     0
 10
370.04217044231689
 20
460.85732449764299
 30
0.0
 11
333.042170442317
 21
460.85732449764299
 31
0.0
  0
LINE
  5
85BC
  8
0
 62
     0
 10
368.28217044231701
 20
460.28889049764308
 30
0.0
 11
333.042170442317
 21
460.28889049764308
 31
0.0
  0
LINE
  5
85BD
  8
0
 62
     0
 10
368.28217044231701
 20
458.29010849764308
 30
0.0
 11
333.042170442317
 21
458.29010849764308
 31
0.0
  0
LINE
  5
85BE
  8
0
 62
     0
 10
368.28217044231701
 20
458.29010849764308
 30
0.0
 11
370.04217044231689
 21
457.6644304976432
 31
0.0
  0
LINE
  5
85BF
  8
0
 62
     0
 10
368.28217044231701
 20
460.28889049764308
 30
0.0
 11
370.04217044231689
 21
460.85732449764299
 31
0.0
  0
LINE
  5
85C0
  8
0
 62
     0
 10
368.28217044231701
 20
460.28889049764308
 30
0.0
 11
368.28217044231701
 21
458.29010849764308
 31
0.0
  0
LINE
  5
85C1
  8
0
 62
     0
 10
370.04217044231689
 20
460.85732449764299
 30
0.0
 11
370.04217044231689
 21
457.6644304976432
 31
0.0
  0
LINE
  5
85C2
  8
0
 62
     0
 10
236.042170442317
 20
457.6644304976432
 30
0.0
 11
237.6349124423171
 21
440.36524349764289
 31
0.0
  0
LINE
  5
85C3
  8
0
 62
     0
 10
236.042170442317
 20
451.12437649764308
 30
0.0
 11
236.64431544231701
 21
451.12437649764308
 31
0.0
  0
LINE
  5
85C4
  8
0
 62
     0
 10
236.042170442317
 20
443.95202449764309
 30
0.0
 11
236.72494744231699
 21
443.95202449764309
 31
0.0
  0
LINE
  5
85C5
  8
0
 62
     0
 10
236.042170442317
 20
438.95953949764311
 30
0.0
 11
236.56668344231699
 21
438.95953949764311
 31
0.0
  0
LINE
  5
85C6
  8
0
 62
     0
 10
236.042170442317
 20
435.73878349764323
 30
0.0
 11
236.4021124423171
 21
435.73878349764323
 31
0.0
  0
LINE
  5
85C7
  8
0
 62
     0
 10
235.99539344231709
 20
434.16920249764308
 30
0.0
 11
236.22578444231689
 21
434.16920249764308
 31
0.0
  0
LINE
  5
85C8
  8
0
 62
     0
 10
236.042170442317
 20
451.12437649764308
 30
0.0
 11
237.62982244231699
 21
434.4466024976432
 31
0.0
  0
LINE
  5
85C9
  8
0
 62
     0
 10
236.042170442317
 20
443.95202449764309
 30
0.0
 11
237.614003442317
 21
428.99081349764322
 31
0.0
  0
LINE
  5
85CA
  8
0
 62
     0
 10
236.042170442317
 20
438.95953949764311
 30
0.0
 11
237.60348144231691
 21
424.98894849764309
 31
0.0
  0
LINE
  5
85CB
  8
0
 62
     0
 10
236.042170442317
 20
435.73878349764323
 30
0.0
 11
237.59538944231701
 21
422.46145549764299
 31
0.0
  0
LINE
  5
85CC
  8
0
 62
     0
 10
235.99539344231709
 20
434.16920249764308
 30
0.0
 11
237.5859094423169
 21
421.25846849764321
 31
0.0
  0
ARC
  5
85CD
  8
0
 62
     0
 10
239.6264884423168
 20
440.5486084976431
 30
0.0
 40
2.0
 50
185.2604109999981
 51
270.0
  0
ARC
  5
85CE
  8
0
 62
     0
 10
239.62082044231701
 20
434.63613749764318
 30
0.0
 40
2.0
 50
185.4379219999999
 51
270.0
  0
ARC
  5
85CF
  8
0
 62
     0
 10
239.60305644231701
 20
429.19978449764318
 30
0.0
 40
2.0
 50
185.99752600000011
 51
270.0
  0
ARC
  5
85D0
  8
0
 62
     0
 10
239.591107442317
 20
425.2110794976432
 30
0.0
 40
2.0
 50
186.376742000001
 51
270.0
  0
ARC
  5
85D1
  8
0
 62
     0
 10
239.58184344231699
 20
422.69383649764308
 30
0.0
 40
2.0
 50
186.67229399999829
 51
270.0
  0
ARC
  5
85D2
  8
0
 62
     0
 10
239.57090344231699
 20
421.50300649764301
 30
0.0
 40
2.0
 50
187.02306899999661
 51
270.0
  0
LINE
  5
85D3
  8
0
 62
     0
 10
242.7172764423168
 20
479.07006449764322
 30
0.0
 11
242.7172764423168
 21
466.683306497643
 31
0.0
  0
LINE
  5
85D4
  8
0
 62
     0
 10
240.6495464423169
 20
476.9991044976432
 30
0.0
 11
240.6495464423169
 21
467.09893749764308
 31
0.0
  0
LINE
  5
85D5
  8
0
 62
     0
 10
232.542170442317
 20
466.683306497643
 30
0.0
 11
242.7172764423168
 21
466.683306497643
 31
0.0
  0
LINE
  5
85D6
  8
0
 62
     0
 10
232.542170442317
 20
467.09893749764308
 30
0.0
 11
240.6495464423169
 21
467.09893749764308
 31
0.0
  0
LINE
  5
85D7
  8
0
 62
     0
 10
435.04217044231677
 20
532.96949949764326
 30
0.0
 11
433.28217044231678
 21
533.51949949764321
 31
0.0
  0
LINE
  5
85D8
  8
0
 62
     0
 10
435.04217044231677
 20
535.60949949764313
 30
0.0
 11
435.04217044231677
 21
532.96949949764326
 31
0.0
  0
LINE
  5
85D9
  8
0
 62
     0
 10
433.28217044231678
 20
535.11949949764323
 30
0.0
 11
435.04217044231677
 21
535.60949949764313
 31
0.0
  0
LINE
  5
85DA
  8
0
 62
     0
 10
433.28217044231678
 20
535.11949949764323
 30
0.0
 11
433.28217044231678
 21
533.51949949764321
 31
0.0
  0
LINE
  5
85DB
  8
0
 62
     0
 10
435.04217044231677
 20
521.96949949764326
 30
0.0
 11
433.28217044231678
 21
522.51949949764321
 31
0.0
  0
LINE
  5
85DC
  8
0
 62
     0
 10
435.04217044231677
 20
524.60949949764313
 30
0.0
 11
435.04217044231677
 21
521.96949949764326
 31
0.0
  0
LINE
  5
85DD
  8
0
 62
     0
 10
433.28217044231678
 20
524.11949949764323
 30
0.0
 11
435.04217044231677
 21
524.60949949764313
 31
0.0
  0
LINE
  5
85DE
  8
0
 62
     0
 10
433.28217044231678
 20
524.11949949764323
 30
0.0
 11
433.28217044231678
 21
522.51949949764321
 31
0.0
  0
LINE
  5
85DF
  8
0
 62
     0
 10
435.04217044231677
 20
510.9694994976432
 30
0.0
 11
433.28217044231678
 21
511.51949949764321
 31
0.0
  0
LINE
  5
85E0
  8
0
 62
     0
 10
435.04217044231677
 20
513.60949949764301
 30
0.0
 11
435.04217044231677
 21
510.9694994976432
 31
0.0
  0
LINE
  5
85E1
  8
0
 62
     0
 10
433.28217044231678
 20
513.11949949764323
 30
0.0
 11
435.04217044231677
 21
513.60949949764301
 31
0.0
  0
LINE
  5
85E2
  8
0
 62
     0
 10
433.28217044231678
 20
513.11949949764323
 30
0.0
 11
433.28217044231678
 21
511.51949949764321
 31
0.0
  0
LINE
  5
85E3
  8
0
 62
     0
 10
435.04217044231677
 20
499.96949949764308
 30
0.0
 11
433.28217044231678
 21
500.51949949764321
 31
0.0
  0
LINE
  5
85E4
  8
0
 62
     0
 10
435.04217044231677
 20
502.60949949764313
 30
0.0
 11
435.04217044231677
 21
499.96949949764308
 31
0.0
  0
LINE
  5
85E5
  8
0
 62
     0
 10
433.28217044231678
 20
502.11949949764318
 30
0.0
 11
435.04217044231677
 21
502.60949949764313
 31
0.0
  0
LINE
  5
85E6
  8
0
 62
     0
 10
433.28217044231678
 20
502.11949949764318
 30
0.0
 11
433.28217044231678
 21
500.51949949764321
 31
0.0
  0
LINE
  5
85E7
  8
0
 62
     0
 10
434.45383944231668
 20
431.28021949764309
 30
0.0
 11
433.5775642466773
 21
423.78948249764289
 31
0.0
  0
LINE
  5
85E8
  8
0
 62
     0
 10
433.38695344231678
 20
424.98865249764322
 30
0.0
 11
434.4419104423169
 21
434.4156394976431
 31
0.0
  0
LINE
  5
85E9
  8
0
 62
     0
 10
433.4140234423171
 20
428.98950849764321
 30
0.0
 11
434.51293544231692
 21
439.38368249764312
 31
0.0
  0
LINE
  5
85EA
  8
0
 62
     0
 10
434.563876442317
 20
445.92030249764321
 30
0.0
 11
433.43859544231691
 21
434.4410184976432
 31
0.0
  0
LINE
  5
85EB
  8
0
 62
     0
 10
434.60504344231703
 20
453.3300444976432
 30
0.0
 11
433.37232644231682
 21
440.35938349764308
 31
0.0
  0
LINE
  5
85EC
  8
0
 62
     0
 10
434.51396244231671
 20
430.14389149764321
 30
0.0
 11
433.74687992319519
 21
423.78948249764289
 31
0.0
  0
LINE
  5
85ED
  8
0
 62
     0
 10
433.28217044231678
 20
491.11949949764312
 30
0.0
 11
433.28217044231678
 21
489.5194994976431
 31
0.0
  0
LINE
  5
85EE
  8
0
 62
     0
 10
433.28217044231678
 20
491.11949949764312
 30
0.0
 11
435.04217044231677
 21
491.60949949764318
 31
0.0
  0
LINE
  5
85EF
  8
0
 62
     0
 10
435.04217044231677
 20
491.60949949764318
 30
0.0
 11
435.04217044231677
 21
488.9694994976432
 31
0.0
  0
LINE
  5
85F0
  8
0
 62
     0
 10
435.04217044231677
 20
488.9694994976432
 30
0.0
 11
433.28217044231678
 21
489.5194994976431
 31
0.0
  0
LINE
  5
85F1
  8
0
 62
     0
 10
433.28217044231678
 20
546.11949949764323
 30
0.0
 11
433.28217044231678
 21
544.51949949764298
 31
0.0
  0
LINE
  5
85F2
  8
0
 62
     0
 10
433.28217044231678
 20
546.11949949764323
 30
0.0
 11
435.04217044231677
 21
546.60949949764313
 31
0.0
  0
LINE
  5
85F3
  8
0
 62
     0
 10
435.04217044231677
 20
546.60949949764313
 30
0.0
 11
435.04217044231677
 21
543.96949949764326
 31
0.0
  0
LINE
  5
85F4
  8
0
 62
     0
 10
435.04217044231677
 20
543.96949949764326
 30
0.0
 11
433.28217044231678
 21
544.51949949764298
 31
0.0
  0
LINE
  5
85F5
  8
0
 62
     0
 10
384.99904644231702
 20
543.96949949764326
 30
0.0
 11
384.99904644231702
 21
535.60949949764313
 31
0.0
  0
LINE
  5
85F6
  8
0
 62
     0
 10
401.04216944231678
 20
543.96949949764326
 30
0.0
 11
401.04216944231678
 21
535.60949949764313
 31
0.0
  0
LINE
  5
85F7
  8
0
 62
     0
 10
401.04216944231678
 20
532.96949949764326
 30
0.0
 11
401.04216944231678
 21
524.60949949764313
 31
0.0
  0
LINE
  5
85F8
  8
0
 62
     0
 10
384.99904644231702
 20
532.96949949764326
 30
0.0
 11
384.99904644231702
 21
524.60949949764313
 31
0.0
  0
LINE
  5
85F9
  8
0
 62
     0
 10
384.99904644231702
 20
521.96949949764326
 30
0.0
 11
384.99904644231702
 21
513.60949949764301
 31
0.0
  0
LINE
  5
85FA
  8
0
 62
     0
 10
401.04216944231678
 20
521.96949949764326
 30
0.0
 11
401.04216944231678
 21
513.60949949764301
 31
0.0
  0
LINE
  5
85FB
  8
0
 62
     0
 10
401.04216944231678
 20
510.9694994976432
 30
0.0
 11
401.04216944231678
 21
502.60949949764313
 31
0.0
  0
LINE
  5
85FC
  8
0
 62
     0
 10
384.99904644231702
 20
510.9694994976432
 30
0.0
 11
384.99904644231702
 21
502.60949949764313
 31
0.0
  0
LINE
  5
85FD
  8
0
 62
     0
 10
384.99904644231702
 20
499.96949949764308
 30
0.0
 11
384.99904644231702
 21
491.60949949764318
 31
0.0
  0
LINE
  5
85FE
  8
0
 62
     0
 10
401.04216944231678
 20
499.96949949764308
 30
0.0
 11
401.04216944231678
 21
491.60949949764318
 31
0.0
  0
LINE
  5
85FF
  8
0
 62
     0
 10
401.04216944231678
 20
488.9694994976432
 30
0.0
 11
401.04216944231678
 21
473.18105349764312
 31
0.0
  0
LINE
  5
8600
  8
0
 62
     0
 10
384.99904644231702
 20
488.9694994976432
 30
0.0
 11
384.99904644231702
 21
457.6644304976432
 31
0.0
  0
LINE
  5
8601
  8
0
 62
     0
 10
434.60504344231703
 20
453.3300444976432
 30
0.0
 11
401.04216944231678
 21
453.3300444976432
 31
0.0
  0
LINE
  5
8602
  8
0
 62
     0
 10
434.563876442317
 20
445.92030249764321
 30
0.0
 11
433.90083044231687
 21
445.92030249764321
 31
0.0
  0
ARC
  5
8603
  8
0
 62
     0
 10
431.38129844231702
 20
440.5486084976431
 30
0.0
 40
2.0
 50
270.0
 51
354.57098099999791
  0
ARC
  5
8604
  8
0
 62
     0
 10
431.44813644231692
 20
434.63613749764318
 30
0.0
 40
2.0
 50
270.0
 51
354.40134700000101
  0
ARC
  5
8605
  8
0
 62
     0
 10
431.42510844231691
 20
429.19978449764318
 30
0.0
 40
2.0
 50
270.0
 51
353.96488600000038
  0
ARC
  5
8606
  8
0
 62
     0
 10
431.39936044231712
 20
425.2110794976432
 30
0.0
 40
2.0
 50
314.70007932781459
 51
353.61470099999991
  0
LINE
  5
8609
  8
0
 62
     0
 10
434.51293544231692
 20
439.38368249764312
 30
0.0
 11
433.9231104423169
 21
439.38368249764312
 31
0.0
  0
LINE
  5
860A
  8
0
 62
     0
 10
434.4419104423169
 20
434.4156394976431
 30
0.0
 11
433.98769544231698
 21
434.4156394976431
 31
0.0
  0
LINE
  5
860B
  8
0
 62
     0
 10
434.45383944231668
 20
431.28021949764309
 30
0.0
 11
434.09103144231699
 21
431.28021949764309
 31
0.0
  0
LINE
  5
860C
  8
0
 62
     0
 10
434.51396244231671
 20
430.14389149764321
 30
0.0
 11
434.32091044231692
 21
430.14389149764321
 31
0.0
  0
LINE
  5
860D
  8
0
 62
     0
 10
437.04217044231689
 20
478.06679349764312
 30
0.0
 11
420.54217044231677
 21
478.06679349764312
 31
0.0
  0
LINE
  5
860E
  8
0
 62
     0
 10
440.04217044231689
 20
467.8875014976432
 30
0.0
 11
422.54217044231677
 21
467.8875014976432
 31
0.0
  0
LINE
  5
860F
  8
0
 62
     0
 10
440.04217044231689
 20
455.60022049764308
 30
0.0
 11
422.54217044231677
 21
455.60022049764308
 31
0.0
  0
LINE
  5
8610
  8
0
 62
     0
 10
420.54217044231677
 20
477.06679349764289
 30
0.0
 11
420.54217044231677
 21
457.60022049764319
 31
0.0
  0
LINE
  5
8611
  8
0
 62
     0
 10
437.04217044231689
 20
478.06679349764312
 30
0.0
 11
440.04217044231689
 21
479.79884449764307
 31
0.0
  0
ARC
  5
8612
  8
0
 62
     0
 10
422.54217044231677
 20
469.88750149764309
 30
0.0
 40
2.0
 50
180.0
 51
270.0
  0
ARC
  5
8613
  8
0
 62
     0
 10
422.54217044231677
 20
457.60022049764319
 30
0.0
 40
2.0
 50
180.0
 51
270.0
  0
ARC
  5
8614
  8
0
 62
     0
 10
422.54217044231677
 20
465.88750149764309
 30
0.0
 40
2.0
 50
90.0
 51
180.0
  0
LINE
  5
8615
  8
0
 62
     0
 10
401.04216944231678
 20
461.76870349764312
 30
0.0
 11
401.04216944231678
 21
453.3300444976432
 31
0.0
  0
LINE
  5
8616
  8
0
 62
     0
 10
384.99904644231702
 20
457.6644304976432
 30
0.0
 11
401.04216944231678
 21
453.3300444976432
 31
0.0
  0
ARC
  5
8617
  8
0
 62
     0
 10
419.54217044231689
 20
477.06679349764289
 30
0.0
 40
1.0
 50
0.0
 51
90.0
  0
LINE
  5
8618
  8
0
 62
     0
 10
384.99904644231702
 20
457.6644304976432
 30
0.0
 11
333.042170442317
 21
457.6644304976432
 31
0.0
  0
LINE
  5
8619
  8
0
 62
     0
 10
422.0422669488961
 20
419.50300649764313
 30
0.0
 11
239.57090344231699
 21
419.50300649764318
 31
0.0
  0
LINE
  5
861A
  8
0
 62
     0
 10
422.04226768795479
 20
420.69383649764319
 30
0.0
 11
239.58184344231699
 21
420.69383649764319
 31
0.0
  0
LINE
  5
861B
  8
0
 62
     0
 10
422.6354779750792
 20
423.21107949764308
 30
0.0
 11
239.591107442317
 21
423.21107949764308
 31
0.0
  0
LINE
  5
861C
  8
0
 62
     0
 10
431.42510844231691
 20
427.19978449764312
 30
0.0
 11
239.60305644231701
 21
427.19978449764312
 31
0.0
  0
LINE
  5
861D
  8
0
 62
     0
 10
431.44813644231692
 20
432.63613749764312
 30
0.0
 11
239.62082044231701
 21
432.63613749764312
 31
0.0
  0
LINE
  5
861E
  8
0
 62
     0
 10
431.38129844231702
 20
438.5486084976431
 30
0.0
 11
239.6264884423168
 21
438.5486084976431
 31
0.0
  0
LINE
  5
861F
  8
0
 62
     0
 10
384.99904644231702
 20
591.62697449764323
 30
0.0
 11
384.99904644231702
 21
577.64949949764332
 31
0.0
  0
LINE
  5
8620
  8
0
 62
     0
 10
401.04216944231678
 20
596.22683649764315
 30
0.0
 11
401.04216944231678
 21
593.64228649764323
 31
0.0
  0
LINE
  5
8621
  8
0
 62
     0
 10
377.83978244231702
 20
546.60949949764313
 30
0.0
 11
435.04217044231677
 21
546.60949949764313
 31
0.0
  0
LINE
  5
8622
  8
0
 62
     0
 10
377.86330044231693
 20
546.11949949764323
 30
0.0
 11
433.28217044231678
 21
546.11949949764323
 31
0.0
  0
LINE
  5
8623
  8
0
 62
     0
 10
377.93626644231699
 20
544.51949949764298
 30
0.0
 11
433.28217044231678
 21
544.51949949764298
 31
0.0
  0
LINE
  5
8624
  8
0
 62
     0
 10
377.93626644231699
 20
543.96949949764326
 30
0.0
 11
435.04217044231677
 21
543.96949949764326
 31
0.0
  0
LINE
  5
8625
  8
0
 62
     0
 10
377.98078844231702
 20
491.60949949764318
 30
0.0
 11
435.04217044231677
 21
491.60949949764318
 31
0.0
  0
LINE
  5
8626
  8
0
 62
     0
 10
377.959387442317
 20
491.11949949764312
 30
0.0
 11
433.28217044231678
 21
491.11949949764312
 31
0.0
  0
LINE
  5
8627
  8
0
 62
     0
 10
377.88671344231687
 20
489.5194994976431
 30
0.0
 11
433.28217044231678
 21
489.5194994976431
 31
0.0
  0
LINE
  5
8628
  8
0
 62
     0
 10
377.8607444423169
 20
488.9694994976432
 30
0.0
 11
435.04217044231677
 21
488.9694994976432
 31
0.0
  0
LINE
  5
8629
  8
0
 62
     0
 10
378.52606644231702
 20
521.96949949764326
 30
0.0
 11
435.04217044231677
 21
521.96949949764326
 31
0.0
  0
LINE
  5
862A
  8
0
 62
     0
 10
378.52178644231702
 20
522.51949949764321
 30
0.0
 11
433.28217044231678
 21
522.51949949764321
 31
0.0
  0
LINE
  5
862B
  8
0
 62
     0
 10
378.35578044231693
 20
502.60949949764313
 30
0.0
 11
435.04217044231677
 21
502.60949949764313
 31
0.0
  0
LINE
  5
862C
  8
0
 62
     0
 10
378.343370442317
 20
502.11949949764318
 30
0.0
 11
433.28217044231678
 21
502.11949949764318
 31
0.0
  0
LINE
  5
862D
  8
0
 62
     0
 10
378.30005944231698
 20
500.51949949764321
 30
0.0
 11
433.28217044231678
 21
500.51949949764321
 31
0.0
  0
LINE
  5
862E
  8
0
 62
     0
 10
378.28418544231698
 20
499.96949949764308
 30
0.0
 11
435.04217044231677
 21
499.96949949764308
 31
0.0
  0
LINE
  5
862F
  8
0
 62
     0
 10
378.52910344231702
 20
513.60949949764301
 30
0.0
 11
435.04217044231677
 21
513.60949949764301
 31
0.0
  0
LINE
  5
8630
  8
0
 62
     0
 10
378.52567144231688
 20
513.11949949764323
 30
0.0
 11
433.28217044231678
 21
513.11949949764323
 31
0.0
  0
LINE
  5
8631
  8
0
 62
     0
 10
378.51167944231702
 20
511.51949949764321
 30
0.0
 11
433.28217044231678
 21
511.51949949764321
 31
0.0
  0
LINE
  5
8632
  8
0
 62
     0
 10
378.50588544231721
 20
510.9694994976432
 30
0.0
 11
435.04217044231677
 21
510.9694994976432
 31
0.0
  0
LINE
  5
8633
  8
0
 62
     0
 10
378.28575744231711
 20
535.60949949764313
 30
0.0
 11
435.04217044231677
 21
535.60949949764313
 31
0.0
  0
LINE
  5
8634
  8
0
 62
     0
 10
378.28575744231711
 20
535.11949949764323
 30
0.0
 11
433.28217044231678
 21
535.11949949764323
 31
0.0
  0
LINE
  5
8635
  8
0
 62
     0
 10
378.33039144231702
 20
533.51949949764321
 30
0.0
 11
433.28217044231678
 21
533.51949949764321
 31
0.0
  0
LINE
  5
8636
  8
0
 62
     0
 10
378.3447494423171
 20
532.96949949764326
 30
0.0
 11
435.04217044231677
 21
532.96949949764326
 31
0.0
  0
LINE
  5
8637
  8
0
 62
     0
 10
378.50093044231699
 20
524.60949949764313
 30
0.0
 11
435.04217044231677
 21
524.60949949764313
 31
0.0
  0
LINE
  5
8638
  8
0
 62
     0
 10
378.50647344231697
 20
524.11949949764323
 30
0.0
 11
433.28217044231678
 21
524.11949949764323
 31
0.0
  0
LINE
  5
8639
  8
0
 62
     0
 10
437.04217044231689
 20
429.78949949764319
 30
0.0
 11
437.04217044231689
 21
455.60022049764308
 31
0.0
  0
LINE
  5
863A
  8
0
 62
     0
 10
434.471181442317
 20
429.78949949764319
 30
0.0
 11
437.04217044231689
 21
429.78949949764319
 31
0.0
  0
LINE
  5
863B
  8
0
 62
     0
 10
435.04217044231677
 20
577.64949949764332
 30
0.0
 11
433.28217044231678
 21
577.08949949764315
 31
0.0
  0
LINE
  5
863C
  8
0
 62
     0
 10
433.28217044231678
 20
575.48949949764324
 30
0.0
 11
435.04217044231677
 21
574.94949949764305
 31
0.0
  0
LINE
  5
863D
  8
0
 62
     0
 10
435.04217044231677
 20
574.94949949764305
 30
0.0
 11
435.04217044231677
 21
577.64949949764332
 31
0.0
  0
LINE
  5
863E
  8
0
 62
     0
 10
433.28217044231678
 20
575.48949949764324
 30
0.0
 11
433.28217044231678
 21
577.08949949764315
 31
0.0
  0
LINE
  5
863F
  8
0
 62
     0
 10
435.04217044231677
 20
569.60449949764325
 30
0.0
 11
433.28217044231678
 21
569.06449949764306
 31
0.0
  0
LINE
  5
8640
  8
0
 62
     0
 10
433.28217044231678
 20
567.46449949764315
 30
0.0
 11
435.04217044231677
 21
566.97449949764325
 31
0.0
  0
LINE
  5
8641
  8
0
 62
     0
 10
433.28217044231678
 20
567.46449949764315
 30
0.0
 11
433.28217044231678
 21
569.06449949764306
 31
0.0
  0
LINE
  5
8642
  8
0
 62
     0
 10
435.04217044231677
 20
566.97449949764325
 30
0.0
 11
435.04217044231677
 21
569.60449949764325
 31
0.0
  0
LINE
  5
8643
  8
0
 62
     0
 10
370.04217044231689
 20
577.9136864976432
 30
0.0
 11
368.42026144231698
 21
594.97942949764331
 31
0.0
  0
LINE
  5
8644
  8
0
 62
     0
 10
370.04217044231689
 20
584.4546224976433
 30
0.0
 11
368.42164744231701
 21
600.98599049764323
 31
0.0
  0
LINE
  5
8645
  8
0
 62
     0
 10
237.306849442317
 20
591.62697449764323
 30
0.0
 11
236.042170442317
 21
591.62697449764323
 31
0.0
  0
LINE
  5
8646
  8
0
 62
     0
 10
236.042170442317
 20
577.64949949764332
 30
0.0
 11
237.80217044231691
 21
577.08949949764315
 31
0.0
  0
LINE
  5
8647
  8
0
 62
     0
 10
237.80217044231691
 20
575.48949949764324
 30
0.0
 11
236.042170442317
 21
574.94949949764305
 31
0.0
  0
LINE
  5
8648
  8
0
 62
     0
 10
236.042170442317
 20
569.60449949764325
 30
0.0
 11
237.80217044231691
 21
569.06449949764306
 31
0.0
  0
LINE
  5
8649
  8
0
 62
     0
 10
237.80217044231691
 20
567.46449949764315
 30
0.0
 11
236.042170442317
 21
566.97449949764325
 31
0.0
  0
LINE
  5
864A
  8
0
 62
     0
 10
236.042170442317
 20
574.94949949764305
 30
0.0
 11
236.042170442317
 21
577.64949949764332
 31
0.0
  0
LINE
  5
864B
  8
0
 62
     0
 10
237.80217044231691
 20
575.48949949764324
 30
0.0
 11
237.80217044231691
 21
577.08949949764315
 31
0.0
  0
LINE
  5
864C
  8
0
 62
     0
 10
237.80217044231691
 20
567.46449949764315
 30
0.0
 11
237.80217044231691
 21
569.06449949764306
 31
0.0
  0
LINE
  5
864D
  8
0
 62
     0
 10
236.042170442317
 20
566.97449949764325
 30
0.0
 11
236.042170442317
 21
569.60449949764325
 31
0.0
  0
LINE
  5
864E
  8
0
 62
     0
 10
236.042170442317
 20
556.50893449764305
 30
0.0
 11
288.805657442317
 21
556.50893449764305
 31
0.0
  0
LINE
  5
864F
  8
0
 62
     0
 10
244.41217044231701
 20
555.65716149764319
 30
0.0
 11
288.75092744231699
 21
555.65716149764319
 31
0.0
  0
LINE
  5
8650
  8
0
 62
     0
 10
236.042170442317
 20
556.50893449764305
 30
0.0
 11
244.41217044231701
 21
555.65716149764319
 31
0.0
  0
LINE
  5
8651
  8
0
 62
     0
 10
242.7172764423168
 20
479.07006449764322
 30
0.0
 11
288.77746144231702
 21
479.07006449764322
 31
0.0
  0
LINE
  5
8652
  8
0
 62
     0
 10
244.41217044231701
 20
479.92183749764308
 30
0.0
 11
288.72335444231692
 21
479.92183749764308
 31
0.0
  0
LINE
  5
8653
  8
0
 62
     0
 10
236.042170442317
 20
483.43071049764308
 30
0.0
 11
236.042170442317
 21
556.50893449764305
 31
0.0
  0
LINE
  5
8654
  8
0
 62
     0
 10
236.042170442317
 20
483.43071049764308
 30
0.0
 11
241.50534644231701
 21
479.62602449764319
 31
0.0
  0
LINE
  5
8655
  8
0
 62
     0
 10
241.50534644231701
 20
479.62602449764319
 30
0.0
 11
242.7172764423168
 21
479.07006449764322
 31
0.0
  0
LINE
  5
8656
  8
0
 62
     0
 10
241.50534644231701
 20
479.62602449764319
 30
0.0
 11
244.41217044231701
 21
479.92183749764308
 31
0.0
  0
LINE
  5
8657
  8
0
 62
     0
 10
244.41217044231701
 20
479.92183749764308
 30
0.0
 11
244.41217044231701
 21
555.65716149764319
 31
0.0
  0
LINE
  5
8658
  8
0
 62
     0
 10
232.542170442317
 20
601.40979649764324
 30
0.0
 11
236.318929442317
 21
601.40979649764324
 31
0.0
  0
LINE
  5
8659
  8
0
 62
     0
 10
322.042170442317
 20
618.78949949764308
 30
0.0
 11
344.04217044231689
 21
618.78949949764308
 31
0.0
  0
LINE
  5
865A
  8
0
 62
     0
 10
322.042170442317
 20
618.78949949764308
 30
0.0
 11
322.042170442317
 21
614.88621849764297
 31
0.0
  0
LINE
  5
865B
  8
0
 62
     0
 10
344.04217044231689
 20
618.78949949764308
 30
0.0
 11
344.04217044231689
 21
614.88621849764297
 31
0.0
  0
LINE
  5
865C
  8
0
 62
     0
 10
237.80217044231691
 20
575.48949949764324
 30
0.0
 11
433.28217044231678
 21
575.48949949764324
 31
0.0
  0
LINE
  5
865D
  8
0
 62
     0
 10
237.80217044231691
 20
577.08949949764315
 30
0.0
 11
433.28217044231678
 21
577.08949949764315
 31
0.0
  0
LINE
  5
865E
  8
0
 62
     0
 10
236.042170442317
 20
574.94949949764305
 30
0.0
 11
435.04217044231677
 21
574.94949949764305
 31
0.0
  0
LINE
  5
865F
  8
0
 62
     0
 10
236.042170442317
 20
577.64949949764332
 30
0.0
 11
435.04217044231677
 21
577.64949949764332
 31
0.0
  0
LINE
  5
8660
  8
0
 62
     0
 10
236.042170442317
 20
566.97449949764325
 30
0.0
 11
289.89383744231702
 21
566.97449949764325
 31
0.0
  0
LINE
  5
8661
  8
0
 62
     0
 10
236.042170442317
 20
569.60449949764325
 30
0.0
 11
291.90378644231703
 21
569.60449949764325
 31
0.0
  0
LINE
  5
8662
  8
0
 62
     0
 10
237.80217044231691
 20
567.46449949764315
 30
0.0
 11
290.12459444231712
 21
567.46449949764315
 31
0.0
  0
LINE
  5
8663
  8
0
 62
     0
 10
237.80217044231691
 20
569.06449949764306
 30
0.0
 11
291.295996442317
 21
569.06449949764306
 31
0.0
  0
LINE
  5
8664
  8
0
 62
     0
 10
440.04217044231689
 20
432.78949949764308
 30
0.0
 11
437.04217044231689
 21
429.78949949764319
 31
0.0
  0
LINE
  5
8665
  8
0
 62
     0
 10
440.04217044231689
 20
432.78949949764308
 30
0.0
 11
440.04217044231689
 21
602.78949949764274
 31
0.0
  0
LINE
  5
8666
  8
0
 62
     0
 10
440.04217044231689
 20
602.78949949764274
 30
0.0
 11
437.04217044231689
 21
605.78949949764319
 31
0.0
  0
LINE
  5
89F2
  8
0
 62
     0
 10
161.542170442317
 20
416.58949949764309
 30
0.0
 11
232.542170442317
 21
416.58949949764309
 31
0.0
  0
LINE
  5
8F48
  8
0
  6
CONTINUOUS
 62
     0
 10
422.04224843793958
 20
924.91108738611388
 30
0.0
 11
422.04224843793958
 21
934.42536738611352
 31
0.0
  0
LINE
  5
8F49
  8
0
  6
CONTINUOUS
 62
     0
 10
583.04227843793922
 20
896.81507738611344
 30
0.0
 11
583.04227843793922
 21
935.21576738611395
 31
0.0
  0
LINE
  5
8F4A
  8
0
  6
CONTINUOUS
 62
     0
 10
470.04224843793958
 20
728.31507738611344
 30
0.0
 11
470.04224843793958
 21
824.59803738611379
 31
0.0
  0
LINE
  5
8F4B
  8
0
  6
CONTINUOUS
 62
     0
 10
425.69361843793922
 20
938.41010738611374
 30
0.0
 11
476.04230843793943
 21
942.81507738611333
 31
0.0
  0
LINE
  5
8F4C
  8
0
  6
CENTER
 62
     0
 10
440.04224843793958
 20
909.31507738611356
 30
0.0
 11
440.04224843793958
 21
936.31507738611356
 31
0.0
  0
LINE
  5
8F4D
  8
0
  6
CONTINUOUS
 62
     0
 10
576.04227843793979
 20
766.7117073861134
 30
0.0
 11
576.04227843793979
 21
888.91846738611343
 31
0.0
  0
LINE
  5
8F4E
  8
0
  6
CENTER
 62
     0
 10
565.04227843793944
 20
909.31507738611356
 30
0.0
 11
565.04227843793944
 21
936.31507738611356
 31
0.0
  0
LINE
  5
8F4F
  8
0
  6
CENTER
 62
     0
 10
426.54224843793958
 20
922.81507738611356
 30
0.0
 11
453.54224843793958
 21
922.81507738611356
 31
0.0
  0
LINE
  5
8F50
  8
0
  6
CENTER
 62
     0
 10
551.54227843793967
 20
922.81507738611356
 30
0.0
 11
578.54227843793922
 21
922.81507738611356
 31
0.0
  0
LINE
  5
8F51
  8
0
  6
CONTINUOUS
 62
     0
 10
476.04224843793958
 20
942.81501738611348
 30
0.0
 11
579.18186843793956
 21
939.21332738611352
 31
0.0
  0
LINE
  5
8F52
  8
0
  6
CONTINUOUS
 62
     0
 10
461.30378843793932
 20
935.50269738611382
 30
0.0
 11
469.69367843793952
 21
936.23670738611361
 31
0.0
  0
LINE
  5
8F53
  8
0
  6
CONTINUOUS
 62
     0
 10
476.04224843793958
 20
712.81504738611375
 30
0.0
 11
579.18186843793956
 21
716.41675738611343
 31
0.0
  0
LINE
  5
8F54
  8
0
  6
CENTER
 62
     0
 10
551.54227843793967
 20
732.81507738611344
 30
0.0
 11
578.54227843793922
 21
732.81507738611344
 31
0.0
  0
LINE
  5
8F55
  8
0
  6
CENTER
 62
     0
 10
426.54224843793958
 20
732.81507738611344
 30
0.0
 11
453.54224843793958
 21
732.81507738611344
 31
0.0
  0
LINE
  5
8F56
  8
0
  6
CENTER
 62
     0
 10
565.04227843793944
 20
746.31507738611344
 30
0.0
 11
565.04227843793944
 21
719.31507738611344
 31
0.0
  0
LINE
  5
8F57
  8
0
  6
CENTER
 62
     0
 10
440.04224843793958
 20
746.31507738611344
 30
0.0
 11
440.04224843793958
 21
719.31507738611344
 31
0.0
  0
LINE
  5
8F58
  8
0
  6
CONTINUOUS
 62
     0
 10
425.69361843793922
 20
717.22000738611359
 30
0.0
 11
476.04224843793958
 21
712.81507738611344
 31
0.0
  0
LINE
  5
8F59
  8
0
  6
CONTINUOUS
 62
     0
 10
583.04227843793922
 20
758.81507738611344
 30
0.0
 11
583.04227843793922
 21
720.4143473861136
 31
0.0
  0
LINE
  5
8F5A
  8
0
  6
CONTINUOUS
 62
     0
 10
645.04224843793963
 20
843.81507738611344
 30
0.0
 11
587.04227843793922
 21
843.81507738611344
 31
0.0
  0
LINE
  5
8F5B
  8
0
  6
CONTINUOUS
 62
     0
 10
577.54227843793944
 20
859.99048738611361
 30
0.0
 11
581.54224843793963
 21
857.68109738611395
 31
0.0
  0
LINE
  5
8F5C
  8
0
  6
CONTINUOUS
 62
     0
 10
577.54221843793948
 20
795.63965738611364
 30
0.0
 11
581.54221843793948
 21
797.94910738611372
 31
0.0
  0
LINE
  5
8F5D
  8
0
  6
CONTINUOUS
 62
     0
 10
583.04224843793963
 20
800.5471273861134
 30
0.0
 11
583.04224843793963
 21
827.81507738611378
 31
0.0
  0
LINE
  5
8F5E
  8
0
  6
CONTINUOUS
 62
     0
 10
583.04224843793963
 20
827.81507738611378
 30
0.0
 11
583.04224843793963
 21
855.08301738611362
 31
0.0
  0
LINE
  5
8F5F
  8
0
  6
CONTINUOUS
 62
     0
 10
587.04227843793922
 20
845.31507738611344
 30
0.0
 11
583.04224843793963
 21
845.31507738611344
 31
0.0
  0
LINE
  5
8F60
  8
0
  6
CONTINUOUS
 62
     0
 10
645.04224843793963
 20
811.81507738611344
 30
0.0
 11
645.04224843793963
 21
843.81507738611344
 31
0.0
  0
LINE
  5
8F61
  8
0
  6
CONTINUOUS
 62
     0
 10
587.04227843793922
 20
810.31507738611344
 30
0.0
 11
587.04227843793922
 21
845.31507738611344
 31
0.0
  0
LINE
  5
8F62
  8
0
  6
CONTINUOUS
 62
     0
 10
600.04227843793922
 20
822.81507738611344
 30
0.0
 11
600.04227843793922
 21
832.81507738611344
 31
0.0
  0
LINE
  5
8F63
  8
0
  6
CONTINUOUS
 62
     0
 10
645.04224843793963
 20
811.81507738611344
 30
0.0
 11
587.04227843793922
 21
811.81507738611344
 31
0.0
  0
LINE
  5
8F64
  8
0
  6
CONTINUOUS
 62
     0
 10
587.04227843793922
 20
810.31507738611344
 30
0.0
 11
583.04224843793963
 21
810.31507738611344
 31
0.0
  0
LINE
  5
8F65
  8
0
  6
CONTINUOUS
 62
     0
 10
600.04224843793963
 20
822.81507738611344
 30
0.0
 11
645.04224843793963
 21
822.81507738611344
 31
0.0
  0
LINE
  5
8F66
  8
0
  6
CONTINUOUS
 62
     0
 10
600.04224843793963
 20
832.81507738611344
 30
0.0
 11
645.04224843793963
 21
832.81507738611344
 31
0.0
  0
LINE
  5
8F67
  8
0
  6
CONTINUOUS
 62
     0
 10
572.1469584379397
 20
892.91706738611344
 30
0.0
 11
562.28507843793955
 21
893.17530738611345
 31
0.0
  0
LINE
  5
8F68
  8
0
  6
CONTINUOUS
 62
     0
 10
572.1469884379394
 20
762.71305738611329
 30
0.0
 11
562.28510843793924
 21
762.4548173861134
 31
0.0
  0
LINE
  5
8F69
  8
0
  6
CONTINUOUS
 62
     0
 10
555.0422784379391
 20
758.60834738611391
 30
0.0
 11
555.0422784379391
 21
897.02179738611369
 31
0.0
  0
LINE
  5
8F6A
  8
0
  6
CONTINUOUS
 62
     0
 10
535.04224843793963
 20
723.15964738611342
 30
0.0
 11
535.04224843793963
 21
738.6014773861134
 31
0.0
  0
LINE
  5
8F6B
  8
0
  6
CONTINUOUS
 62
     0
 10
547.25165843793957
 20
905.01905738611345
 30
0.0
 11
546.72812843793963
 21
905.03278738611334
 31
0.0
  0
LINE
  5
8F6C
  8
0
  6
CONTINUOUS
 62
     0
 10
547.25168843793961
 20
750.61106738611375
 30
0.0
 11
546.72812843793963
 21
750.59735738611323
 31
0.0
  0
LINE
  5
8F6D
  8
0
  6
CONTINUOUS
 62
     0
 10
535.04224843793963
 20
917.02869738611355
 30
0.0
 11
535.04224843793963
 21
932.47052738611364
 31
0.0
  0
LINE
  5
8F6E
  8
0
  6
CONTINUOUS
 62
     0
 10
470.04224843793958
 20
728.31507738611344
 30
0.0
 11
474.04224843793958
 21
728.31507738611344
 31
0.0
  0
LINE
  5
8F6F
  8
0
  6
CONTINUOUS
 62
     0
 10
470.04224843793958
 20
927.31507738611356
 30
0.0
 11
474.04224843793958
 21
927.31507738611356
 31
0.0
  0
LINE
  5
8F70
  8
0
  6
CONTINUOUS
 62
     0
 10
474.04224843793958
 20
927.31507738611356
 30
0.0
 11
474.04224843793958
 21
937.18354738611345
 31
0.0
  0
LINE
  5
8F71
  8
0
  6
CONTINUOUS
 62
     0
 10
461.30372843793941
 20
720.12745738611341
 30
0.0
 11
469.69367843793952
 21
719.3934173861137
 31
0.0
  0
LINE
  5
8F72
  8
0
  6
CONTINUOUS
 62
     0
 10
474.04224843793958
 20
728.31507738611344
 30
0.0
 11
474.04224843793958
 21
718.44660738611344
 31
0.0
  0
LINE
  5
8F73
  8
0
  6
CONTINUOUS
 62
     0
 10
462.93757843793918
 20
728.56318738611344
 30
0.0
 11
470.0421884379395
 21
728.31507738611344
 31
0.0
  0
LINE
  5
8F74
  8
0
  6
CONTINUOUS
 62
     0
 10
470.04224843793958
 20
733.02488738611373
 30
0.0
 11
460.04224843793958
 21
733.02488738611373
 31
0.0
  0
LINE
  5
8F75
  8
0
  6
CONTINUOUS
 62
     0
 10
470.04224843793958
 20
750.39826738611373
 30
0.0
 11
460.04224843793958
 21
750.39826738611373
 31
0.0
  0
LINE
  5
8F76
  8
0
  6
CONTINUOUS
 62
     0
 10
470.04224843793958
 20
797.53864738611344
 30
0.0
 11
460.04224843793958
 21
797.53864738611344
 31
0.0
  0
LINE
  5
8F77
  8
0
  6
CONTINUOUS
 62
     0
 10
470.04224843793958
 20
858.09150738611345
 30
0.0
 11
460.04224843793958
 21
858.09150738611345
 31
0.0
  0
LINE
  5
8F78
  8
0
  6
CONTINUOUS
 62
     0
 10
470.04224843793958
 20
905.2318873861135
 30
0.0
 11
460.04224843793958
 21
905.2318873861135
 31
0.0
  0
LINE
  5
8F79
  8
0
  6
CONTINUOUS
 62
     0
 10
460.04224843793958
 20
731.56134738611343
 30
0.0
 11
460.04224843793958
 21
815.78981738611378
 31
0.0
  0
LINE
  5
8F7A
  8
0
  6
CONTINUOUS
 62
     0
 10
462.93751843793962
 20
927.06696738611333
 30
0.0
 11
470.0421884379395
 21
927.31507738611356
 31
0.0
  0
LINE
  5
8F7B
  8
0
  6
CONTINUOUS
 62
     0
 10
470.04224843793958
 20
922.60523738611346
 30
0.0
 11
460.04224843793958
 21
922.60523738611346
 31
0.0
  0
LINE
  5
8F7C
  8
0
  6
CONTINUOUS
 62
     0
 10
440.04224843793958
 20
744.3151073861136
 30
0.0
 11
440.04224843793958
 21
911.31507738611356
 31
0.0
  0
LINE
  5
8F7D
  8
0
  6
CONTINUOUS
 62
     0
 10
440.04218843793961
 20
911.31501738611382
 30
0.0
 11
455.2167484379396
 21
911.84491738611348
 31
0.0
  0
LINE
  5
8F7F
  8
0
  6
CENTER
 62
     0
 10
458.04224843793958
 20
837.17481738611355
 30
0.0
 11
458.04224843793958
 21
818.45533738611346
 31
0.0
  0
LINE
  5
8F84
  8
0
  6
AM_ISO08W050
 62
     0
 10
133.82432396960121
 20
827.81507738611378
 30
0.0
 11
656.42176843793959
 21
827.81507738611378
 31
0.0
  0
LINE
  5
8F85
  8
0
  6
CONTINUOUS
 62
     0
 10
422.04224843793901
 20
734.81509238611363
 30
0.0
 11
422.04224843793958
 21
721.20478738611359
 31
0.0
  0
LINE
  5
8F86
  8
0
  6
CONTINUOUS
 62
     0
 10
440.04224843793958
 20
744.3151073861136
 30
0.0
 11
455.2167484379396
 21
743.7851973861134
 31
0.0
  0
LINE
  5
8F87
  8
0
  6
CONTINUOUS
 62
     0
 10
460.04224843793958
 20
839.70631738611394
 30
0.0
 11
460.04224843793958
 21
924.0687973861136
 31
0.0
  0
LINE
  5
8F88
  8
0
  6
CONTINUOUS
 62
     0
 10
444.89222843793959
 20
824.59803738611379
 30
0.0
 11
471.19221843793952
 21
824.59803738611379
 31
0.0
  0
LINE
  5
8F89
  8
0
  6
CONTINUOUS
 62
     0
 10
444.89222843793959
 20
830.89808738611384
 30
0.0
 11
471.19221843793952
 21
830.89808738611384
 31
0.0
  0
ARC
  5
8F8B
  8
0
  6
CONTINUOUS
 62
     0
 10
579.04227843793922
 20
935.21576738611395
 30
0.0
 40
4.0
 50
0.0
 51
87.999999999996248
  0
ARC
  5
8F8C
  8
0
  6
CONTINUOUS
 62
     0
 10
440.04224843793958
 20
922.81507738611356
 30
0.0
 40
7.5
 50
270.0
 51
158.7517295802453
  0
CIRCLE
  5
8F8D
  8
0
  6
CONTINUOUS
 62
     0
 10
565.04227843793944
 20
922.81507738611356
 30
0.0
 40
7.5
  0
ARC
  5
8F8E
  8
0
  6
CONTINUOUS
 62
     0
 10
426.04224843793958
 20
934.42536738611352
 30
0.0
 40
4.0
 50
95.00000199999208
 51
180.00001000000091
  0
ARC
  5
8F8F
  8
0
  6
CONTINUOUS
 62
     0
 10
580.04227843793899
 20
888.87781738611375
 30
0.0
 40
4.0
 50
97.180757999994384
 51
180.00001000000091
  0
ARC
  5
8F90
  8
0
  6
CONTINUOUS
 62
     0
 10
579.04227843793922
 20
896.81507738611344
 30
0.0
 40
4.0
 50
277.18075000000363
 51
0.0
  0
ARC
  5
8F91
  8
0
  6
CONTINUOUS
 62
     0
 10
461.04224843793958
 20
938.49128738611364
 30
0.0
 40
3.0
 50
95.00000199999208
 51
275.0
  0
ARC
  5
8F92
  8
0
  6
CONTINUOUS
 62
     0
 10
470.04224843793958
 20
932.25196738611385
 30
0.0
 40
4.0
 50
0.0
 51
95.00000199999208
  0
ARC
  5
8F93
  8
0
  6
CONTINUOUS
 62
     0
 10
579.04227843793922
 20
758.81507738611344
 30
0.0
 40
4.0
 50
0.0
 51
82.819247000009895
  0
ARC
  5
8F94
  8
0
  6
CONTINUOUS
 62
     0
 10
580.04227843793899
 20
766.75232738611362
 30
0.0
 40
4.0
 50
180.00001000000091
 51
262.81924999999637
  0
CIRCLE
  5
8F95
  8
0
  6
CONTINUOUS
 62
     0
 10
565.04227843793944
 20
732.81507738611344
 30
0.0
 40
7.5
  0
ARC
  5
8F96
  8
0
  6
CONTINUOUS
 62
     0
 10
440.04224843793958
 20
732.81507738611344
 30
0.0
 40
7.5
 50
164.3036486054925
 51
134.945934779586
  0
ARC
  5
8F97
  8
0
  6
CONTINUOUS
 62
     0
 10
579.04227843793922
 20
720.4143473861136
 30
0.0
 40
4.0
 50
272.00000000000369
 51
0.0
  0
ARC
  5
8F98
  8
0
  6
CONTINUOUS
 62
     0
 10
580.04224843793963
 20
800.5471273861134
 30
0.0
 40
3.0
 50
300.0000099999919
 51
0.0
  0
ARC
  5
8F99
  8
0
  6
CONTINUOUS
 62
     0
 10
580.04224843793963
 20
855.08301738611362
 30
0.0
 40
3.0
 50
0.0
 51
60.000001999986743
  0
ARC
  5
8F9A
  8
0
  6
CONTINUOUS
 62
     0
 10
579.04227843793922
 20
862.58857738611346
 30
0.0
 40
3.0
 50
179.999989999999
 51
240.00000999999091
  0
ARC
  5
8F9B
  8
0
  6
CONTINUOUS
 62
     0
 10
579.04227843793922
 20
793.04157738611343
 30
0.0
 40
3.0
 50
120.0000000000005
 51
180.00001000000091
  0
ARC
  5
8F9C
  8
0
  6
CONTINUOUS
 62
     0
 10
600.04224843793963
 20
827.81507738611378
 30
0.0
 40
4.9999924
 50
90.000002999984659
 51
270.0
  0
ARC
  5
8F9D
  8
0
  6
CONTINUOUS
 62
     0
 10
572.04227843793944
 20
766.7117073861134
 30
0.0
 40
4.0
 50
271.4999999999896
 51
0.0
  0
ARC
  5
8F9E
  8
0
  6
CONTINUOUS
 62
     0
 10
572.04227843793944
 20
888.91846738611343
 30
0.0
 40
4.0
 50
0.0
 51
88.499996999987587
  0
ARC
  5
8F9F
  8
0
  6
CONTINUOUS
 62
     0
 10
547.04227843793967
 20
897.02179738611369
 30
0.0
 40
8.0
 50
0.0
 51
88.499996999987587
  0
ARC
  5
8FA0
  8
0
  6
CONTINUOUS
 62
     0
 10
547.04227843793967
 20
758.60834738611391
 30
0.0
 40
8.0
 50
271.4999999999896
 51
0.0
  0
ARC
  5
8FA1
  8
0
  6
CONTINUOUS
 62
     0
 10
562.49448843793925
 20
754.45758738611369
 30
0.0
 40
8.0
 50
91.500000999988515
 51
164.96420000000299
  0
ARC
  5
8FA2
  8
0
  6
CONTINUOUS
 62
     0
 10
562.49448843793925
 20
901.17255738611357
 30
0.0
 40
8.0
 50
195.0357999999969
 51
268.50000000001029
  0
ARC
  5
8FA3
  8
0
  6
CONTINUOUS
 62
     0
 10
547.04224843793963
 20
917.02869738611355
 30
0.0
 40
12.0
 50
180.00001000000091
 51
268.50000000001029
  0
ARC
  5
8FA4
  8
0
  6
CONTINUOUS
 62
     0
 10
547.04224843793963
 20
738.6014773861134
 30
0.0
 40
12.0
 50
91.500000999988515
 51
180.00001000000091
  0
ARC
  5
8FA5
  8
0
  6
CONTINUOUS
 62
     0
 10
543.04224843793963
 20
932.47052738611364
 30
0.0
 40
8.0
 50
87.999999999996248
 51
180.00001000000091
  0
ARC
  5
8FA6
  8
0
  6
CONTINUOUS
 62
     0
 10
543.04224843793963
 20
723.15964738611342
 30
0.0
 40
8.0
 50
180.00001000000091
 51
271.99999000000798
  0
ARC
  5
8FA7
  8
0
  6
CONTINUOUS
 62
     0
 10
470.04224843793958
 20
723.37818738611327
 30
0.0
 40
4.0
 50
265.00000999998741
 51
0.0000006832429909
  0
ARC
  5
8FA8
  8
0
  6
CONTINUOUS
 62
     0
 10
461.04224843793958
 20
717.13886738611359
 30
0.0
 40
3.0
 50
85.000003999984685
 51
264.99999999999989
  0
ARC
  5
8FA9
  8
0
  6
CONTINUOUS
 62
     0
 10
469.04224843793958
 20
937.18354738611345
 30
0.0
 40
5.0
 50
0.0
 51
95.00000199999208
  0
ARC
  5
8FAA
  8
0
  6
CONTINUOUS
 62
     0
 10
469.04224843793958
 20
718.44660738611344
 30
0.0
 40
5.0
 50
265.00000999998741
 51
0.0000006832429909
  0
ARC
  5
8FAB
  8
0
  6
CONTINUOUS
 62
     0
 10
463.04224843793958
 20
731.56134738611343
 30
0.0
 40
3.0
 50
180.00001000000091
 51
267.99999999999608
  0
ARC
  5
8FAC
  8
0
  6
CONTINUOUS
 62
     0
 10
463.04224843793958
 20
924.0687973861136
 30
0.0
 40
3.0
 50
91.999997999994051
 51
180.00001000000091
  0
ARC
  5
8FAD
  8
0
  6
CONTINUOUS
 62
     0
 10
455.04224843793958
 20
916.84192738611341
 30
0.0
 40
5.0
 50
272.00000000000369
 51
0.0
  0
ARC
  5
8FB0
  8
0
  6
CONTINUOUS
 62
     0
 10
457.04224843793958
 20
839.70631738611394
 30
0.0
 40
3.0
 50
274.78019999998969
 51
0.0
  0
ARC
  5
8FB1
  8
0
  6
CONTINUOUS
 62
     0
 10
457.04224843793958
 20
815.78981738611378
 30
0.0
 40
3.0
 50
0.0
 51
85.219806000005079
  0
ARC
  5
8FB2
  8
0
  6
CONTINUOUS
 62
     0
 10
458.04224843793958
 20
827.74806738611392
 30
0.0
 40
9.0
 50
94.780192000005314
 51
159.51269999999991
  0
ARC
  5
8FB3
  8
0
  6
CONTINUOUS
 62
     0
 10
426.04224843793958
 20
721.20478738611359
 30
0.0
 40
4.0
 50
179.999989999999
 51
264.99999999999989
  0
ARC
  5
8FB4
  8
0
  6
CONTINUOUS
 62
     0
 10
455.04224843793958
 20
738.78821738611373
 30
0.0
 40
5.0
 50
0.0
 51
87.999999999996248
  0
ARC
  5
8FB5
  8
0
  6
CONTINUOUS
 62
     0
 10
458.04224843793958
 20
827.74806738611392
 30
0.0
 40
8.0
 50
23.188019000004498
 51
156.811979999995
  0
ARC
  5
8FB6
  8
0
  6
CONTINUOUS
 62
     0
 10
444.89222843793959
 20
827.74806738611392
 30
0.0
 40
3.1499977000000001
 50
90.000002999984659
 51
270.0
  0
ARC
  5
8FB7
  8
0
  6
CONTINUOUS
 62
     0
 10
471.19221843793952
 20
827.74806738611392
 30
0.0
 40
3.1499977000000001
 50
270.0
 51
90.000002999984659
  0
ARC
  5
8FB9
  8
0
  6
CONTINUOUS
 62
     0
 10
458.04224843793958
 20
827.74806738611392
 30
0.0
 40
8.0
 50
203.188020000005
 51
336.81196999999543
  0
ARC
  5
8FBA
  8
0
  6
CONTINUOUS
 62
     0
 10
458.04224843793958
 20
827.74806738611392
 30
0.0
 40
9.0
 50
200.48730000000009
 51
265.2198000000102
  0
ARC
  5
8FBB
  8
0
  6
CONTINUOUS
 62
     0
 10
440.04224843793958
 20
922.81507738611356
 30
0.0
 40
7.5
 50
224.4362929550725
 51
270.0
  0
POLYLINE
  5
8FBC
  8
0
  6
CONTINUOUS
 62
     0
 66
     1
 10
0.0
 20
0.0
 30
0.0
  0
VERTEX
  5
8FBD
  8
0
  6
CONTINUOUS
 62
     0
 10
470.04224843793958
 20
797.53864738611344
 30
0.0
 42
-0.07005559
  0
VERTEX
  5
8FBE
  8
0
  6
CONTINUOUS
 62
     0
 10
496.40290843793991
 20
777.34130738611373
 30
0.0
 42
-0.27110578
  0
VERTEX
  5
8FBF
  8
0
  6
CONTINUOUS
 62
     0
 10
505.04224843793958
 20
757.45795738611343
 30
0.0
 42
-0.21303172
  0
VERTEX
  5
8FC0
  8
0
  6
CONTINUOUS
 62
     0
 10
485.45180843793969
 20
739.32314738611342
 30
0.0
  0
VERTEX
  5
8FC1
  8
0
  6
CONTINUOUS
 62
     0
 10
470.04224843793958
 20
733.02488738611373
 30
0.0
 42
-1.0
  0
SEQEND
  5
8FC2
  8
0
 62
     0
  0
POLYLINE
  5
8FC3
  8
0
  6
CONTINUOUS
 62
     0
 66
     1
 10
0.0
 20
0.0
 30
0.0
  0
VERTEX
  5
8FC4
  8
0
  6
CONTINUOUS
 62
     0
 10
470.04224843793958
 20
750.39826738611373
 30
0.0
 42
0.040443759
  0
VERTEX
  5
8FC5
  8
0
  6
CONTINUOUS
 62
     0
 10
481.57042843793943
 20
750.62163738611343
 30
0.0
 42
0.042469384
  0
VERTEX
  5
8FC6
  8
0
  6
CONTINUOUS
 62
     0
 10
492.90411843793981
 20
752.73514738611391
 30
0.0
 42
0.022671411
  0
VERTEX
  5
8FC7
  8
0
  6
CONTINUOUS
 62
     0
 10
498.38860843793952
 20
754.52608738611355
 30
0.0
  0
VERTEX
  5
8FC8
  8
0
  6
CONTINUOUS
 62
     0
 10
503.6942284379391
 20
756.79492738611361
 30
0.0
 42
-1.0
  0
SEQEND
  5
8FC9
  8
0
 62
     0
  0
POLYLINE
  5
8FCA
  8
0
  6
CONTINUOUS
 62
     0
 66
     1
 10
0.0
 20
0.0
 30
0.0
  0
VERTEX
  5
8FCB
  8
0
  6
CONTINUOUS
 62
     0
 10
470.04224843793958
 20
905.2318873861135
 30
0.0
 42
-0.040443759
  0
VERTEX
  5
8FCC
  8
0
  6
CONTINUOUS
 62
     0
 10
481.57042843793943
 20
905.00851738611357
 30
0.0
 42
-0.042469384
  0
VERTEX
  5
8FCD
  8
0
  6
CONTINUOUS
 62
     0
 10
492.90411843793981
 20
902.89499738611357
 30
0.0
 42
-0.022671411
  0
VERTEX
  5
8FCE
  8
0
  6
CONTINUOUS
 62
     0
 10
498.38860843793952
 20
901.10405738611348
 30
0.0
  0
VERTEX
  5
8FCF
  8
0
  6
CONTINUOUS
 62
     0
 10
503.6942284379391
 20
898.83522738611373
 30
0.0
 42
-1.0
  0
SEQEND
  5
8FD0
  8
0
 62
     0
  0
POLYLINE
  5
8FD1
  8
0
  6
CONTINUOUS
 62
     0
 66
     1
 10
0.0
 20
0.0
 30
0.0
  0
VERTEX
  5
8FD2
  8
0
  6
CONTINUOUS
 62
     0
 10
470.04224843793958
 20
858.09150738611345
 30
0.0
 42
0.070055609
  0
VERTEX
  5
8FD3
  8
0
  6
CONTINUOUS
 62
     0
 10
496.40290843793991
 20
878.28884738611362
 30
0.0
 42
0.27110581
  0
VERTEX
  5
8FD4
  8
0
  6
CONTINUOUS
 62
     0
 10
505.04224843793958
 20
898.17218738611359
 30
0.0
 42
0.21303143
  0
VERTEX
  5
8FD5
  8
0
  6
CONTINUOUS
 62
     0
 10
485.45180843793969
 20
916.30702738611342
 30
0.0
  0
VERTEX
  5
8FD6
  8
0
  6
CONTINUOUS
 62
     0
 10
470.04224843793958
 20
922.60529738611342
 30
0.0
 42
-1.0
  0
SEQEND
  5
8FD7
  8
0
 62
     0
  0
LINE
  5
8FD8
  8
0
 62
     0
 10
370.54218743793939
 20
722.81509238611363
 30
0.0
 11
370.54218743793939
 21
725.81509238611363
 31
0.0
  0
LINE
  5
8FD9
  8
0
 62
     0
 10
295.54218743793939
 20
722.81509238611363
 30
0.0
 11
295.54218743793939
 21
725.81509238611363
 31
0.0
  0
LINE
  5
8FDA
  8
0
 62
     0
 10
370.02618743793943
 20
667.35501238611357
 30
0.0
 11
296.05914743793983
 21
667.35501238611357
 31
0.0
  0
LINE
  5
8FDB
  8
0
 62
     0
 10
370.19208743793922
 20
714.62710238611362
 30
0.0
 11
295.65216743793962
 21
714.62710238611362
 31
0.0
  0
LINE
  5
8FDC
  8
0
 62
     0
 10
371.58710743793972
 20
717.59610238611344
 30
0.0
 11
294.59711743793969
 21
717.59610238611344
 31
0.0
  0
LINE
  5
8FDD
  8
0
 62
     0
 10
371.37811743793958
 20
722.05704238611327
 30
0.0
 11
294.68012743793952
 21
722.05704238611327
 31
0.0
  0
LINE
  5
8FDE
  8
0
 62
     0
 10
370.79218743793939
 20
722.81509238611363
 30
0.0
 11
295.27749043793938
 21
722.81509238611363
 31
0.0
  0
LINE
  5
8FDF
  8
0
 62
     0
 10
295.6721874379395
 20
683.2571123861137
 30
0.0
 11
370.65216743793962
 21
683.2571123861137
 31
0.0
  0
ARC
  5
8FE0
  8
0
 62
     0
 10
-222.05784256206039
 20
693.23001238611357
 30
0.0
 40
600.59997999999962
 50
357.906620000001
 51
2.521403000004645
  0
ARC
  5
8FE1
  8
0
 62
     0
 10
370.02618743793943
 20
670.95511238611323
 30
0.0
 40
3.6000000000000001
 50
269.99995999999589
 51
355.68894999999969
  0
ARC
  5
8FE2
  8
0
 62
     0
 10
-222.05784256206039
 20
693.23001238611357
 30
0.0
 40
596.09997999999962
 50
357.83251999999987
 51
1.945678999999225
  0
ARC
  5
8FE3
  8
0
 62
     0
 10
370.79218743793939
 20
719.21512238611342
 30
0.0
 40
3.6000000000000001
 50
53.340590999992578
 51
89.999989000004106
  0
ARC
  5
8FE4
  8
0
 62
     0
 10
372.39716743793952
 20
710.15311238611355
 30
0.0
 40
7.4984399999999978
 50
40.106594000003412
 51
96.966986999996834
  0
ARC
  5
8FE5
  8
0
 62
     0
 10
372.39716743793952
 20
714.62405238611359
 30
0.0
 40
7.4984399999999978
 50
42.0993939999925
 51
96.966986999996834
  0
ARC
  5
8FE6
  8
0
 62
     0
 10
370.98907743793961
 20
710.92508238611356
 30
0.0
 40
3.7436899999999982
 50
43.77279399999189
 51
98.860984000010404
  0
ARC
  5
8FE7
  8
0
 62
     0
 10
370.98907743793961
 20
679.55801238611355
 30
0.0
 40
3.7436899999999982
 50
43.77279399999189
 51
98.860984000010404
  0
ARC
  5
8FE8
  8
0
 62
     0
 10
373.4801674379396
 20
674.64603238611357
 30
0.0
 40
5.7431099999999971
 50
265.1789600000053
 51
324.25095000001107
  0
ARC
  5
8FE9
  8
0
 62
     0
 10
888.14212743793951
 20
693.23001238611357
 30
0.0
 40
600.59997999999962
 50
177.4789699999962
 51
182.09294999999941
  0
ARC
  5
8FEA
  8
0
 62
     0
 10
296.05914743793983
 20
670.95511238611323
 30
0.0
 40
3.6000000000000001
 50
184.31098
 51
269.99995999999589
  0
ARC
  5
8FEB
  8
0
 62
     0
 10
888.14212743793951
 20
693.23001238611357
 30
0.0
 40
596.09997999999962
 50
178.0539699999992
 51
182.16695000000161
  0
ARC
  5
8FEC
  8
0
 62
     0
 10
295.2921874379395
 20
719.21512238611342
 30
0.0
 40
3.6000000000000001
 50
89.999989000004106
 51
126.658990000006
  0
ARC
  5
8FED
  8
0
 62
     0
 10
293.68720743793978
 20
710.15311238611355
 30
0.0
 40
7.4984399999999978
 50
83.032990999994595
 51
139.89297999998959
  0
ARC
  5
8FEE
  8
0
 62
     0
 10
293.68720743793978
 20
714.62405238611359
 30
0.0
 40
7.4984399999999978
 50
83.032990999994595
 51
137.90099000001391
  0
ARC
  5
8FEF
  8
0
 62
     0
 10
295.09515743793958
 20
710.92508238611356
 30
0.0
 40
3.7436899999999982
 50
81.138986000010405
 51
136.22697999999471
  0
ARC
  5
8FF0
  8
0
 62
     0
 10
295.09515743793958
 20
679.55801238611355
 30
0.0
 40
3.7436899999999982
 50
81.138986000010405
 51
136.22697999999471
  0
ARC
  5
8FF1
  8
0
 62
     0
 10
292.60419743793972
 20
674.64603238611357
 30
0.0
 40
5.7431099999999971
 50
215.74896999999439
 51
274.82095999999279
  0
LINE
  5
8FF2
  8
0
 62
     0
 10
295.54218743793939
 20
725.81509238611363
 30
0.0
 11
370.54218743793939
 21
725.81509238611363
 31
0.0
  0
ARC
  5
8FF3
  8
0
 62
     0
 10
161.94224843793961
 20
742.3177183861136
 30
0.0
 40
2.399999999999999
 50
180.0
 51
199.9999999999975
  0
ARC
  5
8FF4
  8
0
 62
     0
 10
166.53671243793951
 20
729.69453338611345
 30
0.0
 40
2.399999999999999
 50
199.9999999999975
 51
270.0
  0
LINE
  5
8FF5
  8
0
 62
     0
 10
164.2814494379395
 20
728.87368538611361
 30
0.0
 11
159.68698643793959
 21
741.49687038611341
 31
0.0
  0
LINE
  5
8FF6
  8
0
 62
     0
 10
232.54224843793961
 20
727.29453338611359
 30
0.0
 11
166.53671243793951
 21
727.29453338611359
 31
0.0
  0
LINE
  5
8FF7
  8
0
 62
     0
 10
232.54224843793961
 20
928.33565138611357
 30
0.0
 11
232.54224843793961
 21
727.29453338611359
 31
0.0
  0
LINE
  5
8FF8
  8
0
 62
     0
 10
164.2814494379395
 20
926.75649938611355
 30
0.0
 11
159.68698643793959
 21
914.13331438611351
 31
0.0
  0
ARC
  5
8FF9
  8
0
 62
     0
 10
166.53671243793951
 20
925.93565138611348
 30
0.0
 40
2.399999999999999
 50
90.0
 51
160.00000000000239
  0
ARC
  5
8FFA
  8
0
 62
     0
 10
161.94224843793961
 20
913.31246638611356
 30
0.0
 40
2.399999999999999
 50
160.00000000000239
 51
180.0
  0
LINE
  5
8FFB
  8
0
 62
     0
 10
164.85621343793991
 20
927.64910538611355
 30
0.0
 11
164.85621343793991
 21
727.29453338611359
 31
0.0
  0
LINE
  5
8FFC
  8
0
 62
     0
 10
159.54224843793961
 20
913.31246638611356
 30
0.0
 11
159.54224843793961
 21
742.53565138611361
 31
0.0
  0
LINE
  5
8FFD
  8
0
 62
     0
 10
232.54224843793961
 20
928.33565138611357
 30
0.0
 11
166.53671243793951
 21
928.33565138611357
 31
0.0
  0
ARC
  5
8FFE
  8
0
 62
     0
 10
240.98589243793961
 20
745.41441238611344
 30
0.0
 40
2.0
 50
189.99999999999861
 51
270.0
  0
LINE
  5
8FFF
  8
0
 62
     0
 10
239.01627743793961
 20
745.06711638611364
 30
0.0
 11
236.04224843793961
 21
761.93367038611359
 31
0.0
  0
LINE
  5
9000
  8
0
 62
     0
 10
236.04224843793961
 20
761.93367038611359
 30
0.0
 11
237.1039874379394
 21
761.93367038611359
 31
0.0
  0
LINE
  5
9001
  8
0
 62
     0
 10
434.5063894379395
 20
913.98739938611345
 30
0.0
 11
435.04224843793958
 21
913.98739938611345
 31
0.0
  0
LINE
  5
9002
  8
0
 62
     0
 10
434.76678043793981
 20
915.54965638611361
 30
0.0
 11
435.04224843793958
 21
915.54965638611361
 31
0.0
  0
LINE
  5
9003
  8
0
 62
     0
 10
436.72044743793958
 20
739.81524338611348
 30
0.0
 11
437.04224843793958
 21
739.81524338611348
 31
0.0
  0
LINE
  5
9004
  8
0
 62
     0
 10
432.86285343793952
 20
744.66310638611344
 30
0.0
 11
435.04224843793958
 21
744.66310638611344
 31
0.0
  0
LINE
  5
9005
  8
0
 62
     0
 10
433.86893643793968
 20
756.76867638611361
 30
0.0
 11
435.04224843793958
 21
756.76867638611361
 31
0.0
  0
LINE
  5
9006
  8
0
  6
AM_ISO08W050
 62
     0
 10
333.04224843793969
 20
720.1591273861136
 30
0.0
 11
333.04224843793969
 21
729.34084338611342
 31
0.0
  0
ARC
  5
9007
  8
0
 62
     0
 10
431.28512843793942
 20
916.8233403861135
 30
0.0
 40
2.0
 50
9.9999999999986073
 51
90.0
  0
ARC
  5
9008
  8
0
 62
     0
 10
431.35114543793952
 20
920.36413938611361
 30
0.0
 40
2.0
 50
9.9999999999986073
 51
90.0
  0
ARC
  5
9009
  8
0
 62
     0
 10
431.43706343793968
 20
922.91587638611361
 30
0.0
 40
2.0
 50
9.9999999999986073
 51
90.0
  0
ARC
  5
900A
  8
0
 62
     0
 10
431.46581243793918
 20
924.31509238611363
 30
0.0
 40
2.0
 50
9.9999999999986073
 51
90.0
  0
LINE
  5
900B
  8
0
 62
     0
 10
440.04225143793963
 20
912.81509238611363
 30
0.0
 11
437.04225143793968
 21
915.81509238611363
 31
0.0
  0
LINE
  5
900C
  8
0
 62
     0
 10
434.9954444379394
 20
915.81509238611363
 30
0.0
 11
437.04224843793958
 21
915.81509238611363
 31
0.0
  0
LINE
  5
900D
  8
0
 62
     0
 10
440.04224843793958
 20
742.81509238611363
 30
0.0
 11
437.04224843793958
 21
739.81509238611363
 31
0.0
  0
LINE
  5
900E
  8
0
 62
     0
 10
437.04224843793958
 20
739.81509238611363
 30
0.0
 11
437.04224843793958
 21
765.43547838611323
 31
0.0
  0
LINE
  5
900F
  8
0
 62
     0
 10
440.04224843793958
 20
742.81509238611363
 30
0.0
 11
440.04224843793958
 21
912.81509238611363
 31
0.0
  0
CIRCLE
  5
9010
  8
0
 62
     0
 10
333.04224843793969
 20
827.81509238611375
 30
0.0
 40
11.0
  0
LINE
  5
9011
  8
0
 62
     0
 10
240.32836843793939
 20
926.31509238611363
 30
0.0
 11
292.04224843793958
 21
926.31509238611363
 31
0.0
  0
LINE
  5
9012
  8
0
 62
     0
 10
372.04224843793958
 20
918.82334038611361
 30
0.0
 11
372.04224843793958
 21
924.31509238611363
 31
0.0
  0
LINE
  5
9013
  8
0
 62
     0
 10
294.04224843793958
 20
918.82334038611361
 30
0.0
 11
294.04224843793958
 21
924.31509238611363
 31
0.0
  0
ARC
  5
9014
  8
0
 62
     0
 10
292.04224843793958
 20
924.31509238611363
 30
0.0
 40
2.0
 50
0.0
 51
90.0
  0
ARC
  5
9015
  8
0
 62
     0
 10
374.04224843793958
 20
924.31509238611363
 30
0.0
 40
2.0
 50
90.0
 51
180.0
  0
LINE
  5
9016
  8
0
 62
     0
 10
374.04224843793958
 20
926.31509238611363
 30
0.0
 11
431.46581243793918
 21
926.31509238611363
 31
0.0
  0
LINE
  5
9017
  8
0
 62
     0
 10
431.43706343793968
 20
924.9158763861135
 30
0.0
 11
374.04224843793958
 21
924.9158763861135
 31
0.0
  0
LINE
  5
9018
  8
0
 62
     0
 10
435.04224843793958
 20
913.98739938611345
 30
0.0
 11
433.4066794379396
 21
923.26317238611352
 31
0.0
  0
LINE
  5
9019
  8
0
 62
     0
 10
435.04224843793958
 20
915.54965638611361
 30
0.0
 11
433.4354274379395
 21
924.66238838611343
 31
0.0
  0
LINE
  5
901A
  8
0
 62
     0
 10
236.04224843793961
 20
911.52483838611363
 30
0.0
 11
238.35875343793941
 21
924.66238838611343
 31
0.0
  0
ARC
  5
901B
  8
0
 62
     0
 10
240.32836843793939
 20
924.31509238611363
 30
0.0
 40
2.0
 50
90.0
 51
170.00000000000139
  0
LINE
  5
901C
  8
0
 62
     0
 10
236.04224843793961
 20
909.86577738611356
 30
0.0
 11
238.40457043793961
 21
923.26317238611352
 31
0.0
  0
ARC
  5
901D
  8
0
 62
     0
 10
240.3741864379399
 20
922.91587638611361
 30
0.0
 40
2.0
 50
90.0
 51
170.00000000000139
  0
ARC
  5
901E
  8
0
 62
     0
 10
292.04224843793958
 20
922.91587638611361
 30
0.0
 40
2.0
 50
0.0
 51
90.0
  0
ARC
  5
901F
  8
0
 62
     0
 10
374.04224843793958
 20
922.91587638611361
 30
0.0
 40
2.0
 50
90.0
 51
180.0
  0
LINE
  5
9020
  8
0
 62
     0
 10
292.04224843793958
 20
924.9158763861135
 30
0.0
 11
240.3741864379399
 21
924.9158763861135
 31
0.0
  0
LINE
  5
9021
  8
0
 62
     0
 10
431.35114543793952
 20
922.36413938611361
 30
0.0
 11
374.04224843793958
 21
922.36413938611361
 31
0.0
  0
LINE
  5
9022
  8
0
 62
     0
 10
434.91346843793963
 20
911.67874138611364
 30
0.0
 11
433.3207604379395
 21
920.71143638611352
 31
0.0
  0
LINE
  5
9023
  8
0
 62
     0
 10
236.04224843793961
 20
906.64498638611349
 30
0.0
 11
238.5225434379399
 21
920.71143638611352
 31
0.0
  0
ARC
  5
9024
  8
0
 62
     0
 10
240.49215843793939
 20
920.36413938611361
 30
0.0
 40
2.0
 50
90.0
 51
170.00000000000139
  0
ARC
  5
9025
  8
0
 62
     0
 10
292.04224843793958
 20
920.36413938611361
 30
0.0
 40
2.0
 50
0.0
 51
90.0
  0
ARC
  5
9026
  8
0
 62
     0
 10
374.04224843793958
 20
920.36413938611361
 30
0.0
 40
2.0
 50
90.0
 51
180.0
  0
LINE
  5
9027
  8
0
 62
     0
 10
292.04224843793958
 20
922.36413938611361
 30
0.0
 11
240.49215843793939
 21
922.36413938611361
 31
0.0
  0
LINE
  5
9028
  8
0
 62
     0
 10
431.28512843793942
 20
918.82334038611361
 30
0.0
 11
240.6536674379395
 21
918.82334038611361
 31
0.0
  0
LINE
  5
9029
  8
0
 62
     0
 10
434.2231134379399
 20
911.67874138611364
 30
0.0
 11
433.25474443793968
 21
917.17063638611376
 31
0.0
  0
LINE
  5
902A
  8
0
 62
     0
 10
236.04224843793961
 20
902.18822638611346
 30
0.0
 11
238.68405143793959
 21
917.17063638611376
 31
0.0
  0
ARC
  5
902B
  8
0
 62
     0
 10
240.6536674379395
 20
916.8233403861135
 30
0.0
 40
2.0
 50
90.0
 51
170.00000000000139
  0
LINE
  5
902C
  8
0
 62
     0
 10
365.09860443793968
 20
912.21577238611349
 30
0.0
 11
240.98589243793961
 21
912.21577238611349
 31
0.0
  0
LINE
  5
902D
  8
0
 62
     0
 10
370.04224843793958
 20
893.69651438611345
 30
0.0
 11
367.06821943793972
 21
910.56306838611363
 31
0.0
  0
ARC
  5
902E
  8
0
 62
     0
 10
365.09860443793968
 20
910.2157723861136
 30
0.0
 40
2.0
 50
9.9999999999986073
 51
90.0
  0
LINE
  5
902F
  8
0
 62
     0
 10
236.04224843793961
 20
893.69651438611345
 30
0.0
 11
239.01627743793961
 21
910.56306838611363
 31
0.0
  0
ARC
  5
9030
  8
0
 62
     0
 10
240.98589243793961
 20
910.2157723861136
 30
0.0
 40
2.0
 50
90.0
 51
170.00000000000139
  0
LINE
  5
9031
  8
0
 62
     0
 10
364.76834043793951
 20
906.81372838611355
 30
0.0
 11
241.3161564379397
 21
906.81372838611355
 31
0.0
  0
LINE
  5
9032
  8
0
 62
     0
 10
369.82119743793959
 20
887.67509238611365
 30
0.0
 11
366.73795643793977
 21
905.16102538611358
 31
0.0
  0
ARC
  5
9033
  8
0
 62
     0
 10
364.76834043793951
 20
904.81372838611355
 30
0.0
 40
2.0
 50
9.9999999999986073
 51
90.0
  0
LINE
  5
9034
  8
0
 62
     0
 10
236.31924243793949
 20
887.99236038611355
 30
0.0
 11
239.34654043793941
 21
905.16102538611358
 31
0.0
  0
ARC
  5
9035
  8
0
 62
     0
 10
241.3161564379397
 20
904.81372838611355
 30
0.0
 40
2.0
 50
90.0
 51
170.00000000000139
  0
LINE
  5
9036
  8
0
 62
     0
 10
435.04224843793958
 20
832.84524438611345
 30
0.0
 11
435.04224843793958
 21
835.79293638611375
 31
0.0
  0
LINE
  5
9037
  8
0
 62
     0
 10
435.04224843793958
 20
842.84472038611364
 30
0.0
 11
435.04224843793958
 21
845.80619938611358
 31
0.0
  0
LINE
  5
9038
  8
0
 62
     0
 10
435.04224843793958
 20
853.8369003861136
 30
0.0
 11
435.04224843793958
 21
856.82952738611345
 31
0.0
  0
LINE
  5
9039
  8
0
 62
     0
 10
435.04224843793958
 20
864.81969538611361
 30
0.0
 11
435.04224843793958
 21
867.8654013861136
 31
0.0
  0
LINE
  5
903A
  8
0
 62
     0
 10
435.04224843793958
 20
875.78957438611349
 30
0.0
 11
435.04224843793958
 21
878.92048738611345
 31
0.0
  0
LINE
  5
903B
  8
0
 62
     0
 10
435.04224843793958
 20
884.74805038611362
 30
0.0
 11
435.04224843793958
 21
887.99236038611355
 31
0.0
  0
LINE
  5
903C
  8
0
 62
     0
 10
385.04224843793969
 20
902.18822638611346
 30
0.0
 11
368.54493043793991
 21
902.18822638611346
 31
0.0
  0
LINE
  5
903D
  8
0
 62
     0
 10
416.82902543793921
 20
907.03319438611356
 30
0.0
 11
401.04224843793958
 21
907.03319438611356
 31
0.0
  0
LINE
  5
903E
  8
0
 62
     0
 10
385.04224843793969
 20
902.18822638611346
 30
0.0
 11
401.04224843793958
 21
907.03319438611356
 31
0.0
  0
LINE
  5
903F
  8
0
 62
     0
 10
401.04224843793958
 20
907.03319438611356
 30
0.0
 11
401.04224843793958
 21
903.66787938611355
 31
0.0
  0
LINE
  5
9040
  8
0
 62
     0
 10
385.04224843793969
 20
902.18822638611346
 30
0.0
 11
385.04224843793969
 21
887.99236038611355
 31
0.0
  0
LINE
  5
9041
  8
0
 62
     0
 10
420.54224843793958
 20
890.88105438611342
 30
0.0
 11
420.54224843793958
 21
909.67874138611364
 31
0.0
  0
ARC
  5
9042
  8
0
 62
     0
 10
422.54224843793958
 20
909.67874138611364
 30
0.0
 40
2.0
 50
90.0
 51
180.0
  0
LINE
  5
9043
  8
0
 62
     0
 10
420.54224843793958
 20
895.27115238611361
 30
0.0
 11
401.04224843793958
 21
895.27115238611361
 31
0.0
  0
LINE
  5
9044
  8
0
 62
     0
 10
415.14225443793953
 20
903.66787938611355
 30
0.0
 11
401.04224843793958
 21
903.66787938611355
 31
0.0
  0
LINE
  5
9045
  8
0
 62
     0
 10
401.04224843793958
 20
895.27115238611361
 30
0.0
 11
401.04224843793958
 21
887.99236038611355
 31
0.0
  0
LINE
  5
9047
  8
0
 62
     0
 10
440.04224843793958
 20
911.67874138611364
 30
0.0
 11
422.54224843793958
 21
911.67874138611364
 31
0.0
  0
LINE
  5
9048
  8
0
 62
     0
 10
440.04224843793958
 20
889.88105438611342
 30
0.0
 11
419.54224843793958
 21
889.88105438611342
 31
0.0
  0
ARC
  5
9049
  8
0
 62
     0
 10
419.54224843793958
 20
890.88105438611342
 30
0.0
 40
1.0
 50
270.0
 51
0.0
  0
LINE
  5
904A
  8
0
 62
     0
 10
440.04224843793958
 20
903.55473638611363
 30
0.0
 11
422.54224843793958
 21
903.55473638611363
 31
0.0
  0
LINE
  5
904B
  8
0
 62
     0
 10
232.54224843793961
 20
911.81509238611363
 30
0.0
 11
236.04224843793961
 21
911.81509238611363
 31
0.0
  0
ARC
  5
904C
  8
0
 62
     0
 10
436.72044743793958
 20
737.81509238611363
 30
0.0
 40
2.0
 50
90.0
 51
170.00000000000139
  0
ARC
  5
904D
  8
0
 62
     0
 10
372.78489043793991
 20
732.82143538611342
 30
0.0
 40
1.9936590000000001
 50
90.075931000003493
 51
178.17025399999861
  0
LINE
  5
904E
  8
0
 62
     0
 10
372.78224843793942
 20
734.81509238611363
 30
0.0
 11
432.4824144379395
 21
734.81509238611363
 31
0.0
  0
LINE
  5
904F
  8
0
 62
     0
 10
370.54224843793969
 20
725.81509238611363
 30
0.0
 11
371.15827743793938
 21
743.41441238611378
 31
0.0
  0
LINE
  5
9050
  8
0
 62
     0
 10
434.75083243793961
 20
738.16238838611343
 30
0.0
 11
434.4520294379393
 21
736.4677963861136
 31
0.0
  0
ARC
  5
9051
  8
0
 62
     0
 10
432.4824144379395
 20
736.81509238611363
 30
0.0
 40
2.0
 50
270.0
 51
350.00000000000148
  0
LINE
  5
9052
  8
0
 62
     0
 10
236.6195984379396
 20
742.81509238611363
 30
0.0
 11
243.83647743793969
 21
730.31509238611363
 31
0.0
  0
LINE
  5
9053
  8
0
 62
     0
 10
245.56852743793979
 20
729.31509238611363
 30
0.0
 11
293.48721943793947
 21
729.31509238611363
 31
0.0
  0
LINE
  5
9054
  8
0
 62
     0
 10
295.54224843793969
 20
725.81509238611363
 30
0.0
 11
295.48593643793947
 21
727.38670738611347
 31
0.0
  0
ARC
  5
9055
  8
0
 62
     0
 10
234.8875474379397
 20
741.81509238611363
 30
0.0
 40
2.0
 50
29.999999999994898
 51
90.0
  0
ARC
  5
9056
  8
0
 62
     0
 10
245.56852743793979
 20
731.31509238611363
 30
0.0
 40
2.0
 50
209.99999999999491
 51
270.0
  0
ARC
  5
9057
  8
0
 62
     0
 10
293.48721943793947
 20
727.31509238611363
 30
0.0
 40
2.0
 50
2.052064999998533
 51
90.0
  0
LINE
  5
9058
  8
0
 62
     0
 10
295.54224843793969
 20
725.81509238611363
 30
0.0
 11
370.54224843793969
 21
725.81509238611363
 31
0.0
  0
LINE
  5
9059
  8
0
 62
     0
 10
244.56852743793971
 20
729.58304138611345
 30
0.0
 11
244.56852743793971
 21
743.41441238611378
 31
0.0
  0
LINE
  5
905A
  8
0
 62
     0
 10
431.00933243793952
 20
743.41441238611378
 30
0.0
 11
240.98589243793961
 21
743.41441238611378
 31
0.0
  0
LINE
  5
905B
  8
0
 62
     0
 10
430.7885464379396
 20
748.81645638611326
 30
0.0
 11
241.09510543793979
 21
748.81645638611326
 31
0.0
  0
LINE
  5
905C
  8
0
 62
     0
 10
435.04224843793958
 20
763.4228583861136
 30
0.0
 11
401.04224843793958
 21
763.4228583861136
 31
0.0
  0
LINE
  5
905D
  8
0
 62
     0
 10
435.04224843793958
 20
763.4228583861136
 30
0.0
 11
432.75816143793952
 21
750.46915938611323
 31
0.0
  0
ARC
  5
905E
  8
0
 62
     0
 10
430.7885464379396
 20
750.8164563861136
 30
0.0
 40
2.0
 50
270.0
 51
350.00000000000148
  0
LINE
  5
905F
  8
0
 62
     0
 10
435.04224843793958
 20
756.76867638611361
 30
0.0
 11
432.9789474379395
 21
745.06711638611364
 31
0.0
  0
ARC
  5
9060
  8
0
 62
     0
 10
431.00933243793952
 20
745.41441238611344
 30
0.0
 40
2.0
 50
270.0
 51
350.00000000000148
  0
LINE
  5
9061
  8
0
 62
     0
 10
239.78498643793949
 20
743.81509238611363
 30
0.0
 11
232.54224843793961
 21
743.81509238611363
 31
0.0
  0
LINE
  5
9062
  8
0
 62
     0
 10
435.04224843793958
 20
744.66310638611344
 30
0.0
 11
433.59719443793972
 21
736.4677963861136
 31
0.0
  0
ARC
  5
9063
  8
0
 62
     0
 10
431.62757843793952
 20
736.81509238611363
 30
0.0
 40
2.0
 50
270.0
 51
350.00000000000148
  0
LINE
  5
9064
  8
0
 62
     0
 10
370.04224843793958
 20
779.65509238611344
 30
0.0
 11
370.04224843793958
 21
776.95509238611362
 31
0.0
  0
LINE
  5
9065
  8
0
 62
     0
 10
440.04224843793958
 20
765.60545538611325
 30
0.0
 11
422.54224843793958
 21
765.60545538611325
 31
0.0
  0
LINE
  5
9066
  8
0
 62
     0
 10
440.04224843793958
 20
777.91309438611358
 30
0.0
 11
422.54224843793958
 21
777.91309438611358
 31
0.0
  0
LINE
  5
9067
  8
0
 62
     0
 10
440.04224843793958
 20
788.09238638611362
 30
0.0
 11
435.04224843793958
 21
788.09238638611362
 31
0.0
  0
LINE
  5
9068
  8
0
 62
     0
 10
420.54224843793958
 20
787.09238638611362
 30
0.0
 11
420.54224843793958
 21
767.60545538611359
 31
0.0
  0
ARC
  5
9069
  8
0
 62
     0
 10
419.54224843793958
 20
787.09238638611362
 30
0.0
 40
1.0
 50
0.0
 51
42.252324000004279
  0
ARC
  5
906A
  8
0
 62
     0
 10
422.54224843793958
 20
767.60545538611359
 30
0.0
 40
2.0
 50
180.0
 51
270.0
  0
LINE
  5
906B
  8
0
 62
     0
 10
385.04224843793969
 20
884.74805038611362
 30
0.0
 11
385.04224843793969
 21
878.92048738611345
 31
0.0
  0
LINE
  5
906C
  8
0
 62
     0
 10
401.04224843793958
 20
884.74805038611362
 30
0.0
 11
401.04224843793958
 21
878.92048738611345
 31
0.0
  0
LINE
  5
906D
  8
0
 62
     0
 10
385.04224843793969
 20
875.78957438611349
 30
0.0
 11
385.04224843793969
 21
867.8654013861136
 31
0.0
  0
LINE
  5
906E
  8
0
 62
     0
 10
385.04224843793969
 20
864.81969538611361
 30
0.0
 11
385.04224843793969
 21
856.82952738611345
 31
0.0
  0
LINE
  5
906F
  8
0
 62
     0
 10
385.04224843793969
 20
853.8369003861136
 30
0.0
 11
385.04224843793969
 21
845.80619938611358
 31
0.0
  0
LINE
  5
9070
  8
0
 62
     0
 10
385.04224843793969
 20
842.84472038611364
 30
0.0
 11
385.04224843793969
 21
835.79293638611375
 31
0.0
  0
LINE
  5
9071
  8
0
 62
     0
 10
385.04224843793969
 20
832.97509238611349
 30
0.0
 11
385.04224843793969
 21
822.7849403861137
 31
0.0
  0
LINE
  5
9072
  8
0
 62
     0
 10
401.04224843793958
 20
832.97509238611349
 30
0.0
 11
401.04224843793958
 21
822.7849403861137
 31
0.0
  0
LINE
  5
9073
  8
0
 62
     0
 10
401.04224843793958
 20
842.84472038611364
 30
0.0
 11
401.04224843793958
 21
835.79293638611375
 31
0.0
  0
LINE
  5
9074
  8
0
 62
     0
 10
401.04224843793958
 20
853.8369003861136
 30
0.0
 11
401.04224843793958
 21
845.80619938611358
 31
0.0
  0
LINE
  5
9075
  8
0
 62
     0
 10
401.04224843793958
 20
864.81969538611361
 30
0.0
 11
401.04224843793958
 21
856.82952738611345
 31
0.0
  0
LINE
  5
9076
  8
0
 62
     0
 10
401.04224843793958
 20
875.78957438611349
 30
0.0
 11
401.04224843793958
 21
867.8654013861136
 31
0.0
  0
LINE
  5
9077
  8
0
 62
     0
 10
385.04224843793969
 20
819.83724838611329
 30
0.0
 11
385.04224843793969
 21
812.78546438611363
 31
0.0
  0
LINE
  5
9078
  8
0
 62
     0
 10
401.04224843793958
 20
819.83724838611329
 30
0.0
 11
401.04224843793958
 21
812.78546438611363
 31
0.0
  0
LINE
  5
9079
  8
0
 62
     0
 10
401.04224843793958
 20
809.82398538611324
 30
0.0
 11
401.04224843793958
 21
801.79328438611333
 31
0.0
  0
LINE
  5
907A
  8
0
 62
     0
 10
385.04224843793969
 20
809.82398538611324
 30
0.0
 11
385.04224843793969
 21
801.79328438611333
 31
0.0
  0
LINE
  5
907B
  8
0
 62
     0
 10
385.04224843793969
 20
798.80065738611324
 30
0.0
 11
385.04224843793969
 21
790.81048938611343
 31
0.0
  0
LINE
  5
907C
  8
0
 62
     0
 10
401.04224843793958
 20
798.80065738611324
 30
0.0
 11
401.04224843793958
 21
790.81048938611343
 31
0.0
  0
LINE
  5
907D
  8
0
 62
     0
 10
415.59164343793952
 20
771.79429638611361
 30
0.0
 11
401.04224743793969
 21
771.79429638611361
 31
0.0
  0
LINE
  5
907E
  8
0
 62
     0
 10
420.54224843793958
 20
783.20664638611345
 30
0.0
 11
401.04224743793969
 21
783.20664638611345
 31
0.0
  0
LINE
  5
907F
  8
0
 62
     0
 10
385.04224843793969
 20
787.76478338611355
 30
0.0
 11
385.04224843793969
 21
767.76478338611344
 31
0.0
  0
LINE
  5
9080
  8
0
 62
     0
 10
437.04224843793958
 20
911.67874138611364
 30
0.0
 11
437.04224843793958
 21
915.81509238611363
 31
0.0
  0
LINE
  5
9081
  8
0
 62
     0
 10
435.04224843793958
 20
741.61334838611344
 30
0.0
 11
434.13494843793978
 21
736.4677963861136
 31
0.0
  0
ARC
  5
9082
  8
0
 62
     0
 10
432.16533343793981
 20
736.81509238611363
 30
0.0
 40
2.0
 50
270.0
 51
350.00000000000148
  0
LINE
  5
9083
  8
0
 62
     0
 10
401.04224843793958
 20
787.76478338611355
 30
0.0
 11
401.04224843793958
 21
783.20664638611345
 31
0.0
  0
LINE
  5
9084
  8
0
 62
     0
 10
437.04224843793958
 20
788.09238638611362
 30
0.0
 11
437.04224843793958
 21
889.88105438611342
 31
0.0
  0
LINE
  5
9085
  8
0
 62
     0
 10
236.04224843793961
 20
767.95509238611339
 30
0.0
 11
239.12549043793979
 21
750.46915938611323
 31
0.0
  0
ARC
  5
9086
  8
0
 62
     0
 10
241.09510543793979
 20
750.8164563861136
 30
0.0
 40
2.0
 50
189.99999999999861
 51
270.0
  0
LINE
  5
9087
  8
0
 62
     0
 10
385.74764543793941
 20
776.50938638611331
 30
0.0
 11
401.04224843793958
 21
771.79429638611361
 31
0.0
  0
LINE
  5
9088
  8
0
 62
     0
 10
401.04224843793958
 20
783.20664638611345
 30
0.0
 11
386.00630743793943
 21
782.66589538611345
 31
0.0
  0
LINE
  5
9089
  8
0
 62
     0
 10
401.04224843793958
 20
771.79429638611361
 30
0.0
 11
401.04224843793958
 21
763.4228583861136
 31
0.0
  0
ARC
  5
908A
  8
0
 62
     0
 10
386.04224843793958
 20
781.66654138611364
 30
0.0
 40
1.0
 50
92.059690999990565
 51
180.0
  0
ARC
  5
908B
  8
0
 62
     0
 10
386.04224843793958
 20
777.4650063861136
 30
0.0
 40
1.0
 50
180.0
 51
252.8662750000021
  0
LINE
  5
908C
  8
0
 62
     0
 10
401.04224843793958
 20
903.66787938611355
 30
0.0
 11
385.74178943793959
 21
898.84801338611362
 31
0.0
  0
LINE
  5
908D
  8
0
 62
     0
 10
386.09080343793943
 20
894.54433238611364
 30
0.0
 11
401.04224843793958
 21
895.27115238611361
 31
0.0
  0
ARC
  5
908E
  8
0
 62
     0
 10
386.04224843793958
 20
897.89421838611361
 30
0.0
 40
1.0
 50
107.4851790000144
 51
180.0
  0
ARC
  5
908F
  8
0
 62
     0
 10
386.04224843793958
 20
895.54315338611354
 30
0.0
 40
1.0
 50
180.0
 51
270.0
  0
LINE
  5
9091
  8
0
 62
     0
 10
435.04224843793958
 20
887.99236038611355
 30
0.0
 11
236.04224843793961
 21
887.99236038611355
 31
0.0
  0
LINE
  5
9092
  8
0
 62
     0
 10
435.04224843793958
 20
884.74805038611362
 30
0.0
 11
236.04224843793961
 21
884.74805038611362
 31
0.0
  0
LINE
  5
9093
  8
0
 62
     0
 10
435.04224843793958
 20
878.92048738611345
 30
0.0
 11
236.04224843793961
 21
878.92048738611345
 31
0.0
  0
LINE
  5
9094
  8
0
 62
     0
 10
435.04224843793958
 20
875.78957438611349
 30
0.0
 11
236.04224843793961
 21
875.78957438611349
 31
0.0
  0
LINE
  5
9095
  8
0
 62
     0
 10
435.04224843793958
 20
867.8654013861136
 30
0.0
 11
236.04224843793961
 21
867.8654013861136
 31
0.0
  0
LINE
  5
9096
  8
0
 62
     0
 10
435.04224843793958
 20
864.81969538611361
 30
0.0
 11
236.04224843793961
 21
864.81969538611361
 31
0.0
  0
LINE
  5
9097
  8
0
 62
     0
 10
435.04224843793958
 20
856.82952738611345
 30
0.0
 11
236.04224843793961
 21
856.82952738611345
 31
0.0
  0
LINE
  5
9098
  8
0
 62
     0
 10
435.04224843793958
 20
853.8369003861136
 30
0.0
 11
236.04224843793961
 21
853.8369003861136
 31
0.0
  0
LINE
  5
9099
  8
0
 62
     0
 10
435.04224843793958
 20
845.80619938611358
 30
0.0
 11
236.04224843793961
 21
845.80619938611358
 31
0.0
  0
LINE
  5
909A
  8
0
 62
     0
 10
435.04224843793958
 20
842.84472038611364
 30
0.0
 11
236.04224843793961
 21
842.84472038611364
 31
0.0
  0
LINE
  5
909B
  8
0
 62
     0
 10
435.04224843793958
 20
835.79293638611375
 30
0.0
 11
340.61549143793951
 21
835.79293638611375
 31
0.0
  0
LINE
  5
909C
  8
0
 62
     0
 10
435.04224843793958
 20
832.84524438611345
 30
0.0
 11
347.4278954379397
 21
832.84524438611345
 31
0.0
  0
LINE
  5
909D
  8
0
 62
     0
 10
432.96332743793982
 20
887.31509238611341
 30
0.0
 11
432.96332743793982
 21
885.31509238611363
 31
0.0
  0
LINE
  5
909E
  8
0
 62
     0
 10
238.1211694379399
 20
885.31509238611363
 30
0.0
 11
432.96332743793982
 21
885.31509238611363
 31
0.0
  0
LINE
  5
909F
  8
0
 62
     0
 10
238.1211694379399
 20
887.31509238611341
 30
0.0
 11
432.96332743793982
 21
887.31509238611341
 31
0.0
  0
LINE
  5
90A0
  8
0
 62
     0
 10
238.1211694379399
 20
876.31509238611363
 30
0.0
 11
432.96332743793982
 21
876.31509238611363
 31
0.0
  0
LINE
  5
90A1
  8
0
 62
     0
 10
238.1211694379399
 20
878.31509238611363
 30
0.0
 11
432.96332743793982
 21
878.31509238611363
 31
0.0
  0
LINE
  5
90A2
  8
0
 62
     0
 10
238.1211694379399
 20
865.31509238611375
 30
0.0
 11
432.96332743793982
 21
865.31509238611375
 31
0.0
  0
LINE
  5
90A3
  8
0
 62
     0
 10
238.1211694379399
 20
867.31509238611363
 30
0.0
 11
432.96332743793982
 21
867.31509238611363
 31
0.0
  0
LINE
  5
90A4
  8
0
 62
     0
 10
238.1211694379399
 20
854.31509238611341
 30
0.0
 11
432.96332743793982
 21
854.31509238611341
 31
0.0
  0
LINE
  5
90A5
  8
0
 62
     0
 10
238.1211694379399
 20
856.31509238611375
 30
0.0
 11
432.96332743793982
 21
856.31509238611375
 31
0.0
  0
LINE
  5
90A6
  8
0
 62
     0
 10
238.1211694379399
 20
843.31509238611363
 30
0.0
 11
432.96332743793982
 21
843.31509238611363
 31
0.0
  0
LINE
  5
90A7
  8
0
 62
     0
 10
238.1211694379399
 20
845.31509238611341
 30
0.0
 11
432.96332743793982
 21
845.31509238611341
 31
0.0
  0
LINE
  5
90A8
  8
0
 62
     0
 10
346.81722543793978
 20
833.31509238611363
 30
0.0
 11
432.96332743793982
 21
833.31509238611363
 31
0.0
  0
LINE
  5
90A9
  8
0
 62
     0
 10
341.0889864379397
 20
835.31509238611363
 30
0.0
 11
432.96332743793982
 21
835.31509238611363
 31
0.0
  0
LINE
  5
90AA
  8
0
 62
     0
 10
432.96332743793982
 20
887.31509238611341
 30
0.0
 11
435.04224843793958
 21
887.99236038611355
 31
0.0
  0
LINE
  5
90AB
  8
0
 62
     0
 10
432.96332743793982
 20
885.31509238611363
 30
0.0
 11
435.04224843793958
 21
884.74805038611362
 31
0.0
  0
LINE
  5
90AC
  8
0
 62
     0
 10
432.96332743793982
 20
878.31509238611363
 30
0.0
 11
435.04224843793958
 21
878.92048738611345
 31
0.0
  0
LINE
  5
90AD
  8
0
 62
     0
 10
432.96332743793982
 20
876.31509238611363
 30
0.0
 11
435.04224843793958
 21
875.78957438611349
 31
0.0
  0
LINE
  5
90AE
  8
0
 62
     0
 10
432.96332743793982
 20
867.31509238611363
 30
0.0
 11
435.04224843793958
 21
867.8654013861136
 31
0.0
  0
LINE
  5
90AF
  8
0
 62
     0
 10
432.96332743793982
 20
865.31509238611375
 30
0.0
 11
435.04224843793958
 21
864.81969538611361
 31
0.0
  0
LINE
  5
90B0
  8
0
 62
     0
 10
432.96332743793982
 20
856.31509238611375
 30
0.0
 11
435.04224843793958
 21
856.82952738611345
 31
0.0
  0
LINE
  5
90B1
  8
0
 62
     0
 10
432.96332743793982
 20
854.31509238611341
 30
0.0
 11
435.04224843793958
 21
853.8369003861136
 31
0.0
  0
LINE
  5
90B2
  8
0
 62
     0
 10
432.96332743793982
 20
845.31509238611341
 30
0.0
 11
435.04224843793958
 21
845.80619938611358
 31
0.0
  0
LINE
  5
90B3
  8
0
 62
     0
 10
432.96332743793982
 20
843.31509238611363
 30
0.0
 11
435.04224843793958
 21
842.84472038611364
 31
0.0
  0
LINE
  5
90B4
  8
0
 62
     0
 10
432.96332743793982
 20
835.31509238611363
 30
0.0
 11
435.04224843793958
 21
835.79293638611375
 31
0.0
  0
LINE
  5
90B5
  8
0
 62
     0
 10
432.96332743793982
 20
833.31509238611363
 30
0.0
 11
435.04224843793958
 21
832.84524438611345
 31
0.0
  0
LINE
  5
90B6
  8
0
 62
     0
 10
432.96332743793982
 20
878.31509238611363
 30
0.0
 11
432.96332743793982
 21
876.31509238611363
 31
0.0
  0
LINE
  5
90B7
  8
0
 62
     0
 10
432.96332743793982
 20
867.31509238611363
 30
0.0
 11
432.96332743793982
 21
865.31509238611375
 31
0.0
  0
LINE
  5
90B8
  8
0
 62
     0
 10
432.96332743793982
 20
856.31509238611375
 30
0.0
 11
432.96332743793982
 21
854.31509238611341
 31
0.0
  0
LINE
  5
90B9
  8
0
 62
     0
 10
432.96332743793982
 20
845.31509238611341
 30
0.0
 11
432.96332743793982
 21
843.31509238611363
 31
0.0
  0
LINE
  5
90BA
  8
0
 62
     0
 10
432.96332743793982
 20
835.31509238611363
 30
0.0
 11
432.96332743793982
 21
833.31509238611363
 31
0.0
  0
ARC
  5
90BB
  8
0
 62
     0
 10
346.81722543793978
 20
830.31509238611329
 30
0.0
 40
3.0
 50
90.0
 51
190.2865610000006
  0
ARC
  5
90BC
  8
0
 62
     0
 10
347.4278954379397
 20
829.37524438611342
 30
0.0
 40
3.4700000000000002
 50
90.0
 51
186.1896490000004
  0
LINE
  5
90BD
  8
0
 62
     0
 10
253.1211694379399
 20
835.31509238611363
 30
0.0
 11
253.1211694379399
 21
833.31509238611363
 31
0.0
  0
LINE
  5
90BE
  8
0
 62
     0
 10
238.1211694379399
 20
845.31509238611341
 30
0.0
 11
238.1211694379399
 21
843.31509238611363
 31
0.0
  0
LINE
  5
90BF
  8
0
 62
     0
 10
238.1211694379399
 20
856.31509238611375
 30
0.0
 11
238.1211694379399
 21
854.31509238611341
 31
0.0
  0
LINE
  5
90C0
  8
0
 62
     0
 10
238.1211694379399
 20
867.31509238611363
 30
0.0
 11
238.1211694379399
 21
865.31509238611375
 31
0.0
  0
LINE
  5
90C1
  8
0
 62
     0
 10
238.1211694379399
 20
878.31509238611363
 30
0.0
 11
238.1211694379399
 21
876.31509238611363
 31
0.0
  0
LINE
  5
90C2
  8
0
 62
     0
 10
253.1211694379399
 20
833.31509238611363
 30
0.0
 11
251.04224843793961
 21
832.84524438611345
 31
0.0
  0
LINE
  5
90C3
  8
0
 62
     0
 10
253.1211694379399
 20
835.31509238611363
 30
0.0
 11
251.04224843793961
 21
835.79293638611375
 31
0.0
  0
LINE
  5
90C4
  8
0
 62
     0
 10
238.1211694379399
 20
843.31509238611363
 30
0.0
 11
236.04224843793961
 21
842.84472038611364
 31
0.0
  0
LINE
  5
90C5
  8
0
 62
     0
 10
238.1211694379399
 20
845.31509238611341
 30
0.0
 11
236.04224843793961
 21
845.80619938611358
 31
0.0
  0
LINE
  5
90C6
  8
0
 62
     0
 10
238.1211694379399
 20
854.31509238611341
 30
0.0
 11
236.04224843793961
 21
853.8369003861136
 31
0.0
  0
LINE
  5
90C7
  8
0
 62
     0
 10
238.1211694379399
 20
856.31509238611375
 30
0.0
 11
236.04224843793961
 21
856.82952738611345
 31
0.0
  0
LINE
  5
90C8
  8
0
 62
     0
 10
238.1211694379399
 20
865.31509238611375
 30
0.0
 11
236.04224843793961
 21
864.81969538611361
 31
0.0
  0
LINE
  5
90C9
  8
0
 62
     0
 10
238.1211694379399
 20
867.31509238611363
 30
0.0
 11
236.04224843793961
 21
867.8654013861136
 31
0.0
  0
LINE
  5
90CA
  8
0
 62
     0
 10
238.1211694379399
 20
876.31509238611363
 30
0.0
 11
236.04224843793961
 21
875.78957438611349
 31
0.0
  0
LINE
  5
90CB
  8
0
 62
     0
 10
238.1211694379399
 20
878.31509238611363
 30
0.0
 11
236.04224843793961
 21
878.92048738611345
 31
0.0
  0
LINE
  5
90CC
  8
0
 62
     0
 10
238.1211694379399
 20
885.31509238611363
 30
0.0
 11
236.04224843793961
 21
884.74805038611362
 31
0.0
  0
LINE
  5
90CD
  8
0
 62
     0
 10
238.1211694379399
 20
887.31509238611341
 30
0.0
 11
236.04224843793961
 21
887.99236038611355
 31
0.0
  0
LINE
  5
90CE
  8
0
 62
     0
 10
238.1211694379399
 20
887.31509238611341
 30
0.0
 11
238.1211694379399
 21
885.31509238611363
 31
0.0
  0
LINE
  5
90CF
  8
0
 62
     0
 10
236.04224843793961
 20
884.74805038611362
 30
0.0
 11
236.04224843793961
 21
887.99236038611355
 31
0.0
  0
LINE
  5
90D0
  8
0
 62
     0
 10
236.04224843793961
 20
875.78957438611349
 30
0.0
 11
236.04224843793961
 21
878.92048738611345
 31
0.0
  0
LINE
  5
90D1
  8
0
 62
     0
 10
236.04224843793961
 20
864.81969538611361
 30
0.0
 11
236.04224843793961
 21
867.8654013861136
 31
0.0
  0
LINE
  5
90D2
  8
0
 62
     0
 10
236.04224843793961
 20
853.8369003861136
 30
0.0
 11
236.04224843793961
 21
856.82952738611345
 31
0.0
  0
LINE
  5
90D3
  8
0
 62
     0
 10
236.04224843793961
 20
842.84472038611364
 30
0.0
 11
236.04224843793961
 21
845.80619938611358
 31
0.0
  0
LINE
  5
90D4
  8
0
 62
     0
 10
251.04224843793961
 20
832.84524438611345
 30
0.0
 11
251.04224843793961
 21
835.79293638611375
 31
0.0
  0
LINE
  5
90D5
  8
0
 62
     0
 10
251.04224843793961
 20
835.79293638611375
 30
0.0
 11
325.46900543793981
 21
835.79293638611375
 31
0.0
  0
LINE
  5
90D6
  8
0
 62
     0
 10
251.04224843793961
 20
832.84524438611345
 30
0.0
 11
318.65660143793963
 21
832.84524438611345
 31
0.0
  0
LINE
  5
90D7
  8
0
 62
     0
 10
319.2672714379396
 20
833.31509238611363
 30
0.0
 11
253.1211694379399
 21
833.31509238611363
 31
0.0
  0
LINE
  5
90D8
  8
0
 62
     0
 10
324.99551043793957
 20
835.31509238611363
 30
0.0
 11
253.1211694379399
 21
835.31509238611363
 31
0.0
  0
ARC
  5
90D9
  8
0
 62
     0
 10
319.2672714379396
 20
830.31509238611329
 30
0.0
 40
3.0
 50
349.71343899999948
 51
90.0
  0
ARC
  5
90DA
  8
0
 62
     0
 10
318.65660143793963
 20
829.37524438611342
 30
0.0
 40
3.4700000000000002
 50
353.81035099999951
 51
90.0
  0
LINE
  5
90DB
  8
0
 62
     0
 10
435.04224843793958
 20
787.76478338611355
 30
0.0
 11
236.04224843793961
 21
787.76478338611355
 31
0.0
  0
LINE
  5
90DC
  8
0
 62
     0
 10
435.04224843793958
 20
790.81048938611343
 30
0.0
 11
236.04224843793961
 21
790.81048938611343
 31
0.0
  0
LINE
  5
90DD
  8
0
 62
     0
 10
435.04224843793958
 20
798.80065738611324
 30
0.0
 11
236.04224843793961
 21
798.80065738611324
 31
0.0
  0
LINE
  5
90DE
  8
0
 62
     0
 10
435.04224843793958
 20
801.79328438611333
 30
0.0
 11
236.04224843793961
 21
801.79328438611333
 31
0.0
  0
LINE
  5
90DF
  8
0
 62
     0
 10
435.04224843793958
 20
809.82398538611324
 30
0.0
 11
236.04224843793961
 21
809.82398538611324
 31
0.0
  0
LINE
  5
90E0
  8
0
 62
     0
 10
435.04224843793958
 20
812.78546438611363
 30
0.0
 11
236.04224843793961
 21
812.78546438611363
 31
0.0
  0
LINE
  5
90E1
  8
0
 62
     0
 10
238.1211694379399
 20
790.31509238611363
 30
0.0
 11
432.96332743793982
 21
790.31509238611363
 31
0.0
  0
LINE
  5
90E2
  8
0
 62
     0
 10
238.1211694379399
 20
788.31509238611363
 30
0.0
 11
432.96332743793982
 21
788.31509238611363
 31
0.0
  0
LINE
  5
90E3
  8
0
 62
     0
 10
238.1211694379399
 20
801.31509238611363
 30
0.0
 11
432.96332743793982
 21
801.31509238611363
 31
0.0
  0
LINE
  5
90E4
  8
0
 62
     0
 10
238.1211694379399
 20
799.31509238611363
 30
0.0
 11
432.96332743793982
 21
799.31509238611363
 31
0.0
  0
LINE
  5
90E5
  8
0
 62
     0
 10
238.1211694379399
 20
812.31509238611341
 30
0.0
 11
432.96332743793982
 21
812.31509238611341
 31
0.0
  0
LINE
  5
90E6
  8
0
 62
     0
 10
238.1211694379399
 20
810.31509238611363
 30
0.0
 11
432.96332743793982
 21
810.31509238611363
 31
0.0
  0
LINE
  5
90E7
  8
0
 62
     0
 10
251.04224843793961
 20
819.83724838611329
 30
0.0
 11
325.46900543793981
 21
819.83724838611329
 31
0.0
  0
LINE
  5
90E8
  8
0
 62
     0
 10
251.04224843793961
 20
822.7849403861137
 30
0.0
 11
318.65660143793963
 21
822.7849403861137
 31
0.0
  0
LINE
  5
90E9
  8
0
 62
     0
 10
319.2672714379396
 20
822.31509238611375
 30
0.0
 11
253.1211694379399
 21
822.31509238611375
 31
0.0
  0
LINE
  5
90EA
  8
0
 62
     0
 10
324.99551043793957
 20
820.31509238611341
 30
0.0
 11
253.1211694379399
 21
820.31509238611341
 31
0.0
  0
LINE
  5
90EB
  8
0
 62
     0
 10
251.04224843793961
 20
822.7849403861137
 30
0.0
 11
251.04224843793961
 21
819.83724838611329
 31
0.0
  0
LINE
  5
90EC
  8
0
 62
     0
 10
236.04224843793961
 20
812.78546438611363
 30
0.0
 11
236.04224843793961
 21
809.82398538611324
 31
0.0
  0
LINE
  5
90ED
  8
0
 62
     0
 10
236.04224843793961
 20
801.79328438611333
 30
0.0
 11
236.04224843793961
 21
798.80065738611324
 31
0.0
  0
LINE
  5
90EE
  8
0
 62
     0
 10
236.04224843793961
 20
790.81048938611343
 30
0.0
 11
236.04224843793961
 21
787.76478338611355
 31
0.0
  0
LINE
  5
90EF
  8
0
 62
     0
 10
238.1211694379399
 20
788.31509238611363
 30
0.0
 11
236.04224843793961
 21
787.76478338611355
 31
0.0
  0
LINE
  5
90F0
  8
0
 62
     0
 10
238.1211694379399
 20
790.31509238611363
 30
0.0
 11
236.04224843793961
 21
790.81048938611343
 31
0.0
  0
LINE
  5
90F1
  8
0
 62
     0
 10
238.1211694379399
 20
799.31509238611363
 30
0.0
 11
236.04224843793961
 21
798.80065738611324
 31
0.0
  0
LINE
  5
90F2
  8
0
 62
     0
 10
238.1211694379399
 20
801.31509238611363
 30
0.0
 11
236.04224843793961
 21
801.79328438611333
 31
0.0
  0
LINE
  5
90F3
  8
0
 62
     0
 10
238.1211694379399
 20
810.31509238611363
 30
0.0
 11
236.04224843793961
 21
809.82398538611324
 31
0.0
  0
LINE
  5
90F4
  8
0
 62
     0
 10
238.1211694379399
 20
812.31509238611341
 30
0.0
 11
236.04224843793961
 21
812.78546438611363
 31
0.0
  0
LINE
  5
90F5
  8
0
 62
     0
 10
253.1211694379399
 20
820.31509238611341
 30
0.0
 11
251.04224843793961
 21
819.83724838611329
 31
0.0
  0
LINE
  5
90F6
  8
0
 62
     0
 10
253.1211694379399
 20
822.31509238611375
 30
0.0
 11
251.04224843793961
 21
822.7849403861137
 31
0.0
  0
LINE
  5
90F7
  8
0
 62
     0
 10
238.1211694379399
 20
788.31509238611363
 30
0.0
 11
238.1211694379399
 21
790.31509238611363
 31
0.0
  0
LINE
  5
90F8
  8
0
 62
     0
 10
238.1211694379399
 20
799.31509238611363
 30
0.0
 11
238.1211694379399
 21
801.31509238611363
 31
0.0
  0
LINE
  5
90F9
  8
0
 62
     0
 10
238.1211694379399
 20
810.31509238611363
 30
0.0
 11
238.1211694379399
 21
812.31509238611341
 31
0.0
  0
LINE
  5
90FA
  8
0
 62
     0
 10
253.1211694379399
 20
820.31509238611341
 30
0.0
 11
253.1211694379399
 21
822.31509238611375
 31
0.0
  0
ARC
  5
90FB
  8
0
 62
     0
 10
319.2672714379396
 20
825.31509238611363
 30
0.0
 40
3.0
 50
270.0
 51
10.286561000000651
  0
ARC
  5
90FC
  8
0
 62
     0
 10
318.65660143793963
 20
826.25494038611362
 30
0.0
 40
3.4700000000000002
 50
270.0
 51
6.1896490000005366
  0
LINE
  5
90FD
  8
0
 62
     0
 10
435.04224843793958
 20
819.83724838611329
 30
0.0
 11
340.61549143793951
 21
819.83724838611329
 31
0.0
  0
LINE
  5
90FE
  8
0
 62
     0
 10
435.04224843793958
 20
822.7849403861137
 30
0.0
 11
347.4278954379397
 21
822.7849403861137
 31
0.0
  0
LINE
  5
90FF
  8
0
 62
     0
 10
346.81722543793978
 20
822.31509238611375
 30
0.0
 11
432.96332743793982
 21
822.31509238611375
 31
0.0
  0
LINE
  5
9100
  8
0
 62
     0
 10
341.0889864379397
 20
820.31509238611341
 30
0.0
 11
432.96332743793982
 21
820.31509238611341
 31
0.0
  0
ARC
  5
9101
  8
0
 62
     0
 10
346.81722543793978
 20
825.31509238611363
 30
0.0
 40
3.0
 50
169.71343899999931
 51
270.0
  0
ARC
  5
9102
  8
0
 62
     0
 10
347.4278954379397
 20
826.25494038611362
 30
0.0
 40
3.4700000000000002
 50
173.8103509999994
 51
270.0
  0
LINE
  5
9103
  8
0
 62
     0
 10
432.96332743793982
 20
820.31509238611341
 30
0.0
 11
432.96332743793982
 21
822.31509238611375
 31
0.0
  0
LINE
  5
9104
  8
0
 62
     0
 10
432.96332743793982
 20
810.31509238611363
 30
0.0
 11
432.96332743793982
 21
812.31509238611341
 31
0.0
  0
LINE
  5
9105
  8
0
 62
     0
 10
432.96332743793982
 20
799.31509238611363
 30
0.0
 11
432.96332743793982
 21
801.31509238611363
 31
0.0
  0
LINE
  5
9106
  8
0
 62
     0
 10
432.96332743793982
 20
788.31509238611363
 30
0.0
 11
432.96332743793982
 21
790.31509238611363
 31
0.0
  0
LINE
  5
9107
  8
0
 62
     0
 10
432.96332743793982
 20
822.31509238611375
 30
0.0
 11
435.04224843793958
 21
822.7849403861137
 31
0.0
  0
LINE
  5
9108
  8
0
 62
     0
 10
432.96332743793982
 20
820.31509238611341
 30
0.0
 11
435.04224843793958
 21
819.83724838611329
 31
0.0
  0
LINE
  5
9109
  8
0
 62
     0
 10
432.96332743793982
 20
812.31509238611341
 30
0.0
 11
435.04224843793958
 21
812.78546438611363
 31
0.0
  0
LINE
  5
910A
  8
0
 62
     0
 10
432.96332743793982
 20
810.31509238611363
 30
0.0
 11
435.04224843793958
 21
809.82398538611324
 31
0.0
  0
LINE
  5
910B
  8
0
 62
     0
 10
432.96332743793982
 20
801.31509238611363
 30
0.0
 11
435.04224843793958
 21
801.79328438611333
 31
0.0
  0
LINE
  5
910C
  8
0
 62
     0
 10
432.96332743793982
 20
799.31509238611363
 30
0.0
 11
435.04224843793958
 21
798.80065738611324
 31
0.0
  0
LINE
  5
910D
  8
0
 62
     0
 10
432.96332743793982
 20
790.31509238611363
 30
0.0
 11
435.04224843793958
 21
790.81048938611343
 31
0.0
  0
LINE
  5
910E
  8
0
 62
     0
 10
432.96332743793982
 20
788.31509238611363
 30
0.0
 11
435.04224843793958
 21
787.76478338611355
 31
0.0
  0
LINE
  5
910F
  8
0
 62
     0
 10
435.04224843793958
 20
790.81048938611343
 30
0.0
 11
435.04224843793958
 21
787.76478338611355
 31
0.0
  0
LINE
  5
9110
  8
0
 62
     0
 10
435.04224843793958
 20
801.79328438611333
 30
0.0
 11
435.04224843793958
 21
798.80065738611324
 31
0.0
  0
LINE
  5
9111
  8
0
 62
     0
 10
435.04224843793958
 20
812.78546438611363
 30
0.0
 11
435.04224843793958
 21
809.82398538611324
 31
0.0
  0
LINE
  5
9112
  8
0
 62
     0
 10
435.04224843793958
 20
822.7849403861137
 30
0.0
 11
435.04224843793958
 21
819.83724838611329
 31
0.0
  0
LINE
  5
9113
  8
0
 62
     0
 10
367.96332743793943
 20
779.31509238611363
 30
0.0
 11
370.04224843793958
 21
779.81048938611343
 31
0.0
  0
LINE
  5
9114
  8
0
 62
     0
 10
370.04224843793958
 20
779.81048938611343
 30
0.0
 11
236.04224843793961
 21
779.81048938611343
 31
0.0
  0
LINE
  5
9115
  8
0
 62
     0
 10
238.1211694379399
 20
779.31509238611363
 30
0.0
 11
367.96332743793943
 21
779.31509238611363
 31
0.0
  0
LINE
  5
9116
  8
0
 62
     0
 10
367.96332743793943
 20
777.31509238611363
 30
0.0
 11
367.96332743793943
 21
779.31509238611363
 31
0.0
  0
LINE
  5
9117
  8
0
 62
     0
 10
370.04224843793958
 20
776.76478338611344
 30
0.0
 11
236.04224843793961
 21
776.76478338611344
 31
0.0
  0
LINE
  5
9118
  8
0
 62
     0
 10
238.1211694379399
 20
777.31509238611363
 30
0.0
 11
367.96332743793943
 21
777.31509238611363
 31
0.0
  0
LINE
  5
9119
  8
0
 62
     0
 10
367.96332743793943
 20
777.31509238611363
 30
0.0
 11
370.04224843793958
 21
776.76478338611344
 31
0.0
  0
LINE
  5
911A
  8
0
 62
     0
 10
370.04224843793958
 20
770.81048938611343
 30
0.0
 11
236.04224843793961
 21
770.81048938611343
 31
0.0
  0
LINE
  5
911B
  8
0
 62
     0
 10
238.1211694379399
 20
770.31509238611363
 30
0.0
 11
367.96332743793943
 21
770.31509238611363
 31
0.0
  0
LINE
  5
911C
  8
0
 62
     0
 10
370.04224843793958
 20
767.76478338611344
 30
0.0
 11
236.07580543793941
 21
767.76478338611344
 31
0.0
  0
LINE
  5
911D
  8
0
 62
     0
 10
238.1211694379399
 20
768.31509238611363
 30
0.0
 11
367.96332743793943
 21
768.31509238611363
 31
0.0
  0
LINE
  5
911E
  8
0
 62
     0
 10
367.96332743793943
 20
768.31509238611363
 30
0.0
 11
370.04224843793958
 21
767.76478338611344
 31
0.0
  0
LINE
  5
911F
  8
0
 62
     0
 10
370.04224843793958
 20
770.81048938611343
 30
0.0
 11
370.04224843793958
 21
767.76478338611344
 31
0.0
  0
LINE
  5
9120
  8
0
 62
     0
 10
367.96332743793943
 20
768.31509238611363
 30
0.0
 11
367.96332743793943
 21
770.31509238611363
 31
0.0
  0
LINE
  5
9121
  8
0
 62
     0
 10
367.96332743793943
 20
770.31509238611363
 30
0.0
 11
370.04224843793958
 21
770.81048938611343
 31
0.0
  0
LINE
  5
9122
  8
0
 62
     0
 10
370.04224843793958
 20
767.76478338611344
 30
0.0
 11
385.04224843793969
 21
767.76478338611344
 31
0.0
  0
LINE
  5
9123
  8
0
 62
     0
 10
385.04224843793969
 20
767.76478338611344
 30
0.0
 11
401.04224843793958
 21
763.4228583861136
 31
0.0
  0
LINE
  5
9124
  8
0
 62
     0
 10
236.04224843793961
 20
779.81048938611343
 30
0.0
 11
236.04224843793961
 21
776.76478338611344
 31
0.0
  0
LINE
  5
9125
  8
0
 62
     0
 10
236.04224843793961
 20
770.81048938611343
 30
0.0
 11
236.04224843793961
 21
767.76478338611344
 31
0.0
  0
LINE
  5
9126
  8
0
 62
     0
 10
238.1211694379399
 20
777.31509238611363
 30
0.0
 11
238.1211694379399
 21
779.31509238611363
 31
0.0
  0
LINE
  5
9127
  8
0
 62
     0
 10
238.1211694379399
 20
779.31509238611363
 30
0.0
 11
236.04224843793961
 21
779.81048938611343
 31
0.0
  0
LINE
  5
9128
  8
0
 62
     0
 10
238.1211694379399
 20
777.31509238611363
 30
0.0
 11
236.04224843793961
 21
776.76478338611344
 31
0.0
  0
LINE
  5
9129
  8
0
 62
     0
 10
238.1211694379399
 20
770.31509238611363
 30
0.0
 11
236.04224843793961
 21
770.81048938611343
 31
0.0
  0
LINE
  5
912A
  8
0
 62
     0
 10
238.1211694379399
 20
768.31509238611363
 30
0.0
 11
238.1211694379399
 21
770.31509238611363
 31
0.0
  0
LINE
  5
912B
  8
0
 62
     0
 10
238.1211694379399
 20
768.31509238611363
 30
0.0
 11
236.04224843793961
 21
767.76478338611344
 31
0.0
  0
LINE
  5
912C
  8
0
 62
     0
 10
232.54224843793961
 20
835.45886338611353
 30
0.0
 11
239.04224843793961
 21
835.45886338611353
 31
0.0
  0
LINE
  5
912D
  8
0
 62
     0
 10
232.54224843793961
 20
835.7929413861134
 30
0.0
 11
239.7222484379395
 21
835.7929413861134
 31
0.0
  0
LINE
  5
912E
  8
0
 62
     0
 10
241.04224843793961
 20
833.45886338611365
 30
0.0
 11
241.04224843793961
 21
827.81509638611362
 31
0.0
  0
LINE
  5
912F
  8
0
 62
     0
 10
242.7222484379395
 20
838.79294138611374
 30
0.0
 11
242.7222484379395
 21
827.81509638611362
 31
0.0
  0
ARC
  5
9130
  8
0
 62
     0
 10
239.7222484379395
 20
838.79294138611374
 30
0.0
 40
3.0
 50
270.0
 51
0.0
  0
LINE
  5
9131
  8
0
 62
     0
 10
232.54224843793961
 20
820.17132838611349
 30
0.0
 11
239.04224843793961
 21
820.17132838611349
 31
0.0
  0
LINE
  5
9132
  8
0
 62
     0
 10
232.54224843793961
 20
819.83725038611362
 30
0.0
 11
239.7222484379395
 21
819.83725038611362
 31
0.0
  0
LINE
  5
9133
  8
0
 62
     0
 10
241.04224843793961
 20
822.1713283861136
 30
0.0
 11
241.04224843793961
 21
827.81509638611362
 31
0.0
  0
LINE
  5
9134
  8
0
 62
     0
 10
242.7222484379395
 20
816.83725038611317
 30
0.0
 11
242.7222484379395
 21
827.81509638611362
 31
0.0
  0
ARC
  5
9135
  8
0
 62
     0
 10
239.7222484379395
 20
816.83725038611317
 30
0.0
 40
3.0
 50
359.99999799999722
 51
89.999998000010223
  0
ARC
  5
9136
  8
0
  6
CONTINUOUS
 62
     0
 10
417.7420474379395
 20
899.29835838611359
 30
0.0
 40
2.600398999999999
 50
179.99998200000081
 51
269.99997799999852
  0
ARC
  5
9137
  8
0
  6
CONTINUOUS
 62
     0
 10
417.7420474379395
 20
904.59834638611335
 30
0.0
 40
2.600403
 50
90.0
 51
179.99998200000081
  0
LINE
  5
9138
  8
0
  6
CONTINUOUS
 62
     0
 10
420.54224843793958
 20
902.01437738611355
 30
0.0
 11
419.04224843793958
 21
901.14835238611352
 31
0.0
  0
LINE
  5
9139
  8
0
  6
CONTINUOUS
 62
     0
 10
420.54224843793958
 20
903.01437738611355
 30
0.0
 11
419.04224843793958
 21
902.14835238611352
 31
0.0
  0
LINE
  5
913A
  8
0
  6
CONTINUOUS
 62
     0
 10
420.54224843793958
 20
908.04835238611361
 30
0.0
 11
420.54224843793958
 21
895.84835238611345
 31
0.0
  0
LINE
  5
913B
  8
0
  6
CONTINUOUS
 62
     0
 10
419.04224843793958
 20
908.04835238611361
 30
0.0
 11
420.54224843793958
 21
908.04835238611361
 31
0.0
  0
LINE
  5
913C
  8
0
  6
CONTINUOUS
 62
     0
 10
419.04224843793958
 20
895.84835238611345
 30
0.0
 11
420.54224843793958
 21
895.84835238611345
 31
0.0
  0
LINE
  5
913D
  8
0
  6
CONTINUOUS
 62
     0
 10
415.14225443793953
 20
904.59834638611335
 30
0.0
 11
415.14225443793953
 21
899.29835838611359
 31
0.0
  0
LINE
  5
913E
  8
0
  6
CONTINUOUS
 62
     0
 10
419.04224843793958
 20
908.04835238611361
 30
0.0
 11
419.04224843793958
 21
895.84835238611345
 31
0.0
  0
LINE
  5
913F
  8
0
  6
CONTINUOUS
 62
     0
 10
419.04224843793958
 20
896.69835238611358
 30
0.0
 11
417.7420474379395
 21
896.69835238611358
 31
0.0
  0
LINE
  5
9140
  8
0
  6
CONTINUOUS
 62
     0
 10
419.04224843793958
 20
907.19835238611347
 30
0.0
 11
417.7420474379395
 21
907.19835238611347
 31
0.0
  0
ARC
  5
9141
  8
0
  6
CONTINUOUS
 62
     0
 10
417.7420474379395
 20
773.2564313861136
 30
0.0
 40
2.600398999999999
 50
179.99998200000081
 51
269.99997799999852
  0
ARC
  5
9142
  8
0
  6
CONTINUOUS
 62
     0
 10
417.7420474379395
 20
778.55641938611348
 30
0.0
 40
2.600403
 50
90.0
 51
179.99998200000081
  0
LINE
  5
9143
  8
0
  6
CONTINUOUS
 62
     0
 10
420.54224843793958
 20
775.97245038611345
 30
0.0
 11
419.04224843793958
 21
775.10642538611364
 31
0.0
  0
LINE
  5
9144
  8
0
  6
CONTINUOUS
 62
     0
 10
420.54224843793958
 20
776.97245038611345
 30
0.0
 11
419.04224843793958
 21
776.10642538611364
 31
0.0
  0
LINE
  5
9145
  8
0
  6
CONTINUOUS
 62
     0
 10
420.54224843793958
 20
782.00642538611362
 30
0.0
 11
420.54224843793958
 21
769.80642538611335
 31
0.0
  0
LINE
  5
9146
  8
0
  6
CONTINUOUS
 62
     0
 10
419.04224843793958
 20
782.00642538611362
 30
0.0
 11
420.54224843793958
 21
782.00642538611362
 31
0.0
  0
LINE
  5
9147
  8
0
  6
CONTINUOUS
 62
     0
 10
419.04224843793958
 20
769.80642538611335
 30
0.0
 11
420.54224843793958
 21
769.80642538611335
 31
0.0
  0
LINE
  5
9148
  8
0
  6
CONTINUOUS
 62
     0
 10
415.14225443793953
 20
778.55641938611348
 30
0.0
 11
415.14225443793953
 21
773.2564313861136
 31
0.0
  0
LINE
  5
9149
  8
0
  6
CONTINUOUS
 62
     0
 10
419.04224843793958
 20
782.00642538611362
 30
0.0
 11
419.04224843793958
 21
769.80642538611335
 31
0.0
  0
LINE
  5
914A
  8
0
  6
CONTINUOUS
 62
     0
 10
419.04224843793958
 20
770.65642538611326
 30
0.0
 11
417.7420474379395
 21
770.65642538611326
 31
0.0
  0
LINE
  5
914B
  8
0
  6
CONTINUOUS
 62
     0
 10
419.04224843793958
 20
781.1564253861136
 30
0.0
 11
417.7420474379395
 21
781.1564253861136
 31
0.0
  0
LINE
  5
92B7
  8
0
 62
     0
 10
460.04224843793958
 20
903.55473638611363
 30
0.0
 11
440.04224843793958
 21
903.55473638611363
 31
0.0
  0
LINE
  5
92B8
  8
0
 62
     0
 10
460.04224843793958
 20
889.88105438611342
 30
0.0
 11
440.04224843793958
 21
889.88105438611342
 31
0.0
  0
LINE
  5
92B9
  8
0
 62
     0
 10
460.04224843793958
 20
765.43547838611323
 30
0.0
 11
440.04224843793958
 21
765.43547838611323
 31
0.0
  0
LINE
  5
92BA
  8
0
 62
     0
 10
460.04224843793958
 20
777.91309438611358
 30
0.0
 11
440.04224843793958
 21
777.91309438611358
 31
0.0
  0
LINE
  5
92BB
  8
0
 62
     0
 10
460.04224843793958
 20
788.09238638611362
 30
0.0
 11
440.04224843793958
 21
788.09238638611362
 31
0.0
  0
LINE
  5
92BC
  8
0
  6
CONTINUOUS
 62
     0
 10
470.04224843793958
 20
830.89808738611384
 30
0.0
 11
470.04224843793958
 21
927.31507738611356
 31
0.0
  0
LINE
  5
93BA
  8
0
 62
     0
 10
440.04217044231689
 20
601.65314849764309
 30
0.0
 11
460.04226843793998
 21
601.65314849764309
 31
0.0
  0
LINE
  5
93BB
  8
0
 62
     0
 10
440.04217044231689
 20
593.52914349764319
 30
0.0
 11
460.04226843793998
 21
593.52914349764319
 31
0.0
  0
LINE
  5
93BC
  8
0
 62
     0
 10
440.04217044231689
 20
579.85543249764305
 30
0.0
 11
460.04226843793998
 21
579.85543249764305
 31
0.0
  0
LINE
  5
93BD
  8
0
 62
     0
 10
440.04217044231689
 20
478.06679349764312
 30
0.0
 11
460.04226843793998
 21
478.06679349764312
 31
0.0
  0
LINE
  5
93BE
  8
0
 62
     0
 10
440.04217044231689
 20
467.8875014976432
 30
0.0
 11
460.04226843793998
 21
467.8875014976432
 31
0.0
  0
LINE
  5
93BF
  8
0
 62
     0
 10
440.04217044231689
 20
455.60022049764308
 30
0.0
 11
460.04226843793998
 21
455.60022049764308
 31
0.0
  0
TEXT
  5
9A34
  8
0
  6
CONTINUOUS
 62
     0
 10
700.82282481365837
 20
821.79837239796279
 30
0.0
 40
15.0
  1
VX22-003EM~VX22-020EM
  0
ENDSEC
  0
EOF
